  0
SECTION
  2
HEADER
  9
$ACADVER
  1
AC1015
  9
$DWGCODEPAGE
  3
ANSI_1252
  9
$EXTMAX
 10
11.6929133858
 20
8.2677165354
 30
0.0
  9
$EXTMIN
 10
0.0
 20
0.0
 30
0.0
  9
$LIMMIN
 10
0.0
 20
0.0
  9
$LIMMAX
 10
11.6929133858
 20
8.2677165354
  9
$VIEWCTR
 10
5.8464566929
 20
4.1338582677
  9
$VIEWSIZE
 40
8.2677165354
  9
$CLAYER
  8
0
  9
$LTSCALE
 40
0.6431102362
  9
$CELTYPE
  6
BYLAYER
  9
$DIMSCALE
 40
1.0
  9
$DIMASZ
 40
0.1875
  9
$DIMEXO
 40
0.0730807087
  9
$DIMDLI
 40
0.4443307087
  9
$DIMEXE
 40
0.2104724409
  9
$DIMCEN
 40
0.1052362205
  9
$DIMLFAC
 40
1.0
  9
$DIMBLK
  1
_CLOSED
  9
$DIMTXT
 40
0.15625
  9
$DIMTOL
 70
0
  9
$DIMLIM
 70
0
  9
$DIMTFAC
 40
1.0
  9
$PDMODE
 70
3
  9
$PDSIZE
 40
0.3125
  9
$HANDSEED
  5
250
  9
$TILEMODE
 70
1
  9
$MEASUREMENT
 70
0
  9
$INSUNITS
 70
1
  0
ENDSEC
  0
SECTION
  2
CLASSES
  0
CLASS
  1
ACDBDICTIONARYWDFLT
  2
AcDbDictionaryWithDefault
  3
AutoCAD 2000
 90
0
280
0
281
0
  0
CLASS
  1
ACDBPLACEHOLDER
  2
AcDbPlaceHolder
  3
AutoCAD 2000
 90
0
280
0
281
0
  0
CLASS
  1
LAYOUT
  2
AcDbLayout
  3
AutoCAD 2000
 90
0
280
0
281
0
  0
ENDSEC
  0
SECTION
  2
TABLES
  0
TABLE
  2
VPORT
  5
8
100
AcDbSymbolTable
 70
2
  0
VPORT
  5
1F4
100
AcDbSymbolTableRecord
100
AcDbViewportTableRecord
  2
*ACTIVE
 70
0
 10
0.0
 20
0.0
 11
1.0
 21
1.0
 12
5.8464566929
 22
4.1338582677
 13
0.0
 23
0.0
 14
1.0
 24
1.0
 15
0.0
 25
0.0
 16
0.0
 26
0.0
 36
1.0
 17
0.0
 27
0.0
 37
0.0
 40
8.2677165354
 41
1.4142857143
 42
50.0
 43
0.0
 44
0.0
 50
0.0
 51
0.0
 71
0
 72
100
 73
1
 74
1
 75
0
 76
0
 77
0
 78
0
  0
ENDTAB
  0
TABLE
  2
LTYPE
  5
5
100
AcDbSymbolTable
 70
6
  0
LTYPE
  5
14
100
AcDbSymbolTableRecord
100
AcDbLinetypeTableRecord
  2
BYBLOCK
 70
0
  3

 72
65
 73
0
 40
0.0
  0
LTYPE
  5
15
100
AcDbSymbolTableRecord
100
AcDbLinetypeTableRecord
  2
BYLAYER
 70
0
  3

 72
65
 73
0
 40
0.0
  0
LTYPE
  5
16
100
AcDbSymbolTableRecord
100
AcDbLinetypeTableRecord
  2
CONTINUOUS
 70
64
  3
Solid line
 72
65
 73
0
 40
0.0
  0
LTYPE
  5
1F5
100
AcDbSymbolTableRecord
100
AcDbLinetypeTableRecord
  2
CENTER
 70
64
  3
____ _ ____ _ ____ _ ____ _ ____ _ ____ _ ____
 72
65
 73
4
 40
0.6
 49
0.375
 74
0
 49
-0.075
 74
0
 49
0.075
 74
0
 49
-0.075
 74
0
  0
LTYPE
  5
1F6
100
AcDbSymbolTableRecord
100
AcDbLinetypeTableRecord
  2
HIDDEN
 70
64
  3
- - - - - - - - - - - - - - - - - - - -
 72
65
 73
2
 40
0.2
 49
0.1
 74
0
 49
-0.1
 74
0
  0
LTYPE
  5
1F7
100
AcDbSymbolTableRecord
100
AcDbLinetypeTableRecord
  2
PHANTOM
 70
64
  3
_____ _ _ _____ _ _ _____ _ _ _____
 72
65
 73
6
 40
0.8
 49
0.45
 74
0
 49
-0.05
 74
0
 49
0.1
 74
0
 49
-0.05
 74
0
 49
0.1
 74
0
 49
-0.05
 74
0
  0
LTYPE
  5
1F8
100
AcDbSymbolTableRecord
100
AcDbLinetypeTableRecord
  2
DOT
 70
64
  3
. . . . . . . . . . . . . . . . . . . .
 72
65
 73
2
 40
0.2
 49
0.1
 74
0
 49
-0.1
 74
0
  0
LTYPE
  5
1F9
100
AcDbSymbolTableRecord
100
AcDbLinetypeTableRecord
  2
DASHED
 70
64
  3
- - - - - - - - - - - - - - - - - - - -
 72
65
 73
2
 40
0.2
 49
0.1
 74
0
 49
-0.1
 74
0
  0
ENDTAB
  0
TABLE
  2
LAYER
  5
2
100
AcDbSymbolTable
 70
36
  0
LAYER
  5
10
100
AcDbSymbolTableRecord
100
AcDbLayerTableRecord
  2
0
 70
0
 62
7
  6
CONTINUOUS
370
-3
390
F
  0
LAYER
  5
1FA
100
AcDbSymbolTableRecord
100
AcDbLayerTableRecord
  2
DEFAULT_1
 70
0
 62
7
  6
CENTER
370
-3
390
F
  0
LAYER
  5
1FB
100
AcDbSymbolTableRecord
100
AcDbLayerTableRecord
  2
DEFAULT_2
 70
0
 62
8
  6
HIDDEN
370
-3
390
F
  0
LAYER
  5
1FC
100
AcDbSymbolTableRecord
100
AcDbLayerTableRecord
  2
DEFAULT_3
 70
0
 62
7
  6
PHANTOM
370
-3
390
F
  0
LAYER
  5
1FD
100
AcDbSymbolTableRecord
100
AcDbLayerTableRecord
  2
DEFAULT_COORDINATE_SYSTEM
 70
0
 62
7
  6
CONTINUOUS
370
-3
390
F
  0
LAYER
  5
1FE
100
AcDbSymbolTableRecord
100
AcDbLayerTableRecord
  2
DEFAULT_DATUM_AXES
 70
0
 62
7
  6
CONTINUOUS
370
-3
390
F
  0
LAYER
  5
1FF
100
AcDbSymbolTableRecord
100
AcDbLayerTableRecord
  2
DEFAULT_DATUM_CURVES
 70
0
 62
7
  6
CONTINUOUS
370
-3
390
F
  0
LAYER
  5
200
100
AcDbSymbolTableRecord
100
AcDbLayerTableRecord
  2
DEFAULT_DATUM_PLANES
 70
0
 62
7
  6
CONTINUOUS
370
-3
390
F
  0
ENDTAB
  0
TABLE
  2
STYLE
  5
3
100
AcDbSymbolTable
 70
1
  0
STYLE
  5
11
100
AcDbSymbolTableRecord
100
AcDbTextStyleTableRecord
  2
STANDARD
 70
0
 40
0.0
 41
0.8
 50
0.0
 71
0
 42
0.2
  3
txt
  4

  0
STYLE
  5
201
100
AcDbSymbolTableRecord
100
AcDbTextStyleTableRecord
  2
TEXTSTYLE_1
 70
0
 40
0.0
 41
0.8
 50
0.0
 71
0
 42
0.2
  3
gdt
  4

  0
ENDTAB
  0
TABLE
  2
VIEW
  5
6
100
AcDbSymbolTable
 70
0
  0
ENDTAB
  0
TABLE
  2
UCS
  5
7
100
AcDbSymbolTable
 70
0
  0
ENDTAB
  0
TABLE
  2
APPID
  5
9
100
AcDbSymbolTable
 70
1
  0
APPID
  5
202
100
AcDbSymbolTableRecord
100
AcDbRegAppTableRecord
  2
ACAD
 70
0
  0
ENDTAB
  0
TABLE
  2
BLOCK_RECORD
  5
1
100
AcDbSymbolTable
 70
0
  0
BLOCK_RECORD
  5
203
100
AcDbSymbolTableRecord
100
AcDbBlockTableRecord
  2
*Model_Space
  0
BLOCK_RECORD
  5
204
100
AcDbSymbolTableRecord
100
AcDbBlockTableRecord
  2
*Paper_Space
  0
ENDTAB
  0
TABLE
  2
DIMSTYLE
  5
A
100
AcDbSymbolTable
 70
1
100
AcDbDimStyleTable
 71
0
  0
DIMSTYLE
105
205
100
AcDbSymbolTableRecord
100
AcDbDimStyleTableRecord
  2
STANDARD
 70
0
  3

  4

 40
1.0
 41
0.1875
 42
0.0625
 43
0.38
 44
0.18
 45
0.0
 46
0.0
 47
0.01
 48
0.01
140
0.15625
141
0.09
142
0.0
143
25.4
144
1.0
145
0.0
146
1.0
147
0.09
 71
0.0
 72
0.0
 73
1
 74
1
 75
0
 76
0
 77
0
 78
4
170
0
171
2
172
0
173
0
174
0
175
0
176
0
177
0
178
0
270
2
271
2
272
2
273
2
274
2
275
0
280
0
281
0
282
0
283
1
284
4
285
0
286
0
287
3
288
0
340
11
  0
ENDTAB
  0
ENDSEC
  0
SECTION
  2
BLOCKS
  0
BLOCK
  5
20
100
AcDbEntity
  8
0
100
AcDbBlockBegin
  2
*Model_Space
 70
0
 10
0.0
 20
0.0
 30
0.0
  3
*Model_Space
  1

  0
ENDBLK
  5
21
100
AcDbEntity
  8
0
100
AcDbBlockEnd
  0
BLOCK
  5
1C
100
AcDbEntity
  8
0
100
AcDbBlockBegin
  2
*Paper_Space
 70
0
 10
0.0
 20
0.0
 30
0.0
  3
*Paper_Space
  1

  0
ENDBLK
  5
1D
100
AcDbEntity
  8
0
100
AcDbBlockEnd
  0
ENDSEC
  0
SECTION
  2
ENTITIES
  0
LINE
  5
206
100
AcDbEntity
  8
0
100
AcDbLine
 62
6
  6
CONTINUOUS
 10
4.2598691154
 20
5.3576520115
 11
4.2598691154
 21
5.3559703
  0
LINE
  5
207
100
AcDbEntity
  8
0
100
AcDbLine
 62
6
  6
CONTINUOUS
 10
4.341869351
 20
4.8668111557
 11
4.341869351
 21
5.8468111557
  0
LINE
  5
208
100
AcDbEntity
  8
0
100
AcDbLine
 62
6
  6
CONTINUOUS
 10
4.529369351
 20
5.3568111557
 11
4.529369351
 21
1.4818111557
  0
LINE
  5
209
100
AcDbEntity
  8
0
100
AcDbLine
 62
9
  6
CONTINUOUS
 10
4.904369351
 20
2.5443111557
 11
4.529369351
 21
2.5443111557
  0
LINE
  5
20A
100
AcDbEntity
  8
0
100
AcDbLine
 62
6
  6
CONTINUOUS
 10
5.429869351
 20
5.0318111557
 11
5.442369351
 21
5.0443111557
  0
LINE
  5
20B
100
AcDbEntity
  8
0
100
AcDbLine
 62
6
  6
CONTINUOUS
 10
5.303342006
 20
5.0398105767
 11
5.3002232522
 21
5.0379949715
  0
LINE
  5
20C
100
AcDbEntity
  8
0
100
AcDbLine
 62
6
  6
CONTINUOUS
 10
4.904369351
 20
5.3568111557
 11
4.904369351
 21
1.4818111557
  0
LINE
  5
20D
100
AcDbEntity
  8
0
100
AcDbLine
 62
6
  6
CONTINUOUS
 10
5.3002232522
 20
5.0379949715
 11
5.3000818082
 21
5.0375986986
  0
LINE
  5
20E
100
AcDbEntity
  8
0
100
AcDbLine
 62
6
  6
CONTINUOUS
 10
5.091869351
 20
4.8668111557
 11
5.091869351
 21
5.8468111557
  0
LINE
  5
20F
100
AcDbEntity
  8
0
100
AcDbLine
 62
6
  6
CONTINUOUS
 10
5.3027793512
 20
5.0443111557
 11
5.3027793512
 21
5.0394830231
  0
LINE
  5
210
100
AcDbEntity
  8
0
100
AcDbLine
 62
9
  6
CONTINUOUS
 10
5.602869351
 20
4.9271236557
 11
5.602869351
 21
5.7864986557
  0
LINE
  5
211
100
AcDbEntity
  8
0
100
AcDbLine
 62
9
  6
CONTINUOUS
 10
5.610681851
 20
4.9193111557
 11
5.610681851
 21
5.7943111557
  0
LINE
  5
212
100
AcDbEntity
  8
0
100
AcDbLine
 62
9
  6
CONTINUOUS
 10
5.715056851
 20
4.9193111557
 11
5.715056851
 21
5.7943111557
  0
LINE
  5
213
100
AcDbEntity
  8
0
100
AcDbLine
 62
6
  6
CONTINUOUS
 10
5.722869351
 20
4.9271236557
 11
5.722869351
 21
5.7864986557
  0
LINE
  5
214
100
AcDbEntity
  8
0
100
AcDbLine
 62
9
  6
CONTINUOUS
 10
6.145056851
 20
5.0203111557
 11
6.145056851
 21
5.6933111557
  0
LINE
  5
215
100
AcDbEntity
  8
0
100
AcDbLine
 62
6
  6
CONTINUOUS
 10
6.152869351
 20
4.919316282
 11
6.152869351
 21
5.7943060295
  0
LINE
  5
216
100
AcDbEntity
  8
0
100
AcDbLine
 62
6
  6
CONTINUOUS
 10
6.252869351
 20
4.819315534
 11
6.252869351
 21
5.8943067775
  0
LINE
  5
217
100
AcDbEntity
  8
0
100
AcDbLine
 62
6
  6
CONTINUOUS
 10
6.302869351
 20
4.7193111557
 11
6.302869351
 21
5.9943111557
  0
LINE
  5
218
100
AcDbEntity
  8
0
100
AcDbLine
 62
9
  6
CONTINUOUS
 10
4.904369351
 20
4.2943111557
 11
4.529369351
 21
4.2943111557
  0
LINE
  5
219
100
AcDbEntity
  8
0
100
AcDbLine
 62
6
  6
CONTINUOUS
 10
7.052869351
 20
4.3068111557
 11
6.952869351
 21
4.3068111557
  0
LINE
  5
21A
100
AcDbEntity
  8
0
100
AcDbLine
 62
6
  6
CONTINUOUS
 10
5.305869351
 20
5.0318111557
 11
5.3000817943
 21
5.0375987125
  0
LINE
  5
21B
100
AcDbEntity
  8
0
100
AcDbLine
 62
6
  6
CONTINUOUS
 10
6.302869351
 20
4.8193111557
 11
6.252869351
 21
4.8193111557
  0
LINE
  5
21C
100
AcDbEntity
  8
0
100
AcDbLine
 62
6
  6
CONTINUOUS
 10
6.952869351
 20
4.3068111557
 11
6.952869351
 21
6.4068111557
  0
LINE
  5
21D
100
AcDbEntity
  8
0
100
AcDbLine
 62
6
  6
CONTINUOUS
 10
5.091869351
 20
4.8668111557
 11
4.904369351
 21
4.8668111557
  0
LINE
  5
21E
100
AcDbEntity
  8
0
100
AcDbLine
 62
6
  6
CONTINUOUS
 10
4.529369351
 20
4.8668111557
 11
4.341869351
 21
4.8668111557
  0
LINE
  5
21F
100
AcDbEntity
  8
0
100
AcDbLine
 62
6
  6
CONTINUOUS
 10
6.252869351
 20
4.9193111557
 11
6.152869351
 21
4.9193111557
  0
LINE
  5
220
100
AcDbEntity
  8
0
100
AcDbLine
 62
6
  6
CONTINUOUS
 10
5.715056851
 20
4.9193111557
 11
5.610681851
 21
4.9193111557
  0
LINE
  5
221
100
AcDbEntity
  8
0
100
AcDbLine
 62
6
  6
CONTINUOUS
 10
6.145056851
 20
5.0203111557
 11
5.722869351
 21
5.0203111557
  0
LINE
  5
222
100
AcDbEntity
  8
0
100
AcDbLine
 62
6
  6
CONTINUOUS
 10
5.305869351
 20
5.0318111557
 11
5.429869351
 21
5.0318111557
  0
LINE
  5
223
100
AcDbEntity
  8
0
100
AcDbLine
 62
6
  6
CONTINUOUS
 10
5.602869351
 20
5.0443111557
 11
5.442369351
 21
5.0443111557
  0
LINE
  5
224
100
AcDbEntity
  8
0
100
AcDbLine
 62
6
  6
CONTINUOUS
 10
5.3027793512
 20
5.0443111557
 11
5.091869351
 21
5.0443111557
  0
LINE
  5
225
100
AcDbEntity
  8
0
100
AcDbLine
 62
6
  6
CONTINUOUS
 10
7.052869351
 20
4.2318139345
 11
7.052869351
 21
6.481808377
  0
LINE
  5
226
100
AcDbEntity
  8
0
100
AcDbLine
 62
9
  6
CONTINUOUS
 10
7.1973276337
 20
4.2213220473
 11
7.1973276337
 21
6.4923002642
  0
LINE
  5
227
100
AcDbEntity
  8
0
100
AcDbLine
 62
6
  6
CONTINUOUS
 10
7.427869351
 20
4.0943111557
 11
7.427869351
 21
6.6193111557
  0
LINE
  5
228
100
AcDbEntity
  8
0
100
AcDbLine
 62
9
  6
CONTINUOUS
 10
7.527869351
 20
4.0943135843
 11
7.527869351
 21
6.6193087271
  0
LINE
  5
229
100
AcDbEntity
  8
0
100
AcDbLine
 62
6
  6
CONTINUOUS
 10
5.602869351
 20
5.6693111557
 11
5.091869351
 21
5.6693111557
  0
LINE
  5
22A
100
AcDbEntity
  8
0
100
AcDbLine
 62
6
  6
CONTINUOUS
 10
6.145056851
 20
5.6933111557
 11
5.722869351
 21
5.6933111557
  0
LINE
  5
22B
100
AcDbEntity
  8
0
100
AcDbLine
 62
6
  6
CONTINUOUS
 10
6.252869351
 20
5.7943111557
 11
6.152869351
 21
5.7943111557
  0
LINE
  5
22C
100
AcDbEntity
  8
0
100
AcDbLine
 62
6
  6
CONTINUOUS
 10
5.715056851
 20
5.7943111557
 11
5.610681851
 21
5.7943111557
  0
LINE
  5
22D
100
AcDbEntity
  8
0
100
AcDbLine
 62
6
  6
CONTINUOUS
 10
5.091869351
 20
5.8468111557
 11
4.341869351
 21
5.8468111557
  0
LINE
  5
22E
100
AcDbEntity
  8
0
100
AcDbLine
 62
6
  6
CONTINUOUS
 10
6.302869351
 20
5.8943111557
 11
6.252869351
 21
5.8943111557
  0
LINE
  5
22F
100
AcDbEntity
  8
0
100
AcDbLine
 62
6
  6
CONTINUOUS
 10
7.052869351
 20
6.4068111557
 11
6.952869351
 21
6.4068111557
  0
ARC
  5
230
100
AcDbEntity
  8
0
100
AcDbCircle
 62
6
  6
CONTINUOUS
 10
4.7168693426
 20
2.1014833221
 40
0.3125000085
100
AcDbArc
 50
306.8723405263
 51
53.1206499837
  0
ARC
  5
231
100
AcDbEntity
  8
0
100
AcDbCircle
 62
6
  6
CONTINUOUS
 10
4.7168693595
 20
2.1014833132
 40
0.3125000085
100
AcDbArc
 50
126.8723405263
 51
233.1206499837
  0
ARC
  5
232
100
AcDbEntity
  8
0
100
AcDbCircle
 62
9
  6
CONTINUOUS
 10
4.716869351
 20
1.4818111557
 40
0.1875
100
AcDbArc
 50
180.0
 51
360.0
  0
ARC
  5
233
100
AcDbEntity
  8
0
100
AcDbCircle
 62
7
  6
CONTINUOUS
 10
4.8109153139
 20
1.9252294258
 40
0.0944540376
100
AcDbArc
 50
0.0059100755
 51
5.755261587
  0
ARC
  5
234
100
AcDbEntity
  8
0
100
AcDbCircle
 62
7
  6
CONTINUOUS
 10
4.6228233882
 20
1.9252294258
 40
0.0944540376
100
AcDbArc
 50
174.244738413
 51
179.9940899245
  0
ARC
  5
235
100
AcDbEntity
  8
0
100
AcDbCircle
 62
7
  6
CONTINUOUS
 10
4.8109153139
 20
1.9252489118
 40
0.0944540376
100
AcDbArc
 50
354.244738413
 51
359.9940899245
  0
ARC
  5
236
100
AcDbEntity
  8
0
100
AcDbCircle
 62
7
  6
CONTINUOUS
 10
4.6228233882
 20
1.9252489118
 40
0.0944540376
100
AcDbArc
 50
180.0059100755
 51
185.755261587
  0
ARC
  5
237
100
AcDbEntity
  8
0
100
AcDbCircle
 62
7
  6
CONTINUOUS
 10
4.7166953437
 20
5.3568292984
 40
0.1931739611
100
AcDbArc
 50
347.0887786187
 51
359.9946188586
  0
ARC
  5
238
100
AcDbEntity
  8
0
100
AcDbCircle
 62
7
  6
CONTINUOUS
 10
4.7170431124
 20
5.3568292768
 40
0.193173715
100
AcDbArc
 50
180.0053747632
 51
192.9107855448
  0
ARC
  5
239
100
AcDbEntity
  8
0
100
AcDbCircle
 62
7
  6
CONTINUOUS
 10
4.716869351
 20
5.3568113101
 40
0.1929996571
100
AcDbArc
 50
359.9999541636
 51
180.0000458364
  0
ARC
  5
23A
100
AcDbEntity
  8
0
100
AcDbCircle
 62
9
  6
CONTINUOUS
 10
4.716869351
 20
5.3568111557
 40
0.1875
100
AcDbArc
 50
0.0
 51
180.0
  0
ARC
  5
23B
100
AcDbEntity
  8
0
100
AcDbCircle
 62
6
  6
CONTINUOUS
 10
5.7598691154
 20
5.3559703
 40
1.5
100
AcDbArc
 50
180.0
 51
199.0326009568
  0
ARC
  5
23C
100
AcDbEntity
  8
0
100
AcDbCircle
 62
6
  6
CONTINUOUS
 10
5.610681851
 20
4.9271236557
 40
0.0078125
100
AcDbArc
 50
180.0
 51
270.0
  0
ARC
  5
23D
100
AcDbEntity
  8
0
100
AcDbCircle
 62
6
  6
CONTINUOUS
 10
5.715056851
 20
4.9271236557
 40
0.0078125
100
AcDbArc
 50
270.0
 51
360.0
  0
ARC
  5
23E
100
AcDbEntity
  8
0
100
AcDbCircle
 62
6
  6
CONTINUOUS
 10
5.7598691154
 20
5.3576520115
 40
1.5
100
AcDbArc
 50
160.9673990432
 51
180.0
  0
ARC
  5
23F
100
AcDbEntity
  8
0
100
AcDbCircle
 62
6
  6
CONTINUOUS
 10
5.610681851
 20
5.7864986557
 40
0.0078125
100
AcDbArc
 50
90.0
 51
180.0
  0
ARC
  5
240
100
AcDbEntity
  8
0
100
AcDbCircle
 62
6
  6
CONTINUOUS
 10
5.715056851
 20
5.7864986557
 40
0.0078125
100
AcDbArc
 50
0.0
 51
90.0
  0
ARC
  5
241
100
AcDbEntity
  8
0
100
AcDbCircle
 62
6
  6
CONTINUOUS
 10
7.052869351
 20
3.2318111557
 40
1.0
100
AcDbArc
 50
81.6940891949
 51
90.0
  0
ARC
  5
242
100
AcDbEntity
  8
0
100
AcDbCircle
 62
6
  6
CONTINUOUS
 10
6.302869351
 20
4.0009399436
 40
0.7183712121
100
AcDbArc
 50
25.2003196522
 51
90.0
  0
ARC
  5
243
100
AcDbEntity
  8
0
100
AcDbCircle
 62
6
  6
CONTINUOUS
 10
7.1431557777
 20
3.850255463
 40
0.375
100
AcDbArc
 50
40.6030912348
 51
81.6940891949
  0
ARC
  5
244
100
AcDbEntity
  8
0
100
AcDbCircle
 62
6
  6
CONTINUOUS
 10
7.477869351
 20
4.0943111557
 40
0.05
100
AcDbArc
 50
180.0
 51
360.0
  0
ARC
  5
245
100
AcDbEntity
  8
0
100
AcDbCircle
 62
6
  6
CONTINUOUS
 10
7.052869351
 20
7.4818111557
 40
1.0
100
AcDbArc
 50
270.0
 51
278.3059108051
  0
ARC
  5
246
100
AcDbEntity
  8
0
100
AcDbCircle
 62
6
  6
CONTINUOUS
 10
6.302869351
 20
6.7126823679
 40
0.7183712121
100
AcDbArc
 50
270.0
 51
334.7996803478
  0
ARC
  5
247
100
AcDbEntity
  8
0
100
AcDbCircle
 62
6
  6
CONTINUOUS
 10
7.1431557777
 20
6.8633668485
 40
0.375
100
AcDbArc
 50
278.3059108051
 51
319.3969087652
  0
ARC
  5
248
100
AcDbEntity
  8
0
100
AcDbCircle
 62
6
  6
CONTINUOUS
 10
7.477869351
 20
6.6193111557
 40
0.05
100
AcDbArc
 50
0.0
 51
180.0
  0
ARC
  5
249
100
AcDbEntity
  8
0
100
AcDbCircle
 62
6
  6
CONTINUOUS
 10
6.145056851
 20
5.0281236557
 40
0.0078125
100
AcDbArc
 50
270.0
 51
360.0
  0
ARC
  5
24A
100
AcDbEntity
  8
0
100
AcDbCircle
 62
6
  6
CONTINUOUS
 10
6.145056851
 20
5.6854986557
 40
0.0078125
100
AcDbArc
 50
0.0
 51
90.0
  0
SPLINE
  5
24B
100
AcDbEntity
  8
0
100
AcDbSpline
 62
6
  6
CONTINUOUS
 70
0
 71
3
 72
66
 73
62
 74
60
 42
0.0000001
 43
0.0000001
 44
0.0000000001
 12
0.1131739133
 22
0.0659178232
 32
0.0
 13
0.0000365492
 23
0.1309713432
 33
0.0
 40
0.0
 40
0.0
 40
0.0
 40
0.0
 40
0.0018930339
 40
0.0040292573
 40
0.0064140581
 40
0.0090507127
 40
0.0119408168
 40
0.015085113
 40
0.0184837744
 40
0.0221365652
 40
0.030201817
 40
0.039270899
 40
0.0493278359
 40
0.0603550501
 40
0.0723316518
 40
0.0852321572
 40
0.0990302519
 40
0.1136978484
 40
0.1292025966
 40
0.1455112627
 40
0.1804000909
 40
0.2180604992
 40
0.2581649571
 40
0.3003628328
 40
0.344283712
 40
0.3895429539
 40
0.4357425926
 40
0.5293349925
 40
0.5759050509
 40
0.6217779614
 40
0.6665502658
 40
0.7098295321
 40
0.7512356441
 40
0.7904060515
 40
0.8269993286
 40
0.8442282869
 40
0.8606958282
 40
0.876366398
 40
0.8912052629
 40
0.9051817194
 40
0.9182666511
 40
0.9304316296
 40
0.9416525081
 40
0.9519080144
 40
0.9611779283
 40
0.969446744
 40
0.973202567
 40
0.9767045644
 40
0.979952028
 40
0.9829446572
 40
0.9856831596
 40
0.9881692759
 40
0.9904057519
 40
0.9923968258
 40
0.9941490421
 40
0.9956726351
 40
0.9969841454
 40
0.9981104446
 40
0.999093923
 40
0.9995521718
 40
1.0
 40
1.0
 40
1.0
 40
1.0
 10
5.3033420865
 20
5.0398105765
 30
0.0
 10
5.3034135006
 20
5.0398521714
 30
0.0
 10
5.3035691019
 20
5.039934563
 30
0.0
 10
5.3038239345
 20
5.0400508921
 30
0.0
 10
5.3041140323
 20
5.0401672919
 30
0.0
 10
5.3044392716
 20
5.0402837499
 30
0.0
 10
5.3047994974
 20
5.0404002753
 30
0.0
 10
5.305194512
 20
5.0405168552
 30
0.0
 10
5.3056241087
 20
5.0406334871
 30
0.0
 10
5.3062641716
 20
5.0407944141
 30
0.0
 10
5.3071496586
 20
5.0409937452
 30
0.0
 10
5.3083138776
 20
5.0412260777
 30
0.0
 10
5.3096096347
 20
5.0414586937
 30
0.0
 10
5.3110341179
 20
5.0416915128
 30
0.0
 10
5.312584226
 20
5.0419244668
 30
0.0
 10
5.3142565327
 20
5.0421575678
 30
0.0
 10
5.3160473621
 20
5.0423907709
 30
0.0
 10
5.317952776
 20
5.0426240311
 30
0.0
 10
5.3199685546
 20
5.0428573754
 30
0.0
 10
5.3228631356
 20
5.0431757773
 30
0.0
 10
5.3267222905
 20
5.0435709505
 30
0.0
 10
5.331618452
 20
5.0440356677
 30
0.0
 10
5.336835014
 20
5.0445007141
 30
0.0
 10
5.3423258877
 20
5.0449660241
 30
0.0
 10
5.348042558
 20
5.0454315312
 30
0.0
 10
5.3539344811
 20
5.0458971625
 30
0.0
 10
5.3619891821
 20
5.0465207956
 30
0.0
 10
5.3701017576
 20
5.0471381682
 30
0.0
 10
5.3781996718
 20
5.0477601854
 30
0.0
 10
5.3841719688
 20
5.048225872
 30
0.0
 10
5.3900001629
 20
5.0486914644
 30
0.0
 10
5.3956327241
 20
5.0491568958
 30
0.0
 10
5.4010198775
 20
5.0496221102
 30
0.0
 10
5.4061140228
 20
5.0500870526
 30
0.0
 10
5.4101546343
 20
5.0504816364
 30
0.0
 10
5.4132068046
 20
5.0507993184
 30
0.0
 10
5.4153493621
 20
5.051032725
 30
0.0
 10
5.4173869361
 20
5.0512660637
 30
0.0
 10
5.419315014
 20
5.0514993602
 30
0.0
 10
5.4211293502
 20
5.0517325766
 30
0.0
 10
5.422825947
 20
5.051965679
 30
0.0
 10
5.4244010496
 20
5.0521986821
 30
0.0
 10
5.4258512012
 20
5.0524315428
 30
0.0
 10
5.4271732482
 20
5.0526641754
 30
0.0
 10
5.4283642785
 20
5.0528965835
 30
0.0
 10
5.4292724621
 20
5.053095847
 30
0.0
 10
5.4299309969
 20
5.0532566231
 30
0.0
 10
5.4303745752
 20
5.0533732665
 30
0.0
 10
5.4307836297
 20
5.0534898594
 30
0.0
 10
5.4311579279
 20
5.0536064108
 30
0.0
 10
5.4314972889
 20
5.0537229093
 30
0.0
 10
5.4318015841
 20
5.0538393393
 30
0.0
 10
5.4320707166
 20
5.053955696
 30
0.0
 10
5.4323046182
 20
5.0540719831
 30
0.0
 10
5.4325032639
 20
5.0541882401
 30
0.0
 10
5.4326666993
 20
5.0543045755
 30
0.0
 10
5.4327950257
 20
5.0544213471
 30
0.0
 10
5.4328883195
 20
5.0545390526
 30
0.0
 10
5.4329373719
 20
5.0546413864
 30
0.0
 10
5.4329561833
 20
5.0547219832
 30
0.0
 10
5.4329592783
 20
5.0547616047
 30
0.0
 10
5.4329592838
 20
5.0547811556
 30
0.0
 11
5.3033420865
 21
5.0398105765
 31
0.0
 11
5.3035606999
 21
5.0399275341
 31
0.0
 11
5.3038148652
 21
5.0400444918
 31
0.0
 11
5.3041044814
 21
5.0401614494
 31
0.0
 11
5.3044293985
 21
5.0402784071
 31
0.0
 11
5.304789397
 21
5.0403953647
 31
0.0
 11
5.3051842522
 21
5.0405123224
 31
0.0
 11
5.3056137393
 21
5.04062928
 31
0.0
 11
5.3060776336
 21
5.0407462376
 31
0.0
 11
5.3071077254
 21
5.0409801529
 31
0.0
 11
5.3082722547
 21
5.0412140682
 31
0.0
 11
5.3095684885
 21
5.0414479835
 31
0.0
 11
5.3109936689
 21
5.0416818987
 31
0.0
 11
5.3125447212
 21
5.041915814
 31
0.0
 11
5.3142180473
 21
5.0421497293
 31
0.0
 11
5.3160099996
 21
5.0423836446
 31
0.0
 11
5.31791674
 21
5.0426175599
 31
0.0
 11
5.3199339003
 21
5.0428514751
 31
0.0
 11
5.3220570213
 21
5.0430853904
 31
0.0
 11
5.3266024463
 21
5.043553221
 31
0.0
 11
5.3315126443
 21
5.0440210516
 31
0.0
 11
5.3367443034
 21
5.0444888822
 31
0.0
 11
5.3422511798
 21
5.0449567128
 31
0.0
 11
5.3479845011
 21
5.0454245433
 31
0.0
 11
5.3538936748
 21
5.0458923739
 31
0.0
 11
5.3599263911
 21
5.0463602045
 31
0.0
 11
5.3721485517
 21
5.0472958657
 31
0.0
 11
5.3782299269
 21
5.0477636963
 31
0.0
 11
5.3842197217
 21
5.0482315269
 31
0.0
 11
5.3900649189
 21
5.0486993576
 31
0.0
 11
5.3957139238
 21
5.0491671882
 31
0.0
 11
5.4011167211
 21
5.0496350188
 31
0.0
 11
5.4062255465
 21
5.0501028494
 31
0.0
 11
5.4109953294
 21
5.05057068
 31
0.0
 11
5.4132396724
 21
5.0508045953
 31
0.0
 11
5.4153837262
 21
5.0510385106
 31
0.0
 11
5.4174227484
 21
5.0512724259
 31
0.0
 11
5.4193520862
 21
5.0515063412
 31
0.0
 11
5.4211675944
 21
5.0517402566
 31
0.0
 11
5.4228653065
 21
5.0519741719
 31
0.0
 11
5.4244413055
 21
5.0522080872
 31
0.0
 11
5.4258921837
 21
5.0524420025
 31
0.0
 11
5.4272148361
 21
5.0526759178
 31
0.0
 11
5.4284061823
 21
5.0529098331
 31
0.0
 11
5.4294635966
 21
5.0531437484
 31
0.0
 11
5.4299413953
 21
5.0532607061
 31
0.0
 11
5.430384894
 21
5.0533776637
 31
0.0
 11
5.4307938219
 21
5.0534946214
 31
0.0
 11
5.4311679137
 21
5.053611579
 31
0.0
 11
5.4315069738
 21
5.0537285367
 31
0.0
 11
5.4318108533
 21
5.0538454943
 31
0.0
 11
5.4320794044
 21
5.053962452
 31
0.0
 11
5.432312479
 21
5.0540794097
 31
0.0
 11
5.4325099294
 21
5.0541963673
 31
0.0
 11
5.4326716078
 21
5.054313325
 31
0.0
 11
5.432797409
 21
5.0544302826
 31
0.0
 11
5.4328873032
 21
5.0545472403
 31
0.0
 11
5.4329412687
 21
5.0546641979
 31
0.0
 11
5.4329547714
 21
5.0547226768
 31
0.0
 11
5.4329592838
 21
5.0547811556
 31
0.0
  0
SPLINE
  5
24C
100
AcDbEntity
  8
0
100
AcDbSpline
 62
6
  6
CONTINUOUS
 70
0
 71
3
 72
34
 73
30
 74
28
 42
0.0000001
 43
0.0000001
 44
0.0000000001
 12
-0.0678059122
 22
-0.0029392302
 32
0.0
 13
-0.0586546889
 23
-0.034145399
 33
0.0
 40
0.0
 40
0.0
 40
0.0
 40
0.0
 40
0.1860667202
 40
0.276754087
 40
0.3649234827
 40
0.4498736664
 40
0.5309101945
 40
0.6073720332
 40
0.6786270684
 40
0.7440737936
 40
0.7744443534
 40
0.8031565675
 40
0.8301499635
 40
0.8553662573
 40
0.878748428
 40
0.9002467443
 40
0.9198149107
 40
0.9374081829
 40
0.9529903121
 40
0.9600177071
 40
0.9665311615
 40
0.9725274146
 40
0.9780040942
 40
0.9829603807
 40
0.9873963399
 40
0.9913132123
 40
0.9947141359
 40
0.9976055023
 40
1.0
 40
1.0
 40
1.0
 40
1.0
 10
5.367869351
 20
5.0425516413
 30
0.0
 10
5.3636638765
 20
5.0423693437
 30
0.0
 10
5.3574087702
 20
5.0420962569
 30
0.0
 10
5.3491614626
 20
5.0417232729
 30
0.0
 10
5.3431997981
 20
5.0414449239
 30
0.0
 10
5.3374567583
 20
5.0411656118
 30
0.0
 10
5.3319789549
 20
5.0408853494
 30
0.0
 10
5.3268114534
 20
5.0406041865
 30
0.0
 10
5.3219972485
 20
5.0403221777
 30
0.0
 10
5.318225218
 20
5.0400809226
 30
0.0
 10
5.3154147218
 20
5.0398857947
 30
0.0
 10
5.3134726499
 20
5.0397428627
 30
0.0
 10
5.3116475359
 20
5.0395996996
 30
0.0
 10
5.309943417
 20
5.039456319
 30
0.0
 10
5.3083641046
 20
5.0393127168
 30
0.0
 10
5.3069131588
 20
5.039168927
 30
0.0
 10
5.3055938869
 20
5.0390250058
 30
0.0
 10
5.3044093524
 20
5.0388809519
 30
0.0
 10
5.3035082631
 20
5.0387570043
 30
0.0
 10
5.302857076
 20
5.0386566914
 30
0.0
 10
5.3024210844
 20
5.0385840308
 30
0.0
 10
5.3020207038
 20
5.038511337
 30
0.0
 10
5.3016561841
 20
5.038438611
 30
0.0
 10
5.3013277291
 20
5.0383658749
 30
0.0
 10
5.3010355047
 20
5.0382931485
 30
0.0
 10
5.3007796662
 20
5.0382204606
 30
0.0
 10
5.3005603046
 20
5.0381478421
 30
0.0
 10
5.3003775255
 20
5.0380753392
 30
0.0
 10
5.3002700918
 20
5.0380222252
 30
0.0
 10
5.3002232757
 20
5.0379949715
 30
0.0
 11
5.367869351
 21
5.0425516413
 31
0.0
 11
5.355253234
 21
5.0419977206
 31
0.0
 11
5.3491046257
 21
5.0417191803
 31
0.0
 11
5.343127142
 21
5.041439558
 31
0.0
 11
5.3373684464
 21
5.0411588331
 31
0.0
 11
5.3318757559
 21
5.0408770115
 31
0.0
 11
5.3266940415
 21
5.040594072
 31
0.0
 11
5.3218663424
 21
5.0403099977
 31
0.0
 11
5.3174336669
 21
5.0400247779
 31
0.0
 11
5.3153773989
 21
5.0398817349
 31
0.0
 11
5.3134339913
 21
5.0397384011
 31
0.0
 11
5.3116075994
 21
5.0395947745
 31
0.0
 11
5.3099022422
 21
5.0394508532
 31
0.0
 11
5.3083218707
 21
5.0393066349
 31
0.0
 11
5.3068699634
 21
5.0391621176
 31
0.0
 11
5.3055497995
 21
5.0390172988
 31
0.0
 11
5.3043646031
 21
5.0388721764
 31
0.0
 11
5.3033170973
 21
5.0387267485
 31
0.0
 11
5.3028457442
 21
5.0386539195
 31
0.0
 11
5.302409732
 21
5.0385810136
 31
0.0
 11
5.3020093665
 21
5.0385080305
 31
0.0
 11
5.3016449175
 21
5.03843497
 31
0.0
 11
5.3013165837
 21
5.038361832
 31
0.0
 11
5.3010245553
 21
5.0382886163
 31
0.0
 11
5.3007690224
 21
5.0382153225
 31
0.0
 11
5.3005501751
 21
5.0381419506
 31
0.0
 11
5.3003682038
 21
5.0380685004
 31
0.0
 11
5.3002232757
 21
5.0379949715
 31
0.0
  0
SPLINE
  5
24D
100
AcDbEntity
  8
0
100
AcDbSpline
 62
6
  6
CONTINUOUS
 70
0
 71
3
 72
39
 73
35
 74
33
 42
0.0000001
 43
0.0000001
 44
0.0000000001
 12
-0.0550892786
 22
-0.0551383174
 32
0.0
 13
-0.0778695633
 23
-0.0033754664
 33
0.0
 40
0.0
 40
0.0
 40
0.0
 40
0.0
 40
0.0007310985
 40
0.0015737464
 40
0.0025357402
 40
0.003622185
 40
0.0048365557
 40
0.0061812881
 40
0.0092680487
 40
0.0128920299
 40
0.0170582716
 40
0.0217696342
 40
0.0270270716
 40
0.0328295947
 40
0.0391755603
 40
0.046062962
 40
0.0534895391
 40
0.069949318
 40
0.0885242102
 40
0.1091767058
 40
0.1318672448
 40
0.1565467133
 40
0.1831613867
 40
0.2116555402
 40
0.2419640644
 40
0.307748447
 40
0.3799138788
 40
0.4577900111
 40
0.5406380997
 40
0.6276653889
 40
0.7180253785
 40
0.8108192318
 40
0.9051449706
 40
1.0
 40
1.0
 40
1.0
 40
1.0
 10
5.4455627978
 20
5.0475046218
 30
0.0
 10
5.4455493726
 20
5.0474911846
 30
0.0
 10
5.4455182267
 20
5.0474644907
 30
0.0
 10
5.4454638248
 20
5.0474271901
 30
0.0
 10
5.4453985562
 20
5.0473898781
 30
0.0
 10
5.4453224024
 20
5.0473525427
 30
0.0
 10
5.4452353393
 20
5.0473151658
 30
0.0
 10
5.4450982683
 20
5.0472628466
 30
0.0
 10
5.4448990182
 20
5.047198388
 30
0.0
 10
5.4446263602
 20
5.0471238791
 30
0.0
 10
5.4443102166
 20
5.0470491523
 30
0.0
 10
5.4439506653
 20
5.0469742338
 30
0.0
 10
5.4435478226
 20
5.0468991622
 30
0.0
 10
5.4431018819
 20
5.0468239462
 30
0.0
 10
5.442613071
 20
5.0467486038
 30
0.0
 10
5.4420816272
 20
5.0466731419
 30
0.0
 10
5.4412889281
 20
5.0465687684
 30
0.0
 10
5.4401933109
 20
5.04643939
 30
0.0
 10
5.4387543811
 20
5.0462883944
 30
0.0
 10
5.4371528238
 20
5.0461368983
 30
0.0
 10
5.4353920649
 20
5.0459849697
 30
0.0
 10
5.4334759115
 20
5.0458326218
 30
0.0
 10
5.4314085666
 20
5.0456798712
 30
0.0
 10
5.4291946286
 20
5.0455267569
 30
0.0
 10
5.4259645863
 20
5.0453163139
 30
0.0
 10
5.4216008845
 20
5.0450547941
 30
0.0
 10
5.416001961
 20
5.0447471945
 30
0.0
 10
5.4099591713
 20
5.0444380361
 30
0.0
 10
5.403529861
 20
5.0441273535
 30
0.0
 10
5.3967759187
 20
5.0438152086
 30
0.0
 10
5.3897633762
 20
5.043501642
 30
0.0
 10
5.3825610919
 20
5.0431866552
 30
0.0
 10
5.3752419725
 20
5.0428702947
 30
0.0
 10
5.3703314576
 20
5.042658368
 30
0.0
 10
5.367869351
 20
5.0425516413
 30
0.0
 11
5.4455627978
 21
5.0475046218
 31
0.0
 11
5.4455198695
 21
5.0474671477
 31
0.0
 11
5.4454659439
 21
5.0474296555
 31
0.0
 11
5.4454010206
 21
5.0473921453
 31
0.0
 11
5.4453251101
 21
5.047354617
 31
0.0
 11
5.4452382243
 21
5.0473170705
 31
0.0
 11
5.4451403751
 21
5.0472795059
 31
0.0
 11
5.4449118338
 21
5.047204322
 31
0.0
 11
5.4446395809
 21
5.047129065
 31
0.0
 11
5.4443237112
 21
5.0470537347
 31
0.0
 11
5.44396432
 21
5.0469783309
 31
0.0
 11
5.4435615523
 21
5.0469028533
 31
0.0
 11
5.4431156433
 21
5.0468273016
 31
0.0
 11
5.4426268373
 21
5.0467516759
 31
0.0
 11
5.4420953789
 21
5.046675976
 31
0.0
 11
5.4415215126
 21
5.0466002016
 31
0.0
 11
5.4402476023
 21
5.0464484289
 31
0.0
 11
5.4388078342
 21
5.0462963566
 31
0.0
 11
5.4372053511
 21
5.0461439831
 31
0.0
 11
5.435443392
 21
5.0459913067
 31
0.0
 11
5.4335259007
 21
5.0458383253
 31
0.0
 11
5.4314571529
 21
5.0456850363
 31
0.0
 11
5.4292415599
 21
5.0455314372
 31
0.0
 11
5.4268842512
 21
5.0453775261
 31
0.0
 11
5.4217661447
 21
5.0450687605
 31
0.0
 11
5.4161499279
 21
5.0447587257
 31
0.0
 11
5.4100880416
 21
5.044447409
 31
0.0
 11
5.4036382103
 21
5.0441347978
 31
0.0
 11
5.3968623378
 21
5.0438208666
 31
0.0
 11
5.3898264971
 21
5.0435055994
 31
0.0
 11
5.3826008273
 21
5.0431890027
 31
0.0
 11
5.3752557077
 21
5.0428709691
 31
0.0
 11
5.367869351
 21
5.0425516413
 31
0.0
  0
ENDSEC
  0
SECTION
  2
OBJECTS
  0
DICTIONARY
  5
C
100
AcDbDictionary
280
0
281
1
  3
ACAD_GROUP
350
D
  3
ACAD_MLINESTYLE
350
17
  3
ACAD_LAYOUT
350
1A
  3
ACAD_PLOTSETTINGS
350
19
  3
ACAD_PLOTSTYLENAME
350
E
  0
DICTIONARY
  5
D
102
{ACAD_REACTORS
330
C
102
}
100
AcDbDictionary
280
0
281
1
  0
ACDBDICTIONARYWDFLT
  5
E
102
{ACAD_REACTORS
330
C
102
}
100
AcDbDictionary
281
1
  3
Normal
350
F
100
AcDbDictionaryWithDefault
340
F
  0
DICTIONARY
  5
17
102
{ACAD_REACTORS
330
C
102
}
100
AcDbDictionary
280
0
281
1
  3
Standard
350
18
  0
DICTIONARY
  5
19
102
{ACAD_REACTORS
330
C
102
}
100
AcDbDictionary
281
1
  0
DICTIONARY
  5
1A
102
{ACAD_REACTORS
330
C
102
}
100
AcDbDictionary
281
1
  3
Model
350
24E
  3
Layout1
350
24F
  0
ACDBPLACEHOLDER
  5
F
102
{ACAD_REACTORS
330
E
102
}
  0
MLINESTYLE
  5
18
102
{ACAD_REACTORS
330
17
102
}
100
AcDbMlineStyle
  2
STANDARD
 70
0
  3

 62
256
 51
90.0
 52
90.0
 71
2
 49
0.5
 62
256
  6
BYLAYER
 49
-0.5
 62
256
  6
BYLAYER
  0
LAYOUT
  5
24E
102
{ACAD_REACTORS
330
1A
102
}
100
AcDbPlotSettings
  1

  2
none_device
  4
ISO_A4_(297.00_x_210.00_MM)
  6

 40
0.0
 41
0.0
 42
0.0
 43
0.0
 44
297.0
 45
210.0
 46
0.0
 47
0.0
 48
0.0
 49
0.0
140
0.0
141
0.0
142
1.0
143
1.0
 70
1024
 72
0
 73
0
 74
0
  7

 75
0
147
1.0
148
0.0
149
0.0
100
AcDbLayout
  1
Model
 70
0
 71
0
 10
0.0
 20
0.0
 11
11.6929133858
 21
8.2677165354
 12
0.0
 22
0.0
 32
0.0
 14
0.0
 24
0.0
 34
0.0
 15
0.0
 25
0.0
 35
0.0
146
0.0
 13
0.0
 23
0.0
 33
0.0
 16
1.0
 26
0.0
 36
0.0
 17
0.0
 27
1.0
 37
0.0
 76
0
330
203
345
0
346
0
  0
LAYOUT
  5
24F
102
{ACAD_REACTORS
330
1A
102
}
100
AcDbPlotSettings
  1

  2
none_device
  4
ISO_A4_(297.00_x_210.00_MM)
  6

 40
0.0
 41
0.0
 42
0.0
 43
0.0
 44
297.0
 45
210.0
 46
0.0
 47
0.0
 48
0.0
 49
0.0
140
0.0
141
0.0
142
1.0
143
1.0
 70
0
 72
0
 73
0
 74
0
  7

 75
0
147
1.0
148
0.0
149
0.0
100
AcDbLayout
  1
Layout1
 70
0
 71
1
 10
0.0
 20
0.0
 11
11.6929133858
 21
8.2677165354
 12
0.0
 22
0.0
 32
0.0
 14
0.0
 24
0.0
 34
0.0
 15
0.0
 25
0.0
 35
0.0
146
0.0
 13
0.0
 23
0.0
 33
0.0
 16
1.0
 26
0.0
 36
0.0
 17
0.0
 27
1.0
 37
0.0
 76
0
330
204
345
0
346
0
  0
ENDSEC
  0
EOF
