999
DXF file: C:\Prowork\plots\3016_right.dxf
999
Pro/ENGINEER 2018500 by Parametric Technology Corporation
  0
SECTION
  2
HEADER
  9
$ACADVER
  1
AC1032
  9
$DWGCODEPAGE
  3
ANSI_1252
  9
$EXTMAX
 10
11.0
 20
8.5
 30
0.0
  9
$EXTMIN
 10
0.0
 20
0.0
 30
0.0
  9
$LIMMIN
 10
0.0
 20
0.0
  9
$LIMMAX
 10
11.0
 20
8.5
  9
$VIEWCTR
 10
5.5
 20
4.25
  9
$VIEWSIZE
 40
8.5
  9
$CLAYER
  8
0
  9
$LTSCALE
 40
0.605
  9
$CELTYPE
  6
BYLAYER
  9
$DIMSCALE
 40
1.0
  9
$DIMASZ
 40
0.1
  9
$DIMEXO
 40
0.0625
  9
$DIMDLI
 40
0.418
  9
$DIMEXE
 40
0.125
  9
$DIMCEN
 40
0.099
  9
$DIMLFAC
 40
1.0
  9
$DIMBLK
  1
_FILLED
  9
$DIMALT
 70
1
  9
$DIMALTD
 70
2
  9
$DIMALTTD
 70
2
  9
$DIMALTF
 40
25.4
  9
$DIMTXT
 40
0.08
  9
$DIMTOL
 70
1
  9
$DIMLIM
 70
0
  9
$DIMTFAC
 40
1.0
  9
$DIMTP
 40
0.001
  9
$DIMTM
 40
0.001
  9
$DIMGAP
 40
0.09
  9
$DIMDSEP
 70
46
  9
$AUNITS
 70
0
  9
$PDMODE
 70
3
  9
$PDSIZE
 40
0.06
  9
$HANDSEED
  5
267
  9
$TILEMODE
 70
1
  9
$MEASUREMENT
 70
0
  9
$INSUNITS
 70
1
  0
ENDSEC
  0
SECTION
  2
CLASSES
  0
CLASS
  1
ACDBDICTIONARYWDFLT
  2
AcDbDictionaryWithDefault
  3
AutoCAD 2000
 90
0
 91
1
280
0
281
0
  0
CLASS
  1
ACDBPLACEHOLDER
  2
AcDbPlaceHolder
  3
AutoCAD 2000
 90
0
 91
1
280
0
281
0
  0
CLASS
  1
LAYOUT
  2
AcDbLayout
  3
AutoCAD 2000
 90
0
 91
0
280
0
281
0
  0
ENDSEC
  0
SECTION
  2
TABLES
  0
TABLE
  2
VPORT
  5
8
100
AcDbSymbolTable
 70
2
  0
VPORT
  5
1F4
100
AcDbSymbolTableRecord
100
AcDbViewportTableRecord
  2
*ACTIVE
 70
0
 10
0.0
 20
0.0
 11
1.0
 21
1.0
 12
5.5
 22
4.25
 13
0.0
 23
0.0
 14
1.0
 24
1.0
 15
0.0
 25
0.0
 16
0.0
 26
0.0
 36
1.0
 17
0.0
 27
0.0
 37
0.0
 40
8.5
 41
1.2941176471
 42
50.0
 43
0.0
 44
0.0
 50
0.0
 51
0.0
 71
0
 72
100
 73
1
 74
1
 75
0
 76
0
 77
0
 78
0
  0
ENDTAB
  0
TABLE
  2
LTYPE
  5
5
100
AcDbSymbolTable
 70
6
  0
LTYPE
  5
14
100
AcDbSymbolTableRecord
100
AcDbLinetypeTableRecord
  2
BYBLOCK
 70
0
  3

 72
65
 73
0
 40
0.0
  0
LTYPE
  5
15
100
AcDbSymbolTableRecord
100
AcDbLinetypeTableRecord
  2
BYLAYER
 70
0
  3

 72
65
 73
0
 40
0.0
  0
LTYPE
  5
16
100
AcDbSymbolTableRecord
100
AcDbLinetypeTableRecord
  2
CONTINUOUS
 70
64
  3
Solid line
 72
65
 73
0
 40
0.0
  0
LTYPE
  5
1F5
100
AcDbSymbolTableRecord
100
AcDbLinetypeTableRecord
  2
CENTER
 70
64
  3
____ _ ____ _ ____ _ ____ _ ____ _ ____ _ ____
 72
65
 73
4
 40
0.6
 49
0.375
 74
0
 49
-0.075
 74
0
 49
0.075
 74
0
 49
-0.075
 74
0
  0
LTYPE
  5
1F6
100
AcDbSymbolTableRecord
100
AcDbLinetypeTableRecord
  2
HIDDEN
 70
64
  3
- - - - - - - - - - - - - - - - - - - -
 72
65
 73
2
 40
0.2
 49
0.1
 74
0
 49
-0.1
 74
0
  0
LTYPE
  5
1F7
100
AcDbSymbolTableRecord
100
AcDbLinetypeTableRecord
  2
PHANTOM
 70
64
  3
_____ _ _ _____ _ _ _____ _ _ _____
 72
65
 73
6
 40
0.8
 49
0.45
 74
0
 49
-0.05
 74
0
 49
0.1
 74
0
 49
-0.05
 74
0
 49
0.1
 74
0
 49
-0.05
 74
0
  0
LTYPE
  5
1F8
100
AcDbSymbolTableRecord
100
AcDbLinetypeTableRecord
  2
DOT
 70
64
  3
. . . . . . . . . . . . . . . . . . . .
 72
65
 73
2
 40
0.2
 49
0.1
 74
0
 49
-0.1
 74
0
  0
LTYPE
  5
1F9
100
AcDbSymbolTableRecord
100
AcDbLinetypeTableRecord
  2
DASHED
 70
64
  3
- - - - - - - - - - - - - - - - - - - -
 72
65
 73
2
 40
0.2
 49
0.1
 74
0
 49
-0.1
 74
0
  0
ENDTAB
  0
TABLE
  2
LAYER
  5
2
100
AcDbSymbolTable
 70
36
  0
LAYER
  5
10
100
AcDbSymbolTableRecord
100
AcDbLayerTableRecord
  2
0
 70
0
 62
7
  6
CONTINUOUS
370
-3
390
F
  0
LAYER
  5
1FA
100
AcDbSymbolTableRecord
100
AcDbLayerTableRecord
  2
DEFAULT_1
 70
0
 62
7
  6
CENTER
370
-3
390
F
  0
LAYER
  5
1FB
100
AcDbSymbolTableRecord
100
AcDbLayerTableRecord
  2
DEFAULT_2
 70
0
 62
8
  6
HIDDEN
370
-3
390
F
  0
LAYER
  5
1FC
100
AcDbSymbolTableRecord
100
AcDbLayerTableRecord
  2
DEFAULT_3
 70
0
 62
7
  6
PHANTOM
370
-3
390
F
  0
LAYER
  5
1FD
100
AcDbSymbolTableRecord
100
AcDbLayerTableRecord
  2
301-2
 70
0
 62
7
  6
CONTINUOUS
370
-3
390
F
  0
LAYER
  5
1FE
100
AcDbSymbolTableRecord
100
AcDbLayerTableRecord
  2
314
 70
0
 62
7
  6
CONTINUOUS
370
-3
390
F
  0
LAYER
  5
1FF
100
AcDbSymbolTableRecord
100
AcDbLayerTableRecord
  2
50878
 70
0
 62
7
  6
CONTINUOUS
370
-3
390
F
  0
LAYER
  5
200
100
AcDbSymbolTableRecord
100
AcDbLayerTableRecord
  2
50879
 70
0
 62
7
  6
CONTINUOUS
370
-3
390
F
  0
LAYER
  5
201
100
AcDbSymbolTableRecord
100
AcDbLayerTableRecord
  2
50880
 70
0
 62
7
  6
CONTINUOUS
370
-3
390
F
  0
LAYER
  5
202
100
AcDbSymbolTableRecord
100
AcDbLayerTableRecord
  2
50881
 70
0
 62
7
  6
CONTINUOUS
370
-3
390
F
  0
LAYER
  5
203
100
AcDbSymbolTableRecord
100
AcDbLayerTableRecord
  2
50882
 70
0
 62
7
  6
CONTINUOUS
370
-3
390
F
  0
LAYER
  5
204
100
AcDbSymbolTableRecord
100
AcDbLayerTableRecord
  2
50883
 70
0
 62
7
  6
CONTINUOUS
370
-3
390
F
  0
LAYER
  5
205
100
AcDbSymbolTableRecord
100
AcDbLayerTableRecord
  2
50884
 70
0
 62
7
  6
CONTINUOUS
370
-3
390
F
  0
LAYER
  5
206
100
AcDbSymbolTableRecord
100
AcDbLayerTableRecord
  2
51004
 70
0
 62
7
  6
CONTINUOUS
370
-3
390
F
  0
LAYER
  5
207
100
AcDbSymbolTableRecord
100
AcDbLayerTableRecord
  2
91192
 70
0
 62
7
  6
CONTINUOUS
370
-3
390
F
  0
LAYER
  5
208
100
AcDbSymbolTableRecord
100
AcDbLayerTableRecord
  2
91512
 70
0
 62
7
  6
CONTINUOUS
370
-3
390
F
  0
LAYER
  5
209
100
AcDbSymbolTableRecord
100
AcDbLayerTableRecord
  2
91691
 70
0
 62
7
  6
CONTINUOUS
370
-3
390
F
  0
LAYER
  5
20A
100
AcDbSymbolTableRecord
100
AcDbLayerTableRecord
  2
DEFAULT_SURFACES
 70
0
 62
7
  6
CONTINUOUS
370
-3
390
F
  0
LAYER
  5
20B
100
AcDbSymbolTableRecord
100
AcDbLayerTableRecord
  2
DEFAULT_SURFACES_1
 70
0
 62
7
  6
CONTINUOUS
370
-3
390
F
  0
LAYER
  5
20C
100
AcDbSymbolTableRecord
100
AcDbLayerTableRecord
  2
DEFAULT_SURFACES_2
 70
0
 62
7
  6
CONTINUOUS
370
-3
390
F
  0
LAYER
  5
20D
100
AcDbSymbolTableRecord
100
AcDbLayerTableRecord
  2
DEFAULT_SURFACES_3
 70
0
 62
7
  6
CONTINUOUS
370
-3
390
F
  0
LAYER
  5
20E
100
AcDbSymbolTableRecord
100
AcDbLayerTableRecord
  2
DEFAULT_SURFACES_4
 70
0
 62
7
  6
CONTINUOUS
370
-3
390
F
  0
LAYER
  5
20F
100
AcDbSymbolTableRecord
100
AcDbLayerTableRecord
  2
DEFAULT_SURFACES_5
 70
0
 62
7
  6
CONTINUOUS
370
-3
390
F
  0
LAYER
  5
210
100
AcDbSymbolTableRecord
100
AcDbLayerTableRecord
  2
DEFAULT_SURFACES_6
 70
0
 62
7
  6
CONTINUOUS
370
-3
390
F
  0
LAYER
  5
211
100
AcDbSymbolTableRecord
100
AcDbLayerTableRecord
  2
INTF_314
 70
0
 62
7
  6
CONTINUOUS
370
-3
390
F
  0
LAYER
  5
212
100
AcDbSymbolTableRecord
100
AcDbLayerTableRecord
  2
INTF_50878
 70
0
 62
7
  6
CONTINUOUS
370
-3
390
F
  0
LAYER
  5
213
100
AcDbSymbolTableRecord
100
AcDbLayerTableRecord
  2
INTF_50879
 70
0
 62
7
  6
CONTINUOUS
370
-3
390
F
  0
LAYER
  5
214
100
AcDbSymbolTableRecord
100
AcDbLayerTableRecord
  2
INTF_50880
 70
0
 62
7
  6
CONTINUOUS
370
-3
390
F
  0
LAYER
  5
215
100
AcDbSymbolTableRecord
100
AcDbLayerTableRecord
  2
INTF_50881
 70
0
 62
7
  6
CONTINUOUS
370
-3
390
F
  0
LAYER
  5
216
100
AcDbSymbolTableRecord
100
AcDbLayerTableRecord
  2
INTF_50882
 70
0
 62
7
  6
CONTINUOUS
370
-3
390
F
  0
LAYER
  5
217
100
AcDbSymbolTableRecord
100
AcDbLayerTableRecord
  2
INTF_50883
 70
0
 62
7
  6
CONTINUOUS
370
-3
390
F
  0
LAYER
  5
218
100
AcDbSymbolTableRecord
100
AcDbLayerTableRecord
  2
INTF_50884
 70
0
 62
7
  6
CONTINUOUS
370
-3
390
F
  0
LAYER
  5
219
100
AcDbSymbolTableRecord
100
AcDbLayerTableRecord
  2
INTF_51004
 70
0
 62
7
  6
CONTINUOUS
370
-3
390
F
  0
LAYER
  5
21A
100
AcDbSymbolTableRecord
100
AcDbLayerTableRecord
  2
INTF_91192
 70
0
 62
7
  6
CONTINUOUS
370
-3
390
F
  0
LAYER
  5
21B
100
AcDbSymbolTableRecord
100
AcDbLayerTableRecord
  2
INTF_91512
 70
0
 62
7
  6
CONTINUOUS
370
-3
390
F
  0
LAYER
  5
21C
100
AcDbSymbolTableRecord
100
AcDbLayerTableRecord
  2
INTF_91691
 70
0
 62
7
  6
CONTINUOUS
370
-3
390
F
  0
LAYER
  5
21D
100
AcDbSymbolTableRecord
100
AcDbLayerTableRecord
  2
INTF_BLANK
 70
0
 62
7
  6
CONTINUOUS
370
-3
390
F
  0
LAYER
  5
21E
100
AcDbSymbolTableRecord
100
AcDbLayerTableRecord
  2
PLATTED_SURFACE_AREA
 70
0
 62
7
  6
CONTINUOUS
370
-3
390
F
  0
LAYER
  5
21F
100
AcDbSymbolTableRecord
100
AcDbLayerTableRecord
  2
PLATTED_SURFACE_AREA_1
 70
0
 62
7
  6
CONTINUOUS
370
-3
390
F
  0
LAYER
  5
220
100
AcDbSymbolTableRecord
100
AcDbLayerTableRecord
  2
PLATTED_SURFACE_AREA_2
 70
0
 62
7
  6
CONTINUOUS
370
-3
390
F
  0
LAYER
  5
221
100
AcDbSymbolTableRecord
100
AcDbLayerTableRecord
  2
PLATTED_SURFACE_AREA_3
 70
0
 62
7
  6
CONTINUOUS
370
-3
390
F
  0
LAYER
  5
222
100
AcDbSymbolTableRecord
100
AcDbLayerTableRecord
  2
WETTED_SURFACE_AREA_1
 70
0
 62
7
  6
CONTINUOUS
370
-3
390
F
  0
ENDTAB
  0
TABLE
  2
STYLE
  5
3
100
AcDbSymbolTable
 70
1
  0
STYLE
  5
11
100
AcDbSymbolTableRecord
100
AcDbTextStyleTableRecord
  2
STANDARD
 70
0
 40
0.0
 41
0.8
 50
0.0
 71
0
 42
0.2
  3
txt
  4

  0
STYLE
  5
223
100
AcDbSymbolTableRecord
100
AcDbTextStyleTableRecord
  2
TEXTSTYLE_1
 70
0
 40
0.0
 41
0.8
 50
0.0
 71
0
 42
0.2
  3
gdt
  4

  0
ENDTAB
  0
TABLE
  2
VIEW
  5
6
100
AcDbSymbolTable
 70
0
  0
ENDTAB
  0
TABLE
  2
UCS
  5
7
100
AcDbSymbolTable
 70
0
  0
ENDTAB
  0
TABLE
  2
APPID
  5
9
100
AcDbSymbolTable
 70
1
  0
APPID
  5
224
100
AcDbSymbolTableRecord
100
AcDbRegAppTableRecord
  2
ACAD
 70
0
  0
ENDTAB
  0
TABLE
  2
BLOCK_RECORD
  5
1
100
AcDbSymbolTable
 70
0
  0
BLOCK_RECORD
  5
225
100
AcDbSymbolTableRecord
100
AcDbBlockTableRecord
  2
*Model_Space
  0
BLOCK_RECORD
  5
226
100
AcDbSymbolTableRecord
100
AcDbBlockTableRecord
  2
*Paper_Space
  0
BLOCK_RECORD
  5
227
100
AcDbSymbolTableRecord
100
AcDbBlockTableRecord
  2
_FILLED
  0
ENDTAB
  0
TABLE
  2
DIMSTYLE
  5
A
100
AcDbSymbolTable
 70
1
100
AcDbDimStyleTable
 71
0
  0
DIMSTYLE
105
228
100
AcDbSymbolTableRecord
100
AcDbDimStyleTableRecord
  2
STANDARD
 70
0
  3

  4

 40
1.0
 41
0.1
 42
0.0625
 43
0.38
 44
0.125
 45
0.0
 46
0.0
 47
0.001
 48
0.001
140
0.08
141
0.09
142
0.0
143
25.4
144
1.0
145
0.0
146
1.0
147
0.09
 71
1.0
 72
0.0
 73
1
 74
1
 75
0
 76
0
 77
0
 78
4
 79
1
170
1
171
2
172
0
173
0
174
0
175
0
176
0
177
0
178
0
270
2
179
3
271
3
272
3
273
2
274
2
275
0
280
0
281
0
282
0
283
1
284
4
285
0
286
0
287
3
288
0
340
11
278
46
341
227
342
227
343
227
344
227
  0
ENDTAB
  0
ENDSEC
  0
SECTION
  2
BLOCKS
  0
BLOCK
  5
20
100
AcDbEntity
  8
0
100
AcDbBlockBegin
  2
*Model_Space
 70
0
 10
0.0
 20
0.0
 30
0.0
  3
*Model_Space
  1

  0
ENDBLK
  5
21
100
AcDbEntity
  8
0
100
AcDbBlockEnd
  0
BLOCK
  5
1C
100
AcDbEntity
  8
0
100
AcDbBlockBegin
  2
*Paper_Space
 70
0
 10
0.0
 20
0.0
 30
0.0
  3
*Paper_Space
  1

  0
ENDBLK
  5
1D
100
AcDbEntity
  8
0
100
AcDbBlockEnd
  0
BLOCK
  5
229
100
AcDbEntity
  8
0
100
AcDbBlockBegin
  2
_FILLED
 70
64
 10
0.0
 20
0.0
  3
_FILLED
  1

  0
SOLID
  5
22A
100
AcDbEntity
  8
0
  6
BYBLOCK
 62
0
100
AcDbTrace
 10
0.0
 20
0.0
 11
-1.0
 21
0.2
 12
-1.0
 22
-0.2
 13
-1.0
 23
-0.2
  0
ENDBLK
  5
22B
100
AcDbEntity
  8
0
  6
BYBLOCK
 62
0
100
AcDbBlockEnd
  0
ENDSEC
  0
SECTION
  2
ENTITIES
  0
MTEXT
  5
22C
100
AcDbEntity
  8
0
100
AcDbMText
 62
7
  6
CONTINUOUS
  7
STANDARD
 71
1
 72
1
 10
9.7466643258
 20
0.3330126404
 30
0.0
 11
1.0
 21
0.0
 31
0.0
 73
2
 44
0.9
  1
SCALE: .77
 40
0.08
 41
0.64
  0
LINE
  5
22D
100
AcDbEntity
  8
0
100
AcDbLine
 62
7
  6
CONTINUOUS
 10
0.0
 20
0.0
 11
0.0
 21
8.5
  0
LINE
  5
22E
100
AcDbEntity
  8
0
100
AcDbLine
 62
7
  6
CONTINUOUS
 10
0.0
 20
0.0
 11
11.0
 21
0.0
  0
LINE
  5
22F
100
AcDbEntity
  8
0
100
AcDbLine
 62
7
  6
CONTINUOUS
 10
0.0
 20
8.5
 11
11.0
 21
8.5
  0
LINE
  5
230
100
AcDbEntity
  8
0
100
AcDbLine
 62
7
  6
CONTINUOUS
 10
11.0
 20
0.0
 11
11.0
 21
8.5
  0
LINE
  5
231
100
AcDbEntity
  8
0
100
AcDbLine
 62
7
  6
CONTINUOUS
 10
0.1245992547
 20
5.6965666149
 11
0.1245992547
 21
5.3346666149
  0
LINE
  5
232
100
AcDbEntity
  8
0
100
AcDbLine
 62
7
  6
CONTINUOUS
 10
0.1245992547
 20
1.8003666149
 11
0.1245992547
 21
5.3038666149
  0
LINE
  5
233
100
AcDbEntity
  8
0
100
AcDbLine
 62
7
  6
CONTINUOUS
 10
0.2226903707
 20
5.3346666149
 11
0.2226903707
 21
5.3038666149
  0
LINE
  5
234
100
AcDbEntity
  8
0
100
AcDbLine
 62
7
  6
CONTINUOUS
 10
1.5280081386
 20
5.3346666149
 11
1.5280081386
 21
5.3038666149
  0
LINE
  5
235
100
AcDbEntity
  8
0
100
AcDbLine
 62
7
  6
CONTINUOUS
 10
1.6260992547
 20
1.8003666149
 11
1.6260992547
 21
3.6291166149
  0
LINE
  5
236
100
AcDbEntity
  8
0
100
AcDbLine
 62
7
  6
CONTINUOUS
 10
1.6260992547
 20
5.1768166149
 11
1.6260992547
 21
5.3038666149
  0
LINE
  5
237
100
AcDbEntity
  8
0
100
AcDbLine
 62
7
  6
CONTINUOUS
 10
1.6260992547
 20
5.3346666149
 11
1.6260992547
 21
5.6965666149
  0
LINE
  5
238
100
AcDbEntity
  8
0
100
AcDbLine
 62
7
  6
CONTINUOUS
 10
2.1535492547
 20
5.0844166149
 11
2.1535492547
 21
3.7215166149
  0
LINE
  5
239
100
AcDbEntity
  8
0
100
AcDbLine
 62
7
  6
CONTINUOUS
 10
2.1612492547
 20
3.7215166149
 11
2.1612492547
 21
5.0844166149
  0
LINE
  5
23A
100
AcDbEntity
  8
0
100
AcDbLine
 62
7
  6
CONTINUOUS
 10
2.5077492547
 20
3.7215166149
 11
2.5077492547
 21
5.0844166149
  0
LINE
  5
23B
100
AcDbEntity
  8
0
100
AcDbLine
 62
7
  6
CONTINUOUS
 10
2.1610507029
 20
4.9931446435
 11
2.1535492547
 21
5.0061303732
  0
LINE
  5
23C
100
AcDbEntity
  8
0
100
AcDbLine
 62
7
  6
CONTINUOUS
 10
0.124633258
 20
1.8003666149
 11
1.6260652513
 21
1.8003666149
  0
LINE
  5
23D
100
AcDbEntity
  8
0
100
AcDbLine
 62
7
  6
CONTINUOUS
 10
7.8053492547
 20
3.2479666149
 11
6.8428492547
 21
3.2479666149
  0
LINE
  5
23E
100
AcDbEntity
  8
0
100
AcDbLine
 62
7
  6
CONTINUOUS
 10
8.6215492547
 20
3.4173666149
 11
8.8602492547
 21
3.4173666149
  0
LINE
  5
23F
100
AcDbEntity
  8
0
100
AcDbLine
 62
7
  6
CONTINUOUS
 10
2.1535492547
 20
3.7215166149
 11
1.7184992547
 21
3.7215166149
  0
LINE
  5
240
100
AcDbEntity
  8
0
100
AcDbLine
 62
7
  6
CONTINUOUS
 10
2.1612492547
 20
3.7215166149
 11
2.5077492547
 21
3.7215166149
  0
LINE
  5
241
100
AcDbEntity
  8
0
100
AcDbLine
 62
7
  6
CONTINUOUS
 10
10.7713892547
 20
3.7426916149
 11
10.7251892547
 21
3.7426916149
  0
LINE
  5
242
100
AcDbEntity
  8
0
100
AcDbLine
 62
7
  6
CONTINUOUS
 10
2.1535492547
 20
3.7678681897
 11
2.1612492547
 21
3.7678681897
  0
LINE
  5
243
100
AcDbEntity
  8
0
100
AcDbLine
 62
7
  6
CONTINUOUS
 10
10.7251892547
 20
3.9217166149
 11
8.8602492547
 21
3.9217166149
  0
LINE
  5
244
100
AcDbEntity
  8
0
100
AcDbLine
 62
7
  6
CONTINUOUS
 10
8.5753492547
 20
3.9217166149
 11
7.8053492547
 21
3.9217166149
  0
LINE
  5
245
100
AcDbEntity
  8
0
100
AcDbLine
 62
7
  6
CONTINUOUS
 10
6.4578492547
 20
3.9217166149
 11
2.5077492547
 21
3.9217166149
  0
LINE
  5
246
100
AcDbEntity
  8
0
100
AcDbLine
 62
7
  6
CONTINUOUS
 10
6.4578492547
 20
3.6329666149
 11
6.4578492547
 21
5.1729666149
  0
LINE
  5
247
100
AcDbEntity
  8
0
100
AcDbLine
 62
7
  6
CONTINUOUS
 10
2.5077492547
 20
4.8842166149
 11
6.4578492547
 21
4.8842166149
  0
LINE
  5
248
100
AcDbEntity
  8
0
100
AcDbLine
 62
7
  6
CONTINUOUS
 10
7.8053492547
 20
4.8842166149
 11
8.5753492547
 21
4.8842166149
  0
LINE
  5
249
100
AcDbEntity
  8
0
100
AcDbLine
 62
7
  6
CONTINUOUS
 10
8.8602492547
 20
4.8842166149
 11
10.7251892547
 21
4.8842166149
  0
LINE
  5
24A
100
AcDbEntity
  8
0
100
AcDbLine
 62
9
  6
CONTINUOUS
 10
6.8428492547
 20
5.5579666149
 11
6.8428492547
 21
3.2479666149
  0
LINE
  5
24B
100
AcDbEntity
  8
0
100
AcDbLine
 62
7
  6
CONTINUOUS
 10
10.7251892547
 20
5.0632416149
 11
10.7713892547
 21
5.0632416149
  0
LINE
  5
24C
100
AcDbEntity
  8
0
100
AcDbLine
 62
7
  6
CONTINUOUS
 10
2.5077492547
 20
5.0844166149
 11
2.1612492547
 21
5.0844166149
  0
LINE
  5
24D
100
AcDbEntity
  8
0
100
AcDbLine
 62
7
  6
CONTINUOUS
 10
1.7184992547
 20
5.0844166149
 11
2.1535492547
 21
5.0844166149
  0
LINE
  5
24E
100
AcDbEntity
  8
0
100
AcDbLine
 62
7
  6
CONTINUOUS
 10
0.124633258
 20
5.3038666149
 11
1.6260652513
 21
5.3038666149
  0
LINE
  5
24F
100
AcDbEntity
  8
0
100
AcDbLine
 62
7
  6
CONTINUOUS
 10
1.6260992547
 20
5.3346666149
 11
0.1245992547
 21
5.3346666149
  0
LINE
  5
250
100
AcDbEntity
  8
0
100
AcDbLine
 62
7
  6
CONTINUOUS
 10
8.8602492547
 20
5.3885666149
 11
8.6215492547
 21
5.3885666149
  0
LINE
  5
251
100
AcDbEntity
  8
0
100
AcDbLine
 62
7
  6
CONTINUOUS
 10
7.8053492547
 20
5.5579666149
 11
6.8428492547
 21
5.5579666149
  0
LINE
  5
252
100
AcDbEntity
  8
0
100
AcDbLine
 62
7
  6
CONTINUOUS
 10
1.6260992547
 20
5.6965666149
 11
0.1245992547
 21
5.6965666149
  0
LINE
  5
253
100
AcDbEntity
  8
0
100
AcDbLine
 62
7
  6
CONTINUOUS
 10
7.8053492547
 20
5.5579666149
 11
7.8053492547
 21
3.2479666149
  0
LINE
  5
254
100
AcDbEntity
  8
0
100
AcDbLine
 62
7
  6
CONTINUOUS
 10
8.5753492547
 20
5.3423666149
 11
8.5753492547
 21
3.4635666149
  0
LINE
  5
255
100
AcDbEntity
  8
0
100
AcDbLine
 62
9
  6
CONTINUOUS
 10
8.6215492547
 20
5.3885666149
 11
8.6215492547
 21
3.4173666149
  0
LINE
  5
256
100
AcDbEntity
  8
0
100
AcDbLine
 62
7
  6
CONTINUOUS
 10
8.8602492547
 20
5.3885666149
 11
8.8602492547
 21
3.4173666149
  0
LINE
  5
257
100
AcDbEntity
  8
0
100
AcDbLine
 62
7
  6
CONTINUOUS
 10
10.7251892547
 20
5.0632416149
 11
10.7251892547
 21
3.7426916149
  0
LINE
  5
258
100
AcDbEntity
  8
0
100
AcDbLine
 62
7
  6
CONTINUOUS
 10
10.7713892547
 20
3.7426916149
 11
10.7713892547
 21
5.0632416149
  0
LINE
  5
259
100
AcDbEntity
  8
0
100
AcDbLine
 62
7
  6
CONTINUOUS
 10
10.9099892547
 20
4.9689166149
 11
10.9099892547
 21
3.8370166149
  0
ARC
  5
25A
100
AcDbEntity
  8
0
100
AcDbCircle
 62
7
  6
CONTINUOUS
 10
10.5192149851
 20
4.2622244702
 40
0.5775
100
AcDbArc
 50
295.8913134186
 51
312.5836121352
  0
ARC
  5
25B
100
AcDbEntity
  8
0
100
AcDbCircle
 62
7
  6
CONTINUOUS
 10
10.5192149851
 20
4.5437087596
 40
0.5775
100
AcDbArc
 50
47.4163878648
 51
64.1086865814
  0
ARC
  5
25C
100
AcDbEntity
  8
0
100
AcDbCircle
 62
7
  6
CONTINUOUS
 10
6.8428492547
 20
5.1729666149
 40
0.385
100
AcDbArc
 50
90.0
 51
180.0
  0
ARC
  5
25D
100
AcDbEntity
  8
0
100
AcDbCircle
 62
7
  6
CONTINUOUS
 10
6.8428492547
 20
3.6329666149
 40
0.385
100
AcDbArc
 50
180.0
 51
270.0
  0
ARC
  5
25E
100
AcDbEntity
  8
0
100
AcDbCircle
 62
7
  6
CONTINUOUS
 10
1.7185417284
 20
5.1768590886
 40
0.0924439603
100
AcDbArc
 50
180.0263251124
 51
269.973674823
  0
ARC
  5
25F
100
AcDbEntity
  8
0
100
AcDbCircle
 62
7
  6
CONTINUOUS
 10
1.7185417284
 20
3.6290741412
 40
0.0924439603
100
AcDbArc
 50
90.0263251634
 51
179.9736749012
  0
ARC
  5
260
100
AcDbEntity
  8
0
100
AcDbCircle
 62
7
  6
CONTINUOUS
 10
8.6215492547
 20
3.4635666149
 40
0.0462
100
AcDbArc
 50
180.0
 51
270.0
  0
ARC
  5
261
100
AcDbEntity
  8
0
100
AcDbCircle
 62
7
  6
CONTINUOUS
 10
8.6215492547
 20
5.3423666149
 40
0.0462
100
AcDbArc
 50
90.0
 51
180.0
  0
SPLINE
  5
262
100
AcDbEntity
  8
0
100
AcDbSpline
 62
9
  6
CONTINUOUS
 70
0
 71
3
 72
102
 73
98
 74
0
 42
0.0000001
 43
0.0000001
 44
0.0000000001
 40
0.0
 40
0.0
 40
0.0
 40
0.0
 40
0.0000074311
 40
0.0000141501
 40
0.0000263738
 40
0.0000455257
 40
0.0000719083
 40
0.0001056116
 40
0.0001950585
 40
0.0003138626
 40
0.0004618841
 40
0.0006389437
 40
0.000844845
 40
0.0013423496
 40
0.0019527199
 40
0.0026742467
 40
0.00350521
 40
0.00548855
 40
0.0078889511
 40
0.0106930595
 40
0.0138888669
 40
0.017464624
 40
0.0214085737
 40
0.0257089576
 40
0.0303540193
 40
0.0406291709
 40
0.0521246234
 40
0.0647254703
 40
0.0783168637
 40
0.0927940987
 40
0.108074851
 40
0.1240798913
 40
0.1407301278
 40
0.175691339
 40
0.2125270292
 40
0.2508641278
 40
0.2904247226
 40
0.3105940496
 40
0.3309876712
 40
0.35158668
 40
0.3619601212
 40
0.3723796325
 40
0.3933373439
 40
0.4144431193
 40
0.4357048773
 40
0.4570710824
 40
0.4677801087
 40
0.4785061213
 40
0.4999969566
 40
0.5107509382
 40
0.521495492
 40
0.5322219791
 40
0.5429307241
 40
0.5642956842
 40
0.5855578406
 40
0.6066638375
 40
0.6276210139
 40
0.63804036
 40
0.6484138513
 40
0.6690128835
 40
0.6894063996
 40
0.7095756308
 40
0.7491361881
 40
0.7874728545
 40
0.8243080864
 40
0.8592689418
 40
0.8759189929
 40
0.8919239351
 40
0.9072046788
 40
0.9216819965
 40
0.935273572
 40
0.9478746151
 40
0.9593700927
 40
0.9696449126
 40
0.9742896485
 40
0.97858968
 40
0.9825333364
 40
0.9861089446
 40
0.9893048332
 40
0.992109339
 40
0.9945104956
 40
0.9964947336
 40
0.9980479584
 40
0.9986585396
 40
0.9989215564
 40
0.9991561016
 40
0.9993619621
 40
0.9995389291
 40
0.9996868032
 40
0.9998054028
 40
0.9998945889
 40
0.9999281439
 40
0.9999543704
 40
0.9999733688
 40
0.999985473
 40
0.9999922429
 40
1.0
 40
1.0
 40
1.0
 40
1.0
 10
1.6260992547
 20
5.1768166149
 30
0.0
 10
1.6260992547
 20
5.1768211265
 30
0.0
 10
1.6260976854
 20
5.1768319616
 30
0.0
 10
1.6260785862
 20
5.1768320533
 30
0.0
 10
1.6260593929
 20
5.1768197775
 30
0.0
 10
1.6260307621
 20
5.1767991472
 30
0.0
 10
1.6259949705
 20
5.1767670239
 30
0.0
 10
1.6259296187
 20
5.176703963
 30
0.0
 10
1.6258289686
 20
5.1765968971
 30
0.0
 10
1.6256849413
 20
5.1764355169
 30
0.0
 10
1.6255090884
 20
5.176231289
 30
0.0
 10
1.6253014273
 20
5.1759847097
 30
0.0
 10
1.6249602771
 20
5.1755731705
 30
0.0
 10
1.6244563649
 20
5.1749548758
 30
0.0
 10
1.6237592342
 20
5.174090239
 30
0.0
 10
1.6229378922
 20
5.1730656992
 30
0.0
 10
1.6215971506
 20
5.1713892032
 30
0.0
 10
1.6196200398
 20
5.1689164856
 30
0.0
 10
1.6168863139
 20
5.165514954
 30
0.0
 10
1.6136773097
 20
5.1615510549
 30
0.0
 10
1.6100111518
 20
5.1570391601
 30
0.0
 10
1.6059042025
 20
5.1519937617
 30
0.0
 10
1.6013731725
 20
5.1464288673
 30
0.0
 10
1.5964346978
 20
5.1403585457
 30
0.0
 10
1.5890778158
 20
5.1313005429
 30
0.0
 10
1.5789902228
 20
5.1188328646
 30
0.0
 10
1.5659045928
 20
5.1025778421
 30
0.0
 10
1.5516005562
 20
5.0847190601
 30
0.0
 10
1.5362138294
 20
5.0654081615
 30
0.0
 10
1.5198701145
 20
5.0447795374
 30
0.0
 10
1.502690909
 20
5.0229434869
 30
0.0
 10
1.4847868284
 20
4.9999993417
 30
0.0
 10
1.459678272
 20
4.9675218635
 30
0.0
 10
1.4271642977
 20
4.9247844542
 30
0.0
 10
1.3874495125
 20
4.8709885313
 30
0.0
 10
1.3470973157
 20
4.8142036282
 30
0.0
 10
1.3139258827
 20
4.7647483317
 30
0.0
 10
1.2879239407
 20
4.7236325115
 30
0.0
 10
1.2688085794
 20
4.6917932237
 30
0.0
 10
1.2535180249
 20
4.6646073849
 30
0.0
 10
1.2417459485
 20
4.6424039042
 30
0.0
 10
1.2302837991
 20
4.6197945524
 30
0.0
 10
1.2167814123
 20
4.5909193696
 30
0.0
 10
1.2023641725
 20
4.5552552517
 30
0.0
 10
1.1901678639
 20
4.5185021774
 30
0.0
 10
1.1823276994
 20
4.4870407816
 30
0.0
 10
1.1777628415
 20
4.4614499077
 30
0.0
 10
1.1744507785
 20
4.4355912061
 30
0.0
 10
1.1731368227
 20
4.4094815959
 30
0.0
 10
1.1737983247
 20
4.383382131
 30
0.0
 10
1.1752824848
 20
4.3638649021
 30
0.0
 10
1.1777632414
 20
4.3444774721
 30
0.0
 10
1.1823268186
 20
4.3188876178
 30
0.0
 10
1.1901681441
 20
4.2874268158
 30
0.0
 10
1.202367317
 20
4.2506752446
 30
0.0
 10
1.2167835296
 20
4.2150107011
 30
0.0
 10
1.2302846215
 20
4.1861352136
 30
0.0
 10
1.2417467449
 20
4.163526281
 30
0.0
 10
1.2535200798
 20
4.1413235301
 30
0.0
 10
1.2688105708
 20
4.114137705
 30
0.0
 10
1.2879250999
 20
4.0822980355
 30
0.0
 10
1.3139272545
 20
4.0411825131
 30
0.0
 10
1.3470988768
 20
3.991727767
 30
0.0
 10
1.3874505376
 20
3.934943173
 30
0.0
 10
1.4271652446
 20
3.881148133
 30
0.0
 10
1.4596786016
 20
3.8384110183
 30
0.0
 10
1.4847869968
 20
3.8059339054
 30
0.0
 10
1.5026910107
 20
3.7829899331
 30
0.0
 10
1.5198702105
 20
3.7611538968
 30
0.0
 10
1.5362139423
 20
3.7405250879
 30
0.0
 10
1.5516006062
 20
3.7212137816
 30
0.0
 10
1.5659045357
 20
3.7033545999
 30
0.0
 10
1.5789900531
 20
3.6870995725
 30
0.0
 10
1.5890776865
 20
3.67463242
 30
0.0
 10
1.5964347193
 20
3.6655753295
 30
0.0
 10
1.6013732422
 20
3.6595058075
 30
0.0
 10
1.6059043265
 20
3.6539415794
 30
0.0
 10
1.610011347
 20
3.6488965215
 30
0.0
 10
1.6136775794
 20
3.6443844292
 30
0.0
 10
1.6168867139
 20
3.6404196708
 30
0.0
 10
1.6196203165
 20
3.6370164413
 30
0.0
 10
1.6218710111
 20
3.6341997529
 30
0.0
 10
1.6234426894
 20
3.6322320098
 30
0.0
 10
1.6243669934
 20
3.6310846152
 30
0.0
 10
1.6247914214
 20
3.6305626071
 30
0.0
 10
1.6250621801
 20
3.6302323445
 30
0.0
 10
1.6253014347
 20
3.629943813
 30
0.0
 10
1.6255090746
 20
3.6296974403
 30
0.0
 10
1.6256849096
 20
3.6294935471
 30
0.0
 10
1.6258289082
 20
3.6293326532
 30
0.0
 10
1.6259295775
 20
3.6292260819
 30
0.0
 10
1.6259949361
 20
3.6291635654
 30
0.0
 10
1.6260307627
 20
3.6291318083
 30
0.0
 10
1.6260593028
 20
3.6291117162
 30
0.0
 10
1.6260787758
 20
3.6290996506
 30
0.0
 10
1.6260978898
 20
3.6291008697
 30
0.0
 10
1.6260992547
 20
3.6291119054
 30
0.0
 10
1.6260992547
 20
3.6291166149
 30
0.0
  0
SPLINE
  5
263
100
AcDbEntity
  8
0
100
AcDbSpline
 62
7
  6
CONTINUOUS
 70
0
 71
3
 72
11
 73
7
 74
0
 42
0.0000001
 43
0.0000001
 44
0.0000000001
 40
0.0
 40
0.0
 40
0.0
 40
0.0
 40
0.2795291686
 40
0.5446815094
 40
0.7873211876
 40
1.0
 40
1.0
 40
1.0
 40
1.0
 10
2.1535492547
 20
4.3293344734
 30
0.0
 10
2.1542008431
 20
4.2930088508
 30
0.0
 10
2.1553747546
 20
4.2222242714
 30
0.0
 10
2.1572068812
 20
4.1199093842
 30
0.0
 10
2.1592380737
 20
4.0262889755
 30
0.0
 10
2.1605811703
 20
3.9671247252
 30
0.0
 10
2.1612492547
 20
3.9394901279
 30
0.0
  0
SPLINE
  5
264
100
AcDbEntity
  8
0
100
AcDbSpline
 62
9
  6
CONTINUOUS
 70
0
 71
3
 72
56
 73
52
 74
0
 42
0.0000001
 43
0.0000001
 44
0.0000000001
 40
0.0
 40
0.0
 40
0.0
 40
0.0
 40
0.0002210757
 40
0.0008791214
 40
0.0019672063
 40
0.0034783996
 40
0.0077423897
 40
0.0136156499
 40
0.0210338894
 40
0.0298974195
 40
0.0400977179
 40
0.0515262854
 40
0.0776535809
 40
0.1075082486
 40
0.1403765527
 40
0.1756946559
 40
0.2129652344
 40
0.2518011679
 40
0.2918537042
 40
0.3328053527
 40
0.3743804228
 40
0.4162703081
 40
0.4372579749
 40
0.4582075115
 40
0.4791295726
 40
0.5000045302
 40
0.5208795732
 40
0.5418015807
 40
0.562750592
 40
0.5837375091
 40
0.6256262088
 40
0.6672004774
 40
0.7081513109
 40
0.7482033188
 40
0.7870393456
 40
0.8243103862
 40
0.8596289647
 40
0.8924975452
 40
0.9223521189
 40
0.9484788034
 40
0.9599068369
 40
0.9701064734
 40
0.97896925
 40
0.9863866806
 40
0.992259124
 40
0.9945953603
 40
0.9965223836
 40
0.9980332766
 40
0.9991211221
 40
0.9997790025
 40
1.0
 40
1.0
 40
1.0
 40
1.0
 10
1.7184992547
 20
3.7215166149
 30
0.0
 10
1.7184078382
 20
3.721605931
 30
0.0
 10
1.7180387396
 20
3.7219553394
 30
0.0
 10
1.7172198704
 20
3.7227445108
 30
0.0
 10
1.7158598694
 20
3.7240469881
 30
0.0
 10
1.7129983877
 20
3.7267955647
 30
0.0
 10
1.7081429307
 20
3.7314616419
 30
0.0
 10
1.700831331
 20
3.7385002806
 30
0.0
 10
1.6916107844
 20
3.7473899942
 30
0.0
 10
1.6806032945
 20
3.7580303316
 30
0.0
 10
1.6679484082
 20
3.7703021714
 30
0.0
 10
1.6481642669
 20
3.7895584618
 30
0.0
 10
1.6203275456
 20
3.8168319133
 30
0.0
 10
1.5838509252
 20
3.8529964011
 30
0.0
 10
1.543901631
 20
3.8932031865
 30
0.0
 10
1.5013896599
 20
3.9369033529
 30
0.0
 10
1.4570978432
 20
3.9836791404
 30
0.0
 10
1.4118689496
 20
4.033322491
 30
0.0
 10
1.3664890814
 20
4.0856868486
 30
0.0
 10
1.3222725711
 20
4.1410998959
 30
0.0
 10
1.2806037382
 20
4.1997826383
 30
0.0
 10
1.2501959111
 20
4.2521430008
 30
0.0
 10
1.2306223763
 20
4.2965348124
 30
0.0
 10
1.2191678762
 20
4.3310961031
 30
0.0
 10
1.2118556887
 20
4.3667197304
 30
0.0
 10
1.2092229242
 20
4.4029745531
 30
0.0
 10
1.2118578876
 20
4.4392291753
 30
0.0
 10
1.2191718532
 20
4.4748521325
 30
0.0
 10
1.2306276823
 20
4.5094121657
 30
0.0
 10
1.2502024107
 20
4.5538018797
 30
0.0
 10
1.280610446
 20
4.606160213
 30
0.0
 10
1.3222786012
 20
4.6648414453
 30
0.0
 10
1.3664947296
 20
4.7202532149
 30
0.0
 10
1.411874484
 20
4.7726167108
 30
0.0
 10
1.4571034729
 20
4.8222599926
 30
0.0
 10
1.5013956771
 20
4.8690362342
 30
0.0
 10
1.5439082145
 20
4.9127368295
 30
0.0
 10
1.5838578787
 20
4.9529437832
 30
0.0
 10
1.6203343779
 20
4.9891080412
 30
0.0
 10
1.6481706082
 20
5.0163809703
 30
0.0
 10
1.6679540277
 20
5.0356365047
 30
0.0
 10
1.6806081047
 20
5.0479075602
 30
0.0
 10
1.6916147254
 20
5.0585469466
 30
0.0
 10
1.7008341639
 20
5.0674358272
 30
0.0
 10
1.7073424994
 20
5.0737006043
 30
0.0
 10
1.7115662684
 20
5.0777618829
 30
0.0
 10
1.7139737183
 20
5.0800742507
 30
0.0
 10
1.7158603
 20
5.0818870485
 30
0.0
 10
1.7172206472
 20
5.0831885918
 30
0.0
 10
1.7180381885
 20
5.0839787166
 30
0.0
 10
1.7184083547
 20
5.0843268375
 30
0.0
 10
1.7184992547
 20
5.0844166149
 30
0.0
  0
ENDSEC
  0
SECTION
  2
OBJECTS
  0
DICTIONARY
  5
C
100
AcDbDictionary
280
0
281
1
  3
ACAD_GROUP
350
D
  3
ACAD_MLINESTYLE
350
17
  3
ACAD_LAYOUT
350
1A
  3
ACAD_PLOTSETTINGS
350
19
  3
ACAD_PLOTSTYLENAME
350
E
  0
DICTIONARY
  5
D
102
{ACAD_REACTORS
330
C
102
}
100
AcDbDictionary
280
0
281
1
  0
ACDBDICTIONARYWDFLT
  5
E
102
{ACAD_REACTORS
330
C
102
}
100
AcDbDictionary
281
1
  3
Normal
350
F
100
AcDbDictionaryWithDefault
340
F
  0
DICTIONARY
  5
17
102
{ACAD_REACTORS
330
C
102
}
100
AcDbDictionary
280
0
281
1
  3
Standard
350
18
  0
DICTIONARY
  5
19
102
{ACAD_REACTORS
330
C
102
}
100
AcDbDictionary
281
1
  0
DICTIONARY
  5
1A
102
{ACAD_REACTORS
330
C
102
}
100
AcDbDictionary
281
1
  3
Model
350
265
  3
Layout1
350
266
  0
ACDBPLACEHOLDER
  5
F
102
{ACAD_REACTORS
330
E
102
}
  0
MLINESTYLE
  5
18
102
{ACAD_REACTORS
330
17
102
}
100
AcDbMlineStyle
  2
STANDARD
 70
0
  3

 62
256
 51
90.0
 52
90.0
 71
2
 49
0.5
 62
256
  6
BYLAYER
 49
-0.5
 62
256
  6
BYLAYER
  0
LAYOUT
  5
265
102
{ACAD_REACTORS
330
1A
102
}
100
AcDbPlotSettings
  1

  2
none_device
  4
ANSI_A_(11.00_x_8.50_Inches)
  6

 40
0.0
 41
0.0
 42
0.0
 43
0.0
 44
279.4
 45
215.9
 46
0.0
 47
0.0
 48
0.0
 49
0.0
140
0.0
141
0.0
142
1.0
143
1.0
 70
1024
 72
0
 73
0
 74
0
  7

 75
0
147
1.0
148
0.0
149
0.0
100
AcDbLayout
  1
Model
 70
0
 71
0
 10
0.0
 20
0.0
 11
11.0
 21
8.5
 12
0.0
 22
0.0
 32
0.0
 14
0.0
 24
0.0
 34
0.0
 15
0.0
 25
0.0
 35
0.0
146
0.0
 13
0.0
 23
0.0
 33
0.0
 16
1.0
 26
0.0
 36
0.0
 17
0.0
 27
1.0
 37
0.0
 76
0
330
225
345
0
346
0
  0
LAYOUT
  5
266
102
{ACAD_REACTORS
330
1A
102
}
100
AcDbPlotSettings
  1

  2
none_device
  4
ANSI_A_(11.00_x_8.50_Inches)
  6

 40
0.0
 41
0.0
 42
0.0
 43
0.0
 44
279.4
 45
215.9
 46
0.0
 47
0.0
 48
0.0
 49
0.0
140
0.0
141
0.0
142
1.0
143
1.0
 70
0
 72
0
 73
0
 74
0
  7

 75
0
147
1.0
148
0.0
149
0.0
100
AcDbLayout
  1
Layout1
 70
0
 71
1
 10
0.0
 20
0.0
 11
11.0
 21
8.5
 12
0.0
 22
0.0
 32
0.0
 14
0.0
 24
0.0
 34
0.0
 15
0.0
 25
0.0
 35
0.0
146
0.0
 13
0.0
 23
0.0
 33
0.0
 16
1.0
 26
0.0
 36
0.0
 17
0.0
 27
1.0
 37
0.0
 76
0
330
226
345
0
346
0
  0
ENDSEC
  0
EOF
