999
DXF file: C:\Prowork\plots\301_front.dxf
999
Pro/ENGINEER 2018500 by Parametric Technology Corporation
  0
SECTION
  2
HEADER
  9
$ACADVER
  1
AC1032
  9
$DWGCODEPAGE
  3
ANSI_1252
  9
$EXTMAX
 10
11.0
 20
8.5
 30
0.0
  9
$EXTMIN
 10
0.0
 20
0.0
 30
0.0
  9
$LIMMIN
 10
0.0
 20
0.0
  9
$LIMMAX
 10
11.0
 20
8.5
  9
$VIEWCTR
 10
5.5
 20
4.25
  9
$VIEWSIZE
 40
8.5
  9
$CLAYER
  8
0
  9
$LTSCALE
 40
0.605
  9
$CELTYPE
  6
BYLAYER
  9
$DIMSCALE
 40
1.0
  9
$DIMASZ
 40
0.1
  9
$DIMEXO
 40
0.0625
  9
$DIMDLI
 40
0.418
  9
$DIMEXE
 40
0.125
  9
$DIMCEN
 40
0.099
  9
$DIMLFAC
 40
1.0
  9
$DIMBLK
  1
_FILLED
  9
$DIMALT
 70
1
  9
$DIMALTD
 70
2
  9
$DIMALTTD
 70
2
  9
$DIMALTF
 40
25.4
  9
$DIMTXT
 40
0.08
  9
$DIMTOL
 70
1
  9
$DIMLIM
 70
0
  9
$DIMTFAC
 40
1.0
  9
$DIMTP
 40
0.001
  9
$DIMTM
 40
0.001
  9
$DIMGAP
 40
0.09
  9
$DIMDSEP
 70
46
  9
$AUNITS
 70
0
  9
$PDMODE
 70
3
  9
$PDSIZE
 40
0.06
  9
$HANDSEED
  5
2A9
  9
$TILEMODE
 70
1
  9
$MEASUREMENT
 70
0
  9
$INSUNITS
 70
1
  0
ENDSEC
  0
SECTION
  2
CLASSES
  0
CLASS
  1
ACDBDICTIONARYWDFLT
  2
AcDbDictionaryWithDefault
  3
AutoCAD 2000
 90
0
 91
1
280
0
281
0
  0
CLASS
  1
ACDBPLACEHOLDER
  2
AcDbPlaceHolder
  3
AutoCAD 2000
 90
0
 91
1
280
0
281
0
  0
CLASS
  1
LAYOUT
  2
AcDbLayout
  3
AutoCAD 2000
 90
0
 91
0
280
0
281
0
  0
ENDSEC
  0
SECTION
  2
TABLES
  0
TABLE
  2
VPORT
  5
8
100
AcDbSymbolTable
 70
2
  0
VPORT
  5
1F4
100
AcDbSymbolTableRecord
100
AcDbViewportTableRecord
  2
*ACTIVE
 70
0
 10
0.0
 20
0.0
 11
1.0
 21
1.0
 12
5.5
 22
4.25
 13
0.0
 23
0.0
 14
1.0
 24
1.0
 15
0.0
 25
0.0
 16
0.0
 26
0.0
 36
1.0
 17
0.0
 27
0.0
 37
0.0
 40
8.5
 41
1.2941176471
 42
50.0
 43
0.0
 44
0.0
 50
0.0
 51
0.0
 71
0
 72
100
 73
1
 74
1
 75
0
 76
0
 77
0
 78
0
  0
ENDTAB
  0
TABLE
  2
LTYPE
  5
5
100
AcDbSymbolTable
 70
6
  0
LTYPE
  5
14
100
AcDbSymbolTableRecord
100
AcDbLinetypeTableRecord
  2
BYBLOCK
 70
0
  3

 72
65
 73
0
 40
0.0
  0
LTYPE
  5
15
100
AcDbSymbolTableRecord
100
AcDbLinetypeTableRecord
  2
BYLAYER
 70
0
  3

 72
65
 73
0
 40
0.0
  0
LTYPE
  5
16
100
AcDbSymbolTableRecord
100
AcDbLinetypeTableRecord
  2
CONTINUOUS
 70
64
  3
Solid line
 72
65
 73
0
 40
0.0
  0
LTYPE
  5
1F5
100
AcDbSymbolTableRecord
100
AcDbLinetypeTableRecord
  2
CENTER
 70
64
  3
____ _ ____ _ ____ _ ____ _ ____ _ ____ _ ____
 72
65
 73
4
 40
0.6
 49
0.375
 74
0
 49
-0.075
 74
0
 49
0.075
 74
0
 49
-0.075
 74
0
  0
LTYPE
  5
1F6
100
AcDbSymbolTableRecord
100
AcDbLinetypeTableRecord
  2
HIDDEN
 70
64
  3
- - - - - - - - - - - - - - - - - - - -
 72
65
 73
2
 40
0.2
 49
0.1
 74
0
 49
-0.1
 74
0
  0
LTYPE
  5
1F7
100
AcDbSymbolTableRecord
100
AcDbLinetypeTableRecord
  2
PHANTOM
 70
64
  3
_____ _ _ _____ _ _ _____ _ _ _____
 72
65
 73
6
 40
0.8
 49
0.45
 74
0
 49
-0.05
 74
0
 49
0.1
 74
0
 49
-0.05
 74
0
 49
0.1
 74
0
 49
-0.05
 74
0
  0
LTYPE
  5
1F8
100
AcDbSymbolTableRecord
100
AcDbLinetypeTableRecord
  2
DOT
 70
64
  3
. . . . . . . . . . . . . . . . . . . .
 72
65
 73
2
 40
0.2
 49
0.1
 74
0
 49
-0.1
 74
0
  0
LTYPE
  5
1F9
100
AcDbSymbolTableRecord
100
AcDbLinetypeTableRecord
  2
DASHED
 70
64
  3
- - - - - - - - - - - - - - - - - - - -
 72
65
 73
2
 40
0.2
 49
0.1
 74
0
 49
-0.1
 74
0
  0
ENDTAB
  0
TABLE
  2
LAYER
  5
2
100
AcDbSymbolTable
 70
36
  0
LAYER
  5
10
100
AcDbSymbolTableRecord
100
AcDbLayerTableRecord
  2
0
 70
0
 62
7
  6
CONTINUOUS
370
-3
390
F
  0
LAYER
  5
1FA
100
AcDbSymbolTableRecord
100
AcDbLayerTableRecord
  2
DEFAULT_1
 70
0
 62
7
  6
CENTER
370
-3
390
F
  0
LAYER
  5
1FB
100
AcDbSymbolTableRecord
100
AcDbLayerTableRecord
  2
DEFAULT_2
 70
0
 62
8
  6
HIDDEN
370
-3
390
F
  0
LAYER
  5
1FC
100
AcDbSymbolTableRecord
100
AcDbLayerTableRecord
  2
DEFAULT_3
 70
0
 62
7
  6
PHANTOM
370
-3
390
F
  0
LAYER
  5
1FD
100
AcDbSymbolTableRecord
100
AcDbLayerTableRecord
  2
ALL_FEATURES
 70
0
 62
7
  6
CONTINUOUS
370
-3
390
F
  0
LAYER
  5
1FE
100
AcDbSymbolTableRecord
100
AcDbLayerTableRecord
  2
AXES_FEATURES
 70
0
 62
7
  6
CONTINUOUS
370
-3
390
F
  0
LAYER
  5
1FF
100
AcDbSymbolTableRecord
100
AcDbLayerTableRecord
  2
CHAMFER_FEATURES
 70
0
 62
7
  6
CONTINUOUS
370
-3
390
F
  0
LAYER
  5
200
100
AcDbSymbolTableRecord
100
AcDbLayerTableRecord
  2
CUT_FEATURES
 70
0
 62
7
  6
CONTINUOUS
370
-3
390
F
  0
LAYER
  5
201
100
AcDbSymbolTableRecord
100
AcDbLayerTableRecord
  2
DATUM_PLANES
 70
0
 62
7
  6
CONTINUOUS
370
-3
390
F
  0
LAYER
  5
202
100
AcDbSymbolTableRecord
100
AcDbLayerTableRecord
  2
DEFAULT_COORDINATE_SYSTEM
 70
0
 62
7
  6
CONTINUOUS
370
-3
390
F
  0
LAYER
  5
203
100
AcDbSymbolTableRecord
100
AcDbLayerTableRecord
  2
DEFAULT_DATUM_AXES
 70
0
 62
7
  6
CONTINUOUS
370
-3
390
F
  0
LAYER
  5
204
100
AcDbSymbolTableRecord
100
AcDbLayerTableRecord
  2
DEFAULT_DATUM_PLANES
 70
0
 62
7
  6
CONTINUOUS
370
-3
390
F
  0
LAYER
  5
205
100
AcDbSymbolTableRecord
100
AcDbLayerTableRecord
  2
DIMENSIONS
 70
0
 62
7
  6
CONTINUOUS
370
-3
390
F
  0
LAYER
  5
206
100
AcDbSymbolTableRecord
100
AcDbLayerTableRecord
  2
PROTRUSION_FEATURES
 70
0
 62
7
  6
CONTINUOUS
370
-3
390
F
  0
LAYER
  5
207
100
AcDbSymbolTableRecord
100
AcDbLayerTableRecord
  2
ROUND_FEATURES
 70
0
 62
7
  6
CONTINUOUS
370
-3
390
F
  0
LAYER
  5
208
100
AcDbSymbolTableRecord
100
AcDbLayerTableRecord
  2
XSEC_DATUMS
 70
0
 62
7
  6
CONTINUOUS
370
-3
390
F
  0
ENDTAB
  0
TABLE
  2
STYLE
  5
3
100
AcDbSymbolTable
 70
1
  0
STYLE
  5
11
100
AcDbSymbolTableRecord
100
AcDbTextStyleTableRecord
  2
STANDARD
 70
0
 40
0.0
 41
0.8
 50
0.0
 71
0
 42
0.2
  3
txt
  4

  0
STYLE
  5
209
100
AcDbSymbolTableRecord
100
AcDbTextStyleTableRecord
  2
TEXTSTYLE_1
 70
0
 40
0.0
 41
0.8
 50
0.0
 71
0
 42
0.2
  3
gdt
  4

  0
ENDTAB
  0
TABLE
  2
VIEW
  5
6
100
AcDbSymbolTable
 70
0
  0
ENDTAB
  0
TABLE
  2
UCS
  5
7
100
AcDbSymbolTable
 70
0
  0
ENDTAB
  0
TABLE
  2
APPID
  5
9
100
AcDbSymbolTable
 70
1
  0
APPID
  5
20A
100
AcDbSymbolTableRecord
100
AcDbRegAppTableRecord
  2
ACAD
 70
0
  0
ENDTAB
  0
TABLE
  2
BLOCK_RECORD
  5
1
100
AcDbSymbolTable
 70
0
  0
BLOCK_RECORD
  5
20B
100
AcDbSymbolTableRecord
100
AcDbBlockTableRecord
  2
*Model_Space
  0
BLOCK_RECORD
  5
20C
100
AcDbSymbolTableRecord
100
AcDbBlockTableRecord
  2
*Paper_Space
  0
BLOCK_RECORD
  5
20D
100
AcDbSymbolTableRecord
100
AcDbBlockTableRecord
  2
_FILLED
  0
ENDTAB
  0
TABLE
  2
DIMSTYLE
  5
A
100
AcDbSymbolTable
 70
1
100
AcDbDimStyleTable
 71
0
  0
DIMSTYLE
105
20E
100
AcDbSymbolTableRecord
100
AcDbDimStyleTableRecord
  2
STANDARD
 70
0
  3

  4

 40
1.0
 41
0.1
 42
0.0625
 43
0.38
 44
0.125
 45
0.0
 46
0.0
 47
0.001
 48
0.001
140
0.08
141
0.09
142
0.0
143
25.4
144
1.0
145
0.0
146
1.0
147
0.09
 71
1.0
 72
0.0
 73
1
 74
1
 75
0
 76
0
 77
0
 78
4
 79
1
170
1
171
2
172
0
173
0
174
0
175
0
176
0
177
0
178
0
270
2
179
3
271
3
272
3
273
2
274
2
275
0
280
0
281
0
282
0
283
1
284
4
285
0
286
0
287
3
288
0
340
11
278
46
341
20D
342
20D
343
20D
344
20D
  0
ENDTAB
  0
ENDSEC
  0
SECTION
  2
BLOCKS
  0
BLOCK
  5
20
100
AcDbEntity
  8
0
100
AcDbBlockBegin
  2
*Model_Space
 70
0
 10
0.0
 20
0.0
 30
0.0
  3
*Model_Space
  1

  0
ENDBLK
  5
21
100
AcDbEntity
  8
0
100
AcDbBlockEnd
  0
BLOCK
  5
1C
100
AcDbEntity
  8
0
100
AcDbBlockBegin
  2
*Paper_Space
 70
0
 10
0.0
 20
0.0
 30
0.0
  3
*Paper_Space
  1

  0
ENDBLK
  5
1D
100
AcDbEntity
  8
0
100
AcDbBlockEnd
  0
BLOCK
  5
20F
100
AcDbEntity
  8
0
100
AcDbBlockBegin
  2
_FILLED
 70
64
 10
0.0
 20
0.0
  3
_FILLED
  1

  0
SOLID
  5
210
100
AcDbEntity
  8
0
  6
BYBLOCK
 62
0
100
AcDbTrace
 10
0.0
 20
0.0
 11
-1.0
 21
0.2
 12
-1.0
 22
-0.2
 13
-1.0
 23
-0.2
  0
ENDBLK
  5
211
100
AcDbEntity
  8
0
  6
BYBLOCK
 62
0
100
AcDbBlockEnd
  0
ENDSEC
  0
SECTION
  2
ENTITIES
  0
MTEXT
  5
212
100
AcDbEntity
  8
0
100
AcDbMText
 62
7
  6
CONTINUOUS
  7
STANDARD
 71
1
 72
1
 10
9.7119030899
 20
0.2866643258
 30
0.0
 11
1.0
 21
0.0
 31
0.0
 73
2
 44
0.9
  1
SCALE: .85
 40
0.08
 41
0.64
  0
LINE
  5
213
100
AcDbEntity
  8
0
100
AcDbLine
 62
7
  6
CONTINUOUS
 10
0.0
 20
0.0
 11
0.0
 21
8.5
  0
LINE
  5
214
100
AcDbEntity
  8
0
100
AcDbLine
 62
7
  6
CONTINUOUS
 10
0.0
 20
0.0
 11
11.0
 21
0.0
  0
LINE
  5
215
100
AcDbEntity
  8
0
100
AcDbLine
 62
7
  6
CONTINUOUS
 10
0.0
 20
8.5
 11
11.0
 21
8.5
  0
LINE
  5
216
100
AcDbEntity
  8
0
100
AcDbLine
 62
7
  6
CONTINUOUS
 10
11.0
 20
0.0
 11
11.0
 21
8.5
  0
LINE
  5
217
100
AcDbEntity
  8
ALL_FEATURES
100
AcDbLine
 62
7
  6
CONTINUOUS
 10
4.4806606124
 20
5.4172681899
 11
4.4806606124
 21
5.1502274627
  0
LINE
  5
218
100
AcDbEntity
  8
ALL_FEATURES
100
AcDbLine
 62
7
  6
CONTINUOUS
 10
4.4806606124
 20
4.0360181899
 11
4.4806606124
 21
3.7689774627
  0
LINE
  5
219
100
AcDbEntity
  8
ALL_FEATURES
100
AcDbLine
 62
7
  6
CONTINUOUS
 10
4.501501263
 20
5.4172681899
 11
4.501501263
 21
5.1502274627
  0
LINE
  5
21A
100
AcDbEntity
  8
ALL_FEATURES
100
AcDbLine
 62
7
  6
CONTINUOUS
 10
4.501501263
 20
4.0360181899
 11
4.501501263
 21
3.7689774627
  0
LINE
  5
21B
100
AcDbEntity
  8
ALL_FEATURES
100
AcDbLine
 62
7
  6
CONTINUOUS
 10
4.5380356124
 20
3.6230603263
 11
4.5380356124
 21
3.7502203263
  0
LINE
  5
21C
100
AcDbEntity
  8
ALL_FEATURES
100
AcDbLine
 62
7
  6
CONTINUOUS
 10
4.5380356124
 20
5.0043103263
 11
4.5380356124
 21
5.1314703263
  0
LINE
  5
21D
100
AcDbEntity
  8
ALL_FEATURES
100
AcDbLine
 62
7
  6
CONTINUOUS
 10
4.6694668624
 20
3.5054438811
 11
4.6698489609
 21
3.5050024349
  0
LINE
  5
21E
100
AcDbEntity
  8
ALL_FEATURES
100
AcDbLine
 62
7
  6
CONTINUOUS
 10
4.6694668624
 20
3.5827173653
 11
4.6698489621
 21
3.5822759175
  0
LINE
  5
21F
100
AcDbEntity
  8
ALL_FEATURES
100
AcDbLine
 62
7
  6
CONTINUOUS
 10
4.6878256838
 20
3.4392963506
 11
4.719746126
 21
3.3469726101
  0
LWPOLYLINE
  5
220
100
AcDbEntity
  8
ALL_FEATURES
100
AcDbPolyline
 62
7
  6
CONTINUOUS
 90
3
 70
0
 10
4.7197476431
 20
3.3469731251
 10
4.7234214362
 20
3.3352627107
 10
4.7261949455
 20
3.3243362953
  0
LINE
  5
221
100
AcDbEntity
  8
ALL_FEATURES
100
AcDbLine
 62
7
  6
CONTINUOUS
 10
4.7264150833
 20
3.7608656753
 11
4.7314106124
 21
3.7150601671
  0
LWPOLYLINE
  5
222
100
AcDbEntity
  8
ALL_FEATURES
100
AcDbPolyline
 62
7
  6
CONTINUOUS
 90
4
 70
0
 10
4.7299857612
 20
3.3021193946
 10
4.7309923912
 20
3.2908914495
 10
4.7314021656
 20
3.2796259068
 10
4.7314124314
 20
3.2775371847
  0
LINE
  5
223
100
AcDbEntity
  8
ALL_FEATURES
100
AcDbLine
 62
7
  6
CONTINUOUS
 10
4.6343321175
 20
3.6223229199
 11
4.6343321175
 21
3.6126648263
  0
LINE
  5
224
100
AcDbEntity
  8
ALL_FEATURES
100
AcDbLine
 62
7
  6
CONTINUOUS
 10
4.6694668624
 20
3.5054438811
 11
4.6694668624
 21
3.5653344946
  0
LINE
  5
225
100
AcDbEntity
  8
ALL_FEATURES
100
AcDbLine
 62
7
  6
CONTINUOUS
 10
4.6694668624
 20
3.5827173653
 11
4.6694668624
 21
3.6126648263
  0
LINE
  5
226
100
AcDbEntity
  8
ALL_FEATURES
100
AcDbLine
 62
7
  6
CONTINUOUS
 10
4.6761606124
 20
3.5788527269
 11
4.6761606124
 21
3.569199133
  0
LINE
  5
227
100
AcDbEntity
  8
ALL_FEATURES
100
AcDbLine
 62
7
  6
CONTINUOUS
 10
4.6961356124
 20
3.8980353263
 11
4.6961356124
 21
4.9987395023
  0
LINE
  5
228
100
AcDbEntity
  8
ALL_FEATURES
100
AcDbLine
 62
7
  6
CONTINUOUS
 10
4.7267737147
 20
5.4172681899
 11
4.7267737147
 21
5.1502274627
  0
LINE
  5
229
100
AcDbEntity
  8
ALL_FEATURES
100
AcDbLine
 62
7
  6
CONTINUOUS
 10
4.7314106124
 20
3.7150601671
 11
4.7314106124
 21
2.0382878943
  0
LINE
  5
22A
100
AcDbEntity
  8
ALL_FEATURES
100
AcDbLine
 62
7
  6
CONTINUOUS
 10
4.7314106124
 20
5.4633103263
 11
4.7314106124
 21
5.7229853263
  0
LINE
  5
22B
100
AcDbEntity
  8
ALL_FEATURES
100
AcDbLine
 62
9
  6
CONTINUOUS
 10
5.7939106124
 20
3.3132353263
 11
4.7314106124
 21
3.3132353263
  0
LINE
  5
22C
100
AcDbEntity
  8
ALL_FEATURES
100
AcDbLine
 62
7
  6
CONTINUOUS
 10
4.6698489609
 20
3.5050024349
 11
4.6765470641
 21
3.5011327621
  0
LINE
  5
22D
100
AcDbEntity
  8
ALL_FEATURES
100
AcDbLine
 62
7
  6
CONTINUOUS
 10
4.6698489621
 20
3.5822759175
 11
4.6765470644
 21
3.5784062453
  0
LINE
  5
22E
100
AcDbEntity
  8
ALL_FEATURES
100
AcDbLine
 62
7
  6
CONTINUOUS
 10
4.7264150833
 20
3.7608656753
 11
4.6961356124
 21
3.8980353263
  0
LWPOLYLINE
  5
22F
100
AcDbEntity
  8
ALL_FEATURES
100
AcDbPolyline
 62
7
  6
CONTINUOUS
 90
3
 70
0
 10
4.7261949455
 20
3.3243362953
 10
4.7283851102
 20
3.313278146
 10
4.7299857612
 20
3.3021193946
  0
LINE
  5
230
100
AcDbEntity
  8
ALL_FEATURES
100
AcDbLine
 62
9
  6
CONTINUOUS
 10
4.6878256838
 20
3.4392963506
 11
4.7314106124
 21
3.4392963482
  0
LINE
  5
231
100
AcDbEntity
  8
ALL_FEATURES
100
AcDbLine
 62
9
  6
CONTINUOUS
 10
5.7939106124
 20
3.4392963492
 11
5.837495541
 21
3.4392963506
  0
LINE
  5
232
100
AcDbEntity
  8
ALL_FEATURES
100
AcDbLine
 62
9
  6
CONTINUOUS
 10
5.7939106124
 20
3.5087339568
 11
5.8491606124
 21
3.5087339589
  0
LINE
  5
233
100
AcDbEntity
  8
ALL_FEATURES
100
AcDbLine
 62
7
  6
CONTINUOUS
 10
5.0373881607
 20
5.4172681899
 11
5.0373881607
 21
5.1502274627
  0
LINE
  5
234
100
AcDbEntity
  8
ALL_FEATURES
100
AcDbLine
 62
7
  6
CONTINUOUS
 10
4.6346928888
 20
3.6227397022
 11
4.6343321175
 21
3.6223229199
  0
LINE
  5
235
100
AcDbEntity
  8
ALL_FEATURES
100
AcDbLine
 62
7
  6
CONTINUOUS
 10
4.6343979758
 20
3.6126648263
 11
4.7314106124
 21
3.6126648263
  0
LINE
  5
236
100
AcDbEntity
  8
ALL_FEATURES
100
AcDbLine
 62
7
  6
CONTINUOUS
 10
5.9872856124
 20
3.6230603263
 11
5.7939106124
 21
3.6230603263
  0
LINE
  5
237
100
AcDbEntity
  8
ALL_FEATURES
100
AcDbLine
 62
7
  6
CONTINUOUS
 10
4.7314106124
 20
3.6230603263
 11
4.5380356124
 21
3.6230603263
  0
LINE
  5
238
100
AcDbEntity
  8
ALL_FEATURES
100
AcDbLine
 62
9
  6
CONTINUOUS
 10
5.7939106124
 20
3.7150601671
 11
4.7314106124
 21
3.7150601671
  0
LINE
  5
239
100
AcDbEntity
  8
ALL_FEATURES
100
AcDbLine
 62
7
  6
CONTINUOUS
 10
4.5055692665
 20
3.7502203263
 11
4.7275760605
 21
3.7502203263
  0
LINE
  5
23A
100
AcDbEntity
  8
ALL_FEATURES
100
AcDbLine
 62
7
  6
CONTINUOUS
 10
5.7977451644
 20
3.7502203263
 11
6.0197519584
 21
3.7502203263
  0
LINE
  5
23B
100
AcDbEntity
  8
ALL_FEATURES
100
AcDbLine
 62
9
  6
CONTINUOUS
 10
5.7989061413
 20
3.7608656741
 11
4.7264150835
 21
3.7608656741
  0
LINE
  5
23C
100
AcDbEntity
  8
ALL_FEATURES
100
AcDbLine
 62
7
  6
CONTINUOUS
 10
6.0446606124
 20
3.7689774627
 11
6.0238199619
 21
3.7689774627
  0
LINE
  5
23D
100
AcDbEntity
  8
ALL_FEATURES
100
AcDbLine
 62
7
  6
CONTINUOUS
 10
4.501501263
 20
3.7689774627
 11
4.4806606124
 21
3.7689774627
  0
LINE
  5
23E
100
AcDbEntity
  8
ALL_FEATURES
100
AcDbLine
 62
7
  6
CONTINUOUS
 10
4.6961356124
 20
3.8980353263
 11
5.8291856124
 21
3.8980353263
  0
LINE
  5
23F
100
AcDbEntity
  8
ALL_FEATURES
100
AcDbLine
 62
7
  6
CONTINUOUS
 10
6.0446606124
 20
4.0360181899
 11
6.0238199619
 21
4.0360181899
  0
LINE
  5
240
100
AcDbEntity
  8
ALL_FEATURES
100
AcDbLine
 62
7
  6
CONTINUOUS
 10
4.501501263
 20
4.0360181899
 11
4.4806606124
 21
4.0360181899
  0
LINE
  5
241
100
AcDbEntity
  8
ALL_FEATURES
100
AcDbLine
 62
7
  6
CONTINUOUS
 10
5.8554722633
 20
3.6044126644
 11
5.848774161
 21
3.6082823366
  0
LINE
  5
242
100
AcDbEntity
  8
ALL_FEATURES
100
AcDbLine
 62
7
  6
CONTINUOUS
 10
5.4879330641
 20
5.4172681899
 11
5.4879330641
 21
5.1502274627
  0
LINE
  5
243
100
AcDbEntity
  8
ALL_FEATURES
100
AcDbLine
 62
7
  6
CONTINUOUS
 10
4.6007231124
 20
4.0820603263
 11
4.6961356124
 21
4.0820603263
  0
LINE
  5
244
100
AcDbEntity
  8
ALL_FEATURES
100
AcDbLine
 62
7
  6
CONTINUOUS
 10
5.8291856124
 20
4.0820603263
 11
5.9245981124
 21
4.0820603263
  0
LINE
  5
245
100
AcDbEntity
  8
ALL_FEATURES
100
AcDbLine
 62
7
  6
CONTINUOUS
 10
5.7939106124
 20
3.7150601671
 11
5.7939106124
 21
2.0382878943
  0
LINE
  5
246
100
AcDbEntity
  8
ALL_FEATURES
100
AcDbLine
 62
7
  6
CONTINUOUS
 10
5.7939106124
 20
5.4633103263
 11
5.7939106124
 21
5.7229853263
  0
LINE
  5
247
100
AcDbEntity
  8
ALL_FEATURES
100
AcDbLine
 62
7
  6
CONTINUOUS
 10
5.7985475102
 20
5.4172681899
 11
5.7985475102
 21
5.1502274627
  0
LINE
  5
248
100
AcDbEntity
  8
ALL_FEATURES
100
AcDbLine
 62
7
  6
CONTINUOUS
 10
5.8291856124
 20
3.8980353263
 11
5.8291856124
 21
4.9936853263
  0
LINE
  5
249
100
AcDbEntity
  8
ALL_FEATURES
100
AcDbLine
 62
7
  6
CONTINUOUS
 10
5.8491606124
 20
3.6174895024
 11
5.8491606124
 21
3.6078358557
  0
LINE
  5
24A
100
AcDbEntity
  8
ALL_FEATURES
100
AcDbLine
 62
7
  6
CONTINUOUS
 10
5.8491606124
 20
3.5402159687
 11
5.8491606124
 21
3.5087339589
  0
LINE
  5
24B
100
AcDbEntity
  8
ALL_FEATURES
100
AcDbLine
 62
7
  6
CONTINUOUS
 10
5.8558543624
 20
3.5440806071
 11
5.8558543624
 21
3.6039712173
  0
LINE
  5
24C
100
AcDbEntity
  8
ALL_FEATURES
100
AcDbLine
 62
7
  6
CONTINUOUS
 10
5.8710141075
 20
4.9936853263
 11
5.8710141075
 21
5.0035729199
  0
LWPOLYLINE
  5
24D
100
AcDbEntity
  8
ALL_FEATURES
100
AcDbPolyline
 62
7
  6
CONTINUOUS
 90
4
 70
0
 10
5.7939088157
 20
3.2775371029
 10
5.7939190803
 20
3.2796258017
 10
5.7943288484
 20
3.2908913535
 10
5.795335473
 20
3.3021193074
  0
LINE
  5
24E
100
AcDbEntity
  8
ALL_FEATURES
100
AcDbLine
 62
7
  6
CONTINUOUS
 10
5.7989061416
 20
3.7608656753
 11
5.7939106124
 21
3.7150601671
  0
LWPOLYLINE
  5
24F
100
AcDbEntity
  8
ALL_FEATURES
100
AcDbPolyline
 62
7
  6
CONTINUOUS
 90
3
 70
0
 10
5.795335473
 20
3.3021193074
 10
5.7969361193
 20
3.3132780671
 10
5.79912628
 20
3.3243362243
  0
LINE
  5
250
100
AcDbEntity
  8
ALL_FEATURES
100
AcDbLine
 62
7
  6
CONTINUOUS
 10
5.7989061416
 20
3.7608656753
 11
5.8291856124
 21
3.8980353263
  0
LWPOLYLINE
  5
251
100
AcDbEntity
  8
ALL_FEATURES
100
AcDbPolyline
 62
7
  6
CONTINUOUS
 90
3
 70
0
 10
5.79912628
 20
3.3243362243
 10
5.8018997859
 20
3.335262647
 10
5.8055736151
 20
3.3469731826
  0
LINE
  5
252
100
AcDbEntity
  8
ALL_FEATURES
100
AcDbLine
 62
7
  6
CONTINUOUS
 10
5.8374955411
 20
3.4392963506
 11
5.8055750988
 21
3.34697261
  0
LINE
  5
253
100
AcDbEntity
  8
ALL_FEATURES
100
AcDbLine
 62
7
  6
CONTINUOUS
 10
5.8487741603
 20
3.6170430206
 11
5.8591896922
 21
3.6230603263
  0
LINE
  5
254
100
AcDbEntity
  8
ALL_FEATURES
100
AcDbLine
 62
7
  6
CONTINUOUS
 10
5.848774161
 20
3.5397694877
 11
5.8554722632
 21
3.5436391599
  0
LINE
  5
255
100
AcDbEntity
  8
ALL_FEATURES
100
AcDbLine
 62
7
  6
CONTINUOUS
 10
4.6860933867
 20
5.0043103263
 11
4.696535662
 21
4.9982772927
  0
LINE
  5
256
100
AcDbEntity
  8
ALL_FEATURES
100
AcDbLine
 62
7
  6
CONTINUOUS
 10
5.9872856124
 20
3.6230603263
 11
5.9872856124
 21
3.7502203263
  0
LINE
  5
257
100
AcDbEntity
  8
ALL_FEATURES
100
AcDbLine
 62
7
  6
CONTINUOUS
 10
5.9872856124
 20
5.0043103263
 11
5.9872856124
 21
5.1314703263
  0
LINE
  5
258
100
AcDbEntity
  8
ALL_FEATURES
100
AcDbLine
 62
7
  6
CONTINUOUS
 10
6.0238199619
 20
5.4172681899
 11
6.0238199619
 21
5.1502274627
  0
LINE
  5
259
100
AcDbEntity
  8
ALL_FEATURES
100
AcDbLine
 62
7
  6
CONTINUOUS
 10
6.0238199619
 20
4.0360181899
 11
6.0238199619
 21
3.7689774627
  0
LINE
  5
25A
100
AcDbEntity
  8
ALL_FEATURES
100
AcDbLine
 62
7
  6
CONTINUOUS
 10
6.0446606124
 20
5.4172681899
 11
6.0446606124
 21
5.1502274627
  0
LINE
  5
25B
100
AcDbEntity
  8
ALL_FEATURES
100
AcDbLine
 62
7
  6
CONTINUOUS
 10
6.0446606124
 20
4.0360181899
 11
6.0446606124
 21
3.7689774627
  0
LINE
  5
25C
100
AcDbEntity
  8
ALL_FEATURES
100
AcDbLine
 62
7
  6
CONTINUOUS
 10
4.7352949736
 20
4.9936853263
 11
5.8709480877
 21
4.9936853263
  0
LINE
  5
25D
100
AcDbEntity
  8
ALL_FEATURES
100
AcDbLine
 62
7
  6
CONTINUOUS
 10
5.9872856124
 20
5.0043103263
 11
4.5380356124
 21
5.0043103263
  0
LINE
  5
25E
100
AcDbEntity
  8
ALL_FEATURES
100
AcDbLine
 62
7
  6
CONTINUOUS
 10
4.5055692665
 20
5.1314703263
 11
6.0197519584
 21
5.1314703263
  0
LINE
  5
25F
100
AcDbEntity
  8
ALL_FEATURES
100
AcDbLine
 62
7
  6
CONTINUOUS
 10
6.0446606124
 20
5.1502274627
 11
6.0238199619
 21
5.1502274627
  0
LINE
  5
260
100
AcDbEntity
  8
ALL_FEATURES
100
AcDbLine
 62
7
  6
CONTINUOUS
 10
5.7985475102
 20
5.1502274627
 11
5.4879330641
 21
5.1502274627
  0
LINE
  5
261
100
AcDbEntity
  8
ALL_FEATURES
100
AcDbLine
 62
7
  6
CONTINUOUS
 10
5.0373881607
 20
5.1502274627
 11
4.7267737147
 21
5.1502274627
  0
LINE
  5
262
100
AcDbEntity
  8
ALL_FEATURES
100
AcDbLine
 62
7
  6
CONTINUOUS
 10
4.501501263
 20
5.1502274627
 11
4.4806606124
 21
5.1502274627
  0
LINE
  5
263
100
AcDbEntity
  8
ALL_FEATURES
100
AcDbLine
 62
7
  6
CONTINUOUS
 10
5.8706415119
 20
5.0040033761
 11
5.8710141075
 21
5.0035729199
  0
LINE
  5
264
100
AcDbEntity
  8
ALL_FEATURES
100
AcDbLine
 62
7
  6
CONTINUOUS
 10
6.0446606124
 20
5.4172681899
 11
6.0238199619
 21
5.4172681899
  0
LINE
  5
265
100
AcDbEntity
  8
ALL_FEATURES
100
AcDbLine
 62
7
  6
CONTINUOUS
 10
5.7985475102
 20
5.4172681899
 11
5.4879330641
 21
5.4172681899
  0
LINE
  5
266
100
AcDbEntity
  8
ALL_FEATURES
100
AcDbLine
 62
7
  6
CONTINUOUS
 10
5.0373881607
 20
5.4172681899
 11
4.7267737147
 21
5.4172681899
  0
LINE
  5
267
100
AcDbEntity
  8
ALL_FEATURES
100
AcDbLine
 62
7
  6
CONTINUOUS
 10
4.501501263
 20
5.4172681899
 11
4.4806606124
 21
5.4172681899
  0
LINE
  5
268
100
AcDbEntity
  8
ALL_FEATURES
100
AcDbLine
 62
7
  6
CONTINUOUS
 10
4.6007231124
 20
5.4633103263
 11
5.9245981124
 21
5.4633103263
  0
ARC
  5
269
100
AcDbEntity
  8
ALL_FEATURES
100
AcDbCircle
 62
7
  6
CONTINUOUS
 10
5.2626606124
 20
5.7229853263
 40
0.53125
100
AcDbArc
 50
0.0
 51
180.0
  0
ARC
  5
26A
100
AcDbEntity
  8
ALL_FEATURES
100
AcDbCircle
 62
7
  6
CONTINUOUS
 10
5.2626606124
 20
2.0382353263
 40
0.53125
100
AcDbArc
 50
180.0
 51
360.0
  0
ARC
  5
26B
100
AcDbEntity
  8
ALL_FEATURES
100
AcDbCircle
 62
7
  6
CONTINUOUS
 10
5.6366606124
 20
3.5087339589
 40
0.2125
100
AcDbArc
 50
340.9274456121
 51
360.0
  0
ARC
  5
26C
100
AcDbEntity
  8
ALL_FEATURES
100
AcDbCircle
 62
7
  6
CONTINUOUS
 10
4.8886606124
 20
3.5087339589
 40
0.2125
100
AcDbArc
 50
181.8710963079
 51
199.0725543879
  0
ARC
  5
26D
100
AcDbEntity
  8
ALL_FEATURES
100
AcDbCircle
 62
7
  6
CONTINUOUS
 10
4.6007231124
 20
3.9024978263
 40
0.1795625
100
AcDbArc
 50
228.0378870141
 51
237.9999179489
  0
ARC
  5
26E
100
AcDbEntity
  8
ALL_FEATURES
100
AcDbCircle
 62
7
  6
CONTINUOUS
 10
5.9245981124
 20
3.9024978263
 40
0.1795625
100
AcDbArc
 50
48.0378870141
 51
90.0
  0
ARC
  5
26F
100
AcDbEntity
  8
ALL_FEATURES
100
AcDbCircle
 62
7
  6
CONTINUOUS
 10
5.9245981124
 20
3.9024978263
 40
0.1795625
100
AcDbArc
 50
302.0000820511
 51
311.9621129859
  0
ARC
  5
270
100
AcDbEntity
  8
ALL_FEATURES
100
AcDbCircle
 62
7
  6
CONTINUOUS
 10
4.6007231124
 20
3.9024978263
 40
0.1795625
100
AcDbArc
 50
90.0
 51
131.9621129859
  0
ARC
  5
271
100
AcDbEntity
  8
ALL_FEATURES
100
AcDbCircle
 62
7
  6
CONTINUOUS
 10
4.6007231124
 20
5.2837478263
 40
0.1795625
100
AcDbArc
 50
228.0378870141
 51
237.9999179489
  0
ARC
  5
272
100
AcDbEntity
  8
ALL_FEATURES
100
AcDbCircle
 62
7
  6
CONTINUOUS
 10
5.9245981124
 20
5.2837478263
 40
0.1795625
100
AcDbArc
 50
48.0378870141
 51
90.0
  0
ARC
  5
273
100
AcDbEntity
  8
ALL_FEATURES
100
AcDbCircle
 62
7
  6
CONTINUOUS
 10
5.9245981124
 20
5.2837478263
 40
0.1795625
100
AcDbArc
 50
302.0000820511
 51
311.9621129859
  0
ARC
  5
274
100
AcDbEntity
  8
ALL_FEATURES
100
AcDbCircle
 62
7
  6
CONTINUOUS
 10
4.6007231124
 20
5.2837478263
 40
0.1795625
100
AcDbArc
 50
90.0
 51
131.9621129859
  0
ARC
  5
275
100
AcDbEntity
  8
ALL_FEATURES
100
AcDbCircle
 62
7
  6
CONTINUOUS
 10
4.6477157703
 20
3.9219748948
 40
0.1722183608
100
AcDbArc
 50
293.8716097435
 51
296.0512928956
  0
ARC
  5
276
100
AcDbEntity
  8
ALL_FEATURES
100
AcDbCircle
 62
7
  6
CONTINUOUS
 10
5.8770432709
 20
3.9207671574
 40
0.1708864326
100
AcDbArc
 50
243.9402030891
 51
246.1371251116
  0
ARC
  5
277
100
AcDbEntity
  8
ALL_FEATURES
100
AcDbCircle
 62
7
  6
CONTINUOUS
 10
4.6499296046
 20
3.9173641247
 40
0.1671037811
100
AcDbArc
 50
296.063645398
 51
296.6341133363
  0
ARC
  5
278
100
AcDbEntity
  8
ALL_FEATURES
100
AcDbCircle
 62
7
  6
CONTINUOUS
 10
5.8752693154
 20
3.9171171899
 40
0.166828221
100
AcDbArc
 50
243.3654150663
 51
243.9368184177
  0
SPLINE
  5
279
100
AcDbEntity
  8
ALL_FEATURES
100
AcDbSpline
 62
7
  6
CONTINUOUS
 70
0
 71
3
 72
21
 73
17
 74
0
 42
0.0000001
 43
0.0000001
 44
0.0000000001
 40
0.0
 40
0.0
 40
0.0
 40
0.0
 40
0.0660784306
 40
0.1307168401
 40
0.1942994417
 40
0.2571274322
 40
0.319427647
 40
0.3813622537
 40
0.5045618998
 40
0.6274331381
 40
0.7504858079
 40
0.8122715157
 40
0.8743518052
 40
0.9055459995
 40
0.936868812
 40
1.0
 40
1.0
 40
1.0
 40
1.0
 10
6.0238199619
 20
4.0360181899
 30
0.0
 10
6.0199244837
 20
4.0380363331
 30
0.0
 10
6.0120559819
 20
4.0417226351
 30
0.0
 10
5.9999955828
 20
4.0463277948
 30
0.0
 10
5.9878725563
 20
4.050086969
 30
0.0
 10
5.9757048179
 20
4.0531003653
 30
0.0
 10
5.9635083606
 20
4.0554715033
 30
0.0
 10
5.9472496365
 20
4.0578570373
 30
0.0
 10
5.9268479797
 20
4.0595615444
 30
0.0
 10
5.9023224517
 20
4.0598038947
 30
0.0
 10
5.8819104333
 20
4.0585302692
 30
0.0
 10
5.8656346275
 20
4.0565331979
 30
0.0
 10
5.8554766099
 20
4.0548339764
 30
0.0
 10
5.8473714001
 20
4.0531746132
 30
0.0
 10
5.8392427677
 20
4.0512961961
 30
0.0
 10
5.8331906476
 20
4.0496359654
 30
0.0
 10
5.8291837376
 20
4.0484056645
 30
0.0
  0
SPLINE
  5
27A
100
AcDbEntity
  8
ALL_FEATURES
100
AcDbSpline
 62
7
  6
CONTINUOUS
 70
0
 71
3
 72
11
 73
7
 74
0
 42
0.0000001
 43
0.0000001
 44
0.0000000001
 40
0.0
 40
0.0
 40
0.0
 40
0.0
 40
0.244120935
 40
0.4911095506
 40
0.7423892557
 40
1.0
 40
1.0
 40
1.0
 40
1.0
 10
5.9668860332
 20
3.7502203263
 30
0.0
 10
5.9716999107
 20
3.7511055855
 30
0.0
 10
5.9813370402
 20
3.7531585153
 30
0.0
 10
5.9956795003
 20
3.7571821835
 30
0.0
 10
6.00994735
 20
3.7623347407
 30
0.0
 10
6.0192338149
 20
3.7666015024
 30
0.0
 10
6.0238199619
 20
3.7689774627
 30
0.0
  0
SPLINE
  5
27B
100
AcDbEntity
  8
ALL_FEATURES
100
AcDbSpline
 62
7
  6
CONTINUOUS
 70
0
 71
3
 72
11
 73
7
 74
0
 42
0.0000001
 43
0.0000001
 44
0.0000000001
 40
0.0
 40
0.0
 40
0.0
 40
0.0
 40
0.2554107316
 40
0.5064517394
 40
0.7543460028
 40
1.0
 40
1.0
 40
1.0
 40
1.0
 10
5.8079113174
 20
3.7644887333
 30
0.0
 10
5.8117860415
 20
3.7627736514
 30
0.0
 10
5.8195947952
 20
3.7596503308
 30
0.0
 10
5.8315002424
 20
3.7557688434
 30
0.0
 10
5.843453183
 20
3.7526267457
 30
0.0
 10
5.8514731851
 20
3.7509574335
 30
0.0
 10
5.8554814389
 20
3.7502203263
 30
0.0
  0
SPLINE
  5
27C
100
AcDbEntity
  8
ALL_FEATURES
100
AcDbSpline
 62
7
  6
CONTINUOUS
 70
0
 71
3
 72
21
 73
17
 74
0
 42
0.0000001
 43
0.0000001
 44
0.0000000001
 40
0.0
 40
0.0
 40
0.0
 40
0.0
 40
0.0631310702
 40
0.0944538529
 40
0.1256480153
 40
0.18772824
 40
0.2495138705
 40
0.372566412
 40
0.4954375073
 40
0.6186370495
 40
0.6805715779
 40
0.7428716966
 40
0.8056996293
 40
0.8692826295
 40
0.933921451
 40
1.0
 40
1.0
 40
1.0
 40
1.0
 10
4.6961373937
 20
4.048405698
 30
0.0
 10
4.6921304906
 20
4.0496359886
 30
0.0
 10
4.6860783747
 20
4.0512961848
 30
0.0
 10
4.6779497638
 20
4.0531746233
 30
0.0
 10
4.6698445701
 20
4.0548340076
 30
0.0
 10
4.6596865578
 20
4.0565331619
 30
0.0
 10
4.6434107886
 20
4.0585303133
 30
0.0
 10
4.6229987962
 20
4.0598039015
 30
0.0
 10
4.5984733097
 20
4.0595615528
 30
0.0
 10
4.5780716706
 20
4.0578571298
 30
0.0
 10
4.561812994
 20
4.055471463
 30
0.0
 10
4.5496165328
 20
4.0531004589
 30
0.0
 10
4.5374487967
 20
4.0500869967
 30
0.0
 10
4.5253257321
 20
4.0463278113
 30
0.0
 10
4.5132652304
 20
4.0417227526
 30
0.0
 10
4.5053967464
 20
4.0380363359
 30
0.0
 10
4.501501263
 20
4.0360181899
 30
0.0
  0
SPLINE
  5
27D
100
AcDbEntity
  8
ALL_FEATURES
100
AcDbSpline
 62
7
  6
CONTINUOUS
 70
0
 71
3
 72
11
 73
7
 74
0
 42
0.0000001
 43
0.0000001
 44
0.0000000001
 40
0.0
 40
0.0
 40
0.0
 40
0.0
 40
0.2456539045
 40
0.4935481143
 40
0.7445891369
 40
1.0
 40
1.0
 40
1.0
 40
1.0
 10
4.6698397859
 20
3.7502203263
 30
0.0
 10
4.673848096
 20
3.7509574438
 30
0.0
 10
4.6818682109
 20
3.7526267823
 30
0.0
 10
4.6938213185
 20
3.7557689384
 30
0.0
 10
4.7057269308
 20
3.7596505076
 30
0.0
 10
4.7135357891
 20
3.7627739006
 30
0.0
 10
4.717410564
 20
3.7644890239
 30
0.0
  0
SPLINE
  5
27E
100
AcDbEntity
  8
ALL_FEATURES
100
AcDbSpline
 62
7
  6
CONTINUOUS
 70
0
 71
3
 72
11
 73
7
 74
0
 42
0.0000001
 43
0.0000001
 44
0.0000000001
 40
0.0
 40
0.0
 40
0.0
 40
0.0
 40
0.2576107464
 40
0.5088904546
 40
0.7558790696
 40
1.0
 40
1.0
 40
1.0
 40
1.0
 10
4.501501263
 20
3.7689774627
 30
0.0
 10
4.50608741
 20
3.7666015024
 30
0.0
 10
4.515373875
 20
3.7623347406
 30
0.0
 10
4.5296417248
 20
3.7571821834
 30
0.0
 10
4.5439841849
 20
3.7531585153
 30
0.0
 10
4.5536213142
 20
3.7511055855
 30
0.0
 10
4.5584351917
 20
3.7502203263
 30
0.0
  0
SPLINE
  5
27F
100
AcDbEntity
  8
ALL_FEATURES
100
AcDbSpline
 62
7
  6
CONTINUOUS
 70
0
 71
3
 72
18
 73
14
 74
0
 42
0.0000001
 43
0.0000001
 44
0.0000000001
 40
0.0
 40
0.0
 40
0.0
 40
0.0
 40
0.1249919918
 40
0.1874905931
 40
0.2499892108
 40
0.3749832183
 40
0.4999804945
 40
0.6249767625
 40
0.6874780943
 40
0.7499801926
 40
0.8124871394
 40
0.8750017684
 40
1.0
 40
1.0
 40
1.0
 40
1.0
 10
5.2626606124
 20
5.4408748728
 30
0.0
 10
5.2532000687
 20
5.4408748728
 30
0.0
 10
5.239008429
 20
5.4407274506
 30
0.0
 10
5.220093318
 20
5.4402258935
 30
0.0
 10
5.2011845892
 20
5.4395183469
 30
0.0
 10
5.1775652346
 20
5.438229101
 30
0.0
 10
5.1492691342
 20
5.4359764665
 30
0.0
 10
5.1257501322
 20
5.4334287601
 30
0.0
 10
5.1069926681
 20
5.4309305169
 30
0.0
 10
5.0929594575
 20
5.4288046586
 30
0.0
 10
5.0789689138
 20
5.4264062814
 30
0.0
 10
5.0603877053
 20
5.4228179363
 30
0.0
 10
5.04654689
 20
5.4196406364
 30
0.0
 10
5.0373881607
 20
5.4172681899
 30
0.0
  0
SPLINE
  5
280
100
AcDbEntity
  8
ALL_FEATURES
100
AcDbSpline
 62
7
  6
CONTINUOUS
 70
0
 71
3
 72
18
 73
14
 74
0
 42
0.0000001
 43
0.0000001
 44
0.0000000001
 40
0.0
 40
0.0
 40
0.0
 40
0.0
 40
0.1249982278
 40
0.1875128564
 40
0.2500198057
 40
0.3125219093
 40
0.3750232483
 40
0.5000195231
 40
0.6250168037
 40
0.7500108078
 40
0.8125094199
 40
0.8750080156
 40
1.0
 40
1.0
 40
1.0
 40
1.0
 10
5.4879330641
 20
5.4172681899
 30
0.0
 10
5.4787743351
 20
5.4196406364
 30
0.0
 10
5.4649335201
 20
5.4228179357
 30
0.0
 10
5.4463523118
 20
5.4264062811
 30
0.0
 10
5.4323617676
 20
5.4288046593
 30
0.0
 10
5.418328556
 20
5.4309305189
 30
0.0
 10
5.3995710903
 20
5.4334287603
 30
0.0
 10
5.3760520871
 20
5.4359764691
 30
0.0
 10
5.3477559858
 20
5.4382290982
 30
0.0
 10
5.3241366317
 20
5.4395183494
 30
0.0
 10
5.3052279039
 20
5.4402258931
 30
0.0
 10
5.2863127943
 20
5.4407274483
 30
0.0
 10
5.2721211556
 20
5.4408748728
 30
0.0
 10
5.2626606124
 20
5.4408748728
 30
0.0
  0
SPLINE
  5
281
100
AcDbEntity
  8
ALL_FEATURES
100
AcDbSpline
 62
7
  6
CONTINUOUS
 70
0
 71
3
 72
11
 73
7
 74
0
 42
0.0000001
 43
0.0000001
 44
0.0000000001
 40
0.0
 40
0.0
 40
0.0
 40
0.0
 40
0.250004467
 40
0.5000065447
 40
0.7500054135
 40
1.0
 40
1.0
 40
1.0
 40
1.0
 10
5.3740652067
 20
5.1314703263
 30
0.0
 10
5.3836514588
 20
5.1323517694
 30
0.0
 10
5.402800175
 20
5.1343885851
 30
0.0
 10
5.4314070725
 20
5.1383939852
 30
0.0
 10
5.4598368998
 20
5.1435148855
 30
0.0
 10
5.478614322
 20
5.147813567
 30
0.0
 10
5.4879330641
 20
5.1502274627
 30
0.0
  0
SPLINE
  5
282
100
AcDbEntity
  8
ALL_FEATURES
100
AcDbSpline
 62
7
  6
CONTINUOUS
 70
0
 71
3
 72
11
 73
7
 74
0
 42
0.0000001
 43
0.0000001
 44
0.0000000001
 40
0.0
 40
0.0
 40
0.0
 40
0.0
 40
0.2499945884
 40
0.4999934604
 40
0.7499955378
 40
1.0
 40
1.0
 40
1.0
 40
1.0
 10
5.0373881607
 20
5.1502274627
 30
0.0
 10
5.0467069029
 20
5.147813567
 30
0.0
 10
5.0654843253
 20
5.1435148854
 30
0.0
 10
5.0939141528
 20
5.1383939852
 30
0.0
 10
5.1225210503
 20
5.1343885851
 30
0.0
 10
5.1416697662
 20
5.1323517694
 30
0.0
 10
5.1512560182
 20
5.1314703263
 30
0.0
  0
SPLINE
  5
283
100
AcDbEntity
  8
ALL_FEATURES
100
AcDbSpline
 62
7
  6
CONTINUOUS
 70
0
 71
3
 72
35
 73
31
 74
0
 42
0.0000001
 43
0.0000001
 44
0.0000000001
 40
0.0
 40
0.0
 40
0.0
 40
0.0
 40
0.0330321249
 40
0.0655930171
 40
0.0977603575
 40
0.1295982417
 40
0.1611620253
 40
0.1925012933
 40
0.2236579641
 40
0.2546664325
 40
0.2855546974
 40
0.3163464751
 40
0.3470616379
 40
0.3777167642
 40
0.4389003652
 40
0.5000003228
 40
0.561100265
 40
0.6222838607
 40
0.6529389537
 40
0.6836540913
 40
0.7144458598
 40
0.7453341094
 40
0.7763425616
 40
0.807499217
 40
0.8388384248
 40
0.870402088
 40
0.9022398157
 40
0.9344070546
 40
0.9669678932
 40
1.0
 40
1.0
 40
1.0
 40
1.0
 10
6.0238199619
 20
5.4172681899
 30
0.0
 10
6.0215489271
 20
5.4184447524
 30
0.0
 10
6.0169843869
 20
5.4206767718
 30
0.0
 10
6.010041299
 20
5.423697897
 30
0.0
 10
6.0030648641
 20
5.426393916
 30
0.0
 10
5.9960633775
 20
5.4287947948
 30
0.0
 10
5.9890417619
 20
5.4309241433
 30
0.0
 10
5.9820031281
 20
5.4328005519
 30
0.0
 10
5.97495077
 20
5.4344437304
 30
0.0
 10
5.9678878109
 20
5.4358733493
 30
0.0
 10
5.9608158305
 20
5.4371016112
 30
0.0
 10
5.9537365778
 20
5.4381401864
 30
0.0
 10
5.946651812
 20
5.4390013706
 30
0.0
 10
5.9372067418
 20
5.4399258373
 30
0.0
 10
5.9253841706
 20
5.4406763064
 30
0.0
 10
5.9111836643
 20
5.440975057
 30
0.0
 10
5.8969831599
 20
5.4406762659
 30
0.0
 10
5.8851605921
 20
5.4399258314
 30
0.0
 10
5.8757155221
 20
5.439001402
 30
0.0
 10
5.8686307752
 20
5.4381401049
 30
0.0
 10
5.8615515214
 20
5.4371015726
 30
0.0
 10
5.8544795338
 20
5.4358733658
 30
0.0
 10
5.847416588
 20
5.4344436965
 30
0.0
 10
5.8403642496
 20
5.4328004679
 30
0.0
 10
5.8333256199
 20
5.4309241057
 30
0.0
 10
5.8263040177
 20
5.4287947993
 30
0.0
 10
5.819302578
 20
5.4263938734
 30
0.0
 10
5.8123261676
 20
5.4236978603
 30
0.0
 10
5.8053830839
 20
5.4206767591
 30
0.0
 10
5.8008185438
 20
5.4184447518
 30
0.0
 10
5.7985475102
 20
5.4172681899
 30
0.0
  0
SPLINE
  5
284
100
AcDbEntity
  8
ALL_FEATURES
100
AcDbSpline
 62
7
  6
CONTINUOUS
 70
0
 71
3
 72
11
 73
7
 74
0
 42
0.0000001
 43
0.0000001
 44
0.0000000001
 40
0.0
 40
0.0
 40
0.0
 40
0.0
 40
0.244120935
 40
0.4911095506
 40
0.7423892557
 40
1.0
 40
1.0
 40
1.0
 40
1.0
 10
5.9668860332
 20
5.1314703263
 30
0.0
 10
5.9716999107
 20
5.1323555855
 30
0.0
 10
5.9813370402
 20
5.1344085153
 30
0.0
 10
5.9956795003
 20
5.1384321835
 30
0.0
 10
6.00994735
 20
5.1435847407
 30
0.0
 10
6.0192338149
 20
5.1478515024
 30
0.0
 10
6.0238199619
 20
5.1502274627
 30
0.0
  0
SPLINE
  5
285
100
AcDbEntity
  8
ALL_FEATURES
100
AcDbSpline
 62
7
  6
CONTINUOUS
 70
0
 71
3
 72
11
 73
7
 74
0
 42
0.0000001
 43
0.0000001
 44
0.0000000001
 40
0.0
 40
0.0
 40
0.0
 40
0.0
 40
0.2576107464
 40
0.5088904546
 40
0.7558790696
 40
1.0
 40
1.0
 40
1.0
 40
1.0
 10
5.7985475102
 20
5.1502274627
 30
0.0
 10
5.8031336572
 20
5.1478515024
 30
0.0
 10
5.8124201222
 20
5.1435847406
 30
0.0
 10
5.8266879721
 20
5.1384321834
 30
0.0
 10
5.8410304321
 20
5.1344085153
 30
0.0
 10
5.8506675615
 20
5.1323555855
 30
0.0
 10
5.8554814389
 20
5.1314703263
 30
0.0
  0
SPLINE
  5
286
100
AcDbEntity
  8
ALL_FEATURES
100
AcDbSpline
 62
7
  6
CONTINUOUS
 70
0
 71
3
 72
35
 73
31
 74
0
 42
0.0000001
 43
0.0000001
 44
0.0000000001
 40
0.0
 40
0.0
 40
0.0
 40
0.0
 40
0.0330320821
 40
0.065592879
 40
0.0977600543
 40
0.1295976949
 40
0.1611612911
 40
0.1925004611
 40
0.2236570987
 40
0.2546655308
 40
0.285553759
 40
0.3163455073
 40
0.3470606156
 40
0.3777156761
 40
0.4388992319
 40
0.4999991191
 40
0.561099024
 40
0.6222825596
 40
0.652937679
 40
0.6836528251
 40
0.7144445724
 40
0.745332809
 40
0.7763412306
 40
0.8074978444
 40
0.8388371468
 40
0.8704011077
 40
0.9022392797
 40
0.9344068249
 40
0.9669678376
 40
1.0
 40
1.0
 40
1.0
 40
1.0
 10
4.7267737147
 20
5.4172681899
 30
0.0
 10
4.7245026827
 20
5.4184447509
 30
0.0
 10
4.7199381447
 20
5.4206767512
 30
0.0
 10
4.7129950662
 20
5.4236978393
 30
0.0
 10
4.7060186709
 20
5.4263938491
 30
0.0
 10
4.6990172567
 20
5.4287947982
 30
0.0
 10
4.6919956636
 20
5.4309240853
 30
0.0
 10
4.6849570382
 20
5.4328004257
 30
0.0
 10
4.6779047116
 20
5.434443678
 30
0.0
 10
4.6708417739
 20
5.435873367
 30
0.0
 10
4.6637697864
 20
5.4371015488
 30
0.0
 10
4.6566905361
 20
5.4381400636
 30
0.0
 10
4.649605802
 20
5.4390014143
 30
0.0
 10
4.6401607369
 20
5.439925819
 30
0.0
 10
4.6283381791
 20
5.4406762551
 30
0.0
 10
4.6141376865
 20
5.4409750311
 30
0.0
 10
4.5999371912
 20
5.4406763559
 30
0.0
 10
4.5881146331
 20
5.4399258136
 30
0.0
 10
4.578669571
 20
5.4390013466
 30
0.0
 10
4.5715847954
 20
5.4381402746
 30
0.0
 10
4.5645055562
 20
5.4371016375
 30
0.0
 10
4.5574335966
 20
5.43587331
 30
0.0
 10
4.5503706272
 20
5.4344437979
 30
0.0
 10
4.5433182609
 20
5.4328006715
 30
0.0
 10
4.5362796363
 20
5.4309241775
 30
0.0
 10
4.5292580011
 20
5.4287947679
 30
0.0
 10
4.522256415
 20
5.4263940201
 30
0.0
 10
4.5152799323
 20
5.4236979869
 30
0.0
 10
4.5083368391
 20
5.4206768029
 30
0.0
 10
4.5037723004
 20
5.4184447538
 30
0.0
 10
4.501501263
 20
5.4172681899
 30
0.0
  0
SPLINE
  5
287
100
AcDbEntity
  8
ALL_FEATURES
100
AcDbSpline
 62
7
  6
CONTINUOUS
 70
0
 71
3
 72
11
 73
7
 74
0
 42
0.0000001
 43
0.0000001
 44
0.0000000001
 40
0.0
 40
0.0
 40
0.0
 40
0.0
 40
0.244120935
 40
0.4911095506
 40
0.7423892557
 40
1.0
 40
1.0
 40
1.0
 40
1.0
 10
4.6698397859
 20
5.1314703263
 30
0.0
 10
4.6746536635
 20
5.1323555855
 30
0.0
 10
4.6842907929
 20
5.1344085153
 30
0.0
 10
4.698633253
 20
5.1384321835
 30
0.0
 10
4.7129011027
 20
5.1435847407
 30
0.0
 10
4.7221875677
 20
5.1478515024
 30
0.0
 10
4.7267737147
 20
5.1502274627
 30
0.0
  0
SPLINE
  5
288
100
AcDbEntity
  8
ALL_FEATURES
100
AcDbSpline
 62
7
  6
CONTINUOUS
 70
0
 71
3
 72
11
 73
7
 74
0
 42
0.0000001
 43
0.0000001
 44
0.0000000001
 40
0.0
 40
0.0
 40
0.0
 40
0.0
 40
0.2576107464
 40
0.5088904546
 40
0.7558790696
 40
1.0
 40
1.0
 40
1.0
 40
1.0
 10
4.501501263
 20
5.1502274627
 30
0.0
 10
4.50608741
 20
5.1478515024
 30
0.0
 10
4.515373875
 20
5.1435847406
 30
0.0
 10
4.5296417248
 20
5.1384321834
 30
0.0
 10
4.5439841849
 20
5.1344085153
 30
0.0
 10
4.5536213142
 20
5.1323555855
 30
0.0
 10
4.5584351917
 20
5.1314703263
 30
0.0
  0
LINE
  5
289
100
AcDbEntity
  8
ALL_FEATURES
100
AcDbLine
 62
7
  6
CONTINUOUS
 10
5.8558538101
 20
3.6039712184
 11
5.8554708746
 21
3.6044126641
  0
LINE
  5
28A
100
AcDbEntity
  8
ALL_FEATURES
100
AcDbLine
 62
7
  6
CONTINUOUS
 10
5.8558526775
 20
3.544080608
 11
5.8554713705
 21
3.543639162
  0
LINE
  5
28B
100
AcDbEntity
  8
ALL_FEATURES
100
AcDbLine
 62
7
  6
CONTINUOUS
 10
4.6694678987
 20
3.5653344961
 11
4.6698508234
 21
3.5657759408
  0
SPLINE
  5
28C
100
AcDbEntity
  8
ALL_FEATURES
100
AcDbSpline
 62
7
  6
CONTINUOUS
 70
0
 71
3
 72
12
 73
8
 74
0
 42
0.0000001
 43
0.0000001
 44
0.0000000001
 40
0.0
 40
0.0
 40
0.0
 40
0.0
 40
0.3242165621
 40
0.5995713881
 40
0.8251145727
 40
0.9189285817
 40
1.0
 40
1.0
 40
1.0
 40
1.0
 10
4.7311972038
 20
3.5069496674
 30
0.0
 10
4.7262848445
 20
3.5067061523
 30
0.0
 10
4.7172017422
 20
3.5062281758
 30
0.0
 10
4.7047083342
 20
3.5054566544
 30
0.0
 10
4.6957110063
 20
3.5047850478
 30
0.0
 10
4.6896615276
 20
3.5042325238
 30
0.0
 10
4.6870230143
 20
3.5039539424
 30
0.0
 10
4.6858013687
 20
3.5038120362
 30
0.0
  0
SPLINE
  5
28D
100
AcDbEntity
  8
ALL_FEATURES
100
AcDbSpline
 62
7
  6
CONTINUOUS
 70
0
 71
3
 72
15
 73
11
 74
0
 42
0.0000001
 43
0.0000001
 44
0.0000000001
 40
0.0
 40
0.0
 40
0.0
 40
0.0
 40
0.395139813
 40
0.5560465717
 40
0.692519226
 40
0.8046420435
 40
0.8926401798
 40
0.9571238668
 40
0.9810524893
 40
1.0
 40
1.0
 40
1.0
 40
1.0
 10
4.6858013687
 20
3.5038120362
 30
0.0
 10
4.6845154887
 20
3.5036626684
 30
0.0
 10
4.6827077663
 20
3.5034340568
 30
0.0
 10
4.6804669783
 20
3.5030772142
 30
0.0
 10
4.6791484062
 20
3.5028291462
 30
0.0
 10
4.6780727985
 20
3.5025829284
 30
0.0
 10
4.6772410626
 20
3.5023385197
 30
0.0
 10
4.6767018941
 20
3.5021222257
 30
0.0
 10
4.6764011722
 20
3.5019384932
 30
0.0
 10
4.6762941625
 20
3.5018453
 30
0.0
 10
4.6762540631
 20
3.5017979157
 30
0.0
  0
LINE
  5
28E
100
AcDbEntity
  8
ALL_FEATURES
100
AcDbLine
 62
7
  6
CONTINUOUS
 10
4.6762540631
 20
3.5017979157
 11
4.6761616518
 21
3.5015792394
  0
LINE
  5
28F
100
AcDbEntity
  8
ALL_FEATURES
100
AcDbLine
 62
7
  6
CONTINUOUS
 10
4.6761616518
 20
3.5015792394
 11
4.6762705944
 21
3.5013423299
  0
LINE
  5
290
100
AcDbEntity
  8
ALL_FEATURES
100
AcDbLine
 62
7
  6
CONTINUOUS
 10
4.6698508234
 20
3.5657759408
 11
4.6713633252
 21
3.5663177806
  0
SPLINE
  5
291
100
AcDbEntity
  8
ALL_FEATURES
100
AcDbSpline
 62
7
  6
CONTINUOUS
 70
0
 71
3
 72
11
 73
7
 74
0
 42
0.0000001
 43
0.0000001
 44
0.0000000001
 40
0.0
 40
0.0
 40
0.0
 40
0.0
 40
0.170599326
 40
0.3940419089
 40
0.6705585571
 40
1.0
 40
1.0
 40
1.0
 40
1.0
 10
4.6713633252
 20
3.5663177806
 30
0.0
 10
4.6719393157
 20
3.5664673785
 30
0.0
 10
4.6732865127
 20
3.5667466833
 30
0.0
 10
4.6755962746
 20
3.5671171821
 30
0.0
 10
4.6784657236
 20
3.567490125
 30
0.0
 10
4.6805670158
 20
3.5677201416
 30
0.0
 10
4.6817102076
 20
3.567837388
 30
0.0
  0
SPLINE
  5
292
100
AcDbEntity
  8
ALL_FEATURES
100
AcDbSpline
 62
7
  6
CONTINUOUS
 70
0
 71
3
 72
12
 73
8
 74
0
 42
0.0000001
 43
0.0000001
 44
0.0000000001
 40
0.0
 40
0.0
 40
0.0
 40
0.0
 40
0.0839624531
 40
0.1798488302
 40
0.4070625159
 40
0.6808433152
 40
1.0
 40
1.0
 40
1.0
 40
1.0
 10
4.6817102076
 20
3.567837388
 30
0.0
 10
4.6830931023
 20
3.5679792185
 30
0.0
 10
4.6860578052
 20
3.568258528
 30
0.0
 10
4.692774694
 20
3.5688131196
 30
0.0
 10
4.7026343459
 20
3.569489841
 30
0.0
 10
4.7161912386
 20
3.5702680444
 30
0.0
 10
4.7259965293
 20
3.5707523384
 30
0.0
 10
4.731274999
 20
3.570998594
 30
0.0
  0
SPLINE
  5
293
100
AcDbEntity
  8
ALL_FEATURES
100
AcDbSpline
 62
7
  6
CONTINUOUS
 70
0
 71
3
 72
15
 73
11
 74
0
 42
0.0000001
 43
0.0000001
 44
0.0000000001
 40
0.0
 40
0.0
 40
0.0
 40
0.0
 40
0.3679957493
 40
0.5231580914
 40
0.6587035506
 40
0.7743558377
 40
0.8698589034
 40
0.945079309
 40
0.9750746719
 40
1.0
 40
1.0
 40
1.0
 40
1.0
 10
5.7940001158
 20
3.5983049624
 30
0.0
 10
5.8012675953
 20
3.5986438284
 30
0.0
 10
5.8115978404
 20
3.5991624064
 30
0.0
 10
5.8245969514
 20
3.5999486568
 30
0.0
 10
5.8326117696
 20
3.6005028589
 30
0.0
 10
5.8394441935
 20
3.6010542821
 30
0.0
 10
5.8450794487
 20
3.6016030756
 30
0.0
 10
5.8490195237
 20
3.6020832589
 30
0.0
 10
5.8515615036
 20
3.6024825048
 30
0.0
 10
5.8526287435
 20
3.6026842421
 30
0.0
 10
5.8531104383
 20
3.6027881781
 30
0.0
  0
SPLINE
  5
294
100
AcDbEntity
  8
ALL_FEATURES
100
AcDbSpline
 62
7
  6
CONTINUOUS
 70
0
 71
3
 72
15
 73
11
 74
0
 42
0.0000001
 43
0.0000001
 44
0.0000000001
 40
0.0
 40
0.0
 40
0.0
 40
0.0
 40
0.2135174073
 40
0.4001878669
 40
0.5602461676
 40
0.6940934276
 40
0.8024547112
 40
0.8867626528
 40
0.9501764673
 40
1.0
 40
1.0
 40
1.0
 40
1.0
 10
5.8531104383
 20
3.6027881781
 30
0.0
 10
5.8533253223
 20
3.602834544
 30
0.0
 10
5.8537270796
 20
3.6029262175
 30
0.0
 10
5.8542850992
 20
3.60307271
 30
0.0
 10
5.8547580545
 20
3.6032187933
 30
0.0
 10
5.8551460746
 20
3.6033644192
 30
0.0
 10
5.8554501907
 20
3.6035093492
 30
0.0
 10
5.8556713165
 20
3.6036547575
 30
0.0
 10
5.8558149361
 20
3.6038032119
 30
0.0
 10
5.8558539204
 20
3.6039199222
 30
0.0
 10
5.8558538101
 20
3.6039712184
 30
0.0
  0
SPLINE
  5
295
100
AcDbEntity
  8
ALL_FEATURES
100
AcDbSpline
 62
7
  6
CONTINUOUS
 70
0
 71
3
 72
20
 73
16
 74
0
 42
0.0000001
 43
0.0000001
 44
0.0000000001
 40
0.0
 40
0.0
 40
0.0
 40
0.0
 40
0.2139489009
 40
0.4031853083
 40
0.5672262534
 40
0.7057289795
 40
0.7653054875
 40
0.8183820671
 40
0.8649253658
 40
0.9049206537
 40
0.938375066
 40
0.9653125789
 40
0.9857941387
 40
0.9936622833
 40
1.0
 40
1.0
 40
1.0
 40
1.0
 10
5.794132638
 20
3.6121195001
 30
0.0
 10
5.7980471912
 20
3.6123136023
 30
0.0
 10
5.8054232639
 20
3.6126975547
 30
0.0
 10
5.8157965934
 20
3.613306904
 30
0.0
 10
5.824785182
 20
3.6139147778
 30
0.0
 10
5.8313982504
 20
3.6144416456
 30
0.0
 10
5.8359791835
 20
3.614871321
 30
0.0
 10
5.8388795664
 20
3.6151767027
 30
0.0
 10
5.841419121
 20
3.6154813743
 30
0.0
 10
5.8435963192
 20
3.6157852031
 30
0.0
 10
5.8454108064
 20
3.6160872181
 30
0.0
 10
5.8468617728
 20
3.6163874193
 30
0.0
 10
5.8478414196
 20
3.6166511648
 30
0.0
 10
5.8484373469
 20
3.6168728153
 30
0.0
 10
5.8486729736
 20
3.6169849907
 30
0.0
 10
5.8487735335
 20
3.6170430191
 30
0.0
  0
SPLINE
  5
296
100
AcDbEntity
  8
ALL_FEATURES
100
AcDbSpline
 62
7
  6
CONTINUOUS
 70
0
 71
3
 72
18
 73
14
 74
0
 42
0.0000001
 43
0.0000001
 44
0.0000000001
 40
0.0
 40
0.0
 40
0.0
 40
0.0
 40
0.2027832594
 40
0.3840129975
 40
0.543305595
 40
0.6802877674
 40
0.7946067541
 40
0.8431958522
 40
0.8860493721
 40
0.9231553183
 40
0.9545077738
 40
0.9801124159
 40
1.0
 40
1.0
 40
1.0
 40
1.0
 10
4.7311678421
 20
3.5883765084
 30
0.0
 10
4.7270779546
 20
3.5881855831
 30
0.0
 10
4.7193336458
 20
3.5878073146
 30
0.0
 10
4.7083801509
 20
3.5872093683
 30
0.0
 10
4.6987573222
 20
3.5866130028
 30
0.0
 10
4.6904883326
 20
3.5860186121
 30
0.0
 10
4.6844550295
 20
3.5855022251
 30
0.0
 10
4.6803219818
 20
3.58507991
 30
0.0
 10
4.6777436306
 20
3.5847811768
 30
0.0
 10
4.6755158677
 20
3.5844832984
 30
0.0
 10
4.6736396142
 20
3.5841868301
 30
0.0
 10
4.6721160914
 20
3.5838921846
 30
0.0
 10
4.6712234489
 20
3.583671267
 30
0.0
 10
4.6708393665
 20
3.5835541394
 30
0.0
  0
SPLINE
  5
297
100
AcDbEntity
  8
ALL_FEATURES
100
AcDbSpline
 62
7
  6
CONTINUOUS
 70
0
 71
3
 72
13
 73
9
 74
0
 42
0.0000001
 43
0.0000001
 44
0.0000000001
 40
0.0
 40
0.0
 40
0.0
 40
0.0
 40
0.3796007549
 40
0.6644045664
 40
0.7735811848
 40
0.8629618162
 40
0.9362473878
 40
1.0
 40
1.0
 40
1.0
 40
1.0
 10
4.6708393665
 20
3.5835541394
 30
0.0
 10
4.6706367271
 20
3.5834923436
 30
0.0
 10
4.6702852772
 20
3.5833737306
 30
0.0
 10
4.6698906708
 20
3.583193319
 30
0.0
 10
4.6696667353
 20
3.5830415991
 30
0.0
 10
4.6695555073
 20
3.5829371131
 30
0.0
 10
4.669485308
 20
3.5828299441
 30
0.0
 10
4.6694683116
 20
3.5827529437
 30
0.0
 10
4.6694683631
 20
3.5827173639
 30
0.0
  0
SPLINE
  5
298
100
AcDbEntity
  8
ALL_FEATURES
100
AcDbSpline
 62
7
  6
CONTINUOUS
 70
0
 71
3
 72
24
 73
20
 74
0
 42
0.0000001
 43
0.0000001
 44
0.0000000001
 40
0.0
 40
0.0
 40
0.0
 40
0.0
 40
0.003481029
 40
0.0079212962
 40
0.0138316525
 40
0.0214323847
 40
0.0308258388
 40
0.0420656971
 40
0.0551828802
 40
0.0701942809
 40
0.1059304026
 40
0.1493105598
 40
0.2003390993
 40
0.2590068532
 40
0.3252974061
 40
0.399190114
 40
0.5696773198
 40
0.7701115417
 40
1.0
 40
1.0
 40
1.0
 40
1.0
 10
5.8710123652
 20
5.0035729201
 30
0.0
 10
5.8710124239
 20
5.0035224882
 30
0.0
 10
5.8709736694
 20
5.0034076787
 30
0.0
 10
5.8708316375
 20
5.003261951
 30
0.0
 10
5.8706131318
 20
5.0031191209
 30
0.0
 10
5.8703126204
 20
5.0029767355
 30
0.0
 10
5.8699291109
 20
5.0028336599
 30
0.0
 10
5.8694614557
 20
5.0026901434
 30
0.0
 10
5.8689094303
 20
5.002546218
 30
0.0
 10
5.8680068919
 20
5.00234191
 30
0.0
 10
5.8666657375
 20
5.0020926087
 30
0.0
 10
5.8648019502
 20
5.0018062517
 30
0.0
 10
5.8626027658
 20
5.0015189289
 30
0.0
 10
5.8600693755
 20
5.0012308
 30
0.0
 10
5.8572029197
 20
5.0009421427
 30
0.0
 10
5.8527202196
 20
5.0005372015
 30
0.0
 10
5.8462948688
 20
5.0000399384
 30
0.0
 10
5.8376093999
 20
4.9994655391
 30
0.0
 10
5.8313853335
 20
4.9991059758
 30
0.0
 10
5.8280597704
 20
4.9989238037
 30
0.0
  0
SPLINE
  5
299
100
AcDbEntity
  8
ALL_FEATURES
100
AcDbSpline
 62
7
  6
CONTINUOUS
 70
0
 71
3
 72
12
 73
8
 74
0
 42
0.0000001
 43
0.0000001
 44
0.0000000001
 40
0.0
 40
0.0
 40
0.0
 40
0.0
 40
0.0890228589
 40
0.1889583994
 40
0.4204278406
 40
0.6919303378
 40
1.0
 40
1.0
 40
1.0
 40
1.0
 10
5.8280597704
 20
4.9989238037
 30
0.0
 10
5.8238111436
 20
4.9986910667
 30
0.0
 10
5.8147911889
 20
4.9982314409
 30
0.0
 10
5.7947167778
 20
4.9973193839
 30
0.0
 10
5.7659211689
 20
4.996202635
 30
0.0
 10
5.7271774448
 20
4.9949127768
 30
0.0
 10
5.6994877268
 20
4.9940985335
 30
0.0
 10
5.6847688203
 20
4.9936853263
 30
0.0
  0
SPLINE
  5
29A
100
AcDbEntity
  8
ALL_FEATURES
100
AcDbSpline
 62
7
  6
CONTINUOUS
 70
0
 71
3
 72
20
 73
16
 74
0
 42
0.0000001
 43
0.0000001
 44
0.0000000001
 40
0.0
 40
0.0
 40
0.0
 40
0.0
 40
0.2139416976
 40
0.4031497413
 40
0.5672123934
 40
0.7057345385
 40
0.7652996033
 40
0.8183554254
 40
0.8648882561
 40
0.9048893925
 40
0.9383583854
 40
0.9653110958
 40
0.985800504
 40
0.9936675106
 40
1.0
 40
1.0
 40
1.0
 40
1.0
 10
5.7941473907
 20
3.534846665
 30
0.0
 10
5.7980608006
 20
3.5350407154
 30
0.0
 10
5.8054343149
 20
3.5354245901
 30
0.0
 10
5.8158046969
 20
3.536034011
 30
0.0
 10
5.8247911977
 20
3.5366417137
 30
0.0
 10
5.8314031076
 20
3.5371684011
 30
0.0
 10
5.8359826138
 20
3.537598062
 30
0.0
 10
5.8388814519
 20
3.53790346
 30
0.0
 10
5.8414198736
 20
3.538208122
 30
0.0
 10
5.8435966895
 20
3.5385118935
 30
0.0
 10
5.8454113676
 20
3.5388138419
 30
0.0
 10
5.8468626599
 20
3.5391139642
 30
0.0
 10
5.8478424788
 20
3.5393776262
 30
0.0
 10
5.848438269
 20
3.5395992564
 30
0.0
 10
5.848673692
 20
3.5397114457
 30
0.0
 10
5.8487740984
 20
3.5397694884
 30
0.0
  0
SPLINE
  5
29B
100
AcDbEntity
  8
ALL_FEATURES
100
AcDbSpline
 62
7
  6
CONTINUOUS
 70
0
 71
3
 72
15
 73
11
 74
0
 42
0.0000001
 43
0.0000001
 44
0.0000000001
 40
0.0
 40
0.0
 40
0.0
 40
0.0
 40
0.3226307168
 40
0.4697830038
 40
0.6051675241
 40
0.7272109818
 40
0.8344903078
 40
0.9257916283
 40
0.9650988448
 40
1.0
 40
1.0
 40
1.0
 40
1.0
 10
5.0775381139
 20
5.0043102917
 30
0.0
 10
5.0407227745
 20
5.003464658
 30
0.0
 10
4.9871167854
 20
5.0021925993
 30
0.0
 10
4.9180667253
 20
5.0003808372
 30
0.0
 10
4.8719066394
 20
4.9990657965
 30
0.0
 10
4.8302995407
 20
4.9977541697
 30
0.0
 10
4.7937267867
 20
4.9964464252
 30
0.0
 10
4.7665975903
 20
4.9953138574
 30
0.0
 10
4.7477289508
 20
4.9943879937
 30
0.0
 10
4.7392715749
 20
4.9939216232
 30
0.0
 10
4.7352949736
 20
4.9936853263
 30
0.0
  0
LINE
  5
29C
100
AcDbEntity
  8
ALL_FEATURES
100
AcDbLine
 62
7
  6
CONTINUOUS
 10
5.8554713705
 20
3.543639162
 11
5.8540290667
 21
3.5431155669
  0
SPLINE
  5
29D
100
AcDbEntity
  8
ALL_FEATURES
100
AcDbSpline
 62
7
  6
CONTINUOUS
 70
0
 71
3
 72
11
 73
7
 74
0
 42
0.0000001
 43
0.0000001
 44
0.0000000001
 40
0.0
 40
0.0
 40
0.0
 40
0.0
 40
0.1704294735
 40
0.3938718193
 40
0.6704243487
 40
1.0
 40
1.0
 40
1.0
 40
1.0
 10
5.8540290667
 20
3.5431155669
 30
0.0
 10
5.8534691844
 20
3.5429674841
 30
0.0
 10
5.8521581989
 20
3.5426913598
 30
0.0
 10
5.8499094859
 20
3.5423251539
 30
0.0
 10
5.8471143608
 20
3.5419563638
 30
0.0
 10
5.8450671896
 20
3.5417289689
 30
0.0
 10
5.8439532759
 20
3.5416130669
 30
0.0
  0
SPLINE
  5
29E
100
AcDbEntity
  8
ALL_FEATURES
100
AcDbSpline
 62
7
  6
CONTINUOUS
 70
0
 71
3
 72
12
 73
8
 74
0
 42
0.0000001
 43
0.0000001
 44
0.0000000001
 40
0.0
 40
0.0
 40
0.0
 40
0.0
 40
0.0833026162
 40
0.1787385968
 40
0.4056616396
 40
0.6797812753
 40
1.0
 40
1.0
 40
1.0
 40
1.0
 10
5.8439532759
 20
3.5416130669
 30
0.0
 10
5.842573367
 20
3.5414694882
 30
0.0
 10
5.8396098982
 20
3.5411869047
 30
0.0
 10
5.8328770496
 20
3.5406260237
 30
0.0
 10
5.8229661349
 20
3.5399424977
 30
0.0
 10
5.8093109672
 20
3.5391561746
 30
0.0
 10
5.7994245614
 20
3.5386674267
 30
0.0
 10
5.7940972943
 20
3.5384188383
 30
0.0
  0
SPLINE
  5
29F
100
AcDbEntity
  8
ALL_FEATURES
100
AcDbSpline
 62
7
  6
CONTINUOUS
 70
0
 71
3
 72
11
 73
7
 74
0
 42
0.0000001
 43
0.0000001
 44
0.0000000001
 40
0.0
 40
0.0
 40
0.0
 40
0.0
 40
0.3015241636
 40
0.5691768265
 40
0.8022164569
 40
1.0
 40
1.0
 40
1.0
 40
1.0
 10
4.7311763026
 20
3.5111033944
 30
0.0
 10
4.7268744379
 20
3.510902548
 30
0.0
 10
4.7187547923
 20
3.5105050288
 30
0.0
 10
4.7073142807
 20
3.509875123
 30
0.0
 10
4.6973579096
 20
3.5092469932
 30
0.0
 10
4.6912211929
 20
3.5087927388
 30
0.0
 10
4.6884059448
 20
3.5085598511
 30
0.0
  0
SPLINE
  5
2A0
100
AcDbEntity
  8
ALL_FEATURES
100
AcDbSpline
 62
7
  6
CONTINUOUS
 70
0
 71
3
 72
20
 73
16
 74
0
 42
0.0000001
 43
0.0000001
 44
0.0000000001
 40
0.0
 40
0.0
 40
0.0
 40
0.0
 40
0.2288436901
 40
0.4279267575
 40
0.5970822313
 40
0.6703947873
 40
0.7361795757
 40
0.7944383559
 40
0.8451953447
 40
0.8884918752
 40
0.924398078
 40
0.9530422139
 40
0.9647206422
 40
0.9747053981
 40
1.0
 40
1.0
 40
1.0
 40
1.0
 10
4.6884059448
 20
3.5085598511
 30
0.0
 10
4.6869319441
 20
3.5084379163
 30
0.0
 10
4.68417664
 20
3.5081972042
 30
0.0
 10
4.6803368101
 20
3.507812024
 30
0.0
 10
4.6775023309
 20
3.507478532
 30
0.0
 10
4.6755285824
 20
3.5072071088
 30
0.0
 10
4.6742677474
 20
3.5070135936
 30
0.0
 10
4.6731545634
 20
3.5068204177
 30
0.0
 10
4.672189026
 20
3.506627594
 30
0.0
 10
4.6713712834
 20
3.5064356529
 30
0.0
 10
4.6707002042
 20
3.5062439491
 30
0.0
 10
4.67023738
 20
3.5060772814
 30
0.0
 10
4.6699406784
 20
3.5059374692
 30
0.0
 10
4.6696845289
 20
3.5057919724
 30
0.0
 10
4.669468479
 20
3.5056073631
 30
0.0
 10
4.6694681118
 20
3.5054438824
 30
0.0
  0
SPLINE
  5
2A1
100
AcDbEntity
  8
ALL_FEATURES
100
AcDbSpline
 62
7
  6
CONTINUOUS
 70
0
 71
3
 72
24
 73
20
 74
0
 42
0.0000001
 43
0.0000001
 44
0.0000000001
 40
0.0
 40
0.0
 40
0.0
 40
0.0
 40
0.0031760108
 40
0.0051216192
 40
0.0074084146
 40
0.0131696263
 40
0.0206725797
 40
0.030005148
 40
0.041212231
 40
0.0543194602
 40
0.0693415061
 40
0.105149284
 40
0.1486509368
 40
0.1998347936
 40
0.2586780835
 40
0.3992231691
 40
0.5699897896
 40
0.7704520588
 40
1.0
 40
1.0
 40
1.0
 40
1.0
 10
5.8491589744
 20
3.6078358556
 30
0.0
 10
5.8491589696
 20
3.6077770572
 30
0.0
 10
5.8491228203
 20
3.6076822102
 30
0.0
 10
5.8490341647
 20
3.6075776211
 30
0.0
 10
5.8488933248
 20
3.6074563532
 30
0.0
 10
5.84864278
 20
3.6073111214
 30
0.0
 10
5.8482576348
 20
3.6071468597
 30
0.0
 10
5.847764875
 20
3.6069819589
 30
0.0
 10
5.8471642147
 20
3.6068163059
 30
0.0
 10
5.8464550198
 20
3.6066501714
 30
0.0
 10
5.8452949732
 20
3.6064141883
 30
0.0
 10
5.8435719993
 20
3.6061263663
 30
0.0
 10
5.8411787001
 20
3.6057957739
 30
0.0
 10
5.8383556479
 20
3.6054639851
 30
0.0
 10
5.8337406891
 20
3.6049919598
 30
0.0
 10
5.8269116049
 20
3.6044168744
 30
0.0
 10
5.817459873
 20
3.6037564371
 30
0.0
 10
5.806357143
 20
3.6030934848
 30
0.0
 10
5.7984070411
 20
3.6026778453
 30
0.0
 10
5.7941625729
 20
3.6024673082
 30
0.0
  0
LINE
  5
2A2
100
AcDbEntity
  8
ALL_FEATURES
100
AcDbLine
 62
9
  6
CONTINUOUS
 10
4.7197474926
 20
3.3469738175
 11
4.7312610364
 21
3.3473055472
  0
LINE
  5
2A3
100
AcDbEntity
  8
ALL_FEATURES
100
AcDbLine
 62
9
  6
CONTINUOUS
 10
5.7939555994
 20
3.3473072004
 11
5.8055737526
 21
3.3469738424
  0
SPLINE
  5
2A4
100
AcDbEntity
  8
ALL_FEATURES
100
AcDbSpline
 62
7
  6
CONTINUOUS
 70
0
 71
3
 72
24
 73
20
 74
0
 42
0.0000001
 43
0.0000001
 44
0.0000000001
 40
0.0
 40
0.0
 40
0.0
 40
0.0
 40
0.003175213
 40
0.0051204156
 40
0.0074068475
 40
0.0131675353
 40
0.0206703212
 40
0.0300031643
 40
0.0412110491
 40
0.0543196467
 40
0.0693429032
 40
0.1051519784
 40
0.1486539166
 40
0.1998376596
 40
0.2586810605
 40
0.3992295665
 40
0.5699970106
 40
0.7704527946
 40
1.0
 40
1.0
 40
1.0
 40
1.0
 10
4.6761622994
 20
3.5788527265
 30
0.0
 10
4.6761622922
 20
3.5789115385
 30
0.0
 10
4.6761984422
 20
3.5790064164
 30
0.0
 10
4.6762871242
 20
3.5791110319
 30
0.0
 10
4.6764280203
 20
3.5792323354
 30
0.0
 10
4.6766786815
 20
3.5793776063
 30
0.0
 10
4.6770640191
 20
3.5795419112
 30
0.0
 10
4.6775570463
 20
3.5797068554
 30
0.0
 10
4.678158053
 20
3.5798725524
 30
0.0
 10
4.6788676638
 20
3.5800387254
 30
0.0
 10
4.6800283537
 20
3.5802747675
 30
0.0
 10
4.6817522206
 20
3.5805626662
 30
0.0
 10
4.6841467106
 20
3.5808933467
 30
0.0
 10
4.6869711375
 20
3.5812252213
 30
0.0
 10
4.691588395
 20
3.5816973705
 30
0.0
 10
4.6984208648
 20
3.5822725784
 30
0.0
 10
4.7078771226
 20
3.5829331647
 30
0.0
 10
4.7189850938
 20
3.5835962983
 30
0.0
 10
4.7269388994
 20
3.5840120334
 30
0.0
 10
4.7311854026
 20
3.5842226176
 30
0.0
  0
SPLINE
  5
2A5
100
AcDbEntity
  8
ALL_FEATURES
100
AcDbSpline
 62
7
  6
CONTINUOUS
 70
0
 71
3
 72
20
 73
16
 74
0
 42
0.0000001
 43
0.0000001
 44
0.0000000001
 40
0.0
 40
0.0
 40
0.0
 40
0.0
 40
0.2139326175
 40
0.4031825045
 40
0.5672574157
 40
0.7057409964
 40
0.7653033733
 40
0.8183744503
 40
0.864928947
 40
0.9049462399
 40
0.9384141346
 40
0.965346179
 40
0.9858112918
 40
0.9936703055
 40
1.0
 40
1.0
 40
1.0
 40
1.0
 10
4.731205477
 20
3.5745699868
 30
0.0
 10
4.7272900777
 20
3.5743758529
 30
0.0
 10
4.7199119016
 20
3.5739917821
 30
0.0
 10
4.7095349677
 20
3.5733823011
 30
0.0
 10
4.7005432148
 20
3.5727745178
 30
0.0
 10
4.6939282033
 20
3.572247463
 30
0.0
 10
4.689346645
 20
3.5718176672
 30
0.0
 10
4.6864455704
 20
3.5715121974
 30
0.0
 10
4.683904759
 20
3.5712074724
 30
0.0
 10
4.6817260476
 20
3.5709036595
 30
0.0
 10
4.6799104516
 20
3.5706016715
 30
0.0
 10
4.6784592111
 20
3.5703014144
 30
0.0
 10
4.6774798623
 20
3.5700375829
 30
0.0
 10
4.6768844209
 20
3.5698158543
 30
0.0
 10
4.6766490705
 20
3.5697036496
 30
0.0
 10
4.6765486467
 20
3.5696456117
 30
0.0
  0
SPLINE
  5
2A6
100
AcDbEntity
  8
ALL_FEATURES
100
AcDbSpline
 62
7
  6
CONTINUOUS
 70
0
 71
3
 72
24
 73
20
 74
0
 42
0.0000001
 43
0.0000001
 44
0.0000000001
 40
0.0
 40
0.0
 40
0.0
 40
0.0
 40
0.0031755327
 40
0.0051231147
 40
0.007413027
 40
0.0131827982
 40
0.0206958723
 40
0.0300387511
 40
0.0412551869
 40
0.0543697704
 40
0.0693974073
 40
0.1052246655
 40
0.1487649055
 40
0.1999984784
 40
0.2588933667
 40
0.3995102291
 40
0.5702722371
 40
0.7706588379
 40
1.0
 40
1.0
 40
1.0
 40
1.0
 10
4.6961371913
 20
4.9987395011
 30
0.0
 10
4.6961373368
 20
4.9988005709
 30
0.0
 10
4.6961752313
 20
4.9988990097
 30
0.0
 10
4.6962676538
 20
4.999007478
 30
0.0
 10
4.696414421
 20
4.9991333126
 30
0.0
 10
4.696675259
 20
4.999283996
 30
0.0
 10
4.6970760255
 20
4.9994544474
 30
0.0
 10
4.69758856
 20
4.9996255643
 30
0.0
 10
4.6982131066
 20
4.9997974647
 30
0.0
 10
4.6989502905
 20
4.9999698714
 30
0.0
 10
4.7001560125
 20
5.0002148027
 30
0.0
 10
4.7019471093
 20
5.000513504
 30
0.0
 10
4.7044353935
 20
5.0008565011
 30
0.0
 10
4.7073707055
 20
5.0012007628
 30
0.0
 10
4.712168086
 20
5.0016904694
 30
0.0
 10
4.7192644168
 20
5.0022871311
 30
0.0
 10
4.7290826587
 20
5.0029725179
 30
0.0
 10
4.7406105773
 20
5.0036603468
 30
0.0
 10
4.7488636378
 20
5.0040917657
 30
0.0
 10
4.7532687737
 20
5.0043103013
 30
0.0
  0
ENDSEC
  0
SECTION
  2
OBJECTS
  0
DICTIONARY
  5
C
100
AcDbDictionary
280
0
281
1
  3
ACAD_GROUP
350
D
  3
ACAD_MLINESTYLE
350
17
  3
ACAD_LAYOUT
350
1A
  3
ACAD_PLOTSETTINGS
350
19
  3
ACAD_PLOTSTYLENAME
350
E
  0
DICTIONARY
  5
D
102
{ACAD_REACTORS
330
C
102
}
100
AcDbDictionary
280
0
281
1
  0
ACDBDICTIONARYWDFLT
  5
E
102
{ACAD_REACTORS
330
C
102
}
100
AcDbDictionary
281
1
  3
Normal
350
F
100
AcDbDictionaryWithDefault
340
F
  0
DICTIONARY
  5
17
102
{ACAD_REACTORS
330
C
102
}
100
AcDbDictionary
280
0
281
1
  3
Standard
350
18
  0
DICTIONARY
  5
19
102
{ACAD_REACTORS
330
C
102
}
100
AcDbDictionary
281
1
  0
DICTIONARY
  5
1A
102
{ACAD_REACTORS
330
C
102
}
100
AcDbDictionary
281
1
  3
Model
350
2A7
  3
Layout1
350
2A8
  0
ACDBPLACEHOLDER
  5
F
102
{ACAD_REACTORS
330
E
102
}
  0
MLINESTYLE
  5
18
102
{ACAD_REACTORS
330
17
102
}
100
AcDbMlineStyle
  2
STANDARD
 70
0
  3

 62
256
 51
90.0
 52
90.0
 71
2
 49
0.5
 62
256
  6
BYLAYER
 49
-0.5
 62
256
  6
BYLAYER
  0
LAYOUT
  5
2A7
102
{ACAD_REACTORS
330
1A
102
}
100
AcDbPlotSettings
  1

  2
none_device
  4
ANSI_A_(11.00_x_8.50_Inches)
  6

 40
0.0
 41
0.0
 42
0.0
 43
0.0
 44
279.4
 45
215.9
 46
0.0
 47
0.0
 48
0.0
 49
0.0
140
0.0
141
0.0
142
1.0
143
1.0
 70
1024
 72
0
 73
0
 74
0
  7

 75
0
147
1.0
148
0.0
149
0.0
100
AcDbLayout
  1
Model
 70
0
 71
0
 10
0.0
 20
0.0
 11
11.0
 21
8.5
 12
0.0
 22
0.0
 32
0.0
 14
0.0
 24
0.0
 34
0.0
 15
0.0
 25
0.0
 35
0.0
146
0.0
 13
0.0
 23
0.0
 33
0.0
 16
1.0
 26
0.0
 36
0.0
 17
0.0
 27
1.0
 37
0.0
 76
0
330
20B
345
0
346
0
  0
LAYOUT
  5
2A8
102
{ACAD_REACTORS
330
1A
102
}
100
AcDbPlotSettings
  1

  2
none_device
  4
ANSI_A_(11.00_x_8.50_Inches)
  6

 40
0.0
 41
0.0
 42
0.0
 43
0.0
 44
279.4
 45
215.9
 46
0.0
 47
0.0
 48
0.0
 49
0.0
140
0.0
141
0.0
142
1.0
143
1.0
 70
0
 72
0
 73
0
 74
0
  7

 75
0
147
1.0
148
0.0
149
0.0
100
AcDbLayout
  1
Layout1
 70
0
 71
1
 10
0.0
 20
0.0
 11
11.0
 21
8.5
 12
0.0
 22
0.0
 32
0.0
 14
0.0
 24
0.0
 34
0.0
 15
0.0
 25
0.0
 35
0.0
146
0.0
 13
0.0
 23
0.0
 33
0.0
 16
1.0
 26
0.0
 36
0.0
 17
0.0
 27
1.0
 37
0.0
 76
0
330
20C
345
0
346
0
  0
ENDSEC
  0
EOF
