  0
SECTION
  2
HEADER
  9
$ACADVER
  1
AC1015
  9
$DWGCODEPAGE
  3
ANSI_1252
  9
$EXTMAX
 10
11.6929133858
 20
8.2677165354
 30
0.0
  9
$EXTMIN
 10
0.0
 20
0.0
 30
0.0
  9
$LIMMIN
 10
0.0
 20
0.0
  9
$LIMMAX
 10
11.6929133858
 20
8.2677165354
  9
$VIEWCTR
 10
5.8464566929
 20
4.1338582677
  9
$VIEWSIZE
 40
8.2677165354
  9
$CLAYER
  8
0
  9
$LTSCALE
 40
0.6431102362
  9
$CELTYPE
  6
BYLAYER
  9
$DIMSCALE
 40
1.0
  9
$DIMASZ
 40
0.1875
  9
$DIMEXO
 40
0.0730807087
  9
$DIMDLI
 40
0.4443307087
  9
$DIMEXE
 40
0.2104724409
  9
$DIMCEN
 40
0.1052362205
  9
$DIMLFAC
 40
1.0
  9
$DIMBLK
  1
_CLOSED
  9
$DIMTXT
 40
0.15625
  9
$DIMTOL
 70
0
  9
$DIMLIM
 70
0
  9
$DIMTFAC
 40
1.0
  9
$PDMODE
 70
3
  9
$PDSIZE
 40
0.3125
  9
$HANDSEED
  5
230
  9
$TILEMODE
 70
1
  9
$MEASUREMENT
 70
0
  9
$INSUNITS
 70
1
  0
ENDSEC
  0
SECTION
  2
CLASSES
  0
CLASS
  1
ACDBDICTIONARYWDFLT
  2
AcDbDictionaryWithDefault
  3
AutoCAD 2000
 90
0
280
0
281
0
  0
CLASS
  1
ACDBPLACEHOLDER
  2
AcDbPlaceHolder
  3
AutoCAD 2000
 90
0
280
0
281
0
  0
CLASS
  1
LAYOUT
  2
AcDbLayout
  3
AutoCAD 2000
 90
0
280
0
281
0
  0
ENDSEC
  0
SECTION
  2
TABLES
  0
TABLE
  2
VPORT
  5
8
100
AcDbSymbolTable
 70
2
  0
VPORT
  5
1F4
100
AcDbSymbolTableRecord
100
AcDbViewportTableRecord
  2
*ACTIVE
 70
0
 10
0.0
 20
0.0
 11
1.0
 21
1.0
 12
5.8464566929
 22
4.1338582677
 13
0.0
 23
0.0
 14
1.0
 24
1.0
 15
0.0
 25
0.0
 16
0.0
 26
0.0
 36
1.0
 17
0.0
 27
0.0
 37
0.0
 40
8.2677165354
 41
1.4142857143
 42
50.0
 43
0.0
 44
0.0
 50
0.0
 51
0.0
 71
0
 72
100
 73
1
 74
1
 75
0
 76
0
 77
0
 78
0
  0
ENDTAB
  0
TABLE
  2
LTYPE
  5
5
100
AcDbSymbolTable
 70
6
  0
LTYPE
  5
14
100
AcDbSymbolTableRecord
100
AcDbLinetypeTableRecord
  2
BYBLOCK
 70
0
  3

 72
65
 73
0
 40
0.0
  0
LTYPE
  5
15
100
AcDbSymbolTableRecord
100
AcDbLinetypeTableRecord
  2
BYLAYER
 70
0
  3

 72
65
 73
0
 40
0.0
  0
LTYPE
  5
16
100
AcDbSymbolTableRecord
100
AcDbLinetypeTableRecord
  2
CONTINUOUS
 70
64
  3
Solid line
 72
65
 73
0
 40
0.0
  0
LTYPE
  5
1F5
100
AcDbSymbolTableRecord
100
AcDbLinetypeTableRecord
  2
CENTER
 70
64
  3
____ _ ____ _ ____ _ ____ _ ____ _ ____ _ ____
 72
65
 73
4
 40
0.6
 49
0.375
 74
0
 49
-0.075
 74
0
 49
0.075
 74
0
 49
-0.075
 74
0
  0
LTYPE
  5
1F6
100
AcDbSymbolTableRecord
100
AcDbLinetypeTableRecord
  2
HIDDEN
 70
64
  3
- - - - - - - - - - - - - - - - - - - -
 72
65
 73
2
 40
0.2
 49
0.1
 74
0
 49
-0.1
 74
0
  0
LTYPE
  5
1F7
100
AcDbSymbolTableRecord
100
AcDbLinetypeTableRecord
  2
PHANTOM
 70
64
  3
_____ _ _ _____ _ _ _____ _ _ _____
 72
65
 73
6
 40
0.8
 49
0.45
 74
0
 49
-0.05
 74
0
 49
0.1
 74
0
 49
-0.05
 74
0
 49
0.1
 74
0
 49
-0.05
 74
0
  0
LTYPE
  5
1F8
100
AcDbSymbolTableRecord
100
AcDbLinetypeTableRecord
  2
DOT
 70
64
  3
. . . . . . . . . . . . . . . . . . . .
 72
65
 73
2
 40
0.2
 49
0.1
 74
0
 49
-0.1
 74
0
  0
LTYPE
  5
1F9
100
AcDbSymbolTableRecord
100
AcDbLinetypeTableRecord
  2
DASHED
 70
64
  3
- - - - - - - - - - - - - - - - - - - -
 72
65
 73
2
 40
0.2
 49
0.1
 74
0
 49
-0.1
 74
0
  0
ENDTAB
  0
TABLE
  2
LAYER
  5
2
100
AcDbSymbolTable
 70
36
  0
LAYER
  5
10
100
AcDbSymbolTableRecord
100
AcDbLayerTableRecord
  2
0
 70
0
 62
7
  6
CONTINUOUS
370
-3
390
F
  0
LAYER
  5
1FA
100
AcDbSymbolTableRecord
100
AcDbLayerTableRecord
  2
DEFAULT_1
 70
0
 62
7
  6
CENTER
370
-3
390
F
  0
LAYER
  5
1FB
100
AcDbSymbolTableRecord
100
AcDbLayerTableRecord
  2
DEFAULT_2
 70
0
 62
8
  6
HIDDEN
370
-3
390
F
  0
LAYER
  5
1FC
100
AcDbSymbolTableRecord
100
AcDbLayerTableRecord
  2
DEFAULT_3
 70
0
 62
7
  6
PHANTOM
370
-3
390
F
  0
LAYER
  5
1FD
100
AcDbSymbolTableRecord
100
AcDbLayerTableRecord
  2
DEFAULT_COORDINATE_SYSTEM
 70
0
 62
7
  6
CONTINUOUS
370
-3
390
F
  0
LAYER
  5
1FE
100
AcDbSymbolTableRecord
100
AcDbLayerTableRecord
  2
DEFAULT_DATUM_AXES
 70
0
 62
7
  6
CONTINUOUS
370
-3
390
F
  0
LAYER
  5
1FF
100
AcDbSymbolTableRecord
100
AcDbLayerTableRecord
  2
DEFAULT_DATUM_CURVES
 70
0
 62
7
  6
CONTINUOUS
370
-3
390
F
  0
LAYER
  5
200
100
AcDbSymbolTableRecord
100
AcDbLayerTableRecord
  2
DEFAULT_DATUM_PLANES
 70
0
 62
7
  6
CONTINUOUS
370
-3
390
F
  0
ENDTAB
  0
TABLE
  2
STYLE
  5
3
100
AcDbSymbolTable
 70
1
  0
STYLE
  5
11
100
AcDbSymbolTableRecord
100
AcDbTextStyleTableRecord
  2
STANDARD
 70
0
 40
0.0
 41
0.8
 50
0.0
 71
0
 42
0.2
  3
txt
  4

  0
STYLE
  5
201
100
AcDbSymbolTableRecord
100
AcDbTextStyleTableRecord
  2
TEXTSTYLE_1
 70
0
 40
0.0
 41
0.8
 50
0.0
 71
0
 42
0.2
  3
gdt
  4

  0
ENDTAB
  0
TABLE
  2
VIEW
  5
6
100
AcDbSymbolTable
 70
0
  0
ENDTAB
  0
TABLE
  2
UCS
  5
7
100
AcDbSymbolTable
 70
0
  0
ENDTAB
  0
TABLE
  2
APPID
  5
9
100
AcDbSymbolTable
 70
1
  0
APPID
  5
202
100
AcDbSymbolTableRecord
100
AcDbRegAppTableRecord
  2
ACAD
 70
0
  0
ENDTAB
  0
TABLE
  2
BLOCK_RECORD
  5
1
100
AcDbSymbolTable
 70
0
  0
BLOCK_RECORD
  5
203
100
AcDbSymbolTableRecord
100
AcDbBlockTableRecord
  2
*Model_Space
  0
BLOCK_RECORD
  5
204
100
AcDbSymbolTableRecord
100
AcDbBlockTableRecord
  2
*Paper_Space
  0
ENDTAB
  0
TABLE
  2
DIMSTYLE
  5
A
100
AcDbSymbolTable
 70
1
100
AcDbDimStyleTable
 71
0
  0
DIMSTYLE
105
205
100
AcDbSymbolTableRecord
100
AcDbDimStyleTableRecord
  2
STANDARD
 70
0
  3

  4

 40
1.0
 41
0.1875
 42
0.0625
 43
0.38
 44
0.18
 45
0.0
 46
0.0
 47
0.01
 48
0.01
140
0.15625
141
0.09
142
0.0
143
25.4
144
1.0
145
0.0
146
1.0
147
0.09
 71
0.0
 72
0.0
 73
1
 74
1
 75
0
 76
0
 77
0
 78
4
170
0
171
2
172
0
173
0
174
0
175
0
176
0
177
0
178
0
270
2
271
2
272
2
273
2
274
2
275
0
280
0
281
0
282
0
283
1
284
4
285
0
286
0
287
3
288
0
340
11
  0
ENDTAB
  0
ENDSEC
  0
SECTION
  2
BLOCKS
  0
BLOCK
  5
20
100
AcDbEntity
  8
0
100
AcDbBlockBegin
  2
*Model_Space
 70
0
 10
0.0
 20
0.0
 30
0.0
  3
*Model_Space
  1

  0
ENDBLK
  5
21
100
AcDbEntity
  8
0
100
AcDbBlockEnd
  0
BLOCK
  5
1C
100
AcDbEntity
  8
0
100
AcDbBlockBegin
  2
*Paper_Space
 70
0
 10
0.0
 20
0.0
 30
0.0
  3
*Paper_Space
  1

  0
ENDBLK
  5
1D
100
AcDbEntity
  8
0
100
AcDbBlockEnd
  0
ENDSEC
  0
SECTION
  2
ENTITIES
  0
ARC
  5
206
100
AcDbEntity
  8
0
100
AcDbCircle
 62
6
  6
CONTINUOUS
 10
5.6355259809
 20
3.6074798338
 40
3.5
100
AcDbArc
 50
96.4466920546
 51
83.5533112316
  0
ARC
  5
207
100
AcDbEntity
  8
0
100
AcDbCircle
 62
6
  6
CONTINUOUS
 10
5.6355259809
 20
3.6074798338
 40
3.125
100
AcDbArc
 50
96.9642080549
 51
83.035791945
  0
ARC
  5
208
100
AcDbEntity
  8
0
100
AcDbCircle
 62
6
  6
CONTINUOUS
 10
5.6355259809
 20
6.9179619483
 40
1.175
100
AcDbArc
 50
199.3338020382
 51
340.6661979618
  0
ARC
  5
209
100
AcDbEntity
  8
0
100
AcDbCircle
 62
6
  6
CONTINUOUS
 10
5.6355259809
 20
6.9179619483
 40
1.175
100
AcDbArc
 50
359.3358962461
 51
180.6641037539
  0
ARC
  5
20A
100
AcDbEntity
  8
0
100
AcDbCircle
 62
9
  6
CONTINUOUS
 10
5.6355259809
 20
6.9179619483
 40
1.1065117064
100
AcDbArc
 50
0.5254197872
 51
179.4745802128
  0
ARC
  5
20B
100
AcDbEntity
  8
0
100
AcDbCircle
 62
9
  6
CONTINUOUS
 10
5.6355259809
 20
6.9179619483
 40
1.1065117064
100
AcDbArc
 50
199.2841289488
 51
340.7158710512
  0
ARC
  5
20C
100
AcDbEntity
  8
0
100
AcDbCircle
 62
6
  6
CONTINUOUS
 10
5.6355259809
 20
6.9179619483
 40
0.8249370024
100
AcDbArc
 50
200.080259577
 51
339.919740423
  0
ARC
  5
20D
100
AcDbEntity
  8
0
100
AcDbCircle
 62
6
  6
CONTINUOUS
 10
5.6355259809
 20
6.9179619483
 40
0.8249370024
100
AcDbArc
 50
6.3985259192
 51
173.6014740808
  0
ARC
  5
20E
100
AcDbEntity
  8
0
100
AcDbCircle
 62
6
  6
CONTINUOUS
 10
5.6355259809
 20
6.9179619483
 40
0.75
100
AcDbArc
 50
8.4193567158
 51
171.5806432842
  0
ARC
  5
20F
100
AcDbEntity
  8
0
100
AcDbCircle
 62
6
  6
CONTINUOUS
 10
5.6355259809
 20
6.9179619483
 40
0.75
100
AcDbArc
 50
200.7433419614
 51
339.2566580386
  0
ARC
  5
210
100
AcDbEntity
  8
0
100
AcDbCircle
 62
9
  6
CONTINUOUS
 10
5.6355259809
 20
6.9179619483
 40
0.5857901033
100
AcDbArc
 50
14.1903932083
 51
165.8096067917
  0
ARC
  5
211
100
AcDbEntity
  8
0
100
AcDbCircle
 62
9
  6
CONTINUOUS
 10
5.6355259809
 20
6.9179619483
 40
0.5857901033
100
AcDbArc
 50
203.4050834359
 51
336.5949165641
  0
ARC
  5
212
100
AcDbEntity
  8
0
100
AcDbCircle
 62
7
  6
CONTINUOUS
 10
5.6355259809
 20
6.9179619483
 40
0.4325
100
AcDbArc
 50
27.9179982692
 51
152.0820017308
  0
ARC
  5
213
100
AcDbEntity
  8
0
100
AcDbCircle
 62
7
  6
CONTINUOUS
 10
5.6355259809
 20
6.9179619483
 40
0.4325
100
AcDbArc
 50
208.8271093429
 51
331.1728906571
  0
CIRCLE
  5
214
100
AcDbEntity
  8
0
100
AcDbCircle
 62
9
  6
CONTINUOUS
 10
5.6355259809
 20
6.9179619483
 40
0.3905882041
  0
CIRCLE
  5
215
100
AcDbEntity
  8
0
100
AcDbCircle
 62
9
  6
CONTINUOUS
 10
5.6355259809
 20
6.9179619483
 40
0.3903441907
  0
CIRCLE
  5
216
100
AcDbEntity
  8
0
100
AcDbCircle
 62
9
  6
CONTINUOUS
 10
5.6355259809
 20
6.9179619483
 40
0.275291821
  0
ARC
  5
217
100
AcDbEntity
  8
0
100
AcDbCircle
 62
6
  6
CONTINUOUS
 10
5.635531987
 20
6.4561909924
 40
0.2743429598
100
AcDbArc
 50
269.9987456291
 51
271.3947845925
  0
CIRCLE
  5
218
100
AcDbEntity
  8
0
100
AcDbCircle
 62
9
  6
CONTINUOUS
 10
5.6355259809
 20
6.9179619483
 40
0.154558207
  0
CIRCLE
  5
219
100
AcDbEntity
  8
0
100
AcDbCircle
 62
9
  6
CONTINUOUS
 10
5.6355259809
 20
6.9179619483
 40
0.1261955382
  0
SPLINE
  5
21A
100
AcDbEntity
  8
0
100
AcDbSpline
 62
7
  6
CONTINUOUS
 70
0
 71
3
 72
21
 73
17
 74
15
 42
0.0000001
 43
0.0000001
 44
0.0000000001
 12
-0.0
 22
-0.1391593888
 32
0.0
 13
0.0301791019
 23
-0.1358475516
 33
0.0
 40
0.0
 40
0.0
 40
0.0
 40
0.0
 40
0.0685592958
 40
0.1370320524
 40
0.2052364966
 40
0.2729904816
 40
0.3401204456
 40
0.4064868028
 40
0.4719573021
 40
0.5363985878
 40
0.5996793744
 40
0.6616792632
 40
0.7222793078
 40
0.7813590869
 40
0.8944655079
 40
1.0
 40
1.0
 40
1.0
 40
1.0
 10
5.2202488784
 20
6.9179619483
 30
0.0
 10
5.2202488784
 20
6.9147817251
 30
0.0
 10
5.2202968721
 20
6.9084251927
 30
0.0
 10
5.2205100575
 20
6.8989070564
 30
0.0
 10
5.2208619218
 20
6.8894304013
 30
0.0
 10
5.2213499371
 20
6.8800221542
 30
0.0
 10
5.2219717637
 20
6.8707072591
 30
0.0
 10
5.2227201846
 20
6.8615079682
 30
0.0
 10
5.2235880319
 20
6.8524444681
 30
0.0
 10
5.2245681752
 20
6.8435364102
 30
0.0
 10
5.2256536096
 20
6.8348027868
 30
0.0
 10
5.2268340301
 20
6.8262613592
 30
0.0
 10
5.2280991637
 20
6.8179291245
 30
0.0
 10
5.2298598136
 20
6.807275235
 30
0.0
 10
5.2322021629
 20
6.794606064
 30
0.0
 10
5.2342849778
 20
6.7846791945
 30
0.0
 10
5.2353466232
 20
6.779900327
 30
0.0
 11
5.2202488784
 21
6.9179619483
 31
0.0
 11
5.2203205187
 21
6.9084215476
 31
0.0
 11
5.2205337469
 21
6.8988953067
 31
0.0
 11
5.2208860244
 21
6.8894105577
 31
0.0
 11
5.2213748125
 21
6.8799946327
 31
0.0
 11
5.2219967983
 21
6.8706735973
 31
0.0
 11
5.2227456035
 21
6.8614685018
 31
0.0
 11
5.2236140912
 21
6.8523991558
 31
0.0
 11
5.2245951246
 21
6.8434853686
 31
0.0
 11
5.2256810507
 21
6.834746465
 31
0.0
 11
5.2268621434
 21
6.8261998223
 31
0.0
 11
5.2281281561
 21
6.8178623286
 31
0.0
 11
5.2294688422
 21
6.8097508725
 31
0.0
 11
5.2323299208
 21
6.7942732701
 31
0.0
 11
5.2353466232
 21
6.779900327
 31
0.0
  0
SPLINE
  5
21B
100
AcDbEntity
  8
0
100
AcDbSpline
 62
7
  6
CONTINUOUS
 70
0
 71
3
 72
21
 73
17
 74
15
 42
0.0000001
 43
0.0000001
 44
0.0000000001
 12
0.0301790815
 22
0.1358475561
 32
0.0
 13
0.0
 23
0.1391593887
 33
0.0
 40
0.0
 40
0.0
 40
0.0
 40
0.0
 40
0.1055344302
 40
0.2186408171
 40
0.2777206028
 40
0.3383206684
 40
0.4003205879
 40
0.4636014102
 40
0.5280427314
 40
0.5935132592
 40
0.6598796313
 40
0.7270095897
 40
0.7947635533
 40
0.8629679742
 40
0.931440712
 40
1.0
 40
1.0
 40
1.0
 40
1.0
 10
6.0357053385
 20
6.779900327
 30
0.0
 10
6.0367669826
 20
6.7846791918
 30
0.0
 10
6.0388497972
 20
6.7946060568
 30
0.0
 10
6.0411921463
 20
6.8072752236
 30
0.0
 10
6.0429527956
 20
6.817929113
 30
0.0
 10
6.04421793
 20
6.8262613503
 30
0.0
 10
6.0453983514
 20
6.8348027818
 30
0.0
 10
6.0464837866
 20
6.8435364099
 30
0.0
 10
6.04746393
 20
6.8524444725
 30
0.0
 10
6.0483317773
 20
6.8615079762
 30
0.0
 10
6.0490801981
 20
6.8707072688
 30
0.0
 10
6.0497020253
 20
6.8800221633
 30
0.0
 10
6.0501900411
 20
6.8894304081
 30
0.0
 10
6.050541905
 20
6.8989070603
 30
0.0
 10
6.0507550898
 20
6.9084251943
 30
0.0
 10
6.0508030833
 20
6.9147817254
 30
0.0
 10
6.0508030833
 20
6.9179619483
 30
0.0
 11
6.0357053385
 21
6.779900327
 31
0.0
 11
6.038722039
 21
6.7942732617
 31
0.0
 11
6.0415831171
 21
6.8097508593
 31
0.0
 11
6.0429238033
 21
6.8178623164
 31
0.0
 11
6.0441898167
 21
6.8261998129
 31
0.0
 11
6.0453709103
 21
6.8347464598
 31
0.0
 11
6.0464568371
 21
6.8434853683
 31
0.0
 11
6.0474378707
 21
6.8523991604
 31
0.0
 11
6.0483063584
 21
6.8614685104
 31
0.0
 11
6.0490551637
 21
6.870673608
 31
0.0
 11
6.0496771499
 21
6.8799946426
 31
0.0
 11
6.0501659383
 21
6.8894105646
 31
0.0
 11
6.0505182155
 21
6.8988953103
 31
0.0
 11
6.0507314433
 21
6.9084215486
 31
0.0
 11
6.0508030833
 21
6.9179619483
 31
0.0
  0
SPLINE
  5
21C
100
AcDbEntity
  8
0
100
AcDbSpline
 62
6
  6
CONTINUOUS
 70
0
 71
3
 72
57
 73
53
 74
51
 42
0.0000001
 43
0.0000001
 44
0.0000000001
 12
0.0
 22
0.2061013843
 32
0.0
 13
-0.0964981946
 23
0.1821150159
 33
0.0
 40
0.0
 40
0.0
 40
0.0
 40
0.0
 40
0.0484297966
 40
0.0967927159
 40
0.1449479379
 40
0.1927543238
 40
0.2400778181
 40
0.2868121042
 40
0.3328567603
 40
0.3781104426
 40
0.4224727408
 40
0.4658490176
 40
0.5081449906
 40
0.5492651571
 40
0.6276112294
 40
0.6646723618
 40
0.7002137235
 40
0.7341517907
 40
0.7664074684
 40
0.7969018036
 40
0.8255547235
 40
0.8522866978
 40
0.8770230353
 40
0.8996895204
 40
0.9202111565
 40
0.938515505
 40
0.9468171935
 40
0.9545423113
 40
0.9616836493
 40
0.9682339755
 40
0.9741860364
 40
0.9795325583
 40
0.9842667383
 40
0.9883847347
 40
0.9902118114
 40
0.9918838188
 40
0.9934004157
 40
0.9947612605
 40
0.9959660116
 40
0.9970143272
 40
0.9979058655
 40
0.9986402845
 40
0.9989484676
 40
0.9992172427
 40
0.9994465674
 40
0.9996363993
 40
0.9997866962
 40
0.999897417
 40
0.9999379242
 40
0.9999685237
 40
0.9999892133
 40
1.0
 40
1.0
 40
1.0
 40
1.0
 10
6.0508030833
 20
6.9179619483
 30
0.0
 10
6.0508030833
 20
6.9212890977
 30
0.0
 10
6.0507504804
 20
6.9279389164
 30
0.0
 10
6.0505171185
 20
6.9378945471
 30
0.0
 10
6.0501323257
 20
6.947802634
 30
0.0
 10
6.0495991385
 20
6.9576323287
 30
0.0
 10
6.0489203706
 20
6.9673551831
 30
0.0
 10
6.0481045845
 20
6.9769460134
 30
0.0
 10
6.0471602668
 20
6.9863821302
 30
0.0
 10
6.0460958609
 20
6.9956414353
 30
0.0
 10
6.0449197108
 20
7.0047023681
 30
0.0
 10
6.0436440856
 20
7.0135445475
 30
0.0
 10
6.042281214
 20
7.0221482586
 30
0.0
 10
6.0403942135
 20
7.0331002789
 30
0.0
 10
6.0383606893
 20
7.0436611986
 30
0.0
 10
6.036208708
 20
7.0538058794
 30
0.0
 10
6.0346048336
 20
7.0609475619
 30
0.0
 10
6.0329951702
 20
7.0677490753
 30
0.0
 10
6.031394852
 20
7.0741960648
 30
0.0
 10
6.0298189308
 20
7.0802746312
 30
0.0
 10
6.0282824012
 20
7.0859710727
 30
0.0
 10
6.0268001118
 20
7.0912721728
 30
0.0
 10
6.0253863172
 20
7.0961651675
 30
0.0
 10
6.0240551531
 20
7.1006377629
 30
0.0
 10
6.0228206238
 20
7.1046779513
 30
0.0
 10
6.0218547844
 20
7.1077682508
 30
0.0
 10
6.0211408741
 20
7.1100161787
 30
0.0
 10
6.0206547959
 20
7.1115318051
 30
0.0
 10
6.0202017063
 20
7.1129316494
 30
0.0
 10
6.0197829205
 20
7.1142145607
 30
0.0
 10
6.0193997597
 20
7.1153793894
 30
0.0
 10
6.019053511
 20
7.1164250104
 30
0.0
 10
6.0187454514
 20
7.1173505461
 30
0.0
 10
6.018512707
 20
7.1180463203
 30
0.0
 10
6.0183460813
 20
7.1185423804
 30
0.0
 10
6.0182360915
 20
7.1188689342
 30
0.0
 10
6.01813607
 20
7.1191650469
 30
0.0
 10
6.0180460789
 20
7.119430665
 30
0.0
 10
6.0179661803
 20
7.119665735
 30
0.0
 10
6.017896437
 20
7.1198702035
 30
0.0
 10
6.0178369111
 20
7.120044017
 30
0.0
 10
6.0177936765
 20
7.120169663
 30
0.0
 10
6.0177642329
 20
7.120254808
 30
0.0
 10
6.0177460687
 20
7.1203071372
 30
0.0
 10
6.0177305055
 20
7.1203517624
 30
0.0
 10
6.017717554
 20
7.1203886783
 30
0.0
 10
6.0177072179
 20
7.1204178759
 30
0.0
 10
6.0177002328
 20
7.1204373787
 30
0.0
 10
6.0176959335
 20
7.1204491059
 30
0.0
 10
6.0176937359
 20
7.1204550194
 30
0.0
 10
6.0176921733
 20
7.1204589834
 30
0.0
 10
6.0176913707
 20
7.1204609973
 30
0.0
 10
6.0176910237
 20
7.1204616521
 30
0.0
 11
6.0508030833
 21
6.9179619483
 31
0.0
 11
6.0507246007
 21
6.9279430878
 31
0.0
 11
6.0504911889
 21
6.9379080192
 31
0.0
 11
6.0501059015
 21
6.9478253958
 31
0.0
 11
6.0495717922
 21
6.957663871
 31
0.0
 11
6.0488928331
 21
6.967393648
 31
0.0
 11
6.048076593
 21
6.9769910016
 31
0.0
 11
6.0471315217
 21
6.9864336931
 31
0.0
 11
6.0460660687
 21
6.9956994838
 31
0.0
 11
6.0448893196
 21
7.004766573
 31
0.0
 11
6.0436128671
 21
7.0136148877
 31
0.0
 11
6.0422489215
 21
7.0222247803
 31
0.0
 11
6.0408096932
 21
7.0305766031
 31
0.0
 11
6.0377570609
 21
7.046432662
 31
0.0
 11
6.0361719497
 21
7.0539047315
 31
0.0
 11
6.0345667349
 21
7.0610518096
 31
0.0
 11
6.0329558621
 21
7.0678584735
 31
0.0
 11
6.0313542568
 21
7.0743106022
 31
0.0
 11
6.0297769586
 21
7.0803943846
 31
0.0
 11
6.0282390072
 21
7.0860960099
 31
0.0
 11
6.0267552772
 21
7.0914019595
 31
0.0
 11
6.0253400397
 21
7.0962997834
 31
0.0
 11
6.024007428
 21
7.1007772756
 31
0.0
 11
6.0227715754
 21
7.1048222301
 31
0.0
 11
6.0216460019
 21
7.1084229564
 31
0.0
 11
6.0211280862
 21
7.1100536765
 31
0.0
 11
6.020641844
 21
7.1115697682
 31
0.0
 11
6.0201885949
 21
7.1129700815
 31
0.0
 11
6.0197696587
 21
7.1142534664
 31
0.0
 11
6.0193863548
 21
7.1154187731
 31
0.0
 11
6.0190400031
 21
7.1164648517
 31
0.0
 11
6.018731835
 21
7.1173906293
 31
0.0
 11
6.0184625469
 21
7.1181955004
 31
0.0
 11
6.0183426377
 21
7.1185524619
 31
0.0
 11
6.0182326342
 21
7.1188790358
 31
0.0
 11
6.0181325982
 21
7.1191751684
 31
0.0
 11
6.0180425917
 21
7.119440806
 31
0.0
 11
6.0179626765
 21
7.1196758951
 31
0.0
 11
6.0178929145
 21
7.119880382
 31
0.0
 11
6.0178333675
 21
7.120054213
 31
0.0
 11
6.0177840975
 21
7.1201973345
 31
0.0
 11
6.0177633356
 21
7.1202573624
 31
0.0
 11
6.0177451662
 21
7.1203096928
 31
0.0
 11
6.0177295969
 21
7.120354319
 31
0.0
 11
6.0177166355
 21
7.1203912343
 31
0.0
 11
6.0177062898
 21
7.1204204319
 31
0.0
 11
6.0176985674
 21
7.1204419052
 31
0.0
 11
6.0176956924
 21
7.1204497432
 31
0.0
 11
6.0176934761
 21
7.1204556475
 31
0.0
 11
6.0176919196
 21
7.1204596174
 31
0.0
 11
6.0176910237
 21
7.1204616521
 31
0.0
  0
SPLINE
  5
21D
100
AcDbEntity
  8
0
100
AcDbSpline
 62
6
  6
CONTINUOUS
 70
0
 71
3
 72
22
 73
18
 74
16
 42
0.0000001
 43
0.0000001
 44
0.0000000001
 12
0.0193865147
 22
-0.0019331077
 32
0.0
 13
0.0168481699
 23
-0.0097833036
 33
0.0
 40
0.0
 40
0.0
 40
0.0
 40
0.0
 40
0.1748245749
 40
0.2568923064
 40
0.3353471846
 40
0.4101570435
 40
0.4813194369
 40
0.5488549123
 40
0.6127878728
 40
0.67314693
 40
0.7299688663
 40
0.7833011976
 40
0.8331992649
 40
0.8797278586
 40
0.9229664481
 40
0.9630165424
 40
1.0
 40
1.0
 40
1.0
 40
1.0
 10
5.6963612167
 20
6.1996387775
 30
0.0
 10
5.6974909631
 20
6.1995261259
 30
0.0
 10
5.6991495655
 20
6.1993446954
 30
0.0
 10
5.701309835
 20
6.199068424
 30
0.0
 10
5.7028231595
 20
6.198854635
 30
0.0
 10
5.7042632528
 20
6.1986298266
 30
0.0
 10
5.7056296852
 20
6.1983940106
 30
0.0
 10
5.7069223497
 20
6.1981472564
 30
0.0
 10
5.7081412742
 20
6.1978895966
 30
0.0
 10
5.7092865096
 20
6.1976210505
 30
0.0
 10
5.710358168
 20
6.197341671
 30
0.0
 10
5.7113564465
 20
6.1970516108
 30
0.0
 10
5.7122815802
 20
6.1967509966
 30
0.0
 10
5.7131338261
 20
6.1964399469
 30
0.0
 10
5.7139135224
 20
6.1961185481
 30
0.0
 10
5.7146210754
 20
6.1957870028
 30
0.0
 10
5.7150621101
 20
6.1955501173
 30
0.0
 10
5.7152698113
 20
6.1954295105
 30
0.0
 11
5.6963612167
 21
6.1996387775
 31
0.0
 11
5.6997467141
 21
6.1992651961
 31
0.0
 11
5.7013326341
 21
6.1990618973
 31
0.0
 11
5.7028460437
 21
6.198847579
 31
0.0
 11
5.7042860123
 21
6.1986222322
 31
0.0
 11
5.7056521482
 21
6.1983858691
 31
0.0
 11
5.7069444597
 21
6.1981385178
 31
0.0
 11
5.7081629647
 21
6.1978802066
 31
0.0
 11
5.7093076822
 21
6.1976109646
 31
0.0
 11
5.7103787018
 21
6.1973308585
 31
0.0
 11
5.7113762213
 21
6.1970400131
 31
0.0
 11
5.7123004476
 21
6.1967385579
 31
0.0
 11
5.7131515878
 21
6.1964266226
 31
0.0
 11
5.713929908
 21
6.19610435
 31
0.0
 11
5.7146358324
 21
6.195771918
 31
0.0
 11
5.7152698113
 21
6.1954295105
 31
0.0
  0
SPLINE
  5
21E
100
AcDbEntity
  8
0
100
AcDbSpline
 62
6
  6
CONTINUOUS
 70
0
 71
3
 72
15
 73
11
 74
9
 42
0.0000001
 43
0.0000001
 44
0.0000000001
 12
0.0157869184
 22
-0.0011775003
 32
0.0
 13
0.0154407748
 23
-0.003492245
 33
0.0
 40
0.0
 40
0.0
 40
0.0
 40
0.0
 40
0.1504324694
 40
0.2942259019
 40
0.4310359635
 40
0.5605244271
 40
0.6823798112
 40
0.7963736126
 40
0.9023074724
 40
1.0
 40
1.0
 40
1.0
 40
1.0
 10
5.6806722289
 20
6.2016550127
 30
0.0
 10
5.6814638506
 20
6.2015959679
 30
0.0
 10
5.6830116163
 20
6.2014730298
 30
0.0
 10
5.6852769241
 20
6.2012676892
 30
0.0
 10
5.6874295207
 20
6.2010449411
 30
0.0
 10
5.6894636797
 20
6.2008042968
 30
0.0
 10
5.6913741533
 20
6.2005451845
 30
0.0
 10
5.6931563634
 20
6.2002675621
 30
0.0
 10
5.6948062016
 20
6.199971365
 30
0.0
 10
5.6958584006
 20
6.1997524995
 30
0.0
 10
5.6963612167
 20
6.1996387775
 30
0.0
 11
5.6806722289
 21
6.2016550127
 31
0.0
 11
5.6830461584
 21
6.2014657523
 31
0.0
 11
5.6853131509
 21
6.2012594418
 31
0.0
 11
5.6874673577
 21
6.2010355659
 31
0.0
 11
5.6895029303
 21
6.2007936093
 31
0.0
 11
5.6914143268
 21
6.2005331218
 31
0.0
 11
5.6931972055
 21
6.2002539087
 31
0.0
 11
5.6948475182
 21
6.199955838
 31
0.0
 11
5.6963612167
 21
6.1996387775
 31
0.0
  0
SPLINE
  5
21F
100
AcDbEntity
  8
0
100
AcDbSpline
 62
6
  6
CONTINUOUS
 70
0
 71
3
 72
22
 73
18
 74
16
 42
0.0000001
 43
0.0000001
 44
0.0000000001
 12
0.0452719237
 22
-0.0010371814
 32
0.0
 13
0.0444740597
 23
-0.0085253054
 33
0.0
 40
0.0
 40
0.0
 40
0.0
 40
0.0
 40
0.1496005617
 40
0.2231503017
 40
0.2955834728
 40
0.3667035541
 40
0.4363133984
 40
0.5041986283
 40
0.5701363604
 40
0.6339010884
 40
0.695258568
 40
0.7539746108
 40
0.8098195249
 40
0.862569043
 40
0.9120015482
 40
0.9578877763
 40
1.0
 40
1.0
 40
1.0
 40
1.0
 10
5.6355259809
 20
6.2046590469
 30
0.0
 10
5.6377835493
 20
6.204607326
 30
0.0
 10
5.6411508325
 20
6.2045208416
 30
0.0
 10
5.6456104386
 20
6.2043834419
 30
0.0
 10
5.6488855694
 20
6.2042700721
 30
0.0
 10
5.652100755
 20
6.2041448532
 30
0.0
 10
5.6552467095
 20
6.2040069198
 30
0.0
 10
5.658313713
 20
6.203855165
 30
0.0
 10
5.6612915799
 20
6.2036884223
 30
0.0
 10
5.6641697817
 20
6.2035055598
 30
0.0
 10
5.6669375558
 20
6.2033053421
 30
0.0
 10
5.6695840004
 20
6.2030865529
 30
0.0
 10
5.6720982662
 20
6.2028479935
 30
0.0
 10
5.6744695633
 20
6.202588529
 30
0.0
 10
5.6766869312
 20
6.2023069863
 30
0.0
 10
5.6787391422
 20
6.2020028459
 30
0.0
 10
5.6800479284
 20
6.2017746858
 30
0.0
 10
5.6806722289
 20
6.2016550127
 30
0.0
 11
5.6355259809
 21
6.2046590469
 31
0.0
 11
5.6422981914
 21
6.2044836165
 31
0.0
 11
5.6456272159
 21
6.2043807977
 31
0.0
 11
5.6489052908
 21
6.2042670021
 31
0.0
 11
5.6521234251
 21
6.2041413152
 31
0.0
 11
5.6552725784
 21
6.2040027916
 31
0.0
 11
5.6583428972
 21
6.2038503401
 31
0.0
 11
5.6613241041
 21
6.2036827938
 31
0.0
 11
5.664205756
 21
6.2034989663
 31
0.0
 11
5.6669769509
 21
6.203297618
 31
0.0
 11
5.6696267097
 21
6.2030775005
 31
0.0
 11
5.6721441536
 21
6.2028373753
 31
0.0
 11
5.674518511
 21
6.2025760153
 31
0.0
 11
5.6767389447
 21
6.2022922551
 31
0.0
 11
5.6787940664
 21
6.201985408
 31
0.0
 11
5.6806722289
 21
6.2016550127
 31
0.0
  0
SPLINE
  5
220
100
AcDbEntity
  8
0
100
AcDbSpline
 62
6
  6
CONTINUOUS
 70
0
 71
3
 72
15
 73
11
 74
9
 42
0.0000001
 43
0.0000001
 44
0.0000000001
 12
0.0480818026
 22
0.0012079916
 32
0.0
 13
0.0480843574
 23
-0.0011016144
 33
0.0
 40
0.0
 40
0.0
 40
0.0
 40
0.0
 40
0.1142266899
 40
0.2335435747
 40
0.3568243276
 40
0.4830542824
 40
0.6114044322
 40
0.741045679
 40
0.870958396
 40
1.0
 40
1.0
 40
1.0
 40
1.0
 10
5.5874331467
 20
6.2048122271
 30
0.0
 10
5.5892638885
 20
6.204858222
 30
0.0
 10
5.5930074974
 20
6.2049312014
 30
0.0
 10
5.5987279399
 20
6.204992836
 30
0.0
 10
5.6046411009
 20
6.2050153321
 30
0.0
 10
5.6106991063
 20
6.2050036714
 30
0.0
 10
5.6168589394
 20
6.2049604917
 30
0.0
 10
5.6230775575
 20
6.2048894267
 30
0.0
 10
5.6293068918
 20
6.204791129
 30
0.0
 10
5.6334576867
 20
6.2047064316
 30
0.0
 10
5.6355259809
 20
6.2046590469
 30
0.0
 11
5.5874331467
 21
6.2048122271
 31
0.0
 11
5.5929260121
 21
6.2049218028
 31
0.0
 11
5.5986644388
 21
6.2049855941
 31
0.0
 11
5.6045938216
 21
6.2050095573
 31
0.0
 11
5.6106650907
 21
6.2049986344
 31
0.0
 11
5.6168381982
 21
6.2049561147
 31
0.0
 11
5.623073144
 21
6.2048849597
 31
0.0
 11
5.6293207702
 21
6.204786078
 31
0.0
 11
5.6355259809
 21
6.2046590469
 31
0.0
  0
SPLINE
  5
221
100
AcDbEntity
  8
0
100
AcDbSpline
 62
6
  6
CONTINUOUS
 70
0
 71
3
 72
17
 73
13
 74
11
 42
0.0000001
 43
0.0000001
 44
0.0000000001
 12
0.0269032615
 22
0.005231884
 32
0.0
 13
0.0273863146
 23
0.0010713828
 33
0.0
 40
0.0
 40
0.0
 40
0.0
 40
0.0
 40
0.0455609392
 40
0.0935974984
 40
0.1440726794
 40
0.1969469432
 40
0.3097229851
 40
0.4315774679
 40
0.5621060135
 40
0.7007532903
 40
0.8469202169
 40
1.0
 40
1.0
 40
1.0
 40
1.0
 10
5.5601572231
 20
6.2023749304
 30
0.0
 10
5.5605658024
 20
6.2024543869
 30
0.0
 10
5.5614068687
 20
6.2026089217
 30
0.0
 10
5.5627054818
 20
6.2028237873
 30
0.0
 10
5.5640733879
 20
6.2030280857
 30
0.0
 10
5.566030152
 20
6.2032923072
 30
0.0
 10
5.5686396118
 20
6.2035938837
 30
0.0
 10
5.5719608357
 20
6.2039094293
 30
0.0
 10
5.5755225232
 20
6.2041871587
 30
0.0
 10
5.5793093219
 20
6.2044298433
 30
0.0
 10
5.5833043607
 20
6.2046399971
 30
0.0
 10
5.5860357164
 20
6.2047575581
 30
0.0
 10
5.5874331467
 20
6.2048122271
 30
0.0
 11
5.5601572231
 21
6.2023749304
 31
0.0
 11
5.5613852351
 21
6.2026012928
 31
0.0
 11
5.5626840231
 21
6.2028168277
 31
0.0
 11
5.5640521526
 21
6.2030217178
 31
0.0
 11
5.5654881893
 21
6.2032161453
 31
0.0
 11
5.5685582464
 21
6.2035743429
 31
0.0
 11
5.5718827186
 21
6.2038928804
 31
0.0
 11
5.575449132
 21
6.2041734202
 31
0.0
 11
5.5792411691
 21
6.2044184046
 31
0.0
 11
5.583241588
 21
6.2046304636
 31
0.0
 11
5.5874331467
 21
6.2048122271
 31
0.0
  0
SPLINE
  5
222
100
AcDbEntity
  8
0
100
AcDbSpline
 62
6
  6
CONTINUOUS
 70
0
 71
3
 72
57
 73
53
 74
51
 42
0.0000001
 43
0.0000001
 44
0.0000000001
 12
-0.096498195
 22
-0.1821150156
 32
0.0
 13
-0.0
 23
-0.2061013844
 33
0.0
 40
0.0
 40
0.0
 40
0.0
 40
0.0
 40
0.0000107867
 40
0.0000314764
 40
0.000062076
 40
0.0001025834
 40
0.0002133046
 40
0.0003636021
 40
0.0005534347
 40
0.0007827603
 40
0.0010515364
 40
0.0013597206
 40
0.0020941421
 40
0.0029856831
 40
0.0040340018
 40
0.005238756
 40
0.0065996039
 40
0.0081162039
 40
0.0097882142
 40
0.0116152935
 40
0.0157332941
 40
0.0204674763
 40
0.0258140032
 40
0.0317660738
 40
0.0383164129
 40
0.0454577655
 40
0.053182898
 40
0.0614845997
 40
0.0797889642
 40
0.1003106098
 40
0.1229771083
 40
0.1477134576
 40
0.1744454361
 40
0.2030983549
 40
0.2335926886
 40
0.2658483625
 40
0.2997864219
 40
0.3353277745
 40
0.3723888997
 40
0.4507349556
 40
0.4918551146
 40
0.5341510852
 40
0.5775273614
 40
0.6218896571
 40
0.6671433344
 40
0.7131879834
 40
0.7599222574
 40
0.8072457318
 40
0.8550520951
 40
0.9032072997
 40
0.9515702078
 40
1.0
 40
1.0
 40
1.0
 40
1.0
 10
5.253360938
 20
7.1204616521
 30
0.0
 10
5.2533605911
 20
7.1204609973
 30
0.0
 10
5.2533597884
 20
7.1204589834
 30
0.0
 10
5.2533582258
 20
7.1204550194
 30
0.0
 10
5.2533560282
 20
7.1204491059
 30
0.0
 10
5.2533517288
 20
7.1204373786
 30
0.0
 10
5.2533447437
 20
7.1204178757
 30
0.0
 10
5.2533344075
 20
7.120388678
 30
0.0
 10
5.2533214559
 20
7.120351762
 30
0.0
 10
5.2533058926
 20
7.1203071367
 30
0.0
 10
5.2532877283
 20
7.1202548073
 30
0.0
 10
5.2532582845
 20
7.120169662
 30
0.0
 10
5.2532150496
 20
7.1200440156
 30
0.0
 10
5.2531555234
 20
7.1198702017
 30
0.0
 10
5.2530857798
 20
7.1196657327
 30
0.0
 10
5.2530058809
 20
7.1194306621
 30
0.0
 10
5.2529158895
 20
7.1191650434
 30
0.0
 10
5.2528158677
 20
7.1188689301
 30
0.0
 10
5.2527058777
 20
7.1185423758
 30
0.0
 10
5.2525392519
 20
7.118046315
 30
0.0
 10
5.2523065075
 20
7.1173505402
 30
0.0
 10
5.2519984485
 20
7.1164250034
 30
0.0
 10
5.2516522
 20
7.1153793811
 30
0.0
 10
5.2512690385
 20
7.1142145506
 30
0.0
 10
5.2508502516
 20
7.1129316371
 30
0.0
 10
5.2503971607
 20
7.1115317901
 30
0.0
 10
5.2499110812
 20
7.1100161611
 30
0.0
 10
5.2491971696
 20
7.1077682305
 30
0.0
 10
5.2482313303
 20
7.1046779281
 30
0.0
 10
5.2469968016
 20
7.1006377367
 30
0.0
 10
5.2456656368
 20
7.0961651391
 30
0.0
 10
5.2442518412
 20
7.0912721425
 30
0.0
 10
5.2427695516
 20
7.0859710415
 30
0.0
 10
5.2412330225
 20
7.0802745997
 30
0.0
 10
5.2396571019
 20
7.0741960336
 30
0.0
 10
5.2380567844
 20
7.0677490448
 30
0.0
 10
5.2364471213
 20
7.0609475328
 30
0.0
 10
5.2348432473
 20
7.0538058519
 30
0.0
 10
5.2326912675
 20
7.0436611731
 30
0.0
 10
5.2306577439
 20
7.0331002554
 30
0.0
 10
5.2287707436
 20
7.022148237
 30
0.0
 10
5.2274078729
 20
7.0135445265
 30
0.0
 10
5.2261322485
 20
7.0047023473
 30
0.0
 10
5.2249560983
 20
6.9956414151
 30
0.0
 10
5.2238916924
 20
6.986382111
 30
0.0
 10
5.2229473757
 20
6.9769459957
 30
0.0
 10
5.2221315904
 20
6.967355168
 30
0.0
 10
5.2214528224
 20
6.9576323174
 30
0.0
 10
5.2209196349
 20
6.9478026269
 30
0.0
 10
5.2205348425
 20
6.9378945435
 30
0.0
 10
5.2203014811
 20
6.927938915
 30
0.0
 10
5.2202488784
 20
6.9212890974
 30
0.0
 10
5.2202488784
 20
6.9179619483
 30
0.0
 11
5.253360938
 21
7.1204616521
 31
0.0
 11
5.2533600421
 21
7.1204596174
 31
0.0
 11
5.2533584856
 21
7.1204556475
 31
0.0
 11
5.2533562693
 21
7.1204497431
 31
0.0
 11
5.2533533942
 21
7.1204419052
 31
0.0
 11
5.2533456718
 21
7.1204204318
 31
0.0
 11
5.253335326
 21
7.120391234
 31
0.0
 11
5.2533223645
 21
7.1203543186
 31
0.0
 11
5.2533067951
 21
7.1203096923
 31
0.0
 11
5.2532886256
 21
7.1202573617
 31
0.0
 11
5.2532678636
 21
7.1201973336
 31
0.0
 11
5.2532185932
 21
7.1200542117
 31
0.0
 11
5.2531590459
 21
7.1198803802
 31
0.0
 11
5.2530892835
 21
7.1196758928
 31
0.0
 11
5.253009368
 21
7.1194408031
 31
0.0
 11
5.2529193612
 21
7.1191751649
 31
0.0
 11
5.252819325
 21
7.1188790317
 31
0.0
 11
5.2527093213
 21
7.1185524573
 31
0.0
 11
5.252589412
 21
7.1181954953
 31
0.0
 11
5.2523201239
 21
7.1173906232
 31
0.0
 11
5.2520119564
 21
7.116464845
 31
0.0
 11
5.2516656048
 21
7.1154187653
 31
0.0
 11
5.2512823004
 21
7.1142534566
 31
0.0
 11
5.250863363
 21
7.1129700692
 31
0.0
 11
5.2504101126
 21
7.1115697532
 31
0.0
 11
5.2499238691
 21
7.1100536588
 31
0.0
 11
5.2494059523
 21
7.1084229361
 31
0.0
 11
5.2482803786
 21
7.1048222065
 31
0.0
 11
5.2470445265
 21
7.1007772498
 31
0.0
 11
5.2457119142
 21
7.0962997549
 31
0.0
 11
5.2442966758
 21
7.0914019288
 31
0.0
 11
5.2428129456
 21
7.0860959783
 31
0.0
 11
5.2412749947
 21
7.0803943531
 31
0.0
 11
5.2396976971
 21
7.0743105708
 31
0.0
 11
5.2380960923
 21
7.0678584428
 31
0.0
 11
5.23648522
 21
7.0610517804
 31
0.0
 11
5.2348800058
 21
7.0539047041
 31
0.0
 11
5.2332948954
 21
7.0464326359
 31
0.0
 11
5.2302422642
 21
7.0305765803
 31
0.0
 11
5.2288030363
 21
7.0222247589
 31
0.0
 11
5.2274390914
 21
7.0136148668
 31
0.0
 11
5.2261626395
 21
7.0047665521
 31
0.0
 11
5.2249858905
 21
6.9956994634
 31
0.0
 11
5.2239204377
 21
6.9864336737
 31
0.0
 11
5.222975367
 21
6.9769909836
 31
0.0
 11
5.2221591277
 21
6.9673936325
 31
0.0
 11
5.2214801686
 21
6.9576638595
 31
0.0
 11
5.2209460593
 21
6.947825389
 31
0.0
 11
5.2205607722
 21
6.937908016
 31
0.0
 11
5.2203273608
 21
6.9279430869
 31
0.0
 11
5.2202488784
 21
6.9179619483
 31
0.0
  0
SPLINE
  5
223
100
AcDbEntity
  8
0
100
AcDbSpline
 62
6
  6
CONTINUOUS
 70
0
 71
3
 72
38
 73
34
 74
32
 42
0.0000001
 43
0.0000001
 44
0.0000000001
 12
-0.0104040943
 22
0.006044941
 32
0.0
 13
0.0116485384
 23
0.003016296
 33
0.0
 40
0.0
 40
0.0
 40
0.0
 40
0.0
 40
0.0442896874
 40
0.0864382896
 40
0.1264444978
 40
0.1643135591
 40
0.2000589582
 40
0.2337046062
 40
0.2652877015
 40
0.2948624616
 40
0.3225049554
 40
0.3483205825
 40
0.3724548481
 40
0.3950963613
 40
0.41648283
 40
0.4369059578
 40
0.4567106112
 40
0.4762851494
 40
0.4960422802
 40
0.5163941558
 40
0.5377286393
 40
0.5603928457
 40
0.5846847635
 40
0.6108399342
 40
0.639037993
 40
0.6694184379
 40
0.7020892709
 40
0.7371340329
 40
0.7746173376
 40
0.814589126
 40
0.8570879053
 40
0.9021432101
 40
1.0
 40
1.0
 40
1.0
 40
1.0
 10
5.5585648094
 20
6.1951283763
 30
0.0
 10
5.5584112114
 20
6.1952176191
 30
0.0
 10
5.5581135226
 20
6.1953954143
 30
0.0
 10
5.5576853143
 20
6.1956672861
 30
0.0
 10
5.5572868494
 20
6.195937575
 30
0.0
 10
5.5569185241
 20
6.1962061047
 30
0.0
 10
5.5565807275
 20
6.1964727052
 30
0.0
 10
5.5562738469
 20
6.1967372114
 30
0.0
 10
5.5559982674
 20
6.1969994668
 30
0.0
 10
5.5557543742
 20
6.1972593273
 30
0.0
 10
5.5555425518
 20
6.1975166697
 30
0.0
 10
5.5553631898
 20
6.197771414
 30
0.0
 10
5.5552166254
 20
6.1980234768
 30
0.0
 10
5.5551032193
 20
6.1982728067
 30
0.0
 10
5.5550233981
 20
6.1985193405
 30
0.0
 10
5.5549776582
 20
6.1987629489
 30
0.0
 10
5.554966524
 20
6.1990033788
 30
0.0
 10
5.5549904537
 20
6.1992402366
 30
0.0
 10
5.5550497447
 20
6.1994730537
 30
0.0
 10
5.5551445177
 20
6.1997014123
 30
0.0
 10
5.555274802
 20
6.1999250334
 30
0.0
 10
5.5554406313
 20
6.200143783
 30
0.0
 10
5.5556420919
 20
6.2003575348
 30
0.0
 10
5.5558790356
 20
6.2005663456
 30
0.0
 10
5.5561512848
 20
6.2007702868
 30
0.0
 10
5.5564586958
 20
6.2009693533
 30
0.0
 10
5.5568011291
 20
6.201163517
 30
0.0
 10
5.557178448
 20
6.2013527264
 30
0.0
 10
5.557590512
 20
6.2015369165
 30
0.0
 10
5.5580371753
 20
6.2017160103
 30
0.0
 10
5.5585182907
 20
6.2018899346
 30
0.0
 10
5.5592251657
 20
6.2021212233
 30
0.0
 10
5.5597772602
 20
6.2022765421
 30
0.0
 10
5.5601572231
 20
6.2023749304
 30
0.0
 11
5.5585648094
 21
6.1951283763
 31
0.0
 11
5.5581074517
 21
6.1954019339
 31
0.0
 11
5.5576795003
 21
6.1956740945
 31
0.0
 11
5.5572813609
 21
6.1959446778
 31
0.0
 11
5.5569134396
 21
6.1962135036
 31
0.0
 11
5.5565761424
 21
6.1964803915
 31
0.0
 11
5.5562698753
 21
6.1967451613
 31
0.0
 11
5.5559950443
 21
6.1970076327
 31
0.0
 11
5.5557520552
 21
6.1972676255
 31
0.0
 11
5.5555413143
 21
6.1975249592
 31
0.0
 11
5.5553632066
 21
6.197779459
 31
0.0
 11
5.5552180353
 21
6.1980309705
 31
0.0
 11
5.5551060831
 21
6.1982793448
 31
0.0
 11
5.5550276324
 21
6.1985244327
 31
0.0
 11
5.5549829658
 21
6.1987660852
 31
0.0
 11
5.554972366
 21
6.1990041533
 31
0.0
 11
5.5549961155
 21
6.1992384879
 31
0.0
 11
5.555054497
 21
6.1994689401
 31
0.0
 11
5.5551477929
 21
6.1996953606
 31
0.0
 11
5.5552762859
 21
6.1999176005
 31
0.0
 11
5.5554402586
 21
6.2001355108
 31
0.0
 11
5.5556399672
 21
6.200348946
 31
0.0
 11
5.5558754002
 21
6.200557797
 31
0.0
 11
5.5561463891
 21
6.2007619762
 31
0.0
 11
5.5564527639
 21
6.2009613961
 31
0.0
 11
5.5567943542
 21
6.2011559694
 31
0.0
 11
5.5571709898
 21
6.2013456085
 31
0.0
 11
5.5575825006
 21
6.201530226
 31
0.0
 11
5.5580287162
 21
6.2017097346
 31
0.0
 11
5.5585094665
 21
6.2018840468
 31
0.0
 11
5.5590245813
 21
6.2020530751
 31
0.0
 11
5.5601572231
 21
6.2023749304
 31
0.0
  0
SPLINE
  5
224
100
AcDbEntity
  8
0
100
AcDbSpline
 62
6
  6
CONTINUOUS
 70
0
 71
3
 72
42
 73
38
 74
36
 42
0.0000001
 43
0.0000001
 44
0.0000000001
 12
0.0172190094
 22
-0.071617112
 32
0.0
 13
0.0355155617
 23
-0.0645302246
 33
0.0
 40
0.0
 40
0.0
 40
0.0
 40
0.0
 40
0.1123499245
 40
0.219396491
 40
0.3208092314
 40
0.4162677219
 40
0.5054642016
 40
0.5881023914
 40
0.6638983884
 40
0.7325818106
 40
0.7938977278
 40
0.821718079
 40
0.847609232
 40
0.8715448606
 40
0.8935002603
 40
0.9134521639
 40
0.9313793088
 40
0.9472620984
 40
0.9610829904
 40
0.967215337
 40
0.9728266072
 40
0.9779151199
 40
0.982479509
 40
0.9865184947
 40
0.9900308181
 40
0.9930154984
 40
0.9954717471
 40
0.9965014643
 40
0.9973987823
 40
0.9981636415
 40
0.9987960073
 40
0.9992958468
 40
0.9996631295
 40
0.9997970546
 40
0.9998978338
 40
0.9999654719
 40
1.0
 40
1.0
 40
1.0
 40
1.0
 10
5.2353466232
 20
6.779900327
 30
0.0
 10
5.2359914746
 20
6.777218268
 30
0.0
 10
5.2372841755
 20
6.7719887262
 30
0.0
 10
5.2392696224
 20
6.7643661482
 30
0.0
 10
5.2412360739
 20
6.7571677485
 30
0.0
 10
5.2431629419
 20
6.7504133519
 30
0.0
 10
5.2450297873
 20
6.7441215928
 30
0.0
 10
5.2468165271
 20
6.7383099657
 30
0.0
 10
5.2485036288
 20
6.7329948832
 30
0.0
 10
5.2500723282
 20
6.7281916802
 30
0.0
 10
5.2513029657
 20
6.7245173611
 30
0.0
 10
5.2522137838
 20
6.7218440273
 30
0.0
 10
5.252834275
 20
6.7200413807
 30
0.0
 10
5.2534127701
 20
6.7183765797
 30
0.0
 10
5.2539475532
 20
6.7168509736
 30
0.0
 10
5.2544370008
 20
6.7154658066
 30
0.0
 10
5.254879641
 20
6.7142222374
 30
0.0
 10
5.2552741131
 20
6.7131213104
 30
0.0
 10
5.2555724826
 20
6.7122935734
 30
0.0
 10
5.2557861373
 20
6.7117033783
 30
0.0
 10
5.2559271418
 20
6.711314903
 30
0.0
 10
5.2560552937
 20
6.7109627179
 30
0.0
 10
5.2561704996
 20
6.7106469022
 30
0.0
 10
5.2562726718
 20
6.7103675262
 30
0.0
 10
5.2563617215
 20
6.7101246498
 30
0.0
 10
5.2564375807
 20
6.7099183272
 30
0.0
 10
5.256492566
 20
6.709769274
 30
0.0
 10
5.2565299281
 20
6.7096683462
 30
0.0
 10
5.2565529267
 20
6.7096063834
 30
0.0
 10
5.2565725895
 20
6.7095535891
 30
0.0
 10
5.2565889103
 20
6.7095099638
 30
0.0
 10
5.2566018922
 20
6.7094755126
 30
0.0
 10
5.2566106301
 20
6.7094525386
 30
0.0
 10
5.2566159778
 20
6.7094387611
 30
0.0
 10
5.256618689
 20
6.7094318477
 30
0.0
 10
5.2566205962
 20
6.7094272494
 30
0.0
 10
5.2566215596
 20
6.7094249262
 30
0.0
 10
5.2566219684
 20
6.7094241835
 30
0.0
 11
5.2353466232
 21
6.779900327
 31
0.0
 11
5.2373324987
 21
6.7718666625
 31
0.0
 11
5.2393199617
 21
6.7642364151
 31
0.0
 11
5.2412884626
 21
6.7570305946
 31
0.0
 11
5.2432173867
 21
6.7502690705
 31
0.0
 11
5.2450862912
 21
6.7439704533
 31
0.0
 11
5.2468750759
 21
6.7381522572
 31
0.0
 11
5.2485641894
 21
6.7328309227
 31
0.0
 11
5.2501348428
 21
6.7280218278
 31
0.0
 11
5.2515692392
 21
6.7237392513
 31
0.0
 11
5.2522301102
 21
6.7217995507
 31
0.0
 11
5.252850815
 21
6.7199962974
 31
0.0
 11
5.2534295162
 21
6.7183309283
 31
0.0
 11
5.2539644921
 21
6.7168047864
 31
0.0
 11
5.2544541238
 21
6.7154191323
 31
0.0
 11
5.2548969341
 21
6.7141751139
 31
0.0
 11
5.255291564
 21
6.7130737868
 31
0.0
 11
5.2556367988
 21
6.7121160933
 31
0.0
 11
5.2557905551
 21
6.7116913713
 31
0.0
 11
5.2559315754
 21
6.7113028579
 31
0.0
 11
5.2560597439
 21
6.7109506431
 31
0.0
 11
5.2561749661
 21
6.7106348
 31
0.0
 11
5.256277154
 21
6.7103553969
 31
0.0
 11
5.2563662207
 21
6.710112501
 31
0.0
 11
5.2564420987
 21
6.7099061647
 31
0.0
 11
5.2565047334
 21
6.7097364302
 31
0.0
 11
5.2565310676
 21
6.7096653017
 31
0.0
 11
5.2565540708
 21
6.7096033391
 31
0.0
 11
5.256573739
 21
6.7095505458
 31
0.0
 11
5.2565900697
 21
6.7095069236
 31
0.0
 11
5.2566030604
 21
6.7094724744
 31
0.0
 11
5.2566127087
 21
6.7094472001
 31
0.0
 11
5.2566162787
 21
6.709438004
 31
0.0
 11
5.2566190121
 21
6.7094311025
 31
0.0
 11
5.2566209088
 21
6.7094264955
 31
0.0
 11
5.2566219684
 21
6.7094241835
 31
0.0
  0
SPLINE
  5
225
100
AcDbEntity
  8
0
100
AcDbSpline
 62
6
  6
CONTINUOUS
 70
0
 71
3
 72
15
 73
11
 74
9
 42
0.0000001
 43
0.0000001
 44
0.0000000001
 12
0.0530529848
 22
-0.0053146209
 32
0.0
 13
0.0531750908
 23
-0.0039082099
 33
0.0
 40
0.0
 40
0.0
 40
0.0
 40
0.0
 40
0.0508528712
 40
0.1041015315
 40
0.2170475429
 40
0.3373600309
 40
0.4636183205
 40
0.5944931603
 40
0.7286374624
 40
1.0
 40
1.0
 40
1.0
 40
1.0
 10
5.5890608587
 20
6.1861605437
 30
0.0
 10
5.5899601576
 20
6.1860704558
 30
0.0
 10
5.5918015935
 20
6.1858907106
 30
0.0
 10
5.5956424518
 20
6.1855321395
 30
0.0
 10
5.6007149989
 20
6.1850865126
 30
0.0
 10
5.6070830039
 20
6.1845609791
 30
0.0
 10
5.6137706843
 20
6.1840355024
 30
0.0
 10
5.6207048935
 20
6.183509693
 30
0.0
 10
5.6302118851
 20
6.1828056085
 30
0.0
 10
5.637399909
 20
6.1822828317
 30
0.0
 10
5.6422098182
 20
6.1819293178
 30
0.0
 11
5.5890608587
 21
6.1861605437
 31
0.0
 11
5.5917593908
 21
6.1858967003
 31
0.0
 11
5.5945862026
 21
6.185632411
 31
0.0
 11
5.6005850088
 21
6.1851030892
 31
0.0
 11
5.6069780157
 21
6.1845737556
 31
0.0
 11
5.6136891173
 21
6.1840449279
 31
0.0
 11
5.6206471026
 21
6.1835161012
 31
0.0
 11
5.6277798638
 21
6.18298677
 31
0.0
 11
5.6422098182
 21
6.1819293178
 31
0.0
  0
SPLINE
  5
226
100
AcDbEntity
  8
0
100
AcDbSpline
 62
6
  6
CONTINUOUS
 70
0
 71
3
 72
11
 73
7
 74
5
 42
0.0000001
 43
0.0000001
 44
0.0000000001
 12
0.0025152565
 22
-0.0014605454
 32
0.0
 13
0.0014893694
 23
-0.0024982968
 33
0.0
 40
0.0
 40
0.0
 40
0.0
 40
0.0
 40
0.2911957823
 40
0.5524313754
 40
0.7871832901
 40
1.0
 40
1.0
 40
1.0
 40
1.0
 10
5.7152698113
 20
6.1954295105
 30
0.0
 10
5.7155139553
 20
6.1952877423
 30
0.0
 10
5.7159670569
 20
6.1950005874
 30
0.0
 10
5.7165685834
 20
6.1945283263
 30
0.0
 10
5.7170541284
 20
6.1940392669
 30
0.0
 10
5.7173114281
 20
6.1936869118
 30
0.0
 10
5.7174170823
 20
6.1935096853
 30
0.0
 11
5.7152698113
 21
6.1954295105
 31
0.0
 11
5.7159830275
 21
6.1949727136
 31
0.0
 11
5.7165779332
 21
6.1945000489
 31
0.0
 11
5.7170555935
 21
6.1940121533
 31
0.0
 11
5.7174170823
 21
6.1935096853
 31
0.0
  0
SPLINE
  5
227
100
AcDbEntity
  8
0
100
AcDbSpline
 62
6
  6
CONTINUOUS
 70
0
 71
3
 72
37
 73
33
 74
31
 42
0.0000001
 43
0.0000001
 44
0.0000000001
 12
-0.1406157142
 22
0.0311659713
 32
0.0
 13
-0.1435073513
 23
0.0122367051
 33
0.0
 40
0.0
 40
0.0
 40
0.0
 40
0.0
 40
0.0055698886
 40
0.0117514727
 40
0.0185374976
 40
0.0259201293
 40
0.0338911396
 40
0.0424420234
 40
0.0515640747
 40
0.0612484393
 40
0.0822653505
 40
0.1053985496
 40
0.1305446906
 40
0.1575997493
 40
0.1864577526
 40
0.2169928937
 40
0.2490655588
 40
0.2825356892
 40
0.353096768
 40
0.4274429197
 40
0.5042820685
 40
0.5822788657
 40
0.6600692415
 40
0.6984645785
 40
0.7363040368
 40
0.8096501015
 40
0.8448382247
 40
0.8788348646
 40
0.9114898435
 40
0.9426549463
 40
0.9721989821
 40
1.0
 40
1.0
 40
1.0
 40
1.0
 10
5.7174170823
 20
6.1935096853
 30
0.0
 10
5.717156011
 20
6.193567549
 30
0.0
 10
5.7166035519
 20
6.1936822474
 30
0.0
 10
5.7157286671
 20
6.1938456623
 30
0.0
 10
5.7147654408
 20
6.1940093727
 30
0.0
 10
5.7137152219
 20
6.1941733149
 30
0.0
 10
5.7125793546
 20
6.1943374309
 30
0.0
 10
5.7113591924
 20
6.1945016691
 30
0.0
 10
5.7100560915
 20
6.1946659879
 30
0.0
 10
5.708157509
 20
6.1948913155
 30
0.0
 10
5.7055880303
 20
6.1951706925
 30
0.0
 10
5.7022772362
 20
6.1954977354
 30
0.0
 10
5.6986752868
 20
6.1958250188
 30
0.0
 10
5.6947974712
 20
6.1961525409
 30
0.0
 10
5.6906600853
 20
6.1964801912
 30
0.0
 10
5.6862811113
 20
6.1968080038
 30
0.0
 10
5.6816801384
 20
6.1971360004
 30
0.0
 10
5.6751610644
 20
6.1975813597
 30
0.0
 10
5.6666150478
 20
6.1981331572
 30
0.0
 10
5.6559891076
 20
6.1987849709
 30
0.0
 10
5.6450055609
 20
6.1994371478
 30
0.0
 10
5.633856385
 20
6.2000894721
 30
0.0
 10
5.624549804
 20
6.2006354236
 30
0.0
 10
5.617168231
 20
6.2010750432
 30
0.0
 10
5.6100000259
 20
6.2015082393
 30
0.0
 10
5.6029862432
 20
6.201944215
 30
0.0
 10
5.5961578238
 20
6.2023879168
 30
0.0
 10
5.591279577
 20
6.2027160019
 30
0.0
 10
5.5865949173
 20
6.2030439733
 30
0.0
 10
5.5821245668
 20
6.2033719106
 30
0.0
 10
5.5778879026
 20
6.203699742
 30
0.0
 10
5.575144045
 20
6.2039253348
 30
0.0
 10
5.5738141615
 20
6.2040387325
 30
0.0
 11
5.7174170823
 21
6.1935096853
 31
0.0
 11
5.7166318244
 21
6.1936737823
 31
0.0
 11
5.7157567901
 21
6.1938380628
 31
0.0
 11
5.7147933428
 21
6.194002494
 31
0.0
 11
5.7137428456
 21
6.1941670431
 31
0.0
 11
5.7126066619
 21
6.1943316773
 31
0.0
 11
5.711386155
 21
6.1944963637
 31
0.0
 11
5.710082688
 21
6.1946610697
 31
0.0
 11
5.7086976244
 21
6.1948257623
 31
0.0
 11
5.7056885574
 21
6.195155007
 31
0.0
 11
5.7023730167
 21
6.1954840778
 31
0.0
 11
5.6987662366
 21
6.1958130447
 31
0.0
 11
5.6948834557
 21
6.196141978
 31
0.0
 11
5.6907401308
 21
6.1964709441
 31
0.0
 11
5.6863545365
 21
6.1967999597
 31
0.0
 11
5.6817469053
 21
6.1971290064
 31
0.0
 11
5.6769375097
 21
6.1974580656
 31
0.0
 11
5.6667960606
 21
6.1981161581
 31
0.0
 11
5.6561083643
 21
6.198774214
 31
0.0
 11
5.6450609486
 21
6.199432271
 31
0.0
 11
5.6338465084
 21
6.2000903385
 31
0.0
 11
5.6226618501
 21
6.2007484065
 31
0.0
 11
5.6171416395
 21
6.2010774392
 31
0.0
 11
5.6117016353
 21
6.2014064715
 31
0.0
 11
5.6011582567
 21
6.2020645361
 31
0.0
 11
5.5961008699
 21
6.2023935688
 31
0.0
 11
5.5912154657
 21
6.2027226016
 31
0.0
 11
5.5865237543
 21
6.2030516344
 31
0.0
 11
5.5820471792
 21
6.2033806671
 31
0.0
 11
5.5778047479
 21
6.2037096998
 31
0.0
 11
5.5738141615
 21
6.2040387325
 31
0.0
  0
SPLINE
  5
228
100
AcDbEntity
  8
0
100
AcDbSpline
 62
6
  6
CONTINUOUS
 70
0
 71
3
 72
37
 73
33
 74
31
 42
0.0000001
 43
0.0000001
 44
0.0000000001
 12
-0.1475468464
 22
0.0143397107
 32
0.0
 13
-0.1459971023
 23
0.0257010765
 33
0.0
 40
0.0
 40
0.0
 40
0.0
 40
0.0
 40
0.0243371288
 40
0.0506705486
 40
0.078858869
 40
0.1087603522
 40
0.1402323057
 40
0.1731288875
 40
0.207303339
 40
0.2426087938
 40
0.3159938673
 40
0.3919481298
 40
0.4690970254
 40
0.546046637
 40
0.6214065752
 40
0.6938237437
 40
0.7285119456
 40
0.7619795432
 40
0.7940786025
 40
0.8246613142
 40
0.8535840179
 40
0.8807233536
 40
0.9059625754
 40
0.9178332976
 40
0.9291854209
 40
0.9502809274
 40
0.9600040068
 40
0.9691646899
 40
0.9777536736
 40
0.9857618056
 40
0.993180137
 40
1.0
 40
1.0
 40
1.0
 40
1.0
 10
5.7032814354
 20
6.1875867803
 30
0.0
 10
5.7020844799
 20
6.1877031094
 30
0.0
 10
5.6995913002
 20
6.1879341815
 30
0.0
 10
5.6957088244
 20
6.1882674609
 30
0.0
 10
5.6915504974
 20
6.1886013232
 30
0.0
 10
5.6871375089
 20
6.1889354302
 30
0.0
 10
5.6824912307
 20
6.1892694466
 30
0.0
 10
5.6776332872
 20
6.1896034296
 30
0.0
 10
5.672585488
 20
6.1899374326
 30
0.0
 10
5.6655403867
 20
6.1903886437
 30
0.0
 10
5.6564335131
 20
6.1909482787
 30
0.0
 10
5.6452615277
 20
6.191612176
 30
0.0
 10
5.6339131064
 20
6.1922761728
 30
0.0
 10
5.6225940989
 20
6.1929401036
 30
0.0
 10
5.6115093033
 20
6.1936038888
 30
0.0
 10
5.6025103697
 20
6.1941641881
 30
0.0
 10
5.5955788093
 20
6.1946161442
 30
0.0
 10
5.5906360834
 20
6.1949501774
 30
0.0
 10
5.585896698
 20
6.1952840885
 30
0.0
 10
5.5813824651
 20
6.1956178614
 30
0.0
 10
5.5771140108
 20
6.1959515833
 30
0.0
 10
5.57311044
 20
6.1962851281
 30
0.0
 10
5.5699482528
 20
6.1965683243
 30
0.0
 10
5.5675643879
 20
6.1967959998
 30
0.0
 10
5.5653852871
 20
6.1970137248
 30
0.0
 10
5.5633132602
 20
6.1972356324
 30
0.0
 10
5.5613510457
 20
6.1974647804
 30
0.0
 10
5.5600038177
 20
6.1976318857
 30
0.0
 10
5.5587420142
 20
6.1977989282
 30
0.0
 10
5.557567098
 20
6.1979658998
 30
0.0
 10
5.5564805341
 20
6.1981327822
 30
0.0
 10
5.5557865817
 20
6.1982488834
 30
0.0
 10
5.5554546883
 20
6.1983073094
 30
0.0
 11
5.7032814354
 21
6.1875867803
 31
0.0
 11
5.6996891804
 21
6.1879211736
 31
0.0
 11
5.6957998609
 21
6.1882561665
 31
0.0
 11
5.6916346423
 21
6.1885914821
 31
0.0
 11
5.6872146902
 21
6.1889268433
 31
0.0
 11
5.6825612801
 21
6.1892620295
 31
0.0
 11
5.6776961457
 21
6.1895970541
 31
0.0
 11
5.6726411397
 21
6.1899319913
 31
0.0
 11
5.6674181149
 21
6.1902669153
 31
0.0
 11
5.6565600133
 21
6.1909368999
 31
0.0
 11
5.6453203558
 21
6.1916069791
 31
0.0
 11
5.6339032919
 21
6.1922770256
 31
0.0
 11
5.6225158198
 21
6.1929470466
 31
0.0
 11
5.6113644209
 21
6.1936170763
 31
0.0
 11
5.6006500832
 21
6.1942871126
 31
0.0
 11
5.5955187586
 21
6.1946221296
 31
0.0
 11
5.590568778
 21
6.1949571458
 31
0.0
 11
5.5858221564
 21
6.195292162
 31
0.0
 11
5.5813009082
 21
6.1956271789
 31
0.0
 11
5.5770264567
 21
6.1959621969
 31
0.0
 11
5.5730172395
 21
6.196297215
 31
0.0
 11
5.569290755
 21
6.1966322318
 31
0.0
 11
5.5675390056
 21
6.1967997392
 31
0.0
 11
5.5658645011
 21
6.1969672456
 31
0.0
 11
5.5627552564
 21
6.1973022558
 31
0.0
 11
5.5613236536
 21
6.1974697606
 31
0.0
 11
5.5599760256
 21
6.1976372662
 31
0.0
 11
5.5587138438
 21
6.1978047732
 31
0.0
 11
5.5575385795
 21
6.1979722823
 31
0.0
 11
5.5564517039
 21
6.1981397941
 31
0.0
 11
5.5554546883
 21
6.1983073094
 31
0.0
  0
SPLINE
  5
229
100
AcDbEntity
  8
0
100
AcDbSpline
 62
6
  6
CONTINUOUS
 70
0
 71
3
 72
42
 73
38
 74
36
 42
0.0000001
 43
0.0000001
 44
0.0000000001
 12
0.0355155616
 22
0.0645302246
 32
0.0
 13
0.0172190094
 23
0.071617112
 33
0.0
 40
0.0
 40
0.0
 40
0.0
 40
0.0
 40
0.0000345281
 40
0.0001021662
 40
0.0002029454
 40
0.0003368704
 40
0.000704153
 40
0.0012039925
 40
0.0018363582
 40
0.0026012173
 40
0.0034985352
 40
0.0045282523
 40
0.0069845005
 40
0.0099691804
 40
0.0134815034
 40
0.0175204884
 40
0.0220848768
 40
0.0271733889
 40
0.0327846583
 40
0.0389170038
 40
0.0527378941
 40
0.0686206811
 40
0.0865478237
 40
0.1064997245
 40
0.1284551209
 40
0.1523907463
 40
0.1782818946
 40
0.206102242
 40
0.2674181518
 40
0.3361015715
 40
0.4118975727
 40
0.4945357744
 40
0.5837322695
 40
0.6791907711
 40
0.7806035168
 40
0.8876500817
 40
1.0
 40
1.0
 40
1.0
 40
1.0
 10
6.0144299933
 20
6.7094241835
 30
0.0
 10
6.0144304021
 20
6.7094249262
 30
0.0
 10
6.0144313655
 20
6.7094272494
 30
0.0
 10
6.0144332727
 20
6.7094318477
 30
0.0
 10
6.0144359839
 20
6.709438761
 30
0.0
 10
6.0144413316
 20
6.7094525386
 30
0.0
 10
6.0144500695
 20
6.7094755126
 30
0.0
 10
6.0144630514
 20
6.7095099638
 30
0.0
 10
6.0144793722
 20
6.7095535891
 30
0.0
 10
6.014499035
 20
6.7096063834
 30
0.0
 10
6.0145220336
 20
6.7096683461
 30
0.0
 10
6.0145593957
 20
6.709769274
 30
0.0
 10
6.014614381
 20
6.7099183271
 30
0.0
 10
6.0146902401
 20
6.7101246497
 30
0.0
 10
6.0147792899
 20
6.7103675261
 30
0.0
 10
6.014881462
 20
6.710646902
 30
0.0
 10
6.0149966679
 20
6.7109627177
 30
0.0
 10
6.0151248198
 20
6.7113149028
 30
0.0
 10
6.0152658243
 20
6.711703378
 30
0.0
 10
6.015479479
 20
6.712293573
 30
0.0
 10
6.0157778485
 20
6.7131213098
 30
0.0
 10
6.0161723204
 20
6.7142222367
 30
0.0
 10
6.0166149606
 20
6.7154658057
 30
0.0
 10
6.0171044081
 20
6.7168509726
 30
0.0
 10
6.0176391911
 20
6.7183765784
 30
0.0
 10
6.0182176862
 20
6.7200413792
 30
0.0
 10
6.0188381772
 20
6.7218440255
 30
0.0
 10
6.0197489953
 20
6.7245173589
 30
0.0
 10
6.0209796326
 20
6.7281916777
 30
0.0
 10
6.0225483321
 20
6.7329948805
 30
0.0
 10
6.0242354338
 20
6.7383099633
 30
0.0
 10
6.0260221739
 20
6.7441215912
 30
0.0
 10
6.0278890196
 20
6.7504133512
 30
0.0
 10
6.0298158878
 20
6.7571677485
 30
0.0
 10
6.0317823394
 20
6.7643661485
 30
0.0
 10
6.0337677863
 20
6.7719887266
 30
0.0
 10
6.0350604871
 20
6.7772182681
 30
0.0
 10
6.0357053385
 20
6.779900327
 30
0.0
 11
6.0144299933
 21
6.7094241835
 31
0.0
 11
6.0144310529
 21
6.7094264955
 31
0.0
 11
6.0144329496
 21
6.7094311025
 31
0.0
 11
6.0144356831
 21
6.709438004
 31
0.0
 11
6.0144392531
 21
6.7094472001
 31
0.0
 11
6.0144489014
 21
6.7094724744
 31
0.0
 11
6.014461892
 21
6.7095069236
 31
0.0
 11
6.0144782227
 21
6.7095505458
 31
0.0
 11
6.0144978909
 21
6.7096033391
 31
0.0
 11
6.0145208941
 21
6.7096653016
 31
0.0
 11
6.0145472283
 21
6.7097364301
 31
0.0
 11
6.014609863
 21
6.7099061647
 31
0.0
 11
6.0146857409
 21
6.7101125009
 31
0.0
 11
6.0147748077
 21
6.7103553968
 31
0.0
 11
6.0148769955
 21
6.7106347998
 31
0.0
 11
6.0149922178
 21
6.7109506429
 31
0.0
 11
6.0151203862
 21
6.7113028576
 31
0.0
 11
6.0152614065
 21
6.7116913709
 31
0.0
 11
6.0154151628
 21
6.7121160929
 31
0.0
 11
6.0157603976
 21
6.7130737863
 31
0.0
 11
6.0161550274
 21
6.7141751132
 31
0.0
 11
6.0165978376
 21
6.7154191314
 31
0.0
 11
6.0170874692
 21
6.7168047854
 31
0.0
 11
6.017622445
 21
6.718330927
 31
0.0
 11
6.0182011462
 21
6.7199962959
 31
0.0
 11
6.0188218509
 21
6.7217995489
 31
0.0
 11
6.0194827219
 21
6.7237392492
 31
0.0
 11
6.020917118
 21
6.7280218252
 31
0.0
 11
6.0224877714
 21
6.7328309198
 31
0.0
 11
6.024176885
 21
6.7381522547
 31
0.0
 11
6.02596567
 21
6.7439704516
 31
0.0
 11
6.0278345749
 21
6.7502690699
 31
0.0
 11
6.0297634991
 21
6.7570305948
 31
0.0
 11
6.0317320001
 21
6.7642364156
 31
0.0
 11
6.0337194631
 21
6.771866663
 31
0.0
 11
6.0357053385
 21
6.779900327
 31
0.0
  0
SPLINE
  5
22A
100
AcDbEntity
  8
0
100
AcDbSpline
 62
6
  6
CONTINUOUS
 70
0
 71
3
 72
16
 73
12
 74
10
 42
0.0000001
 43
0.0000001
 44
0.0000000001
 12
-0.0603706997
 22
-0.0112722038
 32
0.0
 13
-0.0614135928
 23
-0.0002336325
 33
0.0
 40
0.0
 40
0.0
 40
0.0
 40
0.0
 40
0.1148205184
 40
0.2335434445
 40
0.3557177299
 40
0.4809006738
 40
0.6085539473
 40
0.7380805457
 40
0.8033497352
 40
0.8688379436
 40
1.0
 40
1.0
 40
1.0
 40
1.0
 10
5.7032814354
 20
6.1875867803
 30
0.0
 10
5.7009708371
 20
6.1871553535
 30
0.0
 10
5.696260809
 20
6.1863321321
 30
0.0
 10
5.6890606671
 20
6.1852393562
 30
0.0
 10
5.6816274892
 20
6.1842803722
 30
0.0
 10
5.6739929541
 20
6.1834682367
 30
0.0
 10
5.6661921808
 20
6.1828144215
 30
0.0
 10
5.6596029126
 20
6.1824114748
 30
0.0
 10
5.6542796211
 20
6.1821766514
 30
0.0
 10
5.6489205478
 20
6.1820017766
 30
0.0
 10
5.6448948625
 20
6.1819395324
 30
0.0
 10
5.6422098182
 20
6.1819293178
 30
0.0
 11
5.7032814354
 21
6.1875867803
 31
0.0
 11
5.6963353628
 21
6.1863714537
 31
0.0
 11
5.6891268045
 21
6.185276431
 31
0.0
 11
5.6816853565
 21
6.1843156479
 31
0.0
 11
5.6740405614
 21
6.1835018308
 31
0.0
 11
5.6662282723
 21
6.1828467895
 31
0.0
 11
5.6582883619
 21
6.1823611018
 31
0.0
 11
5.6542838102
 21
6.1821844895
 31
0.0
 11
5.6502640556
 21
6.1820532828
 31
0.0
 11
5.6422098182
 21
6.1819293178
 31
0.0
  0
SPLINE
  5
22B
100
AcDbEntity
  8
0
100
AcDbSpline
 62
6
  6
CONTINUOUS
 70
0
 71
3
 72
17
 73
13
 74
11
 42
0.0000001
 43
0.0000001
 44
0.0000000001
 12
-0.0127090809
 22
-0.0086570228
 32
0.0
 13
-0.0147351101
 23
-0.0043978757
 33
0.0
 40
0.0
 40
0.0
 40
0.0
 40
0.0
 40
0.0431383604
 40
0.0888907853
 40
0.1372658628
 40
0.1882659741
 40
0.2981206192
 40
0.4183995547
 40
0.5489784971
 40
0.6896242803
 40
0.840061373
 40
1.0
 40
1.0
 40
1.0
 40
1.0
 10
5.7174170823
 20
6.1935096853
 30
0.0
 10
5.7172343327
 20
6.1933852021
 30
0.0
 10
5.7168528973
 20
6.1931357801
 30
0.0
 10
5.7162517213
 20
6.1927700193
 30
0.0
 10
5.7156051237
 20
6.1924019986
 30
0.0
 10
5.7146593151
 20
6.191896173
 30
0.0
 10
5.7133641574
 20
6.1912632072
 30
0.0
 10
5.7116716602
 20
6.1905179038
 30
0.0
 10
5.7098081648
 20
6.1897723161
 30
0.0
 10
5.7077782001
 20
6.1890294072
 30
0.0
 10
5.7055867345
 20
6.188292391
 30
0.0
 10
5.7040670065
 20
6.1878212437
 30
0.0
 10
5.7032814354
 20
6.1875867803
 30
0.0
 11
5.7174170823
 21
6.1935096853
 31
0.0
 11
5.7168622598
 21
6.1931460735
 31
0.0
 11
5.7162615235
 21
6.1927798714
 31
0.0
 11
5.7156152872
 21
6.1924114406
 31
0.0
 11
5.7149239644
 21
6.1920411429
 31
0.0
 11
5.7134077142
 21
6.1912963931
 31
0.0
 11
5.7117160818
 21
6.1905485154
 31
0.0
 11
5.709852664
 21
6.1898004499
 31
0.0
 11
5.7078223002
 21
6.18905534
 31
0.0
 11
5.7056301656
 21
6.1883163841
 31
0.0
 11
5.7032814354
 21
6.1875867803
 31
0.0
  0
SPLINE
  5
22C
100
AcDbEntity
  8
0
100
AcDbSpline
 62
6
  6
CONTINUOUS
 70
0
 71
3
 72
20
 73
16
 74
14
 42
0.0000001
 43
0.0000001
 44
0.0000000001
 12
-0.0467415231
 22
0.0
 32
0.0
 13
-0.0457569483
 23
0.0095431477
 33
0.0
 40
0.0
 40
0.0
 40
0.0
 40
0.0
 40
0.1370570722
 40
0.2053169726
 40
0.273153203
 40
0.3403828929
 40
0.4068271669
 40
0.5368101285
 40
0.6001084752
 40
0.6621153832
 40
0.7817628549
 40
0.8391507823
 40
0.8947399123
 40
0.9483997155
 40
1.0
 40
1.0
 40
1.0
 40
1.0
 10
5.6355259809
 20
6.1818480327
 30
0.0
 10
5.6333905621
 20
6.1818480327
 30
0.0
 10
5.6301914561
 20
6.1818858038
 30
0.0
 10
5.625937343
 20
6.1820100998
 30
0.0
 10
5.6227719904
 20
6.1821395037
 30
0.0
 10
5.6196366261
 20
6.1823046254
 30
0.0
 10
5.6155372254
 20
6.1825700045
 30
0.0
 10
5.6115039021
 20
6.1829040814
 30
0.0
 10
5.6075466716
 20
6.1833061924
 30
0.0
 10
5.6037548139
 20
6.1837397494
 30
0.0
 10
5.6000627839
 20
6.1842336778
 30
0.0
 10
5.5964809438
 20
6.1847881289
 30
0.0
 10
5.5939209175
 20
6.1852210907
 30
0.0
 10
5.5914561416
 20
6.1856748622
 30
0.0
 10
5.5898478826
 20
6.1859964007
 30
0.0
 10
5.5890608587
 20
6.1861605437
 30
0.0
 11
5.6355259809
 21
6.1818480327
 31
0.0
 11
5.6291201663
 21
6.1819232611
 31
0.0
 11
5.6259309573
 21
6.1820165029
 31
0.0
 11
5.6227628391
 21
6.1821461241
 31
0.0
 11
5.6196247807
 21
6.1823115956
 31
0.0
 11
5.6165255686
 21
6.1825123381
 31
0.0
 11
5.6104708052
 21
6.183015106
 31
0.0
 11
5.6075273268
 21
6.1833144565
 31
0.0
 11
5.6046478254
 21
6.1836439996
 31
0.0
 11
5.5991050265
 21
6.1843879714
 31
0.0
 11
5.5964542557
 21
6.1847986772
 31
0.0
 11
5.5938923915
 21
6.1852324073
 31
0.0
 11
5.5914258029
 21
6.1856870625
 31
0.0
 11
5.5890608587
 21
6.1861605437
 31
0.0
  0
SPLINE
  5
22D
100
AcDbEntity
  8
0
100
AcDbSpline
 62
6
  6
CONTINUOUS
 70
0
 71
3
 72
20
 73
16
 74
14
 42
0.0000001
 43
0.0000001
 44
0.0000000001
 12
-0.0314232978
 22
0.0055511119
 32
0.0
 13
-0.0275908458
 23
0.0160307116
 33
0.0
 40
0.0
 40
0.0
 40
0.0
 40
0.0
 40
0.1633620275
 40
0.3176065167
 40
0.4617191949
 40
0.5296832001
 40
0.5947774778
 40
0.6568996479
 40
0.7159494278
 40
0.7718267978
 40
0.8244233837
 40
0.8736324878
 40
0.9193548241
 40
0.9615016486
 40
1.0
 40
1.0
 40
1.0
 40
1.0
 10
5.5890608587
 20
6.1861605437
 30
0.0
 10
5.5873497342
 20
6.186462824
 30
0.0
 10
5.5840296128
 20
6.1870890285
 30
0.0
 10
5.5792275213
 20
6.1881205992
 30
0.0
 10
5.575441311
 20
6.1890433909
 30
0.0
 10
5.5725941641
 20
6.1898089417
 30
0.0
 10
5.5705984123
 20
6.1903811581
 30
0.0
 10
5.5687038399
 20
6.1909611284
 30
0.0
 10
5.5669140436
 20
6.1915472877
 30
0.0
 10
5.5652327607
 20
6.1921379985
 30
0.0
 10
5.5636639038
 20
6.1927315778
 30
0.0
 10
5.5622115365
 20
6.1933262905
 30
0.0
 10
5.5608797099
 20
6.1939203942
 30
0.0
 10
5.5596724982
 20
6.1945121193
 30
0.0
 10
5.5589188767
 20
6.1949226576
 30
0.0
 10
5.5585648094
 20
6.1951283763
 30
0.0
 11
5.5890608587
 21
6.1861605437
 31
0.0
 11
5.5839387646
 21
6.1871290667
 31
0.0
 11
5.5791273044
 21
6.1881659526
 31
0.0
 11
5.5746604842
 21
6.1892590061
 31
0.0
 11
5.5725663176
 21
6.1898227595
 31
0.0
 11
5.5705698156
 21
6.1903959313
 31
0.0
 11
5.5686745734
 21
6.1909769705
 31
0.0
 11
5.5668841866
 21
6.1915643264
 31
0.0
 11
5.5652023288
 21
6.1921564247
 31
0.0
 11
5.5636330466
 21
6.1927515795
 31
0.0
 11
5.5621804978
 21
6.1933480718
 31
0.0
 11
5.5608488401
 21
6.1939441825
 31
0.0
 11
5.5596422313
 21
6.1945381927
 31
0.0
 11
5.5585648094
 21
6.1951283763
 31
0.0
  0
ENDSEC
  0
SECTION
  2
OBJECTS
  0
DICTIONARY
  5
C
100
AcDbDictionary
280
0
281
1
  3
ACAD_GROUP
350
D
  3
ACAD_MLINESTYLE
350
17
  3
ACAD_LAYOUT
350
1A
  3
ACAD_PLOTSETTINGS
350
19
  3
ACAD_PLOTSTYLENAME
350
E
  0
DICTIONARY
  5
D
102
{ACAD_REACTORS
330
C
102
}
100
AcDbDictionary
280
0
281
1
  0
ACDBDICTIONARYWDFLT
  5
E
102
{ACAD_REACTORS
330
C
102
}
100
AcDbDictionary
281
1
  3
Normal
350
F
100
AcDbDictionaryWithDefault
340
F
  0
DICTIONARY
  5
17
102
{ACAD_REACTORS
330
C
102
}
100
AcDbDictionary
280
0
281
1
  3
Standard
350
18
  0
DICTIONARY
  5
19
102
{ACAD_REACTORS
330
C
102
}
100
AcDbDictionary
281
1
  0
DICTIONARY
  5
1A
102
{ACAD_REACTORS
330
C
102
}
100
AcDbDictionary
281
1
  3
Model
350
22E
  3
Layout1
350
22F
  0
ACDBPLACEHOLDER
  5
F
102
{ACAD_REACTORS
330
E
102
}
  0
MLINESTYLE
  5
18
102
{ACAD_REACTORS
330
17
102
}
100
AcDbMlineStyle
  2
STANDARD
 70
0
  3

 62
256
 51
90.0
 52
90.0
 71
2
 49
0.5
 62
256
  6
BYLAYER
 49
-0.5
 62
256
  6
BYLAYER
  0
LAYOUT
  5
22E
102
{ACAD_REACTORS
330
1A
102
}
100
AcDbPlotSettings
  1

  2
none_device
  4
ISO_A4_(297.00_x_210.00_MM)
  6

 40
0.0
 41
0.0
 42
0.0
 43
0.0
 44
297.0
 45
210.0
 46
0.0
 47
0.0
 48
0.0
 49
0.0
140
0.0
141
0.0
142
1.0
143
1.0
 70
1024
 72
0
 73
0
 74
0
  7

 75
0
147
1.0
148
0.0
149
0.0
100
AcDbLayout
  1
Model
 70
0
 71
0
 10
0.0
 20
0.0
 11
11.6929133858
 21
8.2677165354
 12
0.0
 22
0.0
 32
0.0
 14
0.0
 24
0.0
 34
0.0
 15
0.0
 25
0.0
 35
0.0
146
0.0
 13
0.0
 23
0.0
 33
0.0
 16
1.0
 26
0.0
 36
0.0
 17
0.0
 27
1.0
 37
0.0
 76
0
330
203
345
0
346
0
  0
LAYOUT
  5
22F
102
{ACAD_REACTORS
330
1A
102
}
100
AcDbPlotSettings
  1

  2
none_device
  4
ISO_A4_(297.00_x_210.00_MM)
  6

 40
0.0
 41
0.0
 42
0.0
 43
0.0
 44
297.0
 45
210.0
 46
0.0
 47
0.0
 48
0.0
 49
0.0
140
0.0
141
0.0
142
1.0
143
1.0
 70
0
 72
0
 73
0
 74
0
  7

 75
0
147
1.0
148
0.0
149
0.0
100
AcDbLayout
  1
Layout1
 70
0
 71
1
 10
0.0
 20
0.0
 11
11.6929133858
 21
8.2677165354
 12
0.0
 22
0.0
 32
0.0
 14
0.0
 24
0.0
 34
0.0
 15
0.0
 25
0.0
 35
0.0
146
0.0
 13
0.0
 23
0.0
 33
0.0
 16
1.0
 26
0.0
 36
0.0
 17
0.0
 27
1.0
 37
0.0
 76
0
330
204
345
0
346
0
  0
ENDSEC
  0
EOF
