  0
SECTION
  2
HEADER
  9
$ACADVER
  1
AC1015
  9
$DWGCODEPAGE
  3
ANSI_1252
  9
$EXTMAX
 10
11.6929133858
 20
8.2677165354
 30
0.0
  9
$EXTMIN
 10
0.0
 20
0.0
 30
0.0
  9
$LIMMIN
 10
0.0
 20
0.0
  9
$LIMMAX
 10
11.6929133858
 20
8.2677165354
  9
$VIEWCTR
 10
5.8464566929
 20
4.1338582677
  9
$VIEWSIZE
 40
8.2677165354
  9
$CLAYER
  8
0
  9
$LTSCALE
 40
0.6431102362
  9
$CELTYPE
  6
BYLAYER
  9
$DIMSCALE
 40
1.0
  9
$DIMASZ
 40
0.1875
  9
$DIMEXO
 40
0.0730807087
  9
$DIMDLI
 40
0.4443307087
  9
$DIMEXE
 40
0.2104724409
  9
$DIMCEN
 40
0.1052362205
  9
$DIMLFAC
 40
1.0
  9
$DIMBLK
  1
_CLOSED
  9
$DIMTXT
 40
0.15625
  9
$DIMTOL
 70
0
  9
$DIMLIM
 70
0
  9
$DIMTFAC
 40
1.0
  9
$PDMODE
 70
3
  9
$PDSIZE
 40
0.3125
  9
$HANDSEED
  5
24C
  9
$TILEMODE
 70
1
  9
$MEASUREMENT
 70
0
  9
$INSUNITS
 70
1
  0
ENDSEC
  0
SECTION
  2
CLASSES
  0
CLASS
  1
ACDBDICTIONARYWDFLT
  2
AcDbDictionaryWithDefault
  3
AutoCAD 2000
 90
0
280
0
281
0
  0
CLASS
  1
ACDBPLACEHOLDER
  2
AcDbPlaceHolder
  3
AutoCAD 2000
 90
0
280
0
281
0
  0
CLASS
  1
LAYOUT
  2
AcDbLayout
  3
AutoCAD 2000
 90
0
280
0
281
0
  0
ENDSEC
  0
SECTION
  2
TABLES
  0
TABLE
  2
VPORT
  5
8
100
AcDbSymbolTable
 70
2
  0
VPORT
  5
1F4
100
AcDbSymbolTableRecord
100
AcDbViewportTableRecord
  2
*ACTIVE
 70
0
 10
0.0
 20
0.0
 11
1.0
 21
1.0
 12
5.8464566929
 22
4.1338582677
 13
0.0
 23
0.0
 14
1.0
 24
1.0
 15
0.0
 25
0.0
 16
0.0
 26
0.0
 36
1.0
 17
0.0
 27
0.0
 37
0.0
 40
8.2677165354
 41
1.4142857143
 42
50.0
 43
0.0
 44
0.0
 50
0.0
 51
0.0
 71
0
 72
100
 73
1
 74
1
 75
0
 76
0
 77
0
 78
0
  0
ENDTAB
  0
TABLE
  2
LTYPE
  5
5
100
AcDbSymbolTable
 70
6
  0
LTYPE
  5
14
100
AcDbSymbolTableRecord
100
AcDbLinetypeTableRecord
  2
BYBLOCK
 70
0
  3

 72
65
 73
0
 40
0.0
  0
LTYPE
  5
15
100
AcDbSymbolTableRecord
100
AcDbLinetypeTableRecord
  2
BYLAYER
 70
0
  3

 72
65
 73
0
 40
0.0
  0
LTYPE
  5
16
100
AcDbSymbolTableRecord
100
AcDbLinetypeTableRecord
  2
CONTINUOUS
 70
64
  3
Solid line
 72
65
 73
0
 40
0.0
  0
LTYPE
  5
1F5
100
AcDbSymbolTableRecord
100
AcDbLinetypeTableRecord
  2
CENTER
 70
64
  3
____ _ ____ _ ____ _ ____ _ ____ _ ____ _ ____
 72
65
 73
4
 40
0.6
 49
0.375
 74
0
 49
-0.075
 74
0
 49
0.075
 74
0
 49
-0.075
 74
0
  0
LTYPE
  5
1F6
100
AcDbSymbolTableRecord
100
AcDbLinetypeTableRecord
  2
HIDDEN
 70
64
  3
- - - - - - - - - - - - - - - - - - - -
 72
65
 73
2
 40
0.2
 49
0.1
 74
0
 49
-0.1
 74
0
  0
LTYPE
  5
1F7
100
AcDbSymbolTableRecord
100
AcDbLinetypeTableRecord
  2
PHANTOM
 70
64
  3
_____ _ _ _____ _ _ _____ _ _ _____
 72
65
 73
6
 40
0.8
 49
0.45
 74
0
 49
-0.05
 74
0
 49
0.1
 74
0
 49
-0.05
 74
0
 49
0.1
 74
0
 49
-0.05
 74
0
  0
LTYPE
  5
1F8
100
AcDbSymbolTableRecord
100
AcDbLinetypeTableRecord
  2
DOT
 70
64
  3
. . . . . . . . . . . . . . . . . . . .
 72
65
 73
2
 40
0.2
 49
0.1
 74
0
 49
-0.1
 74
0
  0
LTYPE
  5
1F9
100
AcDbSymbolTableRecord
100
AcDbLinetypeTableRecord
  2
DASHED
 70
64
  3
- - - - - - - - - - - - - - - - - - - -
 72
65
 73
2
 40
0.2
 49
0.1
 74
0
 49
-0.1
 74
0
  0
ENDTAB
  0
TABLE
  2
LAYER
  5
2
100
AcDbSymbolTable
 70
36
  0
LAYER
  5
10
100
AcDbSymbolTableRecord
100
AcDbLayerTableRecord
  2
0
 70
0
 62
7
  6
CONTINUOUS
370
-3
390
F
  0
LAYER
  5
1FA
100
AcDbSymbolTableRecord
100
AcDbLayerTableRecord
  2
DEFAULT_1
 70
0
 62
7
  6
CENTER
370
-3
390
F
  0
LAYER
  5
1FB
100
AcDbSymbolTableRecord
100
AcDbLayerTableRecord
  2
DEFAULT_2
 70
0
 62
8
  6
HIDDEN
370
-3
390
F
  0
LAYER
  5
1FC
100
AcDbSymbolTableRecord
100
AcDbLayerTableRecord
  2
DEFAULT_3
 70
0
 62
7
  6
PHANTOM
370
-3
390
F
  0
LAYER
  5
1FD
100
AcDbSymbolTableRecord
100
AcDbLayerTableRecord
  2
DEFAULT_COORDINATE_SYSTEM
 70
0
 62
7
  6
CONTINUOUS
370
-3
390
F
  0
LAYER
  5
1FE
100
AcDbSymbolTableRecord
100
AcDbLayerTableRecord
  2
DEFAULT_DATUM_AXES
 70
0
 62
7
  6
CONTINUOUS
370
-3
390
F
  0
LAYER
  5
1FF
100
AcDbSymbolTableRecord
100
AcDbLayerTableRecord
  2
DEFAULT_DATUM_CURVES
 70
0
 62
7
  6
CONTINUOUS
370
-3
390
F
  0
LAYER
  5
200
100
AcDbSymbolTableRecord
100
AcDbLayerTableRecord
  2
DEFAULT_DATUM_PLANES
 70
0
 62
7
  6
CONTINUOUS
370
-3
390
F
  0
ENDTAB
  0
TABLE
  2
STYLE
  5
3
100
AcDbSymbolTable
 70
1
  0
STYLE
  5
11
100
AcDbSymbolTableRecord
100
AcDbTextStyleTableRecord
  2
STANDARD
 70
0
 40
0.0
 41
0.8
 50
0.0
 71
0
 42
0.2
  3
txt
  4

  0
STYLE
  5
201
100
AcDbSymbolTableRecord
100
AcDbTextStyleTableRecord
  2
TEXTSTYLE_1
 70
0
 40
0.0
 41
0.8
 50
0.0
 71
0
 42
0.2
  3
gdt
  4

  0
ENDTAB
  0
TABLE
  2
VIEW
  5
6
100
AcDbSymbolTable
 70
0
  0
ENDTAB
  0
TABLE
  2
UCS
  5
7
100
AcDbSymbolTable
 70
0
  0
ENDTAB
  0
TABLE
  2
APPID
  5
9
100
AcDbSymbolTable
 70
1
  0
APPID
  5
202
100
AcDbSymbolTableRecord
100
AcDbRegAppTableRecord
  2
ACAD
 70
0
  0
ENDTAB
  0
TABLE
  2
BLOCK_RECORD
  5
1
100
AcDbSymbolTable
 70
0
  0
BLOCK_RECORD
  5
203
100
AcDbSymbolTableRecord
100
AcDbBlockTableRecord
  2
*Model_Space
  0
BLOCK_RECORD
  5
204
100
AcDbSymbolTableRecord
100
AcDbBlockTableRecord
  2
*Paper_Space
  0
ENDTAB
  0
TABLE
  2
DIMSTYLE
  5
A
100
AcDbSymbolTable
 70
1
100
AcDbDimStyleTable
 71
0
  0
DIMSTYLE
105
205
100
AcDbSymbolTableRecord
100
AcDbDimStyleTableRecord
  2
STANDARD
 70
0
  3

  4

 40
1.0
 41
0.1875
 42
0.0625
 43
0.38
 44
0.18
 45
0.0
 46
0.0
 47
0.01
 48
0.01
140
0.15625
141
0.09
142
0.0
143
25.4
144
1.0
145
0.0
146
1.0
147
0.09
 71
0.0
 72
0.0
 73
1
 74
1
 75
0
 76
0
 77
0
 78
4
170
0
171
2
172
0
173
0
174
0
175
0
176
0
177
0
178
0
270
2
271
2
272
2
273
2
274
2
275
0
280
0
281
0
282
0
283
1
284
4
285
0
286
0
287
3
288
0
340
11
  0
ENDTAB
  0
ENDSEC
  0
SECTION
  2
BLOCKS
  0
BLOCK
  5
20
100
AcDbEntity
  8
0
100
AcDbBlockBegin
  2
*Model_Space
 70
0
 10
0.0
 20
0.0
 30
0.0
  3
*Model_Space
  1

  0
ENDBLK
  5
21
100
AcDbEntity
  8
0
100
AcDbBlockEnd
  0
BLOCK
  5
1C
100
AcDbEntity
  8
0
100
AcDbBlockBegin
  2
*Paper_Space
 70
0
 10
0.0
 20
0.0
 30
0.0
  3
*Paper_Space
  1

  0
ENDBLK
  5
1D
100
AcDbEntity
  8
0
100
AcDbBlockEnd
  0
ENDSEC
  0
SECTION
  2
ENTITIES
  0
LINE
  5
206
100
AcDbEntity
  8
0
100
AcDbLine
 62
6
  6
CONTINUOUS
 10
4.0021281294
 20
7.1038895031
 11
3.9790600907
 21
7.0755268412
  0
LINE
  5
207
100
AcDbEntity
  8
0
100
AcDbLine
 62
6
  6
CONTINUOUS
 10
5.2565567422
 20
6.6678206251
 11
5.0202861812
 21
6.5750000476
  0
LINE
  5
208
100
AcDbEntity
  8
0
100
AcDbLine
 62
9
  6
CONTINUOUS
 10
3.9790600907
 20
6.8231357647
 11
3.9790600907
 21
7.0755268412
  0
LINE
  5
209
100
AcDbEntity
  8
0
100
AcDbLine
 62
9
  6
CONTINUOUS
 10
4.0021281294
 20
7.1038895031
 11
4.0021281294
 21
6.7947731029
  0
LINE
  5
20A
100
AcDbEntity
  8
0
100
AcDbLine
 62
9
  6
CONTINUOUS
 10
4.1375374422
 20
7.2246231553
 11
4.1375374422
 21
6.6740394507
  0
LINE
  5
20B
100
AcDbEntity
  8
0
100
AcDbLine
 62
9
  6
CONTINUOUS
 10
4.3972692361
 20
7.3396755027
 11
4.3972692361
 21
6.5589871032
  0
LINE
  5
20C
100
AcDbEntity
  8
0
100
AcDbLine
 62
9
  6
CONTINUOUS
 10
4.3981661136
 20
7.3399195061
 11
4.3981661136
 21
6.5587430998
  0
LINE
  5
20D
100
AcDbEntity
  8
0
100
AcDbLine
 62
6
  6
CONTINUOUS
 10
4.5247202858
 20
6.949331303
 11
4.5247202858
 21
0.3263491885
  0
LINE
  5
20E
100
AcDbEntity
  8
0
100
AcDbLine
 62
6
  6
CONTINUOUS
 10
7.2429343084
 20
6.2133112451
 11
7.2428910056
 21
6.2132986725
  0
LINE
  5
20F
100
AcDbEntity
  8
0
100
AcDbLine
 62
7
  6
CONTINUOUS
 10
4.7118739327
 20
7.381831303
 11
4.7118739327
 21
7.1518310068
  0
LINE
  5
210
100
AcDbEntity
  8
0
100
AcDbLine
 62
7
  6
CONTINUOUS
 10
4.7131381906
 20
7.381831303
 11
4.7131381906
 21
7.1518292226
  0
LINE
  5
211
100
AcDbEntity
  8
0
100
AcDbLine
 62
6
  6
CONTINUOUS
 10
4.8997202858
 20
6.949331303
 11
4.8997202858
 21
0.3263491885
  0
LINE
  5
212
100
AcDbEntity
  8
0
100
AcDbLine
 62
9
  6
CONTINUOUS
 10
5.0202861808
 20
7.3236625585
 11
5.0202861808
 21
6.5750000474
  0
LINE
  5
213
100
AcDbEntity
  8
0
100
AcDbLine
 62
9
  6
CONTINUOUS
 10
5.2565567422
 20
6.6678206251
 11
5.2565567422
 21
7.2308419808
  0
LINE
  5
214
100
AcDbEntity
  8
0
100
AcDbLine
 62
6
  6
CONTINUOUS
 10
5.4622202858
 20
6.672831303
 11
5.4622202858
 21
7.225831303
  0
LINE
  5
215
100
AcDbEntity
  8
0
100
AcDbLine
 62
9
  6
CONTINUOUS
 10
6.1122202858
 20
7.349331303
 11
6.1122202858
 21
6.549331303
  0
LINE
  5
216
100
AcDbEntity
  8
0
100
AcDbLine
 62
9
  6
CONTINUOUS
 10
6.2714794172
 20
7.5351214062
 11
6.2714794172
 21
6.3635411997
  0
LINE
  5
217
100
AcDbEntity
  8
0
100
AcDbLine
 62
6
  6
CONTINUOUS
 10
4.0021281294
 20
6.7947731029
 11
3.9790600907
 21
6.8231357647
  0
LINE
  5
218
100
AcDbEntity
  8
0
100
AcDbLine
 62
6
  6
CONTINUOUS
 10
7.3322202858
 20
7.7092683054
 11
7.3322202858
 21
6.1893943005
  0
LINE
  5
219
100
AcDbEntity
  8
0
100
AcDbLine
 62
7
  6
CONTINUOUS
 10
7.4622202858
 20
7.7092683054
 11
7.4622202858
 21
6.1893943005
  0
LINE
  5
21A
100
AcDbEntity
  8
0
100
AcDbLine
 62
9
  6
CONTINUOUS
 10
7.8507239762
 20
5.8428195966
 11
7.8507239762
 21
8.0558430094
  0
LINE
  5
21B
100
AcDbEntity
  8
0
100
AcDbLine
 62
9
  6
CONTINUOUS
 10
8.0872202858
 20
5.8993338964
 11
8.0872202858
 21
7.9993287095
  0
LINE
  5
21C
100
AcDbEntity
  8
0
100
AcDbLine
 62
6
  6
CONTINUOUS
 10
4.3981661136
 20
6.5587430998
 11
4.3972692353
 21
6.5589871035
  0
LINE
  5
21D
100
AcDbEntity
  8
0
100
AcDbLine
 62
6
  6
CONTINUOUS
 10
7.3322202858
 20
6.1994494995
 11
7.2432202858
 21
6.2132173874
  0
LINE
  5
21E
100
AcDbEntity
  8
0
100
AcDbLine
 62
6
  6
CONTINUOUS
 10
7.0957626444
 20
6.2360284016
 11
6.2714794172
 21
6.3635411997
  0
LINE
  5
21F
100
AcDbEntity
  8
0
100
AcDbLine
 62
6
  6
CONTINUOUS
 10
6.1122202858
 20
6.672831303
 11
5.4622202858
 21
6.672831303
  0
LINE
  5
220
100
AcDbEntity
  8
0
100
AcDbLine
 62
6
  6
CONTINUOUS
 10
5.2565567422
 20
7.2308419808
 11
5.0202861812
 21
7.3236625583
  0
LINE
  5
221
100
AcDbEntity
  8
0
100
AcDbLine
 62
7
  6
CONTINUOUS
 10
4.9147202858
 20
6.949331303
 11
4.8997156119
 21
6.949331303
  0
LINE
  5
222
100
AcDbEntity
  8
0
100
AcDbLine
 62
7
  6
CONTINUOUS
 10
4.5097202858
 20
6.949331303
 11
4.5247249596
 21
6.949331303
  0
LINE
  5
223
100
AcDbEntity
  8
0
100
AcDbLine
 62
6
  6
CONTINUOUS
 10
7.3322202858
 20
7.6992131064
 11
6.2714794172
 21
7.5351214062
  0
LINE
  5
224
100
AcDbEntity
  8
0
100
AcDbLine
 62
6
  6
CONTINUOUS
 10
6.1122202858
 20
7.225831303
 11
5.4622202858
 21
7.225831303
  0
LINE
  5
225
100
AcDbEntity
  8
0
100
AcDbLine
 62
6
  6
CONTINUOUS
 10
4.3981661136
 20
7.3399195061
 11
4.3972692353
 21
7.3396755025
  0
ARC
  5
226
100
AcDbEntity
  8
0
100
AcDbCircle
 62
6
  6
CONTINUOUS
 10
4.7122202858
 20
0.3263491885
 40
0.1875
100
AcDbArc
 50
180.0
 51
360.0
  0
ARC
  5
227
100
AcDbEntity
  8
0
100
AcDbCircle
 62
6
  6
CONTINUOUS
 10
4.7118739327
 20
7.711831303
 40
1.195
100
AcDbArc
 50
254.7805352093
 51
260.9886971218
  0
ARC
  5
228
100
AcDbEntity
  8
0
100
AcDbCircle
 62
6
  6
CONTINUOUS
 10
4.7118739327
 20
6.186831303
 40
1.195
100
AcDbArc
 50
90.0
 51
105.2194647907
  0
ARC
  5
229
100
AcDbEntity
  8
0
100
AcDbCircle
 62
6
  6
CONTINUOUS
 10
4.644560254
 20
7.4679486825
 40
0.942
100
AcDbArc
 50
237.4360389781
 51
254.7805351136
  0
ARC
  5
22A
100
AcDbEntity
  8
0
100
AcDbCircle
 62
6
  6
CONTINUOUS
 10
4.644560254
 20
6.4307139235
 40
0.942
100
AcDbArc
 50
105.2194648864
 51
122.5639610219
  0
ARC
  5
22B
100
AcDbEntity
  8
0
100
AcDbCircle
 62
6
  6
CONTINUOUS
 10
4.7131381906
 20
7.356831303
 40
0.84
100
AcDbArc
 50
282.8354944263
 51
291.4477361622
  0
ARC
  5
22C
100
AcDbEntity
  8
0
100
AcDbCircle
 62
6
  6
CONTINUOUS
 10
4.7131381906
 20
6.541831303
 40
0.84
100
AcDbArc
 50
68.5522638378
 51
90.0
  0
ARC
  5
22D
100
AcDbEntity
  8
0
100
AcDbCircle
 62
6
  6
CONTINUOUS
 10
4.4443346852
 20
7.154430387
 40
0.57
100
AcDbArc
 50
219.1222917244
 51
237.4360389571
  0
ARC
  5
22E
100
AcDbEntity
  8
0
100
AcDbCircle
 62
6
  6
CONTINUOUS
 10
4.4443346852
 20
6.744232219
 40
0.57
100
AcDbArc
 50
122.5639610429
 51
140.8777082756
  0
ARC
  5
22F
100
AcDbEntity
  8
0
100
AcDbCircle
 62
6
  6
CONTINUOUS
 10
5.3662524539
 20
6.3885951771
 40
0.3
100
AcDbArc
 50
71.3435596323
 51
111.4477363271
  0
ARC
  5
230
100
AcDbEntity
  8
0
100
AcDbCircle
 62
6
  6
CONTINUOUS
 10
5.3662524539
 20
7.5100674288
 40
0.3
100
AcDbArc
 50
248.5522636729
 51
288.6564403677
  0
ARC
  5
231
100
AcDbEntity
  8
0
100
AcDbCircle
 62
7
  6
CONTINUOUS
 10
4.7122188219
 20
6.9493296746
 40
0.2025006092
100
AcDbArc
 50
337.8277318726
 51
0.0004607276
  0
ARC
  5
232
100
AcDbEntity
  8
0
100
AcDbCircle
 62
6
  6
CONTINUOUS
 10
4.7122202858
 20
6.949331303
 40
0.2025
100
AcDbArc
 50
90.0979979337
 51
179.9993516929
  0
ARC
  5
233
100
AcDbEntity
  8
0
100
AcDbCircle
 62
6
  6
CONTINUOUS
 10
4.7122202858
 20
6.949331303
 40
0.2025
100
AcDbArc
 50
0.0004607276
 51
89.740285172
  0
ARC
  5
234
100
AcDbEntity
  8
0
100
AcDbCircle
 62
7
  6
CONTINUOUS
 10
4.7122202858
 20
6.949331303
 40
0.2025
100
AcDbArc
 50
89.740285172
 51
90.0979979337
  0
ARC
  5
235
100
AcDbEntity
  8
0
100
AcDbCircle
 62
7
  6
CONTINUOUS
 10
4.7122184076
 20
6.9493290117
 40
0.2024972413
100
AcDbArc
 50
179.9993516929
 51
202.0824113804
  0
ARC
  5
236
100
AcDbEntity
  8
0
100
AcDbCircle
 62
6
  6
CONTINUOUS
 10
4.1342202858
 20
6.949331303
 40
0.2
100
AcDbArc
 50
140.87770829
 51
219.12229171
  0
ARC
  5
237
100
AcDbEntity
  8
0
100
AcDbCircle
 62
6
  6
CONTINUOUS
 10
7.0462750661
 20
5.4163425753
 40
0.8208513365
100
AcDbArc
 50
76.1214323384
 51
77.4335607146
  0
ARC
  5
238
100
AcDbEntity
  8
0
100
AcDbCircle
 62
6
  6
CONTINUOUS
 10
7.0523959664
 20
5.4475047496
 40
0.790830573
100
AcDbArc
 50
77.289716951
 51
79.4154735804
  0
ARC
  5
239
100
AcDbEntity
  8
0
100
AcDbCircle
 62
6
  6
CONTINUOUS
 10
7.0641768422
 20
5.5170829387
 40
0.7184673913
100
AcDbArc
 50
83.5538947259
 51
85.1941798038
  0
ARC
  5
23A
100
AcDbEntity
  8
0
100
AcDbCircle
 62
6
  6
CONTINUOUS
 10
6.3002202858
 20
6.549331303
 40
0.188
100
AcDbArc
 50
180.0
 51
261.2063123688
  0
ARC
  5
23B
100
AcDbEntity
  8
0
100
AcDbCircle
 62
6
  6
CONTINUOUS
 10
6.3002202858
 20
7.349331303
 40
0.188
100
AcDbArc
 50
98.7936876312
 51
180.0
  0
ARC
  5
23C
100
AcDbEntity
  8
0
100
AcDbCircle
 62
6
  6
CONTINUOUS
 10
7.181746119
 20
5.5037493583
 40
0.75
100
AcDbArc
 50
26.8780899777
 51
68.0396077086
  0
ARC
  5
23D
100
AcDbEntity
  8
0
100
AcDbCircle
 62
6
  6
CONTINUOUS
 10
7.9622202858
 20
5.899331303
 40
0.125
100
AcDbArc
 50
206.8780899777
 51
360.0
  0
ARC
  5
23E
100
AcDbEntity
  8
0
100
AcDbCircle
 62
6
  6
CONTINUOUS
 10
7.3972202858
 20
6.1893943005
 40
0.065
100
AcDbArc
 50
180.0
 51
360.0
  0
ARC
  5
23F
100
AcDbEntity
  8
0
100
AcDbCircle
 62
6
  6
CONTINUOUS
 10
7.181746119
 20
8.3949132476
 40
0.75
100
AcDbArc
 50
291.9603922914
 51
333.1219100223
  0
ARC
  5
240
100
AcDbEntity
  8
0
100
AcDbCircle
 62
6
  6
CONTINUOUS
 10
7.9622202858
 20
7.999331303
 40
0.125
100
AcDbArc
 50
0.0
 51
153.1219100223
  0
ARC
  5
241
100
AcDbEntity
  8
0
100
AcDbCircle
 62
6
  6
CONTINUOUS
 10
7.3972202858
 20
7.7092683054
 40
0.065
100
AcDbArc
 50
0.0
 51
180.0
  0
SPLINE
  5
242
100
AcDbEntity
  8
0
100
AcDbSpline
 62
6
  6
CONTINUOUS
 70
0
 71
3
 72
12
 73
8
 74
6
 42
0.0000001
 43
0.0000001
 44
0.0000000001
 12
0.0529979124
 22
-0.0044491026
 32
0.0
 13
0.0526275121
 23
-0.0076758192
 33
0.0
 40
0.0
 40
0.0
 40
0.0
 40
0.0
 40
0.1083270739
 40
0.2233844531
 40
0.4693508513
 40
0.7303659338
 40
1.0
 40
1.0
 40
1.0
 40
1.0
 10
7.1448381516
 20
6.2310081321
 30
0.0
 10
7.1467518545
 20
6.2308474794
 30
0.0
 10
7.1506968993
 20
6.2305010091
 30
0.0
 10
7.1589800721
 20
6.2297109461
 30
0.0
 10
7.1699453259
 20
6.2285356482
 30
0.0
 10
7.1836111608
 20
6.2268579449
 30
0.0
 10
7.1929302704
 20
6.2255689275
 30
0.0
 10
7.1976603271
 20
6.22487904
 30
0.0
 11
7.1448381516
 21
6.2310081321
 31
0.0
 11
7.1505773995
 21
6.2305044976
 31
0.0
 11
7.156669029
 21
6.2299237485
 31
0.0
 11
7.1696763172
 21
6.2285317607
 31
0.0
 11
7.1834550099
 21
6.2268420462
 31
0.0
 11
7.1976603271
 21
6.22487904
 31
0.0
  0
LINE
  5
243
100
AcDbEntity
  8
0
100
AcDbLine
 62
6
  6
CONTINUOUS
 10
7.0957626444
 20
6.2360284016
 11
7.1243693636
 21
6.2330243674
  0
LINE
  5
244
100
AcDbEntity
  8
0
100
AcDbLine
 62
6
  6
CONTINUOUS
 10
7.2428910056
 20
6.2132986725
 11
7.2431380461
 21
6.2132377021
  0
SPLINE
  5
245
100
AcDbEntity
  8
0
100
AcDbSpline
 62
6
  6
CONTINUOUS
 70
0
 71
3
 72
8
 73
4
 74
2
 42
0.0000001
 43
0.0000001
 44
0.0000000001
 12
0.0000822397
 22
-0.0000203147
 32
0.0
 13
0.0000822397
 23
-0.0000203147
 33
0.0
 40
0.0
 40
0.0
 40
0.0
 40
0.0
 40
1.0
 40
1.0
 40
1.0
 40
1.0
 10
7.2431380461
 20
6.2132377021
 30
0.0
 10
7.2431654593
 20
6.2132309305
 30
0.0
 10
7.2431928725
 20
6.2132241589
 30
0.0
 10
7.2432202858
 20
6.2132173874
 30
0.0
 11
7.2431380461
 21
6.2132377021
 31
0.0
 11
7.2432202858
 21
6.2132173874
 31
0.0
  0
SPLINE
  5
246
100
AcDbEntity
  8
0
100
AcDbSpline
 62
6
  6
CONTINUOUS
 70
0
 71
3
 72
38
 73
34
 74
32
 42
0.0000001
 43
0.0000001
 44
0.0000000001
 12
0.0167503487
 22
-0.0051719571
 32
0.0
 13
-0.0151354786
 23
-0.0088453721
 33
0.0
 40
0.0
 40
0.0
 40
0.0
 40
0.0
 40
0.226267472
 40
0.3298468548
 40
0.426758708
 40
0.5167931345
 40
0.5997479521
 40
0.6754211819
 40
0.7436120544
 40
0.7748394128
 40
0.804121599
 40
0.8314338589
 40
0.8567515257
 40
0.8800513021
 40
0.9013126355
 40
0.9205155394
 40
0.9376404054
 40
0.9526682228
 40
0.9655809833
 40
0.971239159
 40
0.9763630723
 40
0.9809521675
 40
0.9850064359
 40
0.9885266576
 40
0.9915149686
 40
0.9939760328
 40
0.9959197665
 40
0.9973687133
 40
0.9979249864
 40
0.9983869647
 40
0.9987815689
 40
0.9991510057
 40
1.0
 40
1.0
 40
1.0
 40
1.0
 10
7.2263955369
 20
6.218956135
 30
0.0
 10
7.2276588899
 20
6.2185660531
 30
0.0
 10
7.2294989416
 20
6.2179920874
 30
0.0
 10
7.2318759079
 20
6.2172377611
 30
0.0
 10
7.2334923662
 20
6.2167188579
 30
0.0
 10
7.2349923516
 20
6.2162314664
 30
0.0
 10
7.2363725471
 20
6.2157770582
 30
0.0
 10
7.2376296926
 20
6.2153571137
 30
0.0
 10
7.2385985085
 20
6.2150280935
 30
0.0
 10
7.2393094823
 20
6.2147828943
 30
0.0
 10
7.2397940538
 20
6.2146139078
 30
0.0
 10
7.2402454024
 20
6.2144545388
 30
0.0
 10
7.2406631266
 20
6.2143049507
 30
0.0
 10
7.2410468454
 20
6.2141652972
 30
0.0
 10
7.2413961955
 20
6.2140357082
 30
0.0
 10
7.2417108312
 20
6.213916311
 30
0.0
 10
7.2419904128
 20
6.2138072384
 30
0.0
 10
7.2422345988
 20
6.2137086189
 30
0.0
 10
7.2424154935
 20
6.2136322634
 30
0.0
 10
7.2425421156
 20
6.2135762323
 30
0.0
 10
7.2426237586
 20
6.2135387751
 30
0.0
 10
7.2426963162
 20
6.2135040142
 30
0.0
 10
7.2427597637
 20
6.2134719609
 30
0.0
 10
7.2428140866
 20
6.2134426289
 30
0.0
 10
7.2428592659
 20
6.2134160356
 30
0.0
 10
7.2428953453
 20
6.2133921958
 30
0.0
 10
7.2429223105
 20
6.2133711226
 30
0.0
 10
7.2429386878
 20
6.2133546175
 30
0.0
 10
7.2429465625
 20
6.2133424698
 30
0.0
 10
7.2429496543
 20
6.2133347355
 30
0.0
 10
7.2429503518
 20
6.2133274677
 30
0.0
 10
7.2429476198
 20
6.2133181909
 30
0.0
 10
7.2429416747
 20
6.2133132831
 30
0.0
 10
7.2429373914
 20
6.2133107799
 30
0.0
 11
7.2263955369
 21
6.218956135
 31
0.0
 11
7.2301820087
 21
6.2177743339
 31
0.0
 11
7.2319127288
 21
6.2172249851
 31
0.0
 11
7.2335303115
 21
6.216705583
 31
0.0
 11
7.235031366
 21
6.2162176701
 31
0.0
 11
7.2364126176
 21
6.2157627087
 31
0.0
 11
7.2376707931
 21
6.2153421586
 31
0.0
 11
7.2388026166
 21
6.2149574152
 31
0.0
 11
7.2393201218
 21
6.2147788821
 31
0.0
 11
7.2398048094
 21
6.2146097929
 31
0.0
 11
7.2402562697
 21
6.2144503111
 31
0.0
 11
7.2406740928
 21
6.2143006005
 31
0.0
 11
7.2410578877
 21
6.2141608114
 31
0.0
 11
7.2414073019
 21
6.2140310675
 31
0.0
 11
7.2417219873
 21
6.213911489
 31
0.0
 11
7.2420015961
 21
6.2138021963
 31
0.0
 11
7.2422457803
 21
6.2137033098
 31
0.0
 11
7.2424541919
 21
6.2136149497
 31
0.0
 11
7.2425448743
 21
6.2135747547
 31
0.0
 11
7.242626488
 21
6.2135372338
 31
0.0
 11
7.2426990031
 21
6.2135023951
 31
0.0
 11
7.2427623903
 21
6.213470246
 31
0.0
 11
7.2428166205
 21
6.213440794
 31
0.0
 11
7.2428616647
 21
6.2134140467
 31
0.0
 11
7.2428974937
 21
6.2133900115
 31
0.0
 11
7.2429240783
 21
6.2133686959
 31
0.0
 11
7.2429413895
 21
6.2133501074
 31
0.0
 11
7.2429465585
 21
6.2133418382
 31
0.0
 11
7.2429493982
 21
6.2133342536
 31
0.0
 11
7.242949905
 21
6.2133273545
 31
0.0
 11
7.2429480752
 21
6.2133211419
 31
0.0
 11
7.2429373914
 21
6.2133107799
 31
0.0
  0
SPLINE
  5
247
100
AcDbEntity
  8
0
100
AcDbSpline
 62
6
  6
CONTINUOUS
 70
0
 71
3
 72
15
 73
11
 74
9
 42
0.0000001
 43
0.0000001
 44
0.0000000001
 12
-0.0464862829
 22
0.0112487516
 32
0.0
 13
-0.0470556438
 23
0.0085600988
 33
0.0
 40
0.0
 40
0.0
 40
0.0
 40
0.0
 40
0.0970234504
 40
0.2034604033
 40
0.3186201178
 40
0.4418253911
 40
0.5724035242
 40
0.7095740189
 40
0.852443264
 40
1.0
 40
1.0
 40
1.0
 40
1.0
 10
7.2248689758
 20
6.2175298984
 30
0.0
 10
7.223365556
 20
6.217893696
 30
0.0
 10
7.2202115289
 20
6.2186511468
 30
0.0
 10
7.2152670198
 20
6.2198151187
 30
0.0
 10
7.2099093736
 20
6.2210453893
 30
0.0
 10
7.2041682543
 20
6.2223249018
 30
0.0
 10
7.1980748288
 20
6.2236360776
 30
0.0
 10
7.1916638998
 20
6.2249610345
 30
0.0
 10
7.1849757634
 20
6.2262808133
 30
0.0
 10
7.1804245695
 20
6.2271327795
 30
0.0
 10
7.1781101104
 20
6.2275538129
 30
0.0
 11
7.2248689758
 21
6.2175298984
 31
0.0
 11
7.2203566888
 21
6.2186128781
 31
0.0
 11
7.2154013707
 21
6.2197789016
 31
0.0
 11
7.2100331275
 21
6.2210111186
 31
0.0
 11
7.2042814844
 21
6.2222924981
 31
0.0
 11
7.1981758686
 21
6.2236058777
 31
0.0
 11
7.1917509689
 21
6.2249332238
 31
0.0
 11
7.1850470069
 21
6.2262555922
 31
0.0
 11
7.1781101104
 21
6.2275538129
 31
0.0
  0
SPLINE
  5
248
100
AcDbEntity
  8
0
100
AcDbSpline
 62
6
  6
CONTINUOUS
 70
0
 71
3
 72
71
 73
67
 74
65
 42
0.0000001
 43
0.0000001
 44
0.0000000001
 12
0.004137503
 22
0.586641123
 32
0.0
 13
0.004137503
 23
-0.586641123
 33
0.0
 40
0.0
 40
0.0
 40
0.0
 40
0.0
 40
0.0156249634
 40
0.0312499309
 40
0.0468748987
 40
0.0624998706
 40
0.0781248437
 40
0.093749821
 40
0.1093748
 40
0.1249997826
 40
0.1406247679
 40
0.1562497554
 40
0.1718747467
 40
0.1874997396
 40
0.2031247364
 40
0.2187497343
 40
0.2343747358
 40
0.2499997391
 40
0.2656247447
 40
0.2812497527
 40
0.2968747617
 40
0.3124997737
 40
0.3281247861
 40
0.3437498013
 40
0.3593748168
 40
0.3749998342
 40
0.3906248526
 40
0.4062498715
 40
0.4218748921
 40
0.4374999121
 40
0.453124934
 40
0.4687499551
 40
0.4843749774
 40
0.4999999993
 40
0.5156250213
 40
0.5312500437
 40
0.5468750648
 40
0.5625000867
 40
0.5781251067
 40
0.5937501274
 40
0.6093751462
 40
0.6250001648
 40
0.6406251822
 40
0.6562501978
 40
0.671875213
 40
0.6875002254
 40
0.7031252375
 40
0.7187502465
 40
0.7343752546
 40
0.7500002602
 40
0.7656252635
 40
0.7812502651
 40
0.7968752631
 40
0.8125002599
 40
0.8281252528
 40
0.8437502441
 40
0.8593752318
 40
0.8750002171
 40
0.8906251997
 40
0.9062501788
 40
0.9218751561
 40
0.9375001293
 40
0.9531251013
 40
0.9687500691
 40
0.9843750365
 40
1.0
 40
1.0
 40
1.0
 40
1.0
 10
4.5247249596
 20
6.949331303
 30
0.0
 10
4.5247465091
 20
6.9523867183
 30
0.0
 10
4.524938707
 20
6.9584975476
 30
0.0
 10
4.5256736027
 20
6.9676379867
 30
0.0
 10
4.5268533791
 20
6.9767319405
 30
0.0
 10
4.5284752555
 20
6.9857574772
 30
0.0
 10
4.5305354075
 20
6.994693187
 30
0.0
 10
4.5330289707
 20
7.0035177684
 30
0.0
 10
4.5359500532
 20
7.0122102044
 30
0.0
 10
4.5392917467
 20
7.0207497762
 30
0.0
 10
4.5430461431
 20
7.0291161232
 30
0.0
 10
4.5472043507
 20
7.0372892872
 30
0.0
 10
4.5517565149
 20
7.0452497614
 30
0.0
 10
4.5566918396
 20
7.0529785369
 30
0.0
 10
4.5619986117
 20
7.0604571473
 30
0.0
 10
4.5676642283
 20
7.0676677148
 30
0.0
 10
4.5736752244
 20
7.0745929921
 30
0.0
 10
4.580017305
 20
7.0812164052
 30
0.0
 10
4.5866753773
 20
7.0875220935
 30
0.0
 10
4.5936335863
 20
7.0934949486
 30
0.0
 10
4.600875352
 20
7.0991206524
 30
0.0
 10
4.608383408
 20
7.104385711
 30
0.0
 10
4.6161398432
 20
7.1092774899
 30
0.0
 10
4.6241261429
 20
7.1137842441
 30
0.0
 10
4.6323232349
 20
7.1178951484
 30
0.0
 10
4.6407115333
 20
7.121600324
 30
0.0
 10
4.6492709871
 20
7.1248908637
 30
0.0
 10
4.6579811281
 20
7.1277588542
 30
0.0
 10
4.6668211198
 20
7.1301973963
 30
0.0
 10
4.6757698094
 20
7.1322006221
 30
0.0
 10
4.6848057778
 20
7.1337637101
 30
0.0
 10
4.6939073932
 20
7.1348828975
 30
0.0
 10
4.7030528623
 20
7.1355554897
 30
0.0
 10
4.7122202854
 20
7.1357798672
 30
0.0
 10
4.7213877085
 20
7.1355554898
 30
0.0
 10
4.7305331776
 20
7.1348828976
 30
0.0
 10
4.739634793
 20
7.1337637102
 30
0.0
 10
4.7486707614
 20
7.1322006222
 30
0.0
 10
4.7576194511
 20
7.1301973964
 30
0.0
 10
4.7664594428
 20
7.1277588544
 30
0.0
 10
4.7751695838
 20
7.1248908639
 30
0.0
 10
4.7837290377
 20
7.1216003242
 30
0.0
 10
4.7921173361
 20
7.1178951486
 30
0.0
 10
4.8003144281
 20
7.1137842443
 30
0.0
 10
4.8083007279
 20
7.1092774902
 30
0.0
 10
4.8160571631
 20
7.1043857113
 30
0.0
 10
4.8235652192
 20
7.0991206527
 30
0.0
 10
4.8308069849
 20
7.0934949489
 30
0.0
 10
4.8377651939
 20
7.0875220938
 30
0.0
 10
4.8444232662
 20
7.0812164055
 30
0.0
 10
4.8507653468
 20
7.0745929924
 30
0.0
 10
4.856776343
 20
7.0676677151
 30
0.0
 10
4.8624419596
 20
7.0604571476
 30
0.0
 10
4.8677487318
 20
7.0529785372
 30
0.0
 10
4.8726840565
 20
7.0452497617
 30
0.0
 10
4.8772362207
 20
7.0372892874
 30
0.0
 10
4.8813944284
 20
7.0291161234
 30
0.0
 10
4.8851488247
 20
7.0207497764
 30
0.0
 10
4.8884905183
 20
7.0122102045
 30
0.0
 10
4.8914116008
 20
7.0035177686
 30
0.0
 10
4.893905164
 20
6.9946931871
 30
0.0
 10
4.895965316
 20
6.9857574773
 30
0.0
 10
4.8975871924
 20
6.9767319406
 30
0.0
 10
4.8987669688
 20
6.9676379868
 30
0.0
 10
4.8995018645
 20
6.9584975476
 30
0.0
 10
4.8996940625
 20
6.9523867183
 30
0.0
 10
4.8997156119
 20
6.949331303
 30
0.0
 11
4.5247249596
 21
6.949331303
 31
0.0
 11
4.5250131401
 21
6.9584932459
 31
0.0
 11
4.5257477495
 21
6.9676302388
 31
0.0
 11
4.5269270623
 21
6.9767205367
 31
0.0
 11
4.5285483013
 21
6.9857425056
 31
0.0
 11
4.5306076424
 21
6.9946746646
 31
0.0
 11
4.5331002237
 21
7.0034957435
 31
0.0
 11
4.5360201547
 21
7.0121847261
 31
0.0
 11
4.5393605302
 21
7.0207209047
 31
0.0
 11
4.5431134446
 21
7.0290839253
 31
0.0
 11
4.5472700097
 21
7.0372538381
 31
0.0
 11
4.5518203746
 21
7.0452111445
 31
0.0
 11
4.5567537469
 21
7.0529368419
 31
0.0
 11
4.5620584188
 21
7.0604124731
 31
0.0
 11
4.567721791
 21
7.0676201658
 31
0.0
 11
4.5737304048
 21
7.074542681
 31
0.0
 11
4.5800699698
 21
7.0811634506
 31
0.0
 11
4.5867253996
 21
7.0874666208
 31
0.0
 11
4.5936808454
 21
7.0934370898
 31
0.0
 11
4.6009197331
 21
7.0990605444
 31
0.0
 11
4.6084248043
 21
7.1043234975
 31
0.0
 11
4.6161781534
 21
7.1092133188
 31
0.0
 11
4.6241612748
 21
7.113718269
 31
0.0
 11
4.6323551022
 21
7.1178275267
 31
0.0
 11
4.6407400589
 21
7.1215312179
 31
0.0
 11
4.6492961015
 21
7.1248204388
 31
0.0
 11
4.6580027695
 21
7.1276872794
 31
0.0
 11
4.6668392361
 21
7.1301248436
 31
0.0
 11
4.6757843555
 21
7.1321272657
 31
0.0
 11
4.6848167191
 21
7.1336897266
 31
0.0
 11
4.6939147019
 21
7.1348084649
 31
0.0
 11
4.7030565214
 21
7.1354807873
 31
0.0
 11
4.7122202854
 21
7.1357050747
 31
0.0
 11
4.7213840494
 21
7.1354807873
 31
0.0
 11
4.7305258689
 21
7.134808465
 31
0.0
 11
4.7396238517
 21
7.1336897267
 31
0.0
 11
4.7486562153
 21
7.1321272658
 31
0.0
 11
4.7576013348
 21
7.1301248437
 31
0.0
 11
4.7664378014
 21
7.1276872796
 31
0.0
 11
4.7751444695
 21
7.124820439
 31
0.0
 11
4.7837005121
 21
7.1215312181
 31
0.0
 11
4.7920854688
 21
7.117827527
 31
0.0
 11
4.8002792963
 21
7.1137182693
 31
0.0
 11
4.8082624177
 21
7.1092133191
 31
0.0
 11
4.8160157668
 21
7.1043234978
 31
0.0
 11
4.823520838
 21
7.0990605447
 31
0.0
 11
4.8307597258
 21
7.0934370901
 31
0.0
 11
4.8377151717
 21
7.0874666211
 31
0.0
 11
4.8443706014
 21
7.0811634509
 31
0.0
 11
4.8507101665
 21
7.0745426813
 31
0.0
 11
4.8567187803
 21
7.067620166
 31
0.0
 11
4.8623821525
 21
7.0604124733
 31
0.0
 11
4.8676868244
 21
7.0529368422
 31
0.0
 11
4.8726201968
 21
7.0452111447
 31
0.0
 11
4.8771705617
 21
7.0372538383
 31
0.0
 11
4.8813271268
 21
7.0290839256
 31
0.0
 11
4.8850800413
 21
7.0207209049
 31
0.0
 11
4.8884204168
 21
7.0121847263
 31
0.0
 11
4.8913403478
 21
7.0034957437
 31
0.0
 11
4.8938329291
 21
6.9946746647
 31
0.0
 11
4.8958922702
 21
6.9857425056
 31
0.0
 11
4.8975135092
 21
6.9767205367
 31
0.0
 11
4.8986928221
 21
6.9676302389
 31
0.0
 11
4.8994274314
 21
6.958493246
 31
0.0
 11
4.8997156119
 21
6.949331303
 31
0.0
  0
LINE
  5
249
100
AcDbEntity
  8
0
100
AcDbLine
 62
6
  6
CONTINUOUS
 10
7.2248689758
 20
6.2175298984
 11
7.2351213435
 21
6.2162404187
  0
ENDSEC
  0
SECTION
  2
OBJECTS
  0
DICTIONARY
  5
C
100
AcDbDictionary
280
0
281
1
  3
ACAD_GROUP
350
D
  3
ACAD_MLINESTYLE
350
17
  3
ACAD_LAYOUT
350
1A
  3
ACAD_PLOTSETTINGS
350
19
  3
ACAD_PLOTSTYLENAME
350
E
  0
DICTIONARY
  5
D
102
{ACAD_REACTORS
330
C
102
}
100
AcDbDictionary
280
0
281
1
  0
ACDBDICTIONARYWDFLT
  5
E
102
{ACAD_REACTORS
330
C
102
}
100
AcDbDictionary
281
1
  3
Normal
350
F
100
AcDbDictionaryWithDefault
340
F
  0
DICTIONARY
  5
17
102
{ACAD_REACTORS
330
C
102
}
100
AcDbDictionary
280
0
281
1
  3
Standard
350
18
  0
DICTIONARY
  5
19
102
{ACAD_REACTORS
330
C
102
}
100
AcDbDictionary
281
1
  0
DICTIONARY
  5
1A
102
{ACAD_REACTORS
330
C
102
}
100
AcDbDictionary
281
1
  3
Model
350
24A
  3
Layout1
350
24B
  0
ACDBPLACEHOLDER
  5
F
102
{ACAD_REACTORS
330
E
102
}
  0
MLINESTYLE
  5
18
102
{ACAD_REACTORS
330
17
102
}
100
AcDbMlineStyle
  2
STANDARD
 70
0
  3

 62
256
 51
90.0
 52
90.0
 71
2
 49
0.5
 62
256
  6
BYLAYER
 49
-0.5
 62
256
  6
BYLAYER
  0
LAYOUT
  5
24A
102
{ACAD_REACTORS
330
1A
102
}
100
AcDbPlotSettings
  1

  2
none_device
  4
ISO_A4_(297.00_x_210.00_MM)
  6

 40
0.0
 41
0.0
 42
0.0
 43
0.0
 44
297.0
 45
210.0
 46
0.0
 47
0.0
 48
0.0
 49
0.0
140
0.0
141
0.0
142
1.0
143
1.0
 70
1024
 72
0
 73
0
 74
0
  7

 75
0
147
1.0
148
0.0
149
0.0
100
AcDbLayout
  1
Model
 70
0
 71
0
 10
0.0
 20
0.0
 11
11.6929133858
 21
8.2677165354
 12
0.0
 22
0.0
 32
0.0
 14
0.0
 24
0.0
 34
0.0
 15
0.0
 25
0.0
 35
0.0
146
0.0
 13
0.0
 23
0.0
 33
0.0
 16
1.0
 26
0.0
 36
0.0
 17
0.0
 27
1.0
 37
0.0
 76
0
330
203
345
0
346
0
  0
LAYOUT
  5
24B
102
{ACAD_REACTORS
330
1A
102
}
100
AcDbPlotSettings
  1

  2
none_device
  4
ISO_A4_(297.00_x_210.00_MM)
  6

 40
0.0
 41
0.0
 42
0.0
 43
0.0
 44
297.0
 45
210.0
 46
0.0
 47
0.0
 48
0.0
 49
0.0
140
0.0
141
0.0
142
1.0
143
1.0
 70
0
 72
0
 73
0
 74
0
  7

 75
0
147
1.0
148
0.0
149
0.0
100
AcDbLayout
  1
Layout1
 70
0
 71
1
 10
0.0
 20
0.0
 11
11.6929133858
 21
8.2677165354
 12
0.0
 22
0.0
 32
0.0
 14
0.0
 24
0.0
 34
0.0
 15
0.0
 25
0.0
 35
0.0
146
0.0
 13
0.0
 23
0.0
 33
0.0
 16
1.0
 26
0.0
 36
0.0
 17
0.0
 27
1.0
 37
0.0
 76
0
330
204
345
0
346
0
  0
ENDSEC
  0
EOF
