  0
SECTION
  2
HEADER
  9
$ACADVER
  1
AC1015
  9
$DWGCODEPAGE
  3
ANSI_1252
  9
$EXTMAX
 10
11.6929133858
 20
8.2677165354
 30
0.0
  9
$EXTMIN
 10
0.0
 20
0.0
 30
0.0
  9
$LIMMIN
 10
0.0
 20
0.0
  9
$LIMMAX
 10
11.6929133858
 20
8.2677165354
  9
$VIEWCTR
 10
5.8464566929
 20
4.1338582677
  9
$VIEWSIZE
 40
8.2677165354
  9
$CLAYER
  8
0
  9
$LTSCALE
 40
0.6431102362
  9
$CELTYPE
  6
BYLAYER
  9
$DIMSCALE
 40
1.0
  9
$DIMASZ
 40
0.1875
  9
$DIMEXO
 40
0.0730807087
  9
$DIMDLI
 40
0.4443307087
  9
$DIMEXE
 40
0.2104724409
  9
$DIMCEN
 40
0.1052362205
  9
$DIMLFAC
 40
1.0
  9
$DIMBLK
  1
_CLOSED
  9
$DIMTXT
 40
0.15625
  9
$DIMTOL
 70
0
  9
$DIMLIM
 70
0
  9
$DIMTFAC
 40
1.0
  9
$PDMODE
 70
3
  9
$PDSIZE
 40
0.3125
  9
$HANDSEED
  5
265
  9
$TILEMODE
 70
1
  9
$MEASUREMENT
 70
0
  9
$INSUNITS
 70
1
  0
ENDSEC
  0
SECTION
  2
CLASSES
  0
CLASS
  1
ACDBDICTIONARYWDFLT
  2
AcDbDictionaryWithDefault
  3
AutoCAD 2000
 90
0
280
0
281
0
  0
CLASS
  1
ACDBPLACEHOLDER
  2
AcDbPlaceHolder
  3
AutoCAD 2000
 90
0
280
0
281
0
  0
CLASS
  1
LAYOUT
  2
AcDbLayout
  3
AutoCAD 2000
 90
0
280
0
281
0
  0
ENDSEC
  0
SECTION
  2
TABLES
  0
TABLE
  2
VPORT
  5
8
100
AcDbSymbolTable
 70
2
  0
VPORT
  5
1F4
100
AcDbSymbolTableRecord
100
AcDbViewportTableRecord
  2
*ACTIVE
 70
0
 10
0.0
 20
0.0
 11
1.0
 21
1.0
 12
5.8464566929
 22
4.1338582677
 13
0.0
 23
0.0
 14
1.0
 24
1.0
 15
0.0
 25
0.0
 16
0.0
 26
0.0
 36
1.0
 17
0.0
 27
0.0
 37
0.0
 40
8.2677165354
 41
1.4142857143
 42
50.0
 43
0.0
 44
0.0
 50
0.0
 51
0.0
 71
0
 72
100
 73
1
 74
1
 75
0
 76
0
 77
0
 78
0
  0
ENDTAB
  0
TABLE
  2
LTYPE
  5
5
100
AcDbSymbolTable
 70
6
  0
LTYPE
  5
14
100
AcDbSymbolTableRecord
100
AcDbLinetypeTableRecord
  2
BYBLOCK
 70
0
  3

 72
65
 73
0
 40
0.0
  0
LTYPE
  5
15
100
AcDbSymbolTableRecord
100
AcDbLinetypeTableRecord
  2
BYLAYER
 70
0
  3

 72
65
 73
0
 40
0.0
  0
LTYPE
  5
16
100
AcDbSymbolTableRecord
100
AcDbLinetypeTableRecord
  2
CONTINUOUS
 70
64
  3
Solid line
 72
65
 73
0
 40
0.0
  0
LTYPE
  5
1F5
100
AcDbSymbolTableRecord
100
AcDbLinetypeTableRecord
  2
CENTER
 70
64
  3
____ _ ____ _ ____ _ ____ _ ____ _ ____ _ ____
 72
65
 73
4
 40
0.6
 49
0.375
 74
0
 49
-0.075
 74
0
 49
0.075
 74
0
 49
-0.075
 74
0
  0
LTYPE
  5
1F6
100
AcDbSymbolTableRecord
100
AcDbLinetypeTableRecord
  2
HIDDEN
 70
64
  3
- - - - - - - - - - - - - - - - - - - -
 72
65
 73
2
 40
0.2
 49
0.1
 74
0
 49
-0.1
 74
0
  0
LTYPE
  5
1F7
100
AcDbSymbolTableRecord
100
AcDbLinetypeTableRecord
  2
PHANTOM
 70
64
  3
_____ _ _ _____ _ _ _____ _ _ _____
 72
65
 73
6
 40
0.8
 49
0.45
 74
0
 49
-0.05
 74
0
 49
0.1
 74
0
 49
-0.05
 74
0
 49
0.1
 74
0
 49
-0.05
 74
0
  0
LTYPE
  5
1F8
100
AcDbSymbolTableRecord
100
AcDbLinetypeTableRecord
  2
DOT
 70
64
  3
. . . . . . . . . . . . . . . . . . . .
 72
65
 73
2
 40
0.2
 49
0.1
 74
0
 49
-0.1
 74
0
  0
LTYPE
  5
1F9
100
AcDbSymbolTableRecord
100
AcDbLinetypeTableRecord
  2
DASHED
 70
64
  3
- - - - - - - - - - - - - - - - - - - -
 72
65
 73
2
 40
0.2
 49
0.1
 74
0
 49
-0.1
 74
0
  0
ENDTAB
  0
TABLE
  2
LAYER
  5
2
100
AcDbSymbolTable
 70
36
  0
LAYER
  5
10
100
AcDbSymbolTableRecord
100
AcDbLayerTableRecord
  2
0
 70
0
 62
7
  6
CONTINUOUS
370
-3
390
F
  0
LAYER
  5
1FA
100
AcDbSymbolTableRecord
100
AcDbLayerTableRecord
  2
DEFAULT_1
 70
0
 62
7
  6
CENTER
370
-3
390
F
  0
LAYER
  5
1FB
100
AcDbSymbolTableRecord
100
AcDbLayerTableRecord
  2
DEFAULT_2
 70
0
 62
8
  6
HIDDEN
370
-3
390
F
  0
LAYER
  5
1FC
100
AcDbSymbolTableRecord
100
AcDbLayerTableRecord
  2
DEFAULT_3
 70
0
 62
7
  6
PHANTOM
370
-3
390
F
  0
LAYER
  5
1FD
100
AcDbSymbolTableRecord
100
AcDbLayerTableRecord
  2
DEFAULT_COORDINATE_SYSTEM
 70
0
 62
7
  6
CONTINUOUS
370
-3
390
F
  0
LAYER
  5
1FE
100
AcDbSymbolTableRecord
100
AcDbLayerTableRecord
  2
DEFAULT_DATUM_AXES
 70
0
 62
7
  6
CONTINUOUS
370
-3
390
F
  0
LAYER
  5
1FF
100
AcDbSymbolTableRecord
100
AcDbLayerTableRecord
  2
DEFAULT_DATUM_CURVES
 70
0
 62
7
  6
CONTINUOUS
370
-3
390
F
  0
LAYER
  5
200
100
AcDbSymbolTableRecord
100
AcDbLayerTableRecord
  2
DEFAULT_DATUM_PLANES
 70
0
 62
7
  6
CONTINUOUS
370
-3
390
F
  0
ENDTAB
  0
TABLE
  2
STYLE
  5
3
100
AcDbSymbolTable
 70
1
  0
STYLE
  5
11
100
AcDbSymbolTableRecord
100
AcDbTextStyleTableRecord
  2
STANDARD
 70
0
 40
0.0
 41
0.8
 50
0.0
 71
0
 42
0.2
  3
txt
  4

  0
STYLE
  5
201
100
AcDbSymbolTableRecord
100
AcDbTextStyleTableRecord
  2
TEXTSTYLE_1
 70
0
 40
0.0
 41
0.8
 50
0.0
 71
0
 42
0.2
  3
gdt
  4

  0
ENDTAB
  0
TABLE
  2
VIEW
  5
6
100
AcDbSymbolTable
 70
0
  0
ENDTAB
  0
TABLE
  2
UCS
  5
7
100
AcDbSymbolTable
 70
0
  0
ENDTAB
  0
TABLE
  2
APPID
  5
9
100
AcDbSymbolTable
 70
1
  0
APPID
  5
202
100
AcDbSymbolTableRecord
100
AcDbRegAppTableRecord
  2
ACAD
 70
0
  0
ENDTAB
  0
TABLE
  2
BLOCK_RECORD
  5
1
100
AcDbSymbolTable
 70
0
  0
BLOCK_RECORD
  5
203
100
AcDbSymbolTableRecord
100
AcDbBlockTableRecord
  2
*Model_Space
  0
BLOCK_RECORD
  5
204
100
AcDbSymbolTableRecord
100
AcDbBlockTableRecord
  2
*Paper_Space
  0
ENDTAB
  0
TABLE
  2
DIMSTYLE
  5
A
100
AcDbSymbolTable
 70
1
100
AcDbDimStyleTable
 71
0
  0
DIMSTYLE
105
205
100
AcDbSymbolTableRecord
100
AcDbDimStyleTableRecord
  2
STANDARD
 70
0
  3

  4

 40
1.0
 41
0.1875
 42
0.0625
 43
0.38
 44
0.18
 45
0.0
 46
0.0
 47
0.01
 48
0.01
140
0.15625
141
0.09
142
0.0
143
25.4
144
1.0
145
0.0
146
1.0
147
0.09
 71
0.0
 72
0.0
 73
1
 74
1
 75
0
 76
0
 77
0
 78
4
170
0
171
2
172
0
173
0
174
0
175
0
176
0
177
0
178
0
270
2
271
2
272
2
273
2
274
2
275
0
280
0
281
0
282
0
283
1
284
4
285
0
286
0
287
3
288
0
340
11
  0
ENDTAB
  0
ENDSEC
  0
SECTION
  2
BLOCKS
  0
BLOCK
  5
20
100
AcDbEntity
  8
0
100
AcDbBlockBegin
  2
*Model_Space
 70
0
 10
0.0
 20
0.0
 30
0.0
  3
*Model_Space
  1

  0
ENDBLK
  5
21
100
AcDbEntity
  8
0
100
AcDbBlockEnd
  0
BLOCK
  5
1C
100
AcDbEntity
  8
0
100
AcDbBlockBegin
  2
*Paper_Space
 70
0
 10
0.0
 20
0.0
 30
0.0
  3
*Paper_Space
  1

  0
ENDBLK
  5
1D
100
AcDbEntity
  8
0
100
AcDbBlockEnd
  0
ENDSEC
  0
SECTION
  2
ENTITIES
  0
LINE
  5
206
100
AcDbEntity
  8
0
100
AcDbLine
 62
9
  6
CONTINUOUS
 10
3.9305076199
 20
4.0043026969
 11
3.9305076199
 21
4.2566937734
  0
LINE
  5
207
100
AcDbEntity
  8
0
100
AcDbLine
 62
9
  6
CONTINUOUS
 10
3.9535756586
 20
4.2850564352
 11
3.9535756586
 21
3.9759400351
  0
LINE
  5
208
100
AcDbEntity
  8
0
100
AcDbLine
 62
9
  6
CONTINUOUS
 10
4.0889849714
 20
4.4057900874
 11
4.0889849714
 21
3.8552063828
  0
LINE
  5
209
100
AcDbEntity
  8
0
100
AcDbLine
 62
9
  6
CONTINUOUS
 10
4.3487167653
 20
4.5208424349
 11
4.3487167653
 21
3.7401540354
  0
LINE
  5
20A
100
AcDbEntity
  8
0
100
AcDbLine
 62
9
  6
CONTINUOUS
 10
4.3496136428
 20
4.5210864383
 11
4.3496136428
 21
3.739910032
  0
LINE
  5
20B
100
AcDbEntity
  8
0
100
AcDbLine
 62
6
  6
CONTINUOUS
 10
3.9535756586
 20
4.2850564352
 11
3.9305076199
 21
4.2566937734
  0
LINE
  5
20C
100
AcDbEntity
  8
0
100
AcDbLine
 62
6
  6
CONTINUOUS
 10
3.9535756586
 20
3.9759400351
 11
3.9305076199
 21
4.0043026969
  0
LINE
  5
20D
100
AcDbEntity
  8
0
100
AcDbLine
 62
6
  6
CONTINUOUS
 10
4.538667815
 20
4.1304982351
 11
4.538667815
 21
4.6304982351
  0
LINE
  5
20E
100
AcDbEntity
  8
0
100
AcDbLine
 62
7
  6
CONTINUOUS
 10
4.6633214618
 20
4.0044987112
 11
4.6633214618
 21
3.6979982351
  0
LINE
  5
20F
100
AcDbEntity
  8
0
100
AcDbLine
 62
7
  6
CONTINUOUS
 10
4.6645857198
 20
4.0045015786
 11
4.6645857198
 21
3.6979982351
  0
LINE
  5
210
100
AcDbEntity
  8
0
100
AcDbLine
 62
6
  6
CONTINUOUS
 10
4.788667815
 20
4.1304982351
 11
4.788667815
 21
4.6304982351
  0
LINE
  5
211
100
AcDbEntity
  8
0
100
AcDbLine
 62
9
  6
CONTINUOUS
 10
4.97173371
 20
4.5048294907
 11
4.97173371
 21
3.7561669796
  0
LINE
  5
212
100
AcDbEntity
  8
0
100
AcDbLine
 62
6
  6
CONTINUOUS
 10
4.3496136427
 20
3.739910032
 11
4.3487167644
 21
3.7401540356
  0
LINE
  5
213
100
AcDbEntity
  8
0
100
AcDbLine
 62
9
  6
CONTINUOUS
 10
5.2080042714
 20
3.8489875573
 11
5.2080042714
 21
4.412008913
  0
LINE
  5
214
100
AcDbEntity
  8
0
100
AcDbLine
 62
6
  6
CONTINUOUS
 10
5.413667815
 20
3.8539982351
 11
5.413667815
 21
4.4069982351
  0
LINE
  5
215
100
AcDbEntity
  8
0
100
AcDbLine
 62
6
  6
CONTINUOUS
 10
7.283667815
 20
3.3806164317
 11
6.2229269464
 21
3.5447081319
  0
LINE
  5
216
100
AcDbEntity
  8
0
100
AcDbLine
 62
6
  6
CONTINUOUS
 10
5.851667815
 20
3.8054982351
 11
5.975667815
 21
3.8054982351
  0
LINE
  5
217
100
AcDbEntity
  8
0
100
AcDbLine
 62
6
  6
CONTINUOUS
 10
5.8321166084
 20
3.8298956253
 11
5.8485778151
 21
3.8203262808
  0
LINE
  5
218
100
AcDbEntity
  8
0
100
AcDbLine
 62
6
  6
CONTINUOUS
 10
5.8443861335
 20
3.8540159874
 11
5.8485778153
 21
3.8515762971
  0
LINE
  5
219
100
AcDbEntity
  8
0
100
AcDbLine
 62
6
  6
CONTINUOUS
 10
5.851667815
 20
3.8054982351
 11
5.8458802582
 21
3.8112857919
  0
LINE
  5
21A
100
AcDbEntity
  8
0
100
AcDbLine
 62
6
  6
CONTINUOUS
 10
6.063667815
 20
3.8539982351
 11
5.998577815
 21
3.8539982351
  0
LINE
  5
21B
100
AcDbEntity
  8
0
100
AcDbLine
 62
6
  6
CONTINUOUS
 10
5.8442198446
 20
3.8539982351
 11
5.413667815
 21
3.8539982351
  0
LINE
  5
21C
100
AcDbEntity
  8
0
100
AcDbLine
 62
6
  6
CONTINUOUS
 10
5.9952190216
 20
3.8504758465
 11
5.9856279217
 21
3.8560482066
  0
LINE
  5
21D
100
AcDbEntity
  8
0
100
AcDbLine
 62
6
  6
CONTINUOUS
 10
5.9912367169
 20
3.8215383147
 11
5.9787578147
 21
3.8287951829
  0
LINE
  5
21E
100
AcDbEntity
  8
0
100
AcDbLine
 62
6
  6
CONTINUOUS
 10
5.9952190216
 20
3.8504758465
 11
5.995667815
 21
3.8499552535
  0
LINE
  5
21F
100
AcDbEntity
  8
0
100
AcDbLine
 62
6
  6
CONTINUOUS
 10
5.831667815
 20
3.8304162202
 11
5.831667815
 21
3.8343302501
  0
LINE
  5
220
100
AcDbEntity
  8
0
100
AcDbLine
 62
6
  6
CONTINUOUS
 10
5.8485778153
 20
3.8519032434
 11
5.8485778153
 21
3.8444201908
  0
LINE
  5
221
100
AcDbEntity
  8
0
100
AcDbLine
 62
6
  6
CONTINUOUS
 10
5.8485778151
 20
3.8206532271
 11
5.8485778151
 21
3.8131701025
  0
LINE
  5
222
100
AcDbEntity
  8
0
100
AcDbLine
 62
6
  6
CONTINUOUS
 10
5.9787578147
 20
3.8284682353
 11
5.9787578147
 21
3.8359512889
  0
LINE
  5
223
100
AcDbEntity
  8
0
100
AcDbLine
 62
6
  6
CONTINUOUS
 10
5.8460217161
 20
3.8116820509
 11
5.8458802721
 21
3.811285778
  0
LINE
  5
224
100
AcDbEntity
  8
0
100
AcDbLine
 62
6
  6
CONTINUOUS
 10
5.2080042714
 20
3.8489875573
 11
4.9717337104
 21
3.7561669798
  0
LINE
  5
225
100
AcDbEntity
  8
0
100
AcDbLine
 62
6
  6
CONTINUOUS
 10
5.2080042714
 20
4.412008913
 11
4.9717337104
 21
4.5048294905
  0
LINE
  5
226
100
AcDbEntity
  8
0
100
AcDbLine
 62
6
  6
CONTINUOUS
 10
5.9912367169
 20
3.8215383147
 11
5.9913612808
 21
3.821191701
  0
LINE
  5
227
100
AcDbEntity
  8
0
100
AcDbLine
 62
6
  6
CONTINUOUS
 10
5.995667815
 20
3.8460412285
 11
5.995667815
 21
3.849955252
  0
LINE
  5
228
100
AcDbEntity
  8
0
100
AcDbLine
 62
9
  6
CONTINUOUS
 10
6.063667815
 20
4.5304982351
 11
6.063667815
 21
3.7304982351
  0
LINE
  5
229
100
AcDbEntity
  8
0
100
AcDbLine
 62
9
  6
CONTINUOUS
 10
6.2229269464
 20
4.7162883384
 11
6.2229269464
 21
3.5447081319
  0
LINE
  5
22A
100
AcDbEntity
  8
0
100
AcDbLine
 62
6
  6
CONTINUOUS
 10
5.9952190214
 20
3.8455206334
 11
5.995667815
 21
3.8460412332
  0
LINE
  5
22B
100
AcDbEntity
  8
0
100
AcDbLine
 62
6
  6
CONTINUOUS
 10
5.975667815
 20
3.8054982351
 11
5.9913612299
 21
3.8211916501
  0
LINE
  5
22C
100
AcDbEntity
  8
0
100
AcDbLine
 62
6
  6
CONTINUOUS
 10
5.8491404699
 20
3.8134976561
 11
5.8460217161
 21
3.8116820509
  0
LINE
  5
22D
100
AcDbEntity
  8
0
100
AcDbLine
 62
6
  6
CONTINUOUS
 10
5.84914047
 20
3.8447476723
 11
5.8321166088
 21
3.8348508452
  0
LINE
  5
22E
100
AcDbEntity
  8
0
100
AcDbLine
 62
6
  6
CONTINUOUS
 10
5.9781951613
 20
3.8356238069
 11
5.9952190214
 21
3.8455206334
  0
LINE
  5
22F
100
AcDbEntity
  8
0
100
AcDbLine
 62
6
  6
CONTINUOUS
 10
6.063667815
 20
4.4069982351
 11
5.413667815
 21
4.4069982351
  0
LINE
  5
230
100
AcDbEntity
  8
0
100
AcDbLine
 62
6
  6
CONTINUOUS
 10
7.283667815
 20
4.8803800386
 11
6.2229269464
 21
4.7162883384
  0
LINE
  5
231
100
AcDbEntity
  8
0
100
AcDbLine
 62
6
  6
CONTINUOUS
 10
4.5280273102
 20
4.6304982351
 11
4.7993083197
 21
4.6304982351
  0
LINE
  5
232
100
AcDbEntity
  8
0
100
AcDbLine
 62
6
  6
CONTINUOUS
 10
4.3496136427
 20
4.5210864383
 11
4.3487167644
 21
4.5208424346
  0
LINE
  5
233
100
AcDbEntity
  8
0
100
AcDbLine
 62
6
  6
CONTINUOUS
 10
7.283667815
 20
4.8904352376
 11
7.283667815
 21
3.3705612327
  0
LINE
  5
234
100
AcDbEntity
  8
0
100
AcDbLine
 62
6
  6
CONTINUOUS
 10
7.413667815
 20
4.8904352376
 11
7.413667815
 21
3.3705612327
  0
LINE
  5
235
100
AcDbEntity
  8
0
100
AcDbLine
 62
9
  6
CONTINUOUS
 10
7.8021715054
 20
3.0239865288
 11
7.8021715054
 21
5.2370099415
  0
LINE
  5
236
100
AcDbEntity
  8
0
100
AcDbLine
 62
9
  6
CONTINUOUS
 10
8.038667815
 20
3.0805008286
 11
8.038667815
 21
5.1804956417
  0
ARC
  5
237
100
AcDbEntity
  8
0
100
AcDbCircle
 62
6
  6
CONTINUOUS
 10
4.6633214618
 20
3.3679982351
 40
1.195
100
AcDbArc
 50
95.9880159719
 51
105.2194647907
  0
ARC
  5
238
100
AcDbEntity
  8
0
100
AcDbCircle
 62
6
  6
CONTINUOUS
 10
4.5960077832
 20
3.6118808557
 40
0.942
100
AcDbArc
 50
105.2194648864
 51
122.5639610219
  0
ARC
  5
239
100
AcDbEntity
  8
0
100
AcDbCircle
 62
6
  6
CONTINUOUS
 10
4.6645857198
 20
3.7229982351
 40
0.84
100
AcDbArc
 50
68.5522638378
 51
81.5042036692
  0
ARC
  5
23A
100
AcDbEntity
  8
0
100
AcDbCircle
 62
6
  6
CONTINUOUS
 10
4.3957822144
 20
3.9253991511
 40
0.57
100
AcDbArc
 50
122.5639610429
 51
140.8777082756
  0
ARC
  5
23B
100
AcDbEntity
  8
0
100
AcDbCircle
 62
6
  6
CONTINUOUS
 10
5.3176999831
 20
3.5697621093
 40
0.3
100
AcDbArc
 50
71.3435596323
 51
111.4477363271
  0
ARC
  5
23C
100
AcDbEntity
  8
0
100
AcDbCircle
 62
7
  6
CONTINUOUS
 10
5.9131860111
 20
3.586581633
 40
0.275924082
100
AcDbArc
 50
82.1683725465
 51
86.7995376225
  0
ARC
  5
23D
100
AcDbEntity
  8
0
100
AcDbCircle
 62
7
  6
CONTINUOUS
 10
4.6636525198
 20
4.1304849046
 40
0.1260152959
100
AcDbArc
 50
0.0060610288
 51
4.6882020039
  0
ARC
  5
23E
100
AcDbEntity
  8
0
100
AcDbCircle
 62
7
  6
CONTINUOUS
 10
4.663668246
 20
4.130497728
 40
0.1259991413
100
AcDbArc
 50
270.4172067798
 51
0.00023059
  0
ARC
  5
23F
100
AcDbEntity
  8
0
100
AcDbCircle
 62
7
  6
CONTINUOUS
 10
4.6636672068
 20
4.1304975887
 40
0.1259989224
100
AcDbArc
 50
179.9997060672
 51
269.8427789574
  0
ARC
  5
240
100
AcDbEntity
  8
0
100
AcDbCircle
 62
7
  6
CONTINUOUS
 10
4.6634655374
 20
4.1304929786
 40
0.1257977226
100
AcDbArc
 50
175.3407750678
 51
179.9976058876
  0
ARC
  5
241
100
AcDbEntity
  8
0
100
AcDbCircle
 62
6
  6
CONTINUOUS
 10
4.6633214618
 20
4.8929982351
 40
1.195
100
AcDbArc
 50
254.7805352093
 51
270.0
  0
ARC
  5
242
100
AcDbEntity
  8
0
100
AcDbCircle
 62
6
  6
CONTINUOUS
 10
4.5960077832
 20
4.6491156146
 40
0.942
100
AcDbArc
 50
237.4360389781
 51
254.7805351136
  0
ARC
  5
243
100
AcDbEntity
  8
0
100
AcDbCircle
 62
6
  6
CONTINUOUS
 10
4.6645857198
 20
4.5379982351
 40
0.84
100
AcDbArc
 50
270.0
 51
291.4477361622
  0
ARC
  5
244
100
AcDbEntity
  8
0
100
AcDbCircle
 62
6
  6
CONTINUOUS
 10
4.3957822144
 20
4.3355973192
 40
0.57
100
AcDbArc
 50
219.1222917244
 51
237.4360389571
  0
ARC
  5
245
100
AcDbEntity
  8
0
100
AcDbCircle
 62
6
  6
CONTINUOUS
 10
5.3176999831
 20
4.691234361
 40
0.3
100
AcDbArc
 50
248.5522636729
 51
288.6564403677
  0
ARC
  5
246
100
AcDbEntity
  8
0
100
AcDbCircle
 62
6
  6
CONTINUOUS
 10
4.663667815
 20
4.8404982351
 40
0.25
100
AcDbArc
 50
302.8598803789
 51
237.1401196211
  0
ARC
  5
247
100
AcDbEntity
  8
0
100
AcDbCircle
 62
6
  6
CONTINUOUS
 10
4.085667815
 20
4.1304982351
 40
0.2
100
AcDbArc
 50
140.87770829
 51
219.12229171
  0
ARC
  5
248
100
AcDbEntity
  8
0
100
AcDbCircle
 62
9
  6
CONTINUOUS
 10
4.663667815
 20
4.1304982351
 40
0.125
100
AcDbArc
 50
180.0
 51
360.0
  0
ARC
  5
249
100
AcDbEntity
  8
0
100
AcDbCircle
 62
6
  6
CONTINUOUS
 10
7.1331936482
 20
2.6849162905
 40
0.75
100
AcDbArc
 50
26.8780899777
 51
68.0396077086
  0
ARC
  5
24A
100
AcDbEntity
  8
0
100
AcDbCircle
 62
6
  6
CONTINUOUS
 10
6.251667815
 20
3.7304982351
 40
0.188
100
AcDbArc
 50
180.0
 51
261.2063123688
  0
ARC
  5
24B
100
AcDbEntity
  8
0
100
AcDbCircle
 62
6
  6
CONTINUOUS
 10
7.913667815
 20
3.0804982351
 40
0.125
100
AcDbArc
 50
206.8780899777
 51
360.0
  0
ARC
  5
24C
100
AcDbEntity
  8
0
100
AcDbCircle
 62
6
  6
CONTINUOUS
 10
7.348667815
 20
3.3705612327
 40
0.065
100
AcDbArc
 50
180.0
 51
360.0
  0
ARC
  5
24D
100
AcDbEntity
  8
0
100
AcDbCircle
 62
6
  6
CONTINUOUS
 10
7.1331936482
 20
5.5760801798
 40
0.75
100
AcDbArc
 50
291.9603922914
 51
333.1219100223
  0
ARC
  5
24E
100
AcDbEntity
  8
0
100
AcDbCircle
 62
6
  6
CONTINUOUS
 10
6.251667815
 20
4.5304982351
 40
0.188
100
AcDbArc
 50
98.7936876312
 51
180.0
  0
ARC
  5
24F
100
AcDbEntity
  8
0
100
AcDbCircle
 62
6
  6
CONTINUOUS
 10
7.913667815
 20
5.1804982351
 40
0.125
100
AcDbArc
 50
0.0
 51
153.1219100223
  0
ARC
  5
250
100
AcDbEntity
  8
0
100
AcDbCircle
 62
6
  6
CONTINUOUS
 10
7.348667815
 20
4.8904352376
 40
0.065
100
AcDbArc
 50
0.0
 51
180.0
  0
LINE
  5
251
100
AcDbEntity
  8
0
100
AcDbLine
 62
7
  6
CONTINUOUS
 10
5.9975153666
 20
3.85432265
 11
5.998577815
 21
3.8539982351
  0
SPLINE
  5
252
100
AcDbEntity
  8
0
100
AcDbSpline
 62
7
  6
CONTINUOUS
 70
0
 71
3
 72
21
 73
17
 74
15
 42
0.0000001
 43
0.0000001
 44
0.0000000001
 12
0.0469551653
 22
-0.0034184732
 32
0.0
 13
0.0466388337
 23
-0.0064259397
 33
0.0
 40
0.0
 40
0.0
 40
0.0
 40
0.0
 40
0.1633498309
 40
0.2425984632
 40
0.3199100152
 40
0.3950434884
 40
0.4677534923
 40
0.604906141
 40
0.6688461954
 40
0.7293147469
 40
0.7859763533
 40
0.8384934003
 40
0.8865257071
 40
0.929708341
 40
0.9676600976
 40
1.0
 40
1.0
 40
1.0
 40
1.0
 10
5.9507841418
 20
3.8599323989
 30
0.0
 10
5.9533408479
 20
3.8597462633
 30
0.0
 10
5.9571354716
 20
3.8594345934
 30
0.0
 10
5.9621333873
 20
3.8589596942
 30
0.0
 10
5.9657502522
 20
3.8585867259
 30
0.0
 10
5.9692621547
 20
3.8581973402
 30
0.0
 10
5.9737037998
 20
3.8576727635
 30
0.0
 10
5.9779660663
 20
3.8571279443
 30
0.0
 10
5.9820333018
 20
3.8565744146
 30
0.0
 10
5.9848471398
 20
3.8561783849
 30
0.0
 10
5.9874820743
 20
3.855797629
 30
0.0
 10
5.9899228817
 20
3.8554381543
 30
0.0
 10
5.9921539103
 20
3.8551060788
 30
0.0
 10
5.9941588107
 20
3.8548073557
 30
0.0
 10
5.9959205762
 20
3.854547897
 30
0.0
 10
5.9970126015
 20
3.8543919214
 30
0.0
 10
5.9975153666
 20
3.85432265
 30
0.0
 11
5.9507841418
 21
3.8599323989
 31
0.0
 11
5.9584488904
 21
3.8593045756
 31
0.0
 11
5.9621631554
 21
3.8589517934
 31
0.0
 11
5.9657837498
 21
3.8585785279
 31
0.0
 11
5.9692994674
 21
3.8581889018
 31
0.0
 11
5.972699012
 21
3.8577876215
 31
0.0
 11
5.979104163
 21
3.8569704376
 31
0.0
 11
5.982086961
 21
3.8565647378
 31
0.0
 11
5.9849060442
 21
3.8561682717
 31
0.0
 11
5.9875462657
 21
3.8557870867
 31
0.0
 11
5.9899924133
 21
3.8554272466
 31
0.0
 11
5.9922291791
 21
3.8550948157
 31
0.0
 11
5.9942400924
 21
3.8547958604
 31
0.0
 11
5.996007908
 21
3.8545364491
 31
0.0
 11
5.9975153666
 21
3.85432265
 31
0.0
  0
SPLINE
  5
253
100
AcDbEntity
  8
0
100
AcDbSpline
 62
7
  6
CONTINUOUS
 70
0
 71
3
 72
41
 73
37
 74
35
 42
0.0000001
 43
0.0000001
 44
0.0000000001
 12
0.0781961582
 22
0.0185021997
 32
0.0
 13
0.0793069094
 23
-0.0129377229
 33
0.0
 40
0.0
 40
0.0
 40
0.0
 40
0.0
 40
0.0140830819
 40
0.02934396
 40
0.0458199291
 40
0.0635475873
 40
0.0825632298
 40
0.1029031253
 40
0.1245920174
 40
0.1476162276
 40
0.1719544325
 40
0.1975857179
 40
0.2244896275
 40
0.252649159
 40
0.28206835
 40
0.3127611898
 40
0.3447434564
 40
0.3780327823
 40
0.4126303396
 40
0.4484963749
 40
0.4855884991
 40
0.5238683333
 40
0.5632548718
 40
0.6035369969
 40
0.6444836002
 40
0.6651354485
 40
0.6858684719
 40
0.7066488547
 40
0.7274383902
 40
0.7688901095
 40
0.8099148097
 40
0.8301702306
 40
0.8502029815
 40
0.889502731
 40
0.9276657954
 40
1.0
 40
1.0
 40
1.0
 40
1.0
 10
5.849260266
 20
3.8548671613
 30
0.0
 10
5.849627347
 20
3.8549540173
 30
0.0
 10
5.8503909945
 20
3.8551401291
 30
0.0
 10
5.8515808659
 20
3.8554409043
 30
0.0
 10
5.8528637102
 20
3.8557721277
 30
0.0
 10
5.8542431073
 20
3.8561316626
 30
0.0
 10
5.8557226354
 20
3.8565173734
 30
0.0
 10
5.857305567
 20
3.8569270343
 30
0.0
 10
5.858993855
 20
3.8573581168
 30
0.0
 10
5.8607878576
 20
3.8578080052
 30
0.0
 10
5.8626867305
 20
3.8582737358
 30
0.0
 10
5.8646894174
 20
3.858752312
 30
0.0
 10
5.8667949521
 20
3.8592406902
 30
0.0
 10
5.8690029314
 20
3.8597362058
 30
0.0
 10
5.871314404
 20
3.8602336732
 30
0.0
 10
5.8737312461
 20
3.8607276366
 30
0.0
 10
5.8762555289
 20
3.8612127868
 30
0.0
 10
5.8788888215
 20
3.861683791
 30
0.0
 10
5.8816311364
 20
3.8621346732
 30
0.0
 10
5.884481027
 20
3.8625570654
 30
0.0
 10
5.8874356626
 20
3.862942607
 30
0.0
 10
5.8904908166
 20
3.8632826086
 30
0.0
 10
5.8936373498
 20
3.8635684287
 30
0.0
 10
5.896860462
 20
3.8637930893
 30
0.0
 10
5.8995865366
 20
3.8639224674
 30
0.0
 10
5.9017908617
 20
3.8639880948
 30
0.0
 10
5.9034557549
 20
3.8640171136
 30
0.0
 10
5.9051245646
 20
3.8640257162
 30
0.0
 10
5.9073482996
 20
3.864010673
 30
0.0
 10
5.910113735
 20
3.8639434984
 30
0.0
 10
5.9128626131
 20
3.8638138213
 30
0.0
 10
5.9150361167
 20
3.863673688
 30
0.0
 10
5.9171617685
 20
3.8635117667
 30
0.0
 10
5.9197621346
 20
3.8632689785
 30
0.0
 10
5.9237484354
 20
3.8628109675
 30
0.0
 10
5.9266785203
 20
3.8623871143
 30
0.0
 10
5.9285907211
 20
3.8620751677
 30
0.0
 11
5.849260266
 21
3.8548671613
 31
0.0
 11
5.8503599678
 21
3.8551341586
 31
0.0
 11
5.851549064
 21
3.855433896
 31
0.0
 11
5.852831125
 21
3.8557642187
 31
0.0
 11
5.8542097211
 21
3.8561229722
 31
0.0
 11
5.8556884227
 21
3.8565080016
 31
0.0
 11
5.8572707999
 21
3.8569171523
 31
0.0
 11
5.858959497
 21
3.8573480966
 31
0.0
 11
5.8607540938
 21
3.8577979348
 31
0.0
 11
5.8626535372
 21
3.8582636491
 31
0.0
 11
5.864656774
 21
3.8587422216
 31
0.0
 11
5.8667627511
 21
3.8592306344
 31
0.0
 11
5.868970707
 21
3.8597256549
 31
0.0
 11
5.8712818759
 21
3.8602225795
 31
0.0
 11
5.8736983279
 21
3.8607160889
 31
0.0
 11
5.8762221359
 21
3.8612008617
 31
0.0
 11
5.878855368
 21
3.8616715734
 31
0.0
 11
5.8815987246
 21
3.8621220509
 31
0.0
 11
5.8844496769
 21
3.8625441172
 31
0.0
 11
5.8874052303
 21
3.8629293059
 31
0.0
 11
5.8904623857
 21
3.863269151
 31
0.0
 11
5.8936143358
 21
3.8635553417
 31
0.0
 11
5.8968434106
 21
3.8637800113
 31
0.0
 11
5.9001300164
 21
3.8639353711
 31
0.0
 11
5.9017887702
 21
3.863984626
 31
0.0
 11
5.9034545246
 21
3.8640136877
 31
0.0
 11
5.9051243153
 21
3.8640223984
 31
0.0
 11
5.9067948263
 21
3.864011158
 31
0.0
 11
5.9101247134
 21
3.8639304752
 31
0.0
 11
5.9134175934
 21
3.8637749407
 31
0.0
 11
5.9150418456
 21
3.863670136
 31
0.0
 11
5.9166469338
 21
3.8635478827
 31
0.0
 11
5.9197912499
 21
3.863254837
 31
0.0
 11
5.9228378551
 21
3.8629051885
 31
0.0
 11
5.9285907211
 21
3.8620751677
 31
0.0
  0
LINE
  5
254
100
AcDbEntity
  8
0
100
AcDbLine
 62
7
  6
CONTINUOUS
 10
5.8483668138
 20
3.8546536482
 11
5.849260266
 21
3.8548671613
  0
LINE
  5
255
100
AcDbEntity
  8
0
100
AcDbLine
 62
7
  6
CONTINUOUS
 10
5.8442198446
 20
3.8539982351
 11
5.8483668138
 21
3.8546536482
  0
SPLINE
  5
256
100
AcDbEntity
  8
0
100
AcDbSpline
 62
6
  6
CONTINUOUS
 70
0
 71
3
 72
15
 73
11
 74
9
 42
0.0000001
 43
0.0000001
 44
0.0000000001
 12
-0.0007773816
 22
0.0004527938
 32
0.0
 13
0.0000002956
 23
0.0008996357
 33
0.0
 40
0.0
 40
0.0
 40
0.0
 40
0.0
 40
0.1723510772
 40
0.3285370875
 40
0.4693559766
 40
0.5959137921
 40
0.7097520953
 40
0.8130052105
 40
0.9085486435
 40
1.0
 40
1.0
 40
1.0
 40
1.0
 10
5.8491405437
 20
3.8199987992
 30
0.0
 10
5.8490958828
 20
3.8200248124
 30
0.0
 10
5.849011985
 20
3.8200765864
 30
0.0
 10
5.8488971542
 20
3.8201581771
 30
0.0
 10
5.8487996549
 20
3.8202398409
 30
0.0
 10
5.8487194941
 20
3.8203216632
 30
0.0
 10
5.84865671
 20
3.8204037782
 30
0.0
 10
5.8486114507
 20
3.8204863867
 30
0.0
 10
5.848584029
 20
3.8205695555
 30
0.0
 10
5.8485778588
 20
3.8206258031
 30
0.0
 10
5.8485778678
 20
3.8206532274
 30
0.0
 11
5.8491405437
 21
3.8199987992
 31
0.0
 11
5.8490088255
 21
3.8200806027
 31
0.0
 11
5.8488945828
 21
3.8201624062
 31
0.0
 11
5.8487978489
 21
3.8202442098
 31
0.0
 11
5.848718657
 21
3.8203260133
 31
0.0
 11
5.8486570404
 21
3.8204078168
 31
0.0
 11
5.8486130316
 21
3.8204896203
 31
0.0
 11
5.8485866436
 21
3.8205714238
 31
0.0
 11
5.8485778678
 21
3.8206532274
 31
0.0
  0
LINE
  5
257
100
AcDbEntity
  8
0
100
AcDbLine
 62
6
  6
CONTINUOUS
 10
5.8321166765
 20
3.8298956253
 11
5.8316678703
 21
3.8304160474
  0
LINE
  5
258
100
AcDbEntity
  8
0
100
AcDbLine
 62
6
  6
CONTINUOUS
 10
5.8316678641
 20
3.8343302503
 11
5.8321166894
 21
3.8348508453
  0
SPLINE
  5
259
100
AcDbEntity
  8
0
100
AcDbSpline
 62
6
  6
CONTINUOUS
 70
0
 71
3
 72
54
 73
50
 74
48
 42
0.0000001
 43
0.0000001
 44
0.0000000001
 12
0.1080224994
 22
0.0629125016
 32
0.0
 13
0.1227803362
 23
0.0234911109
 33
0.0
 40
0.0
 40
0.0
 40
0.0
 40
0.0
 40
0.0016979639
 40
0.0035851643
 40
0.0056654915
 40
0.0079416822
 40
0.0104154275
 40
0.013087517
 40
0.0159582961
 40
0.0190277988
 40
0.0222958244
 40
0.0257619926
 40
0.0294257836
 40
0.0332864624
 40
0.0415933308
 40
0.0506714475
 40
0.0605086363
 40
0.0710917533
 40
0.0824043751
 40
0.0944285496
 40
0.1205375363
 40
0.1492535483
 40
0.1803932191
 40
0.2137543122
 40
0.2491214515
 40
0.2862629196
 40
0.324937509
 40
0.3648912262
 40
0.4058634759
 40
0.4475852116
 40
0.5321814532
 40
0.6164655152
 40
0.6577993171
 40
0.6982313629
 40
0.7374977506
 40
0.7753405719
 40
0.8115137904
 40
0.8457802364
 40
0.8621289667
 40
0.8779183336
 40
0.8931228941
 40
0.9077188495
 40
0.9349906496
 40
0.9476229516
 40
0.9595599979
 40
0.9707826469
 40
0.9812731246
 40
0.9910168244
 40
1.0
 40
1.0
 40
1.0
 40
1.0
 10
5.8491405551
 20
3.8447476723
 30
0.0
 10
5.8492016945
 20
3.84478328
 30
0.0
 10
5.8493334166
 20
3.8448539816
 30
0.0
 10
5.8495470813
 20
3.8449545604
 30
0.0
 10
5.8497870794
 20
3.845055184
 30
0.0
 10
5.8500533491
 20
3.8451558408
 30
0.0
 10
5.8503458098
 20
3.8452565297
 30
0.0
 10
5.8506643393
 20
3.8453572541
 30
0.0
 10
5.8510088005
 20
3.845458009
 30
0.0
 10
5.8513790511
 20
3.8455587902
 30
0.0
 10
5.8517749467
 20
3.8456595943
 30
0.0
 10
5.8521963412
 20
3.8457604175
 30
0.0
 10
5.8526430831
 20
3.8458612584
 30
0.0
 10
5.8532882087
 20
3.845999113
 30
0.0
 10
5.8541568034
 20
3.8461705191
 30
0.0
 10
5.8552731903
 20
3.8463716686
 30
0.0
 10
5.8564858073
 20
3.8465729389
 30
0.0
 10
5.8577926965
 20
3.8467742821
 30
0.0
 10
5.8591917032
 20
3.8469757092
 30
0.0
 10
5.8612334741
 20
3.8472520205
 30
0.0
 10
5.863997965
 20
3.8475945808
 30
0.0
 10
5.8675575506
 20
3.8479957743
 30
0.0
 10
5.8714210399
 20
3.8483973267
 30
0.0
 10
5.8755630218
 20
3.8487992112
 30
0.0
 10
5.879956175
 20
3.8492012943
 30
0.0
 10
5.8845715946
 20
3.8496035733
 30
0.0
 10
5.8893788156
 20
3.8500059607
 30
0.0
 10
5.8943461899
 20
3.8504084628
 30
0.0
 10
5.8994409351
 20
3.8508110251
 30
0.0
 10
5.906390882
 20
3.8513503141
 30
0.0
 10
5.91514106
 20
3.8520178425
 30
0.0
 10
5.9238749387
 20
3.8526865431
 30
0.0
 10
5.9307729703
 20
3.8532268138
 30
0.0
 10
5.9358001907
 20
3.853629352
 30
0.0
 10
5.9406814766
 20
3.8540317861
 30
0.0
 10
5.9453846881
 20
3.8544341245
 30
0.0
 10
5.949878779
 20
3.8548362932
 30
0.0
 10
5.9534791688
 20
3.8551763946
 30
0.0
 10
5.9562326687
 20
3.8554496346
 30
0.0
 10
5.9581950618
 20
3.855651333
 30
0.0
 10
5.9600840239
 20
3.8558530051
 30
0.0
 10
5.9624475948
 20
3.8561159924
 30
0.0
 10
5.964702807
 20
3.8563835668
 30
0.0
 10
5.9668453175
 20
3.8566593826
 30
0.0
 10
5.9683230829
 20
3.8568608648
 30
0.0
 10
5.9697107353
 20
3.857062275
 30
0.0
 10
5.9710059833
 20
3.8572636286
 30
0.0
 10
5.9722067266
 20
3.8574648782
 30
0.0
 10
5.9729744697
 20
3.8576046962
 30
0.0
 10
5.9733421221
 20
3.8576750378
 30
0.0
 11
5.8491405551
 21
3.8447476723
 31
0.0
 11
5.8493272459
 21
3.8448486673
 31
0.0
 11
5.8495404486
 21
3.8449496624
 31
0.0
 11
5.8497800926
 21
3.8450506575
 31
0.0
 11
5.8500461065
 21
3.8451516525
 31
0.0
 11
5.8503383857
 21
3.8452526476
 31
0.0
 11
5.8506567827
 21
3.8453536427
 31
0.0
 11
5.8510011468
 21
3.8454546377
 31
0.0
 11
5.8513713274
 21
3.8455556328
 31
0.0
 11
5.851767174
 21
3.8456566279
 31
0.0
 11
5.852188536
 21
3.8457576229
 31
0.0
 11
5.8526352628
 21
3.845858618
 31
0.0
 11
5.8531071904
 21
3.845959613
 31
0.0
 11
5.8541257755
 21
3.8461616032
 31
0.0
 11
5.8552424861
 21
3.8463635933
 31
0.0
 11
5.8564555046
 21
3.8465655834
 31
0.0
 11
5.8577629615
 21
3.8467675735
 31
0.0
 11
5.8591626228
 21
3.8469695636
 31
0.0
 11
5.8606520995
 21
3.8471715538
 31
0.0
 11
5.8638908175
 21
3.847575534
 31
0.0
 11
5.8674577266
 21
3.8479795142
 31
0.0
 11
5.8713293959
 21
3.8483834944
 31
0.0
 11
5.8754801659
 21
3.8487874746
 31
0.0
 11
5.8798828236
 21
3.8491914549
 31
0.0
 11
5.8845081726
 21
3.8495954351
 31
0.0
 11
5.8893258735
 21
3.8499994153
 31
0.0
 11
5.894304018
 21
3.8504033954
 31
0.0
 11
5.8994098946
 21
3.8508073756
 31
0.0
 11
5.9046097501
 21
3.8512113558
 31
0.0
 11
5.915153994
 21
3.8520193162
 31
0.0
 11
5.9256590984
 21
3.8528272765
 31
0.0
 11
5.9308103117
 21
3.8532312566
 31
0.0
 11
5.935848445
 21
3.8536352368
 31
0.0
 11
5.9407403808
 21
3.8540392169
 31
0.0
 11
5.9454537316
 21
3.854443197
 31
0.0
 11
5.9499575691
 21
3.8548471772
 31
0.0
 11
5.9542220353
 21
3.8552511573
 31
0.0
 11
5.9562557408
 21
3.8554531473
 31
0.0
 11
5.9582191654
 21
3.8556551374
 31
0.0
 11
5.9601090841
 21
3.8558571274
 31
0.0
 11
5.9619224712
 21
3.8560591175
 31
0.0
 11
5.9653076273
 21
3.8564630976
 31
0.0
 11
5.9668737864
 21
3.8566650876
 31
0.0
 11
5.9683522711
 21
3.8568670777
 31
0.0
 11
5.9697405676
 21
3.8570690677
 31
0.0
 11
5.9710363053
 21
3.8572710577
 31
0.0
 11
5.9722374745
 21
3.8574730478
 31
0.0
 11
5.9733421221
 21
3.8576750378
 31
0.0
  0
SPLINE
  5
25A
100
AcDbEntity
  8
0
100
AcDbSpline
 62
6
  6
CONTINUOUS
 70
0
 71
3
 72
45
 73
41
 74
39
 42
0.0000001
 43
0.0000001
 44
0.0000000001
 12
0.0000130575
 22
0.0886618328
 32
0.0
 13
0.0883687708
 23
0.0072028544
 33
0.0
 40
0.0
 40
0.0
 40
0.0
 40
0.0
 40
0.0008483057
 40
0.0017285586
 40
0.0026694199
 40
0.0036944642
 40
0.0048219844
 40
0.0060657471
 40
0.0074359215
 40
0.0089398764
 40
0.0105830444
 40
0.0123694764
 40
0.0163829932
 40
0.0209978257
 40
0.0262235313
 40
0.0320648826
 40
0.038522294
 40
0.045594205
 40
0.0532779124
 40
0.0615699149
 40
0.0704653682
 40
0.0799572938
 40
0.09003816
 40
0.1119352173
 40
0.1360876729
 40
0.1624111321
 40
0.1908167609
 40
0.2212044246
 40
0.2534662903
 40
0.2874896757
 40
0.3231513161
 40
0.3603254214
 40
0.3988782177
 40
0.4795622749
 40
0.5640454881
 40
0.6511136457
 40
0.7395141823
 40
0.8279745436
 40
0.9152215039
 40
1.0
 40
1.0
 40
1.0
 40
1.0
 10
5.8485778948
 20
3.8519032435
 30
0.0
 10
5.8485778985
 20
3.8519283143
 30
0.0
 10
5.8485830406
 20
3.8519795309
 30
0.0
 10
5.8486058866
 20
3.8520554768
 30
0.0
 10
5.8486436519
 20
3.8521310375
 30
0.0
 10
5.8486961232
 20
3.8522062273
 30
0.0
 10
5.8487631946
 20
3.8522811707
 30
0.0
 10
5.8488448368
 20
3.852355963
 30
0.0
 10
5.8489410452
 20
3.8524306725
 30
0.0
 10
5.8490518107
 20
3.8525053469
 30
0.0
 10
5.8491771204
 20
3.8525800156
 30
0.0
 10
5.8493712334
 20
3.8526836364
 30
0.0
 10
5.8496513883
 20
3.8528117906
 30
0.0
 10
5.8500330798
 20
3.8529603764
 30
0.0
 10
5.8504721557
 20
3.8531091228
 30
0.0
 10
5.8509682987
 20
3.8532580025
 30
0.0
 10
5.8515211102
 20
3.8534070116
 30
0.0
 10
5.852130095
 20
3.8535561248
 30
0.0
 10
5.8527947386
 20
3.8537053226
 30
0.0
 10
5.8535144939
 20
3.8538545823
 30
0.0
 10
5.854288733
 20
3.8540038825
 30
0.0
 10
5.8551167375
 20
3.8541532362
 30
0.0
 10
5.8563251068
 20
3.8543581222
 30
0.0
 10
5.8579644611
 20
3.8546124037
 30
0.0
 10
5.8600826104
 20
3.854910045
 30
0.0
 10
5.862394798
 20
3.8552079778
 30
0.0
 10
5.8648926367
 20
3.855506089
 30
0.0
 10
5.8675671171
 20
3.8558043598
 30
0.0
 10
5.870408573
 20
3.8561027689
 30
0.0
 10
5.8734066968
 20
3.8564012509
 30
0.0
 10
5.8765506682
 20
3.8566998358
 30
0.0
 10
5.8798290722
 20
3.8569984728
 30
0.0
 10
5.884433916
 20
3.8574028761
 30
0.0
 10
5.8904337067
 20
3.8579048835
 30
0.0
 10
5.8978645559
 20
3.8584989875
 30
0.0
 10
5.9055241389
 20
3.8590933422
 30
0.0
 10
5.9133015962
 20
3.8596878291
 30
0.0
 10
5.9210843533
 20
3.8602823202
 30
0.0
 10
5.928759759
 20
3.8608767
 30
0.0
 10
5.9338277395
 20
3.8612804747
 30
0.0
 10
5.9363249966
 20
3.8614840237
 30
0.0
 11
5.8485778948
 21
3.8519032435
 31
0.0
 11
5.8485852701
 21
3.8519780934
 31
0.0
 11
5.8486073721
 21
3.8520529432
 31
0.0
 11
5.8486441979
 21
3.8521277931
 31
0.0
 11
5.8486957449
 21
3.8522026429
 31
0.0
 11
5.8487620103
 21
3.8522774928
 31
0.0
 11
5.8488429913
 21
3.8523523426
 31
0.0
 11
5.8489386752
 21
3.8524271925
 31
0.0
 11
5.849049029
 21
3.8525020423
 31
0.0
 11
5.849174017
 21
3.8525768922
 31
0.0
 11
5.8493136034
 21
3.8526517421
 31
0.0
 11
5.8496364287
 21
3.8528014418
 31
0.0
 11
5.8500172194
 21
3.8529511415
 31
0.0
 11
5.8504556894
 21
3.8531008412
 31
0.0
 11
5.8509514873
 21
3.8532505409
 31
0.0
 11
5.8515040956
 21
3.8534002406
 31
0.0
 11
5.8521129714
 21
3.8535499403
 31
0.0
 11
5.8527775718
 21
3.85369964
 31
0.0
 11
5.8534973536
 21
3.8538493397
 31
0.0
 11
5.8542717033
 21
3.8539990394
 31
0.0
 11
5.8550998534
 21
3.8541487391
 31
0.0
 11
5.8559810158
 21
3.8542984388
 31
0.0
 11
5.8578992241
 21
3.8545978382
 31
0.0
 11
5.8600195916
 21
3.8548972376
 31
0.0
 11
5.8623341941
 21
3.855196637
 31
0.0
 11
5.8648348295
 21
3.8554960364
 31
0.0
 11
5.8675123683
 21
3.8557954358
 31
0.0
 11
5.8703570521
 21
3.8560948352
 31
0.0
 11
5.8733587332
 21
3.8563942346
 31
0.0
 11
5.8765063524
 21
3.856693634
 31
0.0
 11
5.8797886499
 21
3.8569930334
 31
0.0
 11
5.883193674
 21
3.8572924328
 31
0.0
 11
5.8903221649
 21
3.8578912315
 31
0.0
 11
5.8977886286
 21
3.8584900302
 31
0.0
 11
5.9054849922
 21
3.859088829
 31
0.0
 11
5.9132998385
 21
3.8596876277
 31
0.0
 11
5.9211200045
 21
3.8602864264
 31
0.0
 11
5.9288322688
 21
3.8608852251
 31
0.0
 11
5.9363249966
 21
3.8614840237
 31
0.0
  0
SPLINE
  5
25B
100
AcDbEntity
  8
0
100
AcDbSpline
 62
6
  6
CONTINUOUS
 70
0
 71
3
 72
42
 73
38
 74
36
 42
0.0000001
 43
0.0000001
 44
0.0000000001
 12
-0.0000008583
 22
-0.0827062009
 32
0.0
 13
-0.0825544873
 23
-0.0050072243
 33
0.0
 40
0.0
 40
0.0
 40
0.0
 40
0.0
 40
0.0007417454
 40
0.0015130174
 40
0.0023401183
 40
0.0032444283
 40
0.0042423194
 40
0.0053459547
 40
0.0065642871
 40
0.007903929
 40
0.0093698126
 40
0.0109656641
 40
0.0145575226
 40
0.0186957273
 40
0.0233884298
 40
0.0286400377
 40
0.0344527451
 40
0.0408273117
 40
0.0477635187
 40
0.0552597352
 40
0.0633126909
 40
0.081073366
 40
0.1010130456
 40
0.1230916076
 40
0.147258092
 40
0.1734592358
 40
0.2016356876
 40
0.231719553
 40
0.2636416949
 40
0.2973271139
 40
0.3696600538
 40
0.4480315933
 40
0.5316937129
 40
0.6198480386
 40
0.7116482927
 40
0.806209902
 40
1.0
 40
1.0
 40
1.0
 40
1.0
 10
5.995667815
 20
3.8499552535
 30
0.0
 10
5.9956678147
 20
3.8499348045
 30
0.0
 10
5.9956634913
 20
3.8498929794
 30
0.0
 10
5.9956442928
 20
3.8498310147
 30
0.0
 10
5.9956125876
 20
3.8497693944
 30
0.0
 10
5.995568572
 20
3.8497080952
 30
0.0
 10
5.9955123409
 20
3.8496470026
 30
0.0
 10
5.9954439218
 20
3.8495860307
 30
0.0
 10
5.9953633121
 20
3.8495251191
 30
0.0
 10
5.9952705008
 20
3.849464234
 30
0.0
 10
5.99516548
 20
3.8494033516
 30
0.0
 10
5.9950026348
 20
3.8493188057
 30
0.0
 10
5.9947674925
 20
3.849214276
 30
0.0
 10
5.9944470185
 20
3.8490931472
 30
0.0
 10
5.9940781038
 20
3.8489718689
 30
0.0
 10
5.9936609458
 20
3.8488504575
 30
0.0
 10
5.9931957359
 20
3.8487289418
 30
0.0
 10
5.9926827025
 20
3.8486073411
 30
0.0
 10
5.9921221006
 20
3.8484856804
 30
0.0
 10
5.9915142499
 20
3.8483639683
 30
0.0
 10
5.9906113911
 20
3.84819609
 30
0.0
 10
5.9893671874
 20
3.8479881216
 30
0.0
 10
5.9877370355
 20
3.8477456162
 30
0.0
 10
5.9859285739
 20
3.8475028729
 30
0.0
 10
5.9839461264
 20
3.8472598762
 30
0.0
 10
5.9817944342
 20
3.8470167223
 30
0.0
 10
5.9794786611
 20
3.846773454
 30
0.0
 10
5.9770043719
 20
3.8465300619
 30
0.0
 10
5.9743775275
 20
3.8462865902
 30
0.0
 10
5.9705892479
 20
3.8459539375
 30
0.0
 10
5.9655225746
 20
3.8455413224
 30
0.0
 10
5.9590795637
 20
3.8450566084
 30
0.0
 10
5.9521992593
 20
3.8445714884
 30
0.0
 10
5.9449479004
 20
3.8440860496
 30
0.0
 10
5.937395429
 20
3.843600398
 30
0.0
 10
5.9269354823
 20
3.8429473606
 30
0.0
 10
5.9190005624
 20
3.8424662024
 30
0.0
 10
5.913667815
 20
3.8421427522
 30
0.0
 11
5.995667815
 21
3.8499552535
 31
0.0
 11
5.9956616314
 21
3.849894219
 31
0.0
 11
5.9956430893
 21
3.8498331844
 31
0.0
 11
5.9956121992
 21
3.8497721497
 31
0.0
 11
5.9955689719
 21
3.8497111149
 31
0.0
 11
5.995513418
 21
3.84965008
 31
0.0
 11
5.9954455482
 21
3.849589045
 31
0.0
 11
5.9953653732
 21
3.8495280099
 31
0.0
 11
5.9952729037
 21
3.8494669747
 31
0.0
 11
5.9951681503
 21
3.8494059395
 31
0.0
 11
5.9950511238
 21
3.8493449041
 31
0.0
 11
5.9947802942
 21
3.8492228331
 31
0.0
 11
5.9944605487
 21
3.8491007618
 31
0.0
 11
5.9940921302
 21
3.8489786901
 31
0.0
 11
5.9936752966
 21
3.8488566183
 31
0.0
 11
5.9932103063
 21
3.8487345463
 31
0.0
 11
5.9926974171
 21
3.8486124742
 31
0.0
 11
5.9921368882
 21
3.8484904021
 31
0.0
 11
5.9915290412
 21
3.8483683301
 31
0.0
 11
5.9908742942
 21
3.8482462582
 31
0.0
 11
5.9894258073
 21
3.8480021153
 31
0.0
 11
5.9877948438
 21
3.8477579742
 31
0.0
 11
5.985985204
 21
3.8475138352
 31
0.0
 11
5.9840014524
 21
3.847269697
 31
0.0
 11
5.9818482518
 21
3.8470255584
 31
0.0
 11
5.9795307084
 21
3.8467814189
 31
0.0
 11
5.9770545929
 21
3.8465372789
 31
0.0
 11
5.9744257461
 21
3.8462931389
 31
0.0
 11
5.9716504708
 21
3.8460489991
 31
0.0
 11
5.9656880479
 21
3.8455607213
 31
0.0
 11
5.9592246526
 21
3.8450724465
 31
0.0
 11
5.9523225258
 21
3.8445841735
 31
0.0
 11
5.9450479855
 21
3.8440958873
 31
0.0
 11
5.9374712528
 21
3.8436076023
 31
0.0
 11
5.9296656774
 21
3.8431193437
 31
0.0
 11
5.913667815
 21
3.8421427522
 31
0.0
  0
SPLINE
  5
25C
100
AcDbEntity
  8
0
100
AcDbSpline
 62
6
  6
CONTINUOUS
 70
0
 71
3
 72
35
 73
31
 74
29
 42
0.0000001
 43
0.0000001
 44
0.0000000001
 12
0.0818392305
 22
0.0049638434
 32
0.0
 13
0.070903628
 23
0.0411700731
 33
0.0
 40
0.0
 40
0.0
 40
0.0
 40
0.0
 40
0.1826064106
 40
0.2719944793
 40
0.3591112591
 40
0.4432301744
 40
0.5236434793
 40
0.5996830796
 40
0.6707180386
 40
0.7041710918
 40
0.7361558894
 40
0.7666051637
 40
0.7954553456
 40
0.8226493209
 40
0.8481308987
 40
0.8718472556
 40
0.8937534869
 40
0.9138065112
 40
0.9319666753
 40
0.9482038769
 40
0.9555932292
 40
0.9624923374
 40
0.9688987354
 40
0.9748114255
 40
0.9802303697
 40
0.985156307
 40
0.9895911016
 40
0.9935383063
 40
0.9970041599
 40
1.0
 40
1.0
 40
1.0
 40
1.0
 10
5.913667815
 20
3.838228724
 30
0.0
 10
5.918649271
 20
3.8385308672
 30
0.0
 10
5.9260692182
 20
3.8389808275
 30
0.0
 10
5.935864757
 20
3.8395901104
 30
0.0
 10
5.9429731163
 20
3.8400437486
 30
0.0
 10
5.949835693
 20
3.8404972327
 30
0.0
 10
5.9563948614
 20
3.8409505064
 30
0.0
 10
5.9625955689
 20
3.8414035223
 30
0.0
 10
5.9675143976
 20
3.8417879672
 30
0.0
 10
5.971231329
 20
3.842097439
 30
0.0
 10
5.9738420358
 20
3.8423248264
 30
0.0
 10
5.976326453
 20
3.8425521602
 30
0.0
 10
5.9786793669
 20
3.8427794501
 30
0.0
 10
5.9808958555
 20
3.8430066527
 30
0.0
 10
5.9829712673
 20
3.8432337584
 30
0.0
 10
5.9849012552
 20
3.8434607732
 30
0.0
 10
5.9866818002
 20
3.8436876326
 30
0.0
 10
5.9883091959
 20
3.8439142872
 30
0.0
 10
5.9897800436
 20
3.8441407488
 30
0.0
 10
5.9909055608
 20
3.8443347758
 30
0.0
 10
5.9917250297
 20
3.8444912985
 30
0.0
 10
5.9922791057
 20
3.8446049306
 30
0.0
 10
5.9927919317
 20
3.8447185234
 30
0.0
 10
5.9932632587
 20
3.8448320667
 30
0.0
 10
5.9936928841
 20
3.8449455435
 30
0.0
 10
5.9940806266
 20
3.8450589394
 30
0.0
 10
5.9944263128
 20
3.8451722351
 30
0.0
 10
5.9947298152
 20
3.8452854135
 30
0.0
 10
5.9949910085
 20
3.8453984636
 30
0.0
 10
5.995148167
 20
3.8454795206
 30
0.0
 10
5.9952189724
 20
3.8455206336
 30
0.0
 11
5.913667815
 21
3.838228724
 31
0.0
 11
5.9286118744
 21
3.8391402294
 31
0.0
 11
5.9359265864
 21
3.8395959534
 31
0.0
 11
5.943054705
 21
3.8400516908
 31
0.0
 11
5.9499365091
 21
3.8405074413
 31
0.0
 11
5.9565137961
 21
3.8409631791
 31
0.0
 11
5.962731575
 21
3.8414189207
 31
0.0
 11
5.9685378461
 21
3.8418746685
 31
0.0
 11
5.9712711672
 21
3.842102543
 31
0.0
 11
5.9738836696
 21
3.8423304174
 31
0.0
 11
5.9763697728
 21
3.8425582913
 31
0.0
 11
5.9787241868
 21
3.8427861645
 31
0.0
 11
5.9809421357
 21
3.8430140365
 31
0.0
 11
5.9830188968
 21
3.8432419072
 31
0.0
 11
5.9849499943
 21
3.8434697767
 31
0.0
 11
5.9867315646
 21
3.8436976461
 31
0.0
 11
5.9883598371
 21
3.8439255166
 31
0.0
 11
5.9898312418
 21
3.8441533891
 31
0.0
 11
5.9911428765
 21
3.8443812631
 31
0.0
 11
5.9917379167
 21
3.8444952004
 31
0.0
 11
5.9922919782
 21
3.8446091379
 31
0.0
 11
5.99280473
 21
3.8447230755
 31
0.0
 11
5.9932759298
 21
3.844837013
 31
0.0
 11
5.9937053693
 21
3.8449509504
 31
0.0
 11
5.9940928405
 21
3.8450648876
 31
0.0
 11
5.9944381353
 21
3.8451788246
 31
0.0
 11
5.9947410457
 21
3.8452927613
 31
0.0
 11
5.9950013681
 21
3.8454066977
 31
0.0
 11
5.9952189724
 21
3.8455206336
 31
0.0
  0
SPLINE
  5
25D
100
AcDbEntity
  8
0
100
AcDbSpline
 62
6
  6
CONTINUOUS
 70
0
 71
3
 72
34
 73
30
 74
28
 42
0.0000001
 43
0.0000001
 44
0.0000000001
 12
-0.0678059122
 22
-0.0029392302
 32
0.0
 13
-0.0586546889
 23
-0.034145399
 33
0.0
 40
0.0
 40
0.0
 40
0.0
 40
0.0
 40
0.1860667202
 40
0.276754087
 40
0.3649234827
 40
0.4498736664
 40
0.5309101945
 40
0.6073720332
 40
0.6786270684
 40
0.7440737936
 40
0.7744443534
 40
0.8031565675
 40
0.8301499635
 40
0.8553662573
 40
0.878748428
 40
0.9002467443
 40
0.9198149107
 40
0.9374081829
 40
0.9529903121
 40
0.9600177071
 40
0.9665311615
 40
0.9725274146
 40
0.9780040942
 40
0.9829603807
 40
0.9873963399
 40
0.9913132123
 40
0.9947141359
 40
0.9976055023
 40
1.0
 40
1.0
 40
1.0
 40
1.0
 10
5.913667815
 20
3.8162387207
 30
0.0
 10
5.9094623404
 20
3.8160564231
 30
0.0
 10
5.9032072341
 20
3.8157833363
 30
0.0
 10
5.8949599265
 20
3.8154103523
 30
0.0
 10
5.888998262
 20
3.8151320033
 30
0.0
 10
5.8832552222
 20
3.8148526912
 30
0.0
 10
5.8777774188
 20
3.8145724288
 30
0.0
 10
5.8726099173
 20
3.8142912659
 30
0.0
 10
5.8677957124
 20
3.8140092571
 30
0.0
 10
5.8640236819
 20
3.813768002
 30
0.0
 10
5.8612131857
 20
3.8135728741
 30
0.0
 10
5.8592711138
 20
3.8134299421
 30
0.0
 10
5.8574459999
 20
3.813286779
 30
0.0
 10
5.8557418809
 20
3.8131433984
 30
0.0
 10
5.8541625685
 20
3.8129997962
 30
0.0
 10
5.8527116227
 20
3.8128560064
 30
0.0
 10
5.8513923508
 20
3.8127120852
 30
0.0
 10
5.8502078163
 20
3.8125680313
 30
0.0
 10
5.849306727
 20
3.8124440837
 30
0.0
 10
5.8486555399
 20
3.8123437708
 30
0.0
 10
5.8482195483
 20
3.8122711102
 30
0.0
 10
5.8478191677
 20
3.8121984164
 30
0.0
 10
5.847454648
 20
3.8121256904
 30
0.0
 10
5.847126193
 20
3.8120529543
 30
0.0
 10
5.8468339686
 20
3.8119802279
 30
0.0
 10
5.8465781301
 20
3.81190754
 30
0.0
 10
5.8463587685
 20
3.8118349215
 30
0.0
 10
5.8461759894
 20
3.8117624186
 30
0.0
 10
5.8460685557
 20
3.8117093046
 30
0.0
 10
5.8460217396
 20
3.8116820509
 30
0.0
 11
5.913667815
 21
3.8162387207
 31
0.0
 11
5.9010516979
 21
3.8156848
 31
0.0
 11
5.8949030897
 21
3.8154062597
 31
0.0
 11
5.8889256059
 21
3.8151266374
 31
0.0
 11
5.8831669104
 21
3.8148459125
 31
0.0
 11
5.8776742199
 21
3.8145640909
 31
0.0
 11
5.8724925055
 21
3.8142811514
 31
0.0
 11
5.8676648063
 21
3.8139970771
 31
0.0
 11
5.8632321308
 21
3.8137118573
 31
0.0
 11
5.8611758628
 21
3.8135688143
 31
0.0
 11
5.8592324553
 21
3.8134254805
 31
0.0
 11
5.8574060633
 21
3.8132818539
 31
0.0
 11
5.8557007061
 21
3.8131379326
 31
0.0
 11
5.8541203346
 21
3.8129937143
 31
0.0
 11
5.8526684274
 21
3.812849197
 31
0.0
 11
5.8513482634
 21
3.8127043782
 31
0.0
 11
5.850163067
 21
3.8125592558
 31
0.0
 11
5.8491155612
 21
3.8124138279
 31
0.0
 11
5.8486442081
 21
3.8123409989
 31
0.0
 11
5.8482081959
 21
3.812268093
 31
0.0
 11
5.8478078304
 21
3.8121951099
 31
0.0
 11
5.8474433815
 21
3.8121220494
 31
0.0
 11
5.8471150477
 21
3.8120489114
 31
0.0
 11
5.8468230192
 21
3.8119756957
 31
0.0
 11
5.8465674863
 21
3.8119024019
 31
0.0
 11
5.8463486391
 21
3.81182903
 31
0.0
 11
5.8461666677
 21
3.8117555798
 31
0.0
 11
5.8460217396
 21
3.8116820509
 31
0.0
  0
SPLINE
  5
25E
100
AcDbEntity
  8
0
100
AcDbSpline
 62
6
  6
CONTINUOUS
 70
0
 71
3
 72
66
 73
62
 74
60
 42
0.0000001
 43
0.0000001
 44
0.0000000001
 12
0.0000430395
 22
0.1309713418
 32
0.0
 13
0.1131753093
 23
0.0659154276
 33
0.0
 40
0.0
 40
0.0
 40
0.0
 40
0.0
 40
0.0004478304
 40
0.0009060885
 40
0.0018896039
 40
0.0030159346
 40
0.0043274158
 40
0.0058509004
 40
0.0076030848
 40
0.0095941993
 40
0.0118307479
 40
0.0143169244
 40
0.0170554277
 40
0.0200479574
 40
0.0232953544
 40
0.0267973688
 40
0.0305532527
 40
0.0388221584
 40
0.0480919309
 40
0.0583474707
 40
0.0695684447
 40
0.0817333283
 40
0.0948182528
 40
0.1087947936
 40
0.1236336159
 40
0.1393041483
 40
0.1557717531
 40
0.1730007108
 40
0.2095939774
 40
0.2487643615
 40
0.290170514
 40
0.3334497615
 40
0.3782220738
 40
0.4240949901
 40
0.4706650494
 40
0.5642574557
 40
0.6104570946
 40
0.65571634
 40
0.6996372243
 40
0.7418350794
 40
0.7819395719
 40
0.8195999533
 40
0.8544887679
 40
0.8707974291
 40
0.8863022354
 40
0.9009697953
 40
0.914767844
 40
0.9276684266
 40
0.9396450206
 40
0.9506721393
 40
0.9607291631
 40
0.9697982758
 40
0.9778633885
 40
0.9815162006
 40
0.9849149201
 40
0.9880592725
 40
0.9909493925
 40
0.9935859861
 40
0.9959706918
 40
0.9981069135
 40
1.0
 40
1.0
 40
1.0
 40
1.0
 10
5.8485778678
 20
3.8206532274
 30
0.0
 10
5.8485778742
 20
3.8206727783
 30
0.0
 10
5.8485809721
 20
3.8207124002
 30
0.0
 10
5.8485997914
 20
3.8207929974
 30
0.0
 10
5.8486488544
 20
3.8208953297
 30
0.0
 10
5.848742153
 20
3.8210130327
 30
0.0
 10
5.8488704726
 20
3.8211298042
 30
0.0
 10
5.8490338939
 20
3.8212461468
 30
0.0
 10
5.8492325363
 20
3.8213624017
 30
0.0
 10
5.8494664423
 20
3.8214786876
 30
0.0
 10
5.8497355837
 20
3.8215950429
 30
0.0
 10
5.8500398854
 20
3.8217114721
 30
0.0
 10
5.8503792449
 20
3.8218279697
 30
0.0
 10
5.8507535345
 20
3.8219445245
 30
0.0
 10
5.8511625822
 20
3.8220611178
 30
0.0
 10
5.8516061612
 20
3.8221777603
 30
0.0
 10
5.8522647039
 20
3.8223385352
 30
0.0
 10
5.8531728886
 20
3.8225377954
 30
0.0
 10
5.8543639167
 20
3.8227702105
 30
0.0
 10
5.8556859637
 20
3.8230028403
 30
0.0
 10
5.8571361172
 20
3.8232356982
 30
0.0
 10
5.858711219
 20
3.8234687049
 30
0.0
 10
5.8604078151
 20
3.8237018069
 30
0.0
 10
5.8622221531
 20
3.8239350211
 30
0.0
 10
5.864150231
 20
3.8241683191
 30
0.0
 10
5.8661878042
 20
3.8244016585
 30
0.0
 10
5.868330363
 20
3.8246350635
 30
0.0
 10
5.8713825355
 20
3.8249527464
 30
0.0
 10
5.8754231456
 20
3.8253473297
 30
0.0
 10
5.8805172911
 20
3.8258122729
 30
0.0
 10
5.8859044446
 20
3.8262774862
 30
0.0
 10
5.891537007
 20
3.8267429183
 30
0.0
 10
5.897365201
 20
3.8272085105
 30
0.0
 10
5.9033374986
 20
3.8276741971
 30
0.0
 10
5.9114354135
 20
3.8282962144
 30
0.0
 10
5.9195479893
 20
3.8289135869
 30
0.0
 10
5.9276026908
 20
3.8295372202
 30
0.0
 10
5.9334946144
 20
3.8300028515
 30
0.0
 10
5.9392112841
 20
3.8304683583
 30
0.0
 10
5.9447021587
 20
3.8309336691
 30
0.0
 10
5.9499187202
 20
3.8313987146
 30
0.0
 10
5.9548148814
 20
3.8318634326
 30
0.0
 10
5.9586740343
 20
3.8322586054
 30
0.0
 10
5.961568617
 20
3.8325770083
 30
0.0
 10
5.9635843965
 20
3.8328103511
 30
0.0
 10
5.9654898092
 20
3.8330436119
 30
0.0
 10
5.9672806382
 20
3.8332768167
 30
0.0
 10
5.9689529463
 20
3.8335099155
 30
0.0
 10
5.9705030533
 20
3.833742869
 30
0.0
 10
5.9719275351
 20
3.833975692
 30
0.0
 10
5.9732232937
 20
3.8342083052
 30
0.0
 10
5.9743875124
 20
3.8344406346
 30
0.0
 10
5.9752729942
 20
3.8346399718
 30
0.0
 10
5.9759130548
 20
3.834800897
 30
0.0
 10
5.9763426578
 20
3.8349175283
 30
0.0
 10
5.9767376786
 20
3.8350341075
 30
0.0
 10
5.9770979052
 20
3.8351506319
 30
0.0
 10
5.977423138
 20
3.8352670902
 30
0.0
 10
5.9777132267
 20
3.835383494
 30
0.0
 10
5.9779680575
 20
3.8354998221
 30
0.0
 10
5.978123662
 20
3.8355822125
 30
0.0
 10
5.9781950789
 20
3.835623807
 30
0.0
 11
5.8485778678
 21
3.8206532274
 31
0.0
 11
5.8485823841
 21
3.8207117062
 31
0.0
 11
5.8485958922
 21
3.820770185
 31
0.0
 11
5.8486498693
 21
3.8208871426
 31
0.0
 11
5.8487397703
 21
3.8210041003
 31
0.0
 11
5.8488655663
 21
3.8211210579
 31
0.0
 11
5.8490272273
 21
3.8212380156
 31
0.0
 11
5.8492246727
 21
3.8213549732
 31
0.0
 11
5.8494577533
 21
3.8214719308
 31
0.0
 11
5.8497263148
 21
3.8215888885
 31
0.0
 11
5.8500302028
 21
3.8217058461
 31
0.0
 11
5.850369263
 21
3.8218228038
 31
0.0
 11
5.8507433412
 21
3.8219397614
 31
0.0
 11
5.85115226
 21
3.8220567191
 31
0.0
 11
5.851595761
 21
3.8221736767
 31
0.0
 11
5.8520735679
 21
3.8222906343
 31
0.0
 11
5.8531309942
 21
3.8225245496
 31
0.0
 11
5.8543223216
 21
3.8227584649
 31
0.0
 11
5.8556449784
 21
3.8229923802
 31
0.0
 11
5.8570958694
 21
3.8232262955
 31
0.0
 11
5.8586718558
 21
3.8234602108
 31
0.0
 11
5.860369567
 21
3.8236941261
 31
0.0
 11
5.8621850864
 21
3.8239280414
 31
0.0
 11
5.8641144185
 21
3.8241619567
 31
0.0
 11
5.8661534358
 21
3.824395872
 31
0.0
 11
5.868297498
 21
3.8246297873
 31
0.0
 11
5.8705418409
 21
3.8248637026
 31
0.0
 11
5.8753116224
 21
3.8253315332
 31
0.0
 11
5.8804204448
 21
3.8257993638
 31
0.0
 11
5.8858232475
 21
3.8262671944
 31
0.0
 11
5.89147225
 21
3.826735025
 31
0.0
 11
5.8973174482
 21
3.8272028556
 31
0.0
 11
5.9033072438
 21
3.8276706862
 31
0.0
 11
5.9093886191
 21
3.8281385168
 31
0.0
 11
5.9216107806
 21
3.8290741781
 31
0.0
 11
5.9276434969
 21
3.8295420087
 31
0.0
 11
5.9335526711
 21
3.8300098393
 31
0.0
 11
5.9392859931
 21
3.83047767
 31
0.0
 11
5.9447928668
 21
3.8309455006
 31
0.0
 11
5.9500245306
 21
3.8314133312
 31
0.0
 11
5.954934725
 21
3.8318811619
 31
0.0
 11
5.9594801482
 21
3.8323489925
 31
0.0
 11
5.9616032686
 21
3.8325829078
 31
0.0
 11
5.9636204366
 21
3.8328168232
 31
0.0
 11
5.9655271721
 21
3.8330507385
 31
0.0
 11
5.9673191183
 21
3.8332846538
 31
0.0
 11
5.9689924547
 21
3.8335185691
 31
0.0
 11
5.970543506
 21
3.8337524844
 31
0.0
 11
5.9719686737
 21
3.8339863998
 31
0.0
 11
5.9732649191
 21
3.8342203151
 31
0.0
 11
5.9744294525
 21
3.8344542304
 31
0.0
 11
5.9754595255
 21
3.8346881457
 31
0.0
 11
5.9759234227
 21
3.8348051034
 31
0.0
 11
5.9763529177
 21
3.834922061
 31
0.0
 11
5.9767477806
 21
3.8350390187
 31
0.0
 11
5.9771077813
 21
3.8351559764
 31
0.0
 11
5.9774326899
 21
3.835272934
 31
0.0
 11
5.9777222926
 21
3.8353898917
 31
0.0
 11
5.9779764577
 21
3.8355068494
 31
0.0
 11
5.9781950789
 21
3.835623807
 31
0.0
  0
SPLINE
  5
25F
100
AcDbEntity
  8
0
100
AcDbSpline
 62
6
  6
CONTINUOUS
 70
0
 71
3
 72
43
 73
39
 74
37
 42
0.0000001
 43
0.0000001
 44
0.0000000001
 12
-0.0000287544
 22
0.0827063696
 32
0.0
 13
0.0825546605
 23
0.0050072368
 33
0.0
 40
0.0
 40
0.0
 40
0.0
 40
0.0
 40
0.0007417208
 40
0.0015128229
 40
0.0023395882
 40
0.0032434377
 40
0.0042408215
 40
0.0053439982
 40
0.0065620231
 40
0.0079015901
 40
0.0093675722
 40
0.0109635696
 40
0.0145553081
 40
0.0186924041
 40
0.0233836199
 40
0.0286341844
 40
0.0344468908
 40
0.0408218526
 40
0.0477578014
 40
0.0552527837
 40
0.0633043566
 40
0.0810647417
 40
0.1010045309
 40
0.123081049
 40
0.1472479519
 40
0.1734487596
 40
0.2016235386
 40
0.2317080487
 40
0.2636297509
 40
0.2973145839
 40
0.3326828294
 40
0.3696490031
 40
0.4480227161
 40
0.531686004
 40
0.6198407833
 40
0.7116437293
 40
0.8062072675
 40
1.0
 40
1.0
 40
1.0
 40
1.0
 10
5.8316678703
 20
3.8304160474
 30
0.0
 10
5.8316678632
 20
3.8304364957
 30
0.0
 10
5.8316721613
 20
3.8304783169
 30
0.0
 10
5.8316913033
 20
3.8305402834
 30
0.0
 10
5.8317229427
 20
3.8306019078
 30
0.0
 10
5.8317668914
 20
3.8306632115
 30
0.0
 10
5.8318230609
 20
3.8307243083
 30
0.0
 10
5.8318914308
 20
3.8307852835
 30
0.0
 10
5.8319720104
 20
3.8308461976
 30
0.0
 10
5.8320648138
 20
3.8309070814
 30
0.0
 10
5.8321698414
 20
3.8309679621
 30
0.0
 10
5.8323326937
 20
3.8310525023
 30
0.0
 10
5.832567806
 20
3.8311570256
 30
0.0
 10
5.8328881943
 20
3.8312781706
 30
0.0
 10
5.8332570006
 20
3.8313994607
 30
0.0
 10
5.8336740849
 20
3.8315208801
 30
0.0
 10
5.8341392795
 20
3.8316423883
 30
0.0
 10
5.8346523196
 20
3.8317639813
 30
0.0
 10
5.8352128915
 20
3.8318856429
 30
0.0
 10
5.8358206606
 20
3.8320073653
 30
0.0
 10
5.836723436
 20
3.8321752646
 30
0.0
 10
5.8379676012
 20
3.8323832198
 30
0.0
 10
5.8395976958
 20
3.832625715
 30
0.0
 10
5.8414061137
 20
3.8328684993
 30
0.0
 10
5.8433885136
 20
3.8331114758
 30
0.0
 10
5.8455401656
 20
3.8333546338
 30
0.0
 10
5.8478559034
 20
3.8335979252
 30
0.0
 10
5.8503301588
 20
3.8338413016
 30
0.0
 10
5.8529569974
 20
3.8340847804
 30
0.0
 10
5.8557300858
 20
3.8343283185
 30
0.0
 10
5.8586427475
 20
3.8345719108
 30
0.0
 10
5.8627843621
 20
3.8349032627
 30
0.0
 10
5.8682552144
 20
3.8353147869
 30
0.0
 10
5.875135633
 20
3.8357999424
 30
0.0
 10
5.8823871268
 20
3.8362853869
 30
0.0
 10
5.8899397535
 20
3.8367710482
 30
0.0
 10
5.9003999217
 20
3.8374241025
 30
0.0
 10
5.9083349839
 20
3.8379052686
 30
0.0
 10
5.913667815
 20
3.838228724
 30
0.0
 11
5.8316678703
 21
3.8304160474
 31
0.0
 11
5.83167402
 21
3.8304770834
 31
0.0
 11
5.8316925095
 21
3.8305381194
 31
0.0
 11
5.8317233357
 21
3.8305991555
 31
0.0
 11
5.8317664955
 21
3.8306601916
 31
0.0
 11
5.8318219858
 21
3.8307212278
 31
0.0
 11
5.8318898037
 21
3.8307822641
 31
0.0
 11
5.831969946
 21
3.8308433005
 31
0.0
 11
5.8320624076
 21
3.8309043369
 31
0.0
 11
5.8321671699
 21
3.8309653735
 31
0.0
 11
5.8322842096
 21
3.8310264102
 31
0.0
 11
5.8325550278
 21
3.8311484838
 31
0.0
 11
5.832874675
 21
3.8312705576
 31
0.0
 11
5.8332429641
 21
3.8313926317
 31
0.0
 11
5.8336597079
 21
3.831514706
 31
0.0
 11
5.8341246986
 21
3.8316367804
 31
0.0
 11
5.834637622
 21
3.8317588548
 31
0.0
 11
5.8351981297
 21
3.8318809293
 31
0.0
 11
5.8358058735
 21
3.8320030036
 31
0.0
 11
5.8364605051
 21
3.8321250778
 31
0.0
 11
5.83790897
 21
3.8323692257
 31
0.0
 11
5.8395399453
 21
3.8326133723
 31
0.0
 11
5.8413494175
 21
3.8328575176
 31
0.0
 11
5.8433332076
 21
3.8331016613
 31
0.0
 11
5.8454863843
 21
3.8333458041
 31
0.0
 11
5.8478037932
 21
3.8335899471
 31
0.0
 11
5.8502799671
 21
3.8338340908
 31
0.0
 11
5.8529087826
 21
3.8340782354
 31
0.0
 11
5.8556840146
 21
3.8343223811
 31
0.0
 11
5.8585989874
 21
3.8345665275
 31
0.0
 11
5.8616465618
 21
3.8348106742
 31
0.0
 11
5.8681101496
 21
3.8352989662
 31
0.0
 11
5.8750123869
 21
3.8357872532
 31
0.0
 11
5.8822869797
 21
3.8362755456
 31
0.0
 11
5.8898639505
 21
3.8367638456
 31
0.0
 11
5.8976697015
 21
3.8372521167
 31
0.0
 11
5.913667815
 21
3.838228724
 31
0.0
  0
SPLINE
  5
260
100
AcDbEntity
  8
0
100
AcDbSpline
 62
6
  6
CONTINUOUS
 70
0
 71
3
 72
35
 73
31
 74
29
 42
0.0000001
 43
0.0000001
 44
0.0000000001
 12
0.070907721
 22
0.0411629645
 32
0.0
 13
0.0818392011
 23
0.0049638396
 33
0.0
 40
0.0
 40
0.0
 40
0.0
 40
0.0
 40
0.0029961301
 40
0.0064616022
 40
0.0104080074
 40
0.0148425447
 40
0.019768782
 40
0.0251882135
 40
0.0311011978
 40
0.0375073118
 40
0.0444055781
 40
0.0517944894
 40
0.0680321769
 40
0.0861926116
 40
0.1062448113
 40
0.1281517707
 40
0.1518687207
 40
0.1773495904
 40
0.2045439253
 40
0.2333944028
 40
0.2638427735
 40
0.2958273848
 40
0.3292804129
 40
0.4003144392
 40
0.476354379
 40
0.5567686685
 40
0.6408874782
 40
0.7280045064
 40
0.8173919117
 40
1.0
 40
1.0
 40
1.0
 40
1.0
 10
5.8321166894
 20
3.8348508453
 30
0.0
 10
5.8321875056
 20
3.8348919551
 30
0.0
 10
5.8323446655
 20
3.8349730028
 30
0.0
 10
5.8326058285
 20
3.83508606
 30
0.0
 10
5.8329092837
 20
3.8351992529
 30
0.0
 10
5.8332549499
 20
3.835312544
 30
0.0
 10
5.8336427091
 20
3.8354259338
 30
0.0
 10
5.8340723663
 20
3.8355394054
 30
0.0
 10
5.8345437081
 20
3.8356529441
 30
0.0
 10
5.8350565107
 20
3.835766536
 30
0.0
 10
5.8356105411
 20
3.8358801761
 30
0.0
 10
5.8364299873
 20
3.8360367007
 30
0.0
 10
5.8375555152
 20
3.8362307147
 30
0.0
 10
5.8390263611
 20
3.8364571711
 30
0.0
 10
5.8406537581
 20
3.836683847
 30
0.0
 10
5.8424343175
 20
3.8369106957
 30
0.0
 10
5.8443643218
 20
3.8371377081
 30
0.0
 10
5.8464397379
 20
3.837364829
 30
0.0
 10
5.8486562251
 20
3.8375920243
 30
0.0
 10
5.8510091318
 20
3.8378193083
 30
0.0
 10
5.8534935256
 20
3.8380466497
 30
0.0
 10
5.8561042014
 20
3.8382740309
 30
0.0
 10
5.8598211006
 20
3.8385834964
 30
0.0
 10
5.8647399102
 20
3.8389679462
 30
0.0
 10
5.8709406262
 20
3.839420961
 30
0.0
 10
5.8774998256
 20
3.8398742357
 30
0.0
 10
5.8843624304
 20
3.8403277242
 30
0.0
 10
5.891470773
 20
3.8407813595
 30
0.0
 10
5.9012663427
 20
3.8413906452
 30
0.0
 10
5.9086863149
 20
3.8418406064
 30
0.0
 10
5.913667815
 20
3.8421427522
 30
0.0
 11
5.8321166894
 21
3.8348508453
 31
0.0
 11
5.8323343204
 21
3.8349647813
 31
0.0
 11
5.8325946086
 21
3.8350787174
 31
0.0
 11
5.8328974491
 21
3.8351926534
 31
0.0
 11
5.8332427219
 21
3.8353065895
 31
0.0
 11
5.8336302189
 21
3.8354205255
 31
0.0
 11
5.8340597
 21
3.8355344616
 31
0.0
 11
5.8345309247
 21
3.8356483976
 31
0.0
 11
5.8350436528
 21
3.8357623337
 31
0.0
 11
5.8355976439
 21
3.8358762697
 31
0.0
 11
5.8361926473
 21
3.8359902058
 31
0.0
 11
5.8375043223
 21
3.8362180779
 31
0.0
 11
5.8389757489
 21
3.83644595
 31
0.0
 11
5.8406039524
 21
3.8366738221
 31
0.0
 11
5.8423855818
 21
3.8369016942
 31
0.0
 11
5.8443167273
 21
3.8371295663
 31
0.0
 11
5.8463934291
 21
3.8373574384
 31
0.0
 11
5.8486114068
 21
3.8375853105
 31
0.0
 11
5.8509658444
 21
3.8378131826
 31
0.0
 11
5.8534518725
 21
3.8380410547
 31
0.0
 11
5.8560643588
 21
3.8382689267
 31
0.0
 11
5.858797677
 21
3.8384967988
 31
0.0
 11
5.8646038696
 21
3.8389525435
 31
0.0
 11
5.870821674
 21
3.8394082871
 31
0.0
 11
5.8773990392
 21
3.8398640297
 31
0.0
 11
5.8842808321
 21
3.8403197807
 31
0.0
 11
5.8914089685
 21
3.8407755186
 31
0.0
 11
5.8987236236
 21
3.841231239
 31
0.0
 11
5.913667815
 21
3.8421427522
 31
0.0
  0
SPLINE
  5
261
100
AcDbEntity
  8
0
100
AcDbSpline
 62
6
  6
CONTINUOUS
 70
0
 71
3
 72
66
 73
62
 74
60
 42
0.0000001
 43
0.0000001
 44
0.0000000001
 12
0.1131739133
 22
0.0659178232
 32
0.0
 13
0.0000365492
 23
0.1309713432
 33
0.0
 40
0.0
 40
0.0
 40
0.0
 40
0.0
 40
0.0018930339
 40
0.0040292573
 40
0.0064140581
 40
0.0090507127
 40
0.0119408168
 40
0.015085113
 40
0.0184837744
 40
0.0221365652
 40
0.030201817
 40
0.039270899
 40
0.0493278359
 40
0.0603550501
 40
0.0723316518
 40
0.0852321572
 40
0.0990302519
 40
0.1136978484
 40
0.1292025966
 40
0.1455112627
 40
0.1804000909
 40
0.2180604992
 40
0.2581649571
 40
0.3003628328
 40
0.344283712
 40
0.3895429539
 40
0.4357425926
 40
0.5293349925
 40
0.5759050509
 40
0.6217779614
 40
0.6665502658
 40
0.7098295321
 40
0.7512356441
 40
0.7904060515
 40
0.8269993286
 40
0.8442282869
 40
0.8606958282
 40
0.876366398
 40
0.8912052629
 40
0.9051817194
 40
0.9182666511
 40
0.9304316296
 40
0.9416525081
 40
0.9519080144
 40
0.9611779283
 40
0.969446744
 40
0.973202567
 40
0.9767045644
 40
0.979952028
 40
0.9829446572
 40
0.9856831596
 40
0.9881692759
 40
0.9904057519
 40
0.9923968258
 40
0.9941490421
 40
0.9956726351
 40
0.9969841454
 40
0.9981104446
 40
0.999093923
 40
0.9995521718
 40
1.0
 40
1.0
 40
1.0
 40
1.0
 10
5.8491405505
 20
3.8134976559
 30
0.0
 10
5.8492119645
 20
3.8135392508
 30
0.0
 10
5.8493675658
 20
3.8136216424
 30
0.0
 10
5.8496223984
 20
3.8137379715
 30
0.0
 10
5.8499124962
 20
3.8138543713
 30
0.0
 10
5.8502377355
 20
3.8139708293
 30
0.0
 10
5.8505979613
 20
3.8140873547
 30
0.0
 10
5.8509929759
 20
3.8142039346
 30
0.0
 10
5.8514225726
 20
3.8143205665
 30
0.0
 10
5.8520626355
 20
3.8144814935
 30
0.0
 10
5.8529481226
 20
3.8146808246
 30
0.0
 10
5.8541123415
 20
3.8149131571
 30
0.0
 10
5.8554080987
 20
3.8151457731
 30
0.0
 10
5.8568325818
 20
3.8153785922
 30
0.0
 10
5.8583826899
 20
3.8156115462
 30
0.0
 10
5.8600549966
 20
3.8158446472
 30
0.0
 10
5.861845826
 20
3.8160778503
 30
0.0
 10
5.8637512399
 20
3.8163111105
 30
0.0
 10
5.8657670186
 20
3.8165444548
 30
0.0
 10
5.8686615995
 20
3.8168628567
 30
0.0
 10
5.8725207544
 20
3.8172580299
 30
0.0
 10
5.8774169159
 20
3.8177227471
 30
0.0
 10
5.8826334779
 20
3.8181877935
 30
0.0
 10
5.8881243516
 20
3.8186531035
 30
0.0
 10
5.8938410219
 20
3.8191186106
 30
0.0
 10
5.899732945
 20
3.8195842419
 30
0.0
 10
5.907787646
 20
3.820207875
 30
0.0
 10
5.9159002215
 20
3.8208252476
 30
0.0
 10
5.9239981357
 20
3.8214472648
 30
0.0
 10
5.9299704327
 20
3.8219129514
 30
0.0
 10
5.9357986268
 20
3.8223785438
 30
0.0
 10
5.941431188
 20
3.8228439752
 30
0.0
 10
5.9468183414
 20
3.8233091896
 30
0.0
 10
5.9519124867
 20
3.823774132
 30
0.0
 10
5.9559530982
 20
3.8241687158
 30
0.0
 10
5.9590052685
 20
3.8244863978
 30
0.0
 10
5.961147826
 20
3.8247198044
 30
0.0
 10
5.9631854
 20
3.8249531431
 30
0.0
 10
5.9651134779
 20
3.8251864396
 30
0.0
 10
5.9669278142
 20
3.825419656
 30
0.0
 10
5.9686244109
 20
3.8256527584
 30
0.0
 10
5.9701995135
 20
3.8258857615
 30
0.0
 10
5.9716496651
 20
3.8261186222
 30
0.0
 10
5.9729717121
 20
3.8263512548
 30
0.0
 10
5.9741627424
 20
3.8265836629
 30
0.0
 10
5.975070926
 20
3.8267829264
 30
0.0
 10
5.9757294609
 20
3.8269437025
 30
0.0
 10
5.9761730391
 20
3.8270603459
 30
0.0
 10
5.9765820936
 20
3.8271769388
 30
0.0
 10
5.9769563918
 20
3.8272934902
 30
0.0
 10
5.9772957528
 20
3.8274099887
 30
0.0
 10
5.977600048
 20
3.8275264187
 30
0.0
 10
5.9778691805
 20
3.8276427754
 30
0.0
 10
5.9781030821
 20
3.8277590625
 30
0.0
 10
5.9783017278
 20
3.8278753195
 30
0.0
 10
5.9784651632
 20
3.8279916549
 30
0.0
 10
5.9785934896
 20
3.8281084265
 30
0.0
 10
5.9786867834
 20
3.828226132
 30
0.0
 10
5.9787358358
 20
3.8283284658
 30
0.0
 10
5.9787546472
 20
3.8284090626
 30
0.0
 10
5.9787577422
 20
3.8284486841
 30
0.0
 10
5.9787577477
 20
3.828468235
 30
0.0
 11
5.8491405505
 21
3.8134976559
 31
0.0
 11
5.8493591638
 21
3.8136146135
 31
0.0
 11
5.8496133291
 21
3.8137315712
 31
0.0
 11
5.8499029453
 21
3.8138485288
 31
0.0
 11
5.8502278624
 21
3.8139654865
 31
0.0
 11
5.8505878609
 21
3.8140824441
 31
0.0
 11
5.8509827161
 21
3.8141994018
 31
0.0
 11
5.8514122032
 21
3.8143163594
 31
0.0
 11
5.8518760976
 21
3.814433317
 31
0.0
 11
5.8529061893
 21
3.8146672323
 31
0.0
 11
5.8540707186
 21
3.8149011476
 31
0.0
 11
5.8553669524
 21
3.8151350629
 31
0.0
 11
5.8567921328
 21
3.8153689781
 31
0.0
 11
5.8583431851
 21
3.8156028934
 31
0.0
 11
5.8600165113
 21
3.8158368087
 31
0.0
 11
5.8618084636
 21
3.816070724
 31
0.0
 11
5.8637152039
 21
3.8163046393
 31
0.0
 11
5.8657323642
 21
3.8165385545
 31
0.0
 11
5.8678554853
 21
3.8167724698
 31
0.0
 11
5.8724009102
 21
3.8172403004
 31
0.0
 11
5.8773111082
 21
3.817708131
 31
0.0
 11
5.8825427673
 21
3.8181759616
 31
0.0
 11
5.8880496437
 21
3.8186437922
 31
0.0
 11
5.893782965
 21
3.8191116227
 31
0.0
 11
5.8996921388
 21
3.8195794533
 31
0.0
 11
5.905724855
 21
3.8200472839
 31
0.0
 11
5.9179470156
 21
3.8209829451
 31
0.0
 11
5.9240283908
 21
3.8214507757
 31
0.0
 11
5.9300181856
 21
3.8219186063
 31
0.0
 11
5.9358633828
 21
3.822386437
 31
0.0
 11
5.9415123877
 21
3.8228542676
 31
0.0
 11
5.946915185
 21
3.8233220982
 31
0.0
 11
5.9520240105
 21
3.8237899288
 31
0.0
 11
5.9567937933
 21
3.8242577594
 31
0.0
 11
5.9590381363
 21
3.8244916747
 31
0.0
 11
5.9611821901
 21
3.82472559
 31
0.0
 11
5.9632212123
 21
3.8249595053
 31
0.0
 11
5.9651505501
 21
3.8251934206
 31
0.0
 11
5.9669660583
 21
3.825427336
 31
0.0
 11
5.9686637705
 21
3.8256612513
 31
0.0
 11
5.9702397694
 21
3.8258951666
 31
0.0
 11
5.9716906476
 21
3.8261290819
 31
0.0
 11
5.9730133001
 21
3.8263629972
 31
0.0
 11
5.9742046462
 21
3.8265969125
 31
0.0
 11
5.9752620605
 21
3.8268308278
 31
0.0
 11
5.9757398592
 21
3.8269477855
 31
0.0
 11
5.9761833579
 21
3.8270647431
 31
0.0
 11
5.9765922858
 21
3.8271817008
 31
0.0
 11
5.9769663776
 21
3.8272986584
 31
0.0
 11
5.9773054377
 21
3.8274156161
 31
0.0
 11
5.9776093172
 21
3.8275325737
 31
0.0
 11
5.9778778683
 21
3.8276495314
 31
0.0
 11
5.978110943
 21
3.8277664891
 31
0.0
 11
5.9783083933
 21
3.8278834467
 31
0.0
 11
5.9784700717
 21
3.8280004044
 31
0.0
 11
5.9785958729
 21
3.828117362
 31
0.0
 11
5.9786857671
 21
3.8282343197
 31
0.0
 11
5.9787397326
 21
3.8283512773
 31
0.0
 11
5.9787532353
 21
3.8284097562
 31
0.0
 11
5.9787577477
 21
3.828468235
 31
0.0
  0
SPLINE
  5
262
100
AcDbEntity
  8
0
100
AcDbSpline
 62
6
  6
CONTINUOUS
 70
0
 71
3
 72
39
 73
35
 74
33
 42
0.0000001
 43
0.0000001
 44
0.0000000001
 12
-0.0550892786
 22
-0.0551383174
 32
0.0
 13
-0.0778695633
 23
-0.0033754664
 33
0.0
 40
0.0
 40
0.0
 40
0.0
 40
0.0
 40
0.0007310985
 40
0.0015737464
 40
0.0025357402
 40
0.003622185
 40
0.0048365557
 40
0.0061812881
 40
0.0092680487
 40
0.0128920299
 40
0.0170582716
 40
0.0217696342
 40
0.0270270716
 40
0.0328295947
 40
0.0391755603
 40
0.046062962
 40
0.0534895391
 40
0.069949318
 40
0.0885242102
 40
0.1091767058
 40
0.1318672448
 40
0.1565467133
 40
0.1831613867
 40
0.2116555402
 40
0.2419640644
 40
0.307748447
 40
0.3799138788
 40
0.4577900111
 40
0.5406380997
 40
0.6276653889
 40
0.7180253785
 40
0.8108192318
 40
0.9051449706
 40
1.0
 40
1.0
 40
1.0
 40
1.0
 10
5.9913612618
 20
3.8211917012
 30
0.0
 10
5.9913478365
 20
3.821178264
 30
0.0
 10
5.9913166906
 20
3.8211515701
 30
0.0
 10
5.9912622888
 20
3.8211142695
 30
0.0
 10
5.9911970201
 20
3.8210769575
 30
0.0
 10
5.9911208663
 20
3.8210396221
 30
0.0
 10
5.9910338032
 20
3.8210022452
 30
0.0
 10
5.9908967322
 20
3.820949926
 30
0.0
 10
5.9906974821
 20
3.8208854674
 30
0.0
 10
5.9904248241
 20
3.8208109585
 30
0.0
 10
5.9901086805
 20
3.8207362317
 30
0.0
 10
5.9897491292
 20
3.8206613132
 30
0.0
 10
5.9893462865
 20
3.8205862416
 30
0.0
 10
5.9889003458
 20
3.8205110256
 30
0.0
 10
5.9884115349
 20
3.8204356832
 30
0.0
 10
5.9878800911
 20
3.8203602213
 30
0.0
 10
5.987087392
 20
3.8202558478
 30
0.0
 10
5.9859917748
 20
3.8201264694
 30
0.0
 10
5.984552845
 20
3.8199754738
 30
0.0
 10
5.9829512877
 20
3.8198239777
 30
0.0
 10
5.9811905288
 20
3.8196720491
 30
0.0
 10
5.9792743754
 20
3.8195197012
 30
0.0
 10
5.9772070305
 20
3.8193669506
 30
0.0
 10
5.9749930925
 20
3.8192138363
 30
0.0
 10
5.9717630502
 20
3.8190033932
 30
0.0
 10
5.9673993484
 20
3.8187418735
 30
0.0
 10
5.9618004249
 20
3.8184342739
 30
0.0
 10
5.9557576352
 20
3.8181251155
 30
0.0
 10
5.949328325
 20
3.8178144329
 30
0.0
 10
5.9425743826
 20
3.8175022879
 30
0.0
 10
5.9355618401
 20
3.8171887214
 30
0.0
 10
5.9283595559
 20
3.8168737346
 30
0.0
 10
5.9210404364
 20
3.8165573741
 30
0.0
 10
5.9161299215
 20
3.8163454474
 30
0.0
 10
5.913667815
 20
3.8162387207
 30
0.0
 11
5.9913612618
 21
3.8211917012
 31
0.0
 11
5.9913183334
 21
3.8211542271
 31
0.0
 11
5.9912644078
 21
3.8211167349
 31
0.0
 11
5.9911994845
 21
3.8210792247
 31
0.0
 11
5.991123574
 21
3.8210416964
 31
0.0
 11
5.9910366883
 21
3.8210041499
 31
0.0
 11
5.9909388391
 21
3.8209665853
 31
0.0
 11
5.9907102977
 21
3.8208914014
 31
0.0
 11
5.9904380448
 21
3.8208161444
 31
0.0
 11
5.9901221751
 21
3.8207408141
 31
0.0
 11
5.9897627839
 21
3.8206654103
 31
0.0
 11
5.9893600162
 21
3.8205899327
 31
0.0
 11
5.9889141072
 21
3.820514381
 31
0.0
 11
5.9884253012
 21
3.8204387553
 31
0.0
 11
5.9878938428
 21
3.8203630554
 31
0.0
 11
5.9873199765
 21
3.820287281
 31
0.0
 11
5.9860460662
 21
3.8201355083
 31
0.0
 11
5.9846062981
 21
3.819983436
 31
0.0
 11
5.983003815
 21
3.8198310625
 31
0.0
 11
5.9812418559
 21
3.8196783861
 31
0.0
 11
5.9793243647
 21
3.8195254047
 31
0.0
 11
5.9772556169
 21
3.8193721157
 31
0.0
 11
5.9750400238
 21
3.8192185166
 31
0.0
 11
5.9726827151
 21
3.8190646055
 31
0.0
 11
5.9675646086
 21
3.8187558399
 31
0.0
 11
5.9619483918
 21
3.8184458051
 31
0.0
 11
5.9558865055
 21
3.8181344884
 31
0.0
 11
5.9494366742
 21
3.8178218772
 31
0.0
 11
5.9426608017
 21
3.817507946
 31
0.0
 11
5.935624961
 21
3.8171926788
 31
0.0
 11
5.9283992913
 21
3.8168760821
 31
0.0
 11
5.9210541716
 21
3.8165580485
 31
0.0
 11
5.913667815
 21
3.8162387207
 31
0.0
  0
ENDSEC
  0
SECTION
  2
OBJECTS
  0
DICTIONARY
  5
C
100
AcDbDictionary
280
0
281
1
  3
ACAD_GROUP
350
D
  3
ACAD_MLINESTYLE
350
17
  3
ACAD_LAYOUT
350
1A
  3
ACAD_PLOTSETTINGS
350
19
  3
ACAD_PLOTSTYLENAME
350
E
  0
DICTIONARY
  5
D
102
{ACAD_REACTORS
330
C
102
}
100
AcDbDictionary
280
0
281
1
  0
ACDBDICTIONARYWDFLT
  5
E
102
{ACAD_REACTORS
330
C
102
}
100
AcDbDictionary
281
1
  3
Normal
350
F
100
AcDbDictionaryWithDefault
340
F
  0
DICTIONARY
  5
17
102
{ACAD_REACTORS
330
C
102
}
100
AcDbDictionary
280
0
281
1
  3
Standard
350
18
  0
DICTIONARY
  5
19
102
{ACAD_REACTORS
330
C
102
}
100
AcDbDictionary
281
1
  0
DICTIONARY
  5
1A
102
{ACAD_REACTORS
330
C
102
}
100
AcDbDictionary
281
1
  3
Model
350
263
  3
Layout1
350
264
  0
ACDBPLACEHOLDER
  5
F
102
{ACAD_REACTORS
330
E
102
}
  0
MLINESTYLE
  5
18
102
{ACAD_REACTORS
330
17
102
}
100
AcDbMlineStyle
  2
STANDARD
 70
0
  3

 62
256
 51
90.0
 52
90.0
 71
2
 49
0.5
 62
256
  6
BYLAYER
 49
-0.5
 62
256
  6
BYLAYER
  0
LAYOUT
  5
263
102
{ACAD_REACTORS
330
1A
102
}
100
AcDbPlotSettings
  1

  2
none_device
  4
ISO_A4_(297.00_x_210.00_MM)
  6

 40
0.0
 41
0.0
 42
0.0
 43
0.0
 44
297.0
 45
210.0
 46
0.0
 47
0.0
 48
0.0
 49
0.0
140
0.0
141
0.0
142
1.0
143
1.0
 70
1024
 72
0
 73
0
 74
0
  7

 75
0
147
1.0
148
0.0
149
0.0
100
AcDbLayout
  1
Model
 70
0
 71
0
 10
0.0
 20
0.0
 11
11.6929133858
 21
8.2677165354
 12
0.0
 22
0.0
 32
0.0
 14
0.0
 24
0.0
 34
0.0
 15
0.0
 25
0.0
 35
0.0
146
0.0
 13
0.0
 23
0.0
 33
0.0
 16
1.0
 26
0.0
 36
0.0
 17
0.0
 27
1.0
 37
0.0
 76
0
330
203
345
0
346
0
  0
LAYOUT
  5
264
102
{ACAD_REACTORS
330
1A
102
}
100
AcDbPlotSettings
  1

  2
none_device
  4
ISO_A4_(297.00_x_210.00_MM)
  6

 40
0.0
 41
0.0
 42
0.0
 43
0.0
 44
297.0
 45
210.0
 46
0.0
 47
0.0
 48
0.0
 49
0.0
140
0.0
141
0.0
142
1.0
143
1.0
 70
0
 72
0
 73
0
 74
0
  7

 75
0
147
1.0
148
0.0
149
0.0
100
AcDbLayout
  1
Layout1
 70
0
 71
1
 10
0.0
 20
0.0
 11
11.6929133858
 21
8.2677165354
 12
0.0
 22
0.0
 32
0.0
 14
0.0
 24
0.0
 34
0.0
 15
0.0
 25
0.0
 35
0.0
146
0.0
 13
0.0
 23
0.0
 33
0.0
 16
1.0
 26
0.0
 36
0.0
 17
0.0
 27
1.0
 37
0.0
 76
0
330
204
345
0
346
0
  0
ENDSEC
  0
EOF
