  0
SECTION
  2
HEADER
  9
$ACADVER
  1
AC1015
  9
$DWGCODEPAGE
  3
ANSI_1252
  9
$EXTMAX
 10
11.6929133858
 20
8.2677165354
 30
0.0
  9
$EXTMIN
 10
0.0
 20
0.0
 30
0.0
  9
$LIMMIN
 10
0.0
 20
0.0
  9
$LIMMAX
 10
11.6929133858
 20
8.2677165354
  9
$VIEWCTR
 10
5.8464566929
 20
4.1338582677
  9
$VIEWSIZE
 40
8.2677165354
  9
$CLAYER
  8
0
  9
$LTSCALE
 40
0.6431102362
  9
$CELTYPE
  6
BYLAYER
  9
$DIMSCALE
 40
1.0
  9
$DIMASZ
 40
0.1875
  9
$DIMEXO
 40
0.0730807087
  9
$DIMDLI
 40
0.4443307087
  9
$DIMEXE
 40
0.2104724409
  9
$DIMCEN
 40
0.1052362205
  9
$DIMLFAC
 40
1.0
  9
$DIMBLK
  1
_CLOSED
  9
$DIMTXT
 40
0.15625
  9
$DIMTOL
 70
0
  9
$DIMLIM
 70
0
  9
$DIMTFAC
 40
1.0
  9
$PDMODE
 70
3
  9
$PDSIZE
 40
0.3125
  9
$HANDSEED
  5
244
  9
$TILEMODE
 70
1
  9
$MEASUREMENT
 70
0
  9
$INSUNITS
 70
1
  0
ENDSEC
  0
SECTION
  2
CLASSES
  0
CLASS
  1
ACDBDICTIONARYWDFLT
  2
AcDbDictionaryWithDefault
  3
AutoCAD 2000
 90
0
280
0
281
0
  0
CLASS
  1
ACDBPLACEHOLDER
  2
AcDbPlaceHolder
  3
AutoCAD 2000
 90
0
280
0
281
0
  0
CLASS
  1
LAYOUT
  2
AcDbLayout
  3
AutoCAD 2000
 90
0
280
0
281
0
  0
ENDSEC
  0
SECTION
  2
TABLES
  0
TABLE
  2
VPORT
  5
8
100
AcDbSymbolTable
 70
2
  0
VPORT
  5
1F4
100
AcDbSymbolTableRecord
100
AcDbViewportTableRecord
  2
*ACTIVE
 70
0
 10
0.0
 20
0.0
 11
1.0
 21
1.0
 12
5.8464566929
 22
4.1338582677
 13
0.0
 23
0.0
 14
1.0
 24
1.0
 15
0.0
 25
0.0
 16
0.0
 26
0.0
 36
1.0
 17
0.0
 27
0.0
 37
0.0
 40
8.2677165354
 41
1.4142857143
 42
50.0
 43
0.0
 44
0.0
 50
0.0
 51
0.0
 71
0
 72
100
 73
1
 74
1
 75
0
 76
0
 77
0
 78
0
  0
ENDTAB
  0
TABLE
  2
LTYPE
  5
5
100
AcDbSymbolTable
 70
6
  0
LTYPE
  5
14
100
AcDbSymbolTableRecord
100
AcDbLinetypeTableRecord
  2
BYBLOCK
 70
0
  3

 72
65
 73
0
 40
0.0
  0
LTYPE
  5
15
100
AcDbSymbolTableRecord
100
AcDbLinetypeTableRecord
  2
BYLAYER
 70
0
  3

 72
65
 73
0
 40
0.0
  0
LTYPE
  5
16
100
AcDbSymbolTableRecord
100
AcDbLinetypeTableRecord
  2
CONTINUOUS
 70
64
  3
Solid line
 72
65
 73
0
 40
0.0
  0
LTYPE
  5
1F5
100
AcDbSymbolTableRecord
100
AcDbLinetypeTableRecord
  2
CENTER
 70
64
  3
____ _ ____ _ ____ _ ____ _ ____ _ ____ _ ____
 72
65
 73
4
 40
0.6
 49
0.375
 74
0
 49
-0.075
 74
0
 49
0.075
 74
0
 49
-0.075
 74
0
  0
LTYPE
  5
1F6
100
AcDbSymbolTableRecord
100
AcDbLinetypeTableRecord
  2
HIDDEN
 70
64
  3
- - - - - - - - - - - - - - - - - - - -
 72
65
 73
2
 40
0.2
 49
0.1
 74
0
 49
-0.1
 74
0
  0
LTYPE
  5
1F7
100
AcDbSymbolTableRecord
100
AcDbLinetypeTableRecord
  2
PHANTOM
 70
64
  3
_____ _ _ _____ _ _ _____ _ _ _____
 72
65
 73
6
 40
0.8
 49
0.45
 74
0
 49
-0.05
 74
0
 49
0.1
 74
0
 49
-0.05
 74
0
 49
0.1
 74
0
 49
-0.05
 74
0
  0
LTYPE
  5
1F8
100
AcDbSymbolTableRecord
100
AcDbLinetypeTableRecord
  2
DOT
 70
64
  3
. . . . . . . . . . . . . . . . . . . .
 72
65
 73
2
 40
0.2
 49
0.1
 74
0
 49
-0.1
 74
0
  0
LTYPE
  5
1F9
100
AcDbSymbolTableRecord
100
AcDbLinetypeTableRecord
  2
DASHED
 70
64
  3
- - - - - - - - - - - - - - - - - - - -
 72
65
 73
2
 40
0.2
 49
0.1
 74
0
 49
-0.1
 74
0
  0
ENDTAB
  0
TABLE
  2
LAYER
  5
2
100
AcDbSymbolTable
 70
36
  0
LAYER
  5
10
100
AcDbSymbolTableRecord
100
AcDbLayerTableRecord
  2
0
 70
0
 62
7
  6
CONTINUOUS
370
-3
390
F
  0
LAYER
  5
1FA
100
AcDbSymbolTableRecord
100
AcDbLayerTableRecord
  2
DEFAULT_1
 70
0
 62
7
  6
CENTER
370
-3
390
F
  0
LAYER
  5
1FB
100
AcDbSymbolTableRecord
100
AcDbLayerTableRecord
  2
DEFAULT_2
 70
0
 62
8
  6
HIDDEN
370
-3
390
F
  0
LAYER
  5
1FC
100
AcDbSymbolTableRecord
100
AcDbLayerTableRecord
  2
DEFAULT_3
 70
0
 62
7
  6
PHANTOM
370
-3
390
F
  0
LAYER
  5
1FD
100
AcDbSymbolTableRecord
100
AcDbLayerTableRecord
  2
DEFAULT_COORDINATE_SYSTEM
 70
0
 62
7
  6
CONTINUOUS
370
-3
390
F
  0
LAYER
  5
1FE
100
AcDbSymbolTableRecord
100
AcDbLayerTableRecord
  2
DEFAULT_DATUM_AXES
 70
0
 62
7
  6
CONTINUOUS
370
-3
390
F
  0
LAYER
  5
1FF
100
AcDbSymbolTableRecord
100
AcDbLayerTableRecord
  2
DEFAULT_DATUM_CURVES
 70
0
 62
7
  6
CONTINUOUS
370
-3
390
F
  0
LAYER
  5
200
100
AcDbSymbolTableRecord
100
AcDbLayerTableRecord
  2
DEFAULT_DATUM_PLANES
 70
0
 62
7
  6
CONTINUOUS
370
-3
390
F
  0
ENDTAB
  0
TABLE
  2
STYLE
  5
3
100
AcDbSymbolTable
 70
1
  0
STYLE
  5
11
100
AcDbSymbolTableRecord
100
AcDbTextStyleTableRecord
  2
STANDARD
 70
0
 40
0.0
 41
0.8
 50
0.0
 71
0
 42
0.2
  3
txt
  4

  0
STYLE
  5
201
100
AcDbSymbolTableRecord
100
AcDbTextStyleTableRecord
  2
TEXTSTYLE_1
 70
0
 40
0.0
 41
0.8
 50
0.0
 71
0
 42
0.2
  3
gdt
  4

  0
ENDTAB
  0
TABLE
  2
VIEW
  5
6
100
AcDbSymbolTable
 70
0
  0
ENDTAB
  0
TABLE
  2
UCS
  5
7
100
AcDbSymbolTable
 70
0
  0
ENDTAB
  0
TABLE
  2
APPID
  5
9
100
AcDbSymbolTable
 70
1
  0
APPID
  5
202
100
AcDbSymbolTableRecord
100
AcDbRegAppTableRecord
  2
ACAD
 70
0
  0
ENDTAB
  0
TABLE
  2
BLOCK_RECORD
  5
1
100
AcDbSymbolTable
 70
0
  0
BLOCK_RECORD
  5
203
100
AcDbSymbolTableRecord
100
AcDbBlockTableRecord
  2
*Model_Space
  0
BLOCK_RECORD
  5
204
100
AcDbSymbolTableRecord
100
AcDbBlockTableRecord
  2
*Paper_Space
  0
ENDTAB
  0
TABLE
  2
DIMSTYLE
  5
A
100
AcDbSymbolTable
 70
1
100
AcDbDimStyleTable
 71
0
  0
DIMSTYLE
105
205
100
AcDbSymbolTableRecord
100
AcDbDimStyleTableRecord
  2
STANDARD
 70
0
  3

  4

 40
1.0
 41
0.1875
 42
0.0625
 43
0.38
 44
0.18
 45
0.0
 46
0.0
 47
0.01
 48
0.01
140
0.15625
141
0.09
142
0.0
143
25.4
144
1.0
145
0.0
146
1.0
147
0.09
 71
0.0
 72
0.0
 73
1
 74
1
 75
0
 76
0
 77
0
 78
4
170
0
171
2
172
0
173
0
174
0
175
0
176
0
177
0
178
0
270
2
271
2
272
2
273
2
274
2
275
0
280
0
281
0
282
0
283
1
284
4
285
0
286
0
287
3
288
0
340
11
  0
ENDTAB
  0
ENDSEC
  0
SECTION
  2
BLOCKS
  0
BLOCK
  5
20
100
AcDbEntity
  8
0
100
AcDbBlockBegin
  2
*Model_Space
 70
0
 10
0.0
 20
0.0
 30
0.0
  3
*Model_Space
  1

  0
ENDBLK
  5
21
100
AcDbEntity
  8
0
100
AcDbBlockEnd
  0
BLOCK
  5
1C
100
AcDbEntity
  8
0
100
AcDbBlockBegin
  2
*Paper_Space
 70
0
 10
0.0
 20
0.0
 30
0.0
  3
*Paper_Space
  1

  0
ENDBLK
  5
1D
100
AcDbEntity
  8
0
100
AcDbBlockEnd
  0
ENDSEC
  0
SECTION
  2
ENTITIES
  0
LINE
  5
206
100
AcDbEntity
  8
0
100
AcDbLine
 62
9
  6
CONTINUOUS
 10
5.6784707494
 20
2.0988380401
 11
5.9308618259
 21
2.0988380401
  0
LINE
  5
207
100
AcDbEntity
  8
0
100
AcDbLine
 62
9
  6
CONTINUOUS
 10
5.6501080877
 20
2.1219060786
 11
5.9592244876
 21
2.1219060786
  0
LINE
  5
208
100
AcDbEntity
  8
0
100
AcDbLine
 62
9
  6
CONTINUOUS
 10
5.5293744351
 20
2.257315392
 11
6.0799581402
 21
2.257315392
  0
LINE
  5
209
100
AcDbEntity
  8
0
100
AcDbLine
 62
9
  6
CONTINUOUS
 10
5.4143220879
 20
2.5170471855
 11
6.1950104874
 21
2.5170471855
  0
LINE
  5
20A
100
AcDbEntity
  8
0
100
AcDbLine
 62
9
  6
CONTINUOUS
 10
5.4140780847
 20
2.5179440621
 11
6.1952544906
 21
2.5179440621
  0
LINE
  5
20B
100
AcDbEntity
  8
0
100
AcDbLine
 62
6
  6
CONTINUOUS
 10
5.6784707494
 20
2.0988380401
 11
5.6501080877
 21
2.1219060786
  0
LINE
  5
20C
100
AcDbEntity
  8
0
100
AcDbLine
 62
6
  6
CONTINUOUS
 10
5.3789792446
 20
2.7069982351
 11
4.1710829132
 21
2.7069982351
  0
LINE
  5
20D
100
AcDbEntity
  8
0
100
AcDbLine
 62
6
  6
CONTINUOUS
 10
6.2303533307
 20
2.7069982351
 11
7.4382496622
 21
2.7069982351
  0
LINE
  5
20E
100
AcDbEntity
  8
0
100
AcDbLine
 62
9
  6
CONTINUOUS
 10
4.4546662877
 20
2.7069982351
 11
4.4546662877
 21
2.9569982351
  0
LINE
  5
20F
100
AcDbEntity
  8
0
100
AcDbLine
 62
7
  6
CONTINUOUS
 10
5.3909267924
 20
2.831651882
 11
6.218405783
 21
2.831651882
  0
LINE
  5
210
100
AcDbEntity
  8
0
100
AcDbLine
 62
7
  6
CONTINUOUS
 10
5.3909259191
 20
2.83291614
 11
6.2184066562
 21
2.83291614
  0
LINE
  5
211
100
AcDbEntity
  8
0
100
AcDbLine
 62
6
  6
CONTINUOUS
 10
5.3816771504
 20
2.9569982351
 11
4.1710829132
 21
2.9569982351
  0
LINE
  5
212
100
AcDbEntity
  8
0
100
AcDbLine
 62
6
  6
CONTINUOUS
 10
6.2276554276
 20
2.9569982351
 11
7.4382496622
 21
2.9569982351
  0
LINE
  5
213
100
AcDbEntity
  8
0
100
AcDbLine
 62
9
  6
CONTINUOUS
 10
5.4303350332
 20
3.1400641328
 11
6.1789975422
 21
3.1400641328
  0
LINE
  5
214
100
AcDbEntity
  8
0
100
AcDbLine
 62
6
  6
CONTINUOUS
 10
5.4140780847
 20
2.5179440621
 11
5.4143220879
 21
2.5170471855
  0
LINE
  5
215
100
AcDbEntity
  8
0
100
AcDbLine
 62
9
  6
CONTINUOUS
 10
6.0861769655
 20
3.3763346916
 11
5.5231556098
 21
3.3763346916
  0
LINE
  5
216
100
AcDbEntity
  8
0
100
AcDbLine
 62
6
  6
CONTINUOUS
 10
5.5281662877
 20
3.5819982351
 11
6.0811662877
 21
3.5819982351
  0
LINE
  5
217
100
AcDbEntity
  8
0
100
AcDbLine
 62
6
  6
CONTINUOUS
 10
5.2188761844
 20
4.3912573665
 11
5.0547844842
 21
5.4519982351
  0
LINE
  5
218
100
AcDbEntity
  8
0
100
AcDbLine
 62
7
  6
CONTINUOUS
 10
5.5176662877
 20
2.831651882
 11
5.5176662877
 21
2.83291614
  0
LINE
  5
219
100
AcDbEntity
  8
0
100
AcDbLine
 62
6
  6
CONTINUOUS
 10
5.5281662877
 20
3.5819982351
 11
5.5281662877
 21
4.2319982351
  0
LINE
  5
21A
100
AcDbEntity
  8
0
100
AcDbLine
 62
6
  6
CONTINUOUS
 10
5.5231556098
 20
3.3763346916
 11
5.4303350332
 21
3.1400641328
  0
LINE
  5
21B
100
AcDbEntity
  8
0
100
AcDbLine
 62
6
  6
CONTINUOUS
 10
6.0861769655
 20
3.3763346916
 11
6.1789975422
 21
3.1400641328
  0
LINE
  5
21C
100
AcDbEntity
  8
0
100
AcDbLine
 62
9
  6
CONTINUOUS
 10
5.4046662877
 20
4.2319982351
 11
6.2046662877
 21
4.2319982351
  0
LINE
  5
21D
100
AcDbEntity
  8
0
100
AcDbLine
 62
6
  6
CONTINUOUS
 10
6.0811662877
 20
3.5819982351
 11
6.0811662877
 21
4.2319982351
  0
LINE
  5
21E
100
AcDbEntity
  8
0
100
AcDbLine
 62
7
  6
CONTINUOUS
 10
6.0916662877
 20
2.83291614
 11
6.0916662877
 21
2.831651882
  0
LINE
  5
21F
100
AcDbEntity
  8
0
100
AcDbLine
 62
9
  6
CONTINUOUS
 10
5.2188761844
 20
4.3912573665
 11
6.3904563909
 21
4.3912573665
  0
LINE
  5
220
100
AcDbEntity
  8
0
100
AcDbLine
 62
6
  6
CONTINUOUS
 10
6.3904563909
 20
4.3912573665
 11
6.5545480911
 21
5.4519982351
  0
LINE
  5
221
100
AcDbEntity
  8
0
100
AcDbLine
 62
6
  6
CONTINUOUS
 10
6.1952544906
 20
2.5179440621
 11
6.1950104874
 21
2.5170471855
  0
LINE
  5
222
100
AcDbEntity
  8
0
100
AcDbLine
 62
9
  6
CONTINUOUS
 10
7.1546662877
 20
2.9569982351
 11
7.1546662877
 21
2.7069982351
  0
LINE
  5
223
100
AcDbEntity
  8
0
100
AcDbLine
 62
6
  6
CONTINUOUS
 10
5.0447292852
 20
5.4519982351
 11
6.5646032901
 21
5.4519982351
  0
LINE
  5
224
100
AcDbEntity
  8
0
100
AcDbLine
 62
9
  6
CONTINUOUS
 10
5.0447292852
 20
5.5819982351
 11
6.5646032901
 21
5.5819982351
  0
LINE
  5
225
100
AcDbEntity
  8
0
100
AcDbLine
 62
6
  6
CONTINUOUS
 10
5.9592244876
 20
2.1219060786
 11
5.9308618259
 21
2.0988380401
  0
LINE
  5
226
100
AcDbEntity
  8
0
100
AcDbLine
 62
9
  6
CONTINUOUS
 10
4.6981545813
 20
5.9705019256
 11
6.9111779941
 21
5.9705019256
  0
LINE
  5
227
100
AcDbEntity
  8
0
100
AcDbLine
 62
6
  6
CONTINUOUS
 10
4.7546662877
 20
6.2069982351
 11
6.8546662877
 21
6.2069982351
  0
ARC
  5
228
100
AcDbEntity
  8
0
100
AcDbCircle
 62
6
  6
CONTINUOUS
 10
5.0421662877
 20
2.831651882
 40
1.195
100
AcDbArc
 50
344.7805351688
 51
353.9642203107
  0
ARC
  5
229
100
AcDbEntity
  8
0
100
AcDbCircle
 62
6
  6
CONTINUOUS
 10
5.2860489082
 20
2.7643382034
 40
0.942
100
AcDbArc
 50
327.4360390103
 51
344.7805351688
  0
ARC
  5
22A
100
AcDbEntity
  8
0
100
AcDbCircle
 62
6
  6
CONTINUOUS
 10
5.3971662877
 20
2.83291614
 40
0.84
100
AcDbArc
 50
8.5636057726
 51
21.4477363271
  0
ARC
  5
22B
100
AcDbEntity
  8
0
100
AcDbCircle
 62
6
  6
CONTINUOUS
 10
5.5995672037
 20
2.5641126345
 40
0.57
100
AcDbArc
 50
309.12229171
 51
327.4360390103
  0
ARC
  5
22C
100
AcDbEntity
  8
0
100
AcDbCircle
 62
6
  6
CONTINUOUS
 10
5.2439301618
 20
3.4860304033
 40
0.3
100
AcDbArc
 50
338.5522636729
 51
18.6564403677
  0
CIRCLE
  5
22D
100
AcDbEntity
  8
0
100
AcDbCircle
 62
6
  6
CONTINUOUS
 10
3.9546662877
 20
2.8319982351
 40
0.25
  0
ARC
  5
22E
100
AcDbEntity
  8
0
100
AcDbCircle
 62
6
  6
CONTINUOUS
 10
4.359084343
 20
5.3015240683
 40
0.75
100
AcDbArc
 50
21.9603922914
 51
63.1219100223
  0
ARC
  5
22F
100
AcDbEntity
  8
0
100
AcDbCircle
 62
6
  6
CONTINUOUS
 10
5.4046662877
 20
4.4199982351
 40
0.188
100
AcDbArc
 50
188.7936876312
 51
270.0
  0
ARC
  5
230
100
AcDbEntity
  8
0
100
AcDbCircle
 62
6
  6
CONTINUOUS
 10
4.7546662877
 20
6.0819982351
 40
0.125
100
AcDbArc
 50
90.0
 51
243.1219100223
  0
ARC
  5
231
100
AcDbEntity
  8
0
100
AcDbCircle
 62
6
  6
CONTINUOUS
 10
5.0447292852
 20
5.5169982351
 40
0.065
100
AcDbArc
 50
90.0
 51
270.0
  0
ARC
  5
232
100
AcDbEntity
  8
0
100
AcDbCircle
 62
6
  6
CONTINUOUS
 10
6.5671662877
 20
2.831651882
 40
1.195
100
AcDbArc
 50
186.0357796893
 51
195.2194648312
  0
ARC
  5
233
100
AcDbEntity
  8
0
100
AcDbCircle
 62
6
  6
CONTINUOUS
 10
6.3232836672
 20
2.7643382034
 40
0.942
100
AcDbArc
 50
195.2194648312
 51
212.5639609897
  0
ARC
  5
234
100
AcDbEntity
  8
0
100
AcDbCircle
 62
6
  6
CONTINUOUS
 10
6.2121662877
 20
2.83291614
 40
0.84
100
AcDbArc
 50
158.5522636729
 51
171.4363942274
  0
ARC
  5
235
100
AcDbEntity
  8
0
100
AcDbCircle
 62
6
  6
CONTINUOUS
 10
6.0097653717
 20
2.5641126345
 40
0.57
100
AcDbArc
 50
212.5639609897
 51
230.87770829
  0
ARC
  5
236
100
AcDbEntity
  8
0
100
AcDbCircle
 62
6
  6
CONTINUOUS
 10
6.3654024135
 20
3.4860304033
 40
0.3
100
AcDbArc
 50
161.3435596323
 51
201.4477363271
  0
CIRCLE
  5
237
100
AcDbEntity
  8
0
100
AcDbCircle
 62
6
  6
CONTINUOUS
 10
7.6546662877
 20
2.8319982351
 40
0.25
  0
ARC
  5
238
100
AcDbEntity
  8
0
100
AcDbCircle
 62
6
  6
CONTINUOUS
 10
5.8046662877
 20
2.2539982351
 40
0.2
100
AcDbArc
 50
230.87770829
 51
309.12229171
  0
ARC
  5
239
100
AcDbEntity
  8
0
100
AcDbCircle
 62
6
  6
CONTINUOUS
 10
7.2502482323
 20
5.3015240683
 40
0.75
100
AcDbArc
 50
116.8780899777
 51
158.0396077086
  0
ARC
  5
23A
100
AcDbEntity
  8
0
100
AcDbCircle
 62
6
  6
CONTINUOUS
 10
6.2046662877
 20
4.4199982351
 40
0.188
100
AcDbArc
 50
270.0
 51
351.2063123688
  0
ARC
  5
23B
100
AcDbEntity
  8
0
100
AcDbCircle
 62
6
  6
CONTINUOUS
 10
6.8546662877
 20
6.0819982351
 40
0.125
100
AcDbArc
 50
296.8780899777
 51
90.0
  0
ARC
  5
23C
100
AcDbEntity
  8
0
100
AcDbCircle
 62
6
  6
CONTINUOUS
 10
6.5646032901
 20
5.5169982351
 40
0.065
100
AcDbArc
 50
270.0
 51
90.0
  0
LINE
  5
23D
100
AcDbEntity
  8
0
100
AcDbLine
 62
7
  6
CONTINUOUS
 10
6.2304618434
 20
2.7064176965
 11
6.230541717
 21
2.7059982351
  0
SPLINE
  5
23E
100
AcDbEntity
  8
0
100
AcDbSpline
 62
7
  6
CONTINUOUS
 70
0
 71
3
 72
28
 73
24
 74
22
 42
0.0000001
 43
0.0000001
 44
0.0000000001
 12
-0.0237632723
 22
0.1241693059
 32
0.0
 13
-0.000105832
 23
0.1264226785
 33
0.0
 40
0.0
 40
0.0
 40
0.0
 40
0.0
 40
0.0012261884
 40
0.0048949785
 40
0.0109917164
 40
0.0195017603
 40
0.0304059044
 40
0.0436669859
 40
0.0592434963
 40
0.0770940187
 40
0.0971737141
 40
0.1194236331
 40
0.1701848283
 40
0.2288606751
 40
0.2948531318
 40
0.3675309425
 40
0.4462008292
 40
0.5301397132
 40
0.618554247
 40
0.7106298201
 40
0.8055166062
 40
0.9023248484
 40
1.0
 40
1.0
 40
1.0
 40
1.0
 10
6.230541717
 20
2.7059982351
 30
0.0
 10
6.2305320042
 20
2.7060489868
 30
0.0
 10
6.2304933079
 20
2.7062516036
 30
0.0
 10
6.2304069981
 20
2.7067066924
 30
0.0
 10
6.2302643392
 20
2.7074635137
 30
0.0
 10
6.2300665309
 20
2.7085202126
 30
0.0
 10
6.2298149528
 20
2.7098740015
 30
0.0
 10
6.2295125943
 20
2.7115212362
 30
0.0
 10
6.2291624871
 20
2.7134573175
 30
0.0
 10
6.2287677952
 20
2.7156773302
 30
0.0
 10
6.228331833
 20
2.7181756278
 30
0.0
 10
6.2276719419
 20
2.722042668
 30
0.0
 10
6.2267742909
 20
2.7275190766
 30
0.0
 10
6.2256493522
 20
2.7348258794
 30
0.0
 10
6.2244768778
 20
2.743059363
 30
0.0
 10
6.2233008385
 20
2.7521427299
 30
0.0
 10
6.2221652499
 20
2.7619930362
 30
0.0
 10
6.2211148174
 20
2.7725195432
 30
0.0
 10
6.2201881579
 20
2.7836247563
 30
0.0
 10
6.2194246353
 20
2.7952048454
 30
0.0
 10
6.2188509975
 20
2.807150114
 30
0.0
 10
6.2184950413
 20
2.8193399254
 30
0.0
 10
6.2184092287
 20
2.8275357639
 30
0.0
 10
6.218405783
 20
2.831651882
 30
0.0
 11
6.230541717
 21
2.7059982351
 31
0.0
 11
6.2305126338
 21
2.7061505006
 31
0.0
 11
6.2304261267
 21
2.7066061804
 31
0.0
 11
6.2302833101
 21
2.7073635997
 31
0.0
 11
6.2300852978
 21
2.7084210835
 31
0.0
 11
6.2298335487
 21
2.7097764328
 31
0.0
 11
6.2295308764
 21
2.7114253866
 31
0.0
 11
6.2291804277
 21
2.7133631772
 31
0.0
 11
6.2287853492
 21
2.7155850369
 31
0.0
 11
6.2283490369
 21
2.7180857897
 31
0.0
 11
6.2278758945
 21
2.7208586071
 31
0.0
 11
6.2268377553
 21
2.727191449
 31
0.0
 11
6.2257092846
 21
2.7345230715
 31
0.0
 11
6.2245332466
 21
2.7427827134
 31
0.0
 11
6.2233536663
 21
2.7518948077
 31
0.0
 11
6.2222151076
 21
2.7617750841
 31
0.0
 11
6.2211613534
 21
2.7723344177
 31
0.0
 11
6.2202326793
 21
2.7834733782
 31
0.0
 11
6.2194664916
 21
2.7950885798
 31
0.0
 11
6.218892051
 21
2.8070706638
 31
0.0
 11
6.2185341222
 21
2.8193041903
 31
0.0
 11
6.218405783
 21
2.831651882
 31
0.0
  0
SPLINE
  5
23F
100
AcDbEntity
  8
0
100
AcDbSpline
 62
7
  6
CONTINUOUS
 70
0
 71
3
 72
28
 73
24
 74
22
 42
0.0000001
 43
0.0000001
 44
0.0000000001
 12
-0.000105832
 22
-0.1264226785
 32
0.0
 13
-0.0237632762
 23
-0.1241693051
 33
0.0
 40
0.0
 40
0.0
 40
0.0
 40
0.0
 40
0.0976751462
 40
0.1944833771
 40
0.2893701585
 40
0.3814457318
 40
0.4698602636
 40
0.553799143
 40
0.6324690263
 40
0.7051468365
 40
0.7711392964
 40
0.8298151487
 40
0.8805763504
 40
0.9028262733
 40
0.9229059713
 40
0.9407564958
 40
0.9563330088
 40
0.9695940925
 40
0.980498238
 40
0.9890082825
 40
0.995105021
 40
0.9987738115
 40
1.0
 40
1.0
 40
1.0
 40
1.0
 10
5.3909267924
 20
2.831651882
 30
0.0
 10
5.3909233467
 20
2.8275357641
 30
0.0
 10
5.3908375342
 20
2.8193399263
 30
0.0
 10
5.3904815779
 20
2.8071501158
 30
0.0
 10
5.3899079402
 20
2.7952048479
 30
0.0
 10
5.3891444177
 20
2.783624759
 30
0.0
 10
5.3882177582
 20
2.7725195462
 30
0.0
 10
5.3871673258
 20
2.7619930396
 30
0.0
 10
5.3860317373
 20
2.7521427337
 30
0.0
 10
5.3848556981
 20
2.7430593668
 30
0.0
 10
5.3836832237
 20
2.7348258828
 30
0.0
 10
5.382558285
 20
2.7275190794
 30
0.0
 10
5.3816606338
 20
2.7220426701
 30
0.0
 10
5.3810007426
 20
2.7181756295
 30
0.0
 10
5.3805647804
 20
2.7156773314
 30
0.0
 10
5.3801700885
 20
2.7134573184
 30
0.0
 10
5.3798199812
 20
2.7115212369
 30
0.0
 10
5.3795176226
 20
2.7098740019
 30
0.0
 10
5.3792660445
 20
2.7085202129
 30
0.0
 10
5.3790682362
 20
2.7074635138
 30
0.0
 10
5.3789255773
 20
2.7067066925
 30
0.0
 10
5.3788392674
 20
2.7062516036
 30
0.0
 10
5.3788005711
 20
2.7060489868
 30
0.0
 10
5.3787908583
 20
2.7059982351
 30
0.0
 11
5.3909267924
 21
2.831651882
 31
0.0
 11
5.3907984532
 21
2.819304191
 31
0.0
 11
5.3904405245
 21
2.8070706659
 31
0.0
 11
5.3898660839
 21
2.7950885825
 31
0.0
 11
5.3890998962
 21
2.7834733809
 31
0.0
 11
5.3881712222
 21
2.7723344206
 31
0.0
 11
5.3871174682
 21
2.7617750876
 31
0.0
 11
5.3859789095
 21
2.7518948116
 31
0.0
 11
5.3847993293
 21
2.7427827173
 31
0.0
 11
5.3836232913
 21
2.7345230751
 31
0.0
 11
5.3824948205
 21
2.7271914518
 31
0.0
 11
5.3814566812
 21
2.7208586092
 31
0.0
 11
5.3809835387
 21
2.7180857913
 31
0.0
 11
5.3805472263
 21
2.7155850381
 31
0.0
 11
5.3801521479
 21
2.7133631781
 31
0.0
 11
5.3798016991
 21
2.7114253873
 31
0.0
 11
5.3794990267
 21
2.7097764332
 31
0.0
 11
5.3792472776
 21
2.7084210837
 31
0.0
 11
5.3790492653
 21
2.7073635998
 31
0.0
 11
5.3789064486
 21
2.7066061804
 31
0.0
 11
5.3788199416
 21
2.7061505006
 31
0.0
 11
5.3787908583
 21
2.7059982351
 31
0.0
  0
SPLINE
  5
240
100
AcDbEntity
  8
0
100
AcDbSpline
 62
7
  6
CONTINUOUS
 70
0
 71
3
 72
17
 73
13
 74
11
 42
0.0000001
 43
0.0000001
 44
0.0000000001
 12
0.0002785195
 22
0.1255410938
 32
0.0
 13
0.018281504
 23
0.1242002273
 33
0.0
 40
0.0
 40
0.0
 40
0.0
 40
0.0
 40
0.0979642509
 40
0.1950224556
 40
0.2901222706
 40
0.382371269
 40
0.4709175329
 40
0.5549392945
 40
0.6336362148
 40
0.7062805316
 40
0.9234058452
 40
1.0
 40
1.0
 40
1.0
 40
1.0
 10
6.2184066562
 20
2.83291614
 30
0.0
 10
6.2184157512
 20
2.837015653
 30
0.0
 10
6.2184933824
 20
2.8451767465
 30
0.0
 10
6.21878099
 20
2.8573145167
 30
0.0
 10
6.2192324375
 20
2.8692079627
 30
0.0
 10
6.2198269192
 20
2.8807384121
 30
0.0
 10
6.2205444199
 20
2.891797304
 30
0.0
 10
6.2213553701
 20
2.9022809538
 30
0.0
 10
6.2222306576
 20
2.9120914855
 30
0.0
 10
6.2237667137
 20
2.9274342046
 30
0.0
 10
6.22560886
 20
2.942657355
 30
0.0
 10
6.2273345152
 20
2.9548272313
 30
0.0
 10
6.2278012674
 20
2.9579982351
 30
0.0
 11
6.2184066562
 21
2.83291614
 31
0.0
 11
6.2185229377
 21
2.8452141597
 31
0.0
 11
6.2188121494
 21
2.8573955501
 31
0.0
 11
6.2192643535
 21
2.8693259473
 31
0.0
 11
6.2198610061
 21
2.8808916361
 31
0.0
 11
6.2205802158
 21
2.8919845678
 31
0.0
 11
6.2213938761
 21
2.902501349
 31
0.0
 11
6.2222715773
 21
2.9123420066
 31
0.0
 11
6.2231800555
 21
2.9214165141
 31
0.0
 11
6.2264514237
 21
2.9484777135
 31
0.0
 11
6.2278012674
 21
2.9579982351
 31
0.0
  0
SPLINE
  5
241
100
AcDbEntity
  8
0
100
AcDbSpline
 62
7
  6
CONTINUOUS
 70
0
 71
3
 72
17
 73
13
 74
11
 42
0.0000001
 43
0.0000001
 44
0.0000000001
 12
0.0182815147
 22
-0.1242002264
 32
0.0
 13
0.0002785195
 23
-0.1255410937
 33
0.0
 40
0.0
 40
0.0
 40
0.0
 40
0.0
 40
0.0765937127
 40
0.2937178455
 40
0.3663617247
 40
0.4450583102
 40
0.5290797948
 40
0.6176258718
 40
0.7098750404
 40
0.804975742
 40
0.9020352266
 40
1.0
 40
1.0
 40
1.0
 40
1.0
 10
5.381531308
 20
2.9579982351
 30
0.0
 10
5.3819980577
 20
2.9548272497
 30
0.0
 10
5.3837237031
 20
2.9426574406
 30
0.0
 10
5.3855658376
 20
2.9274343757
 30
0.0
 10
5.3871018967
 20
2.912091739
 30
0.0
 10
5.3879771761
 20
2.9022812507
 30
0.0
 10
5.3887881359
 20
2.8917976352
 30
0.0
 10
5.3895056329
 20
2.8807387554
 30
0.0
 10
5.3901001252
 20
2.8692082701
 30
0.0
 10
5.3905515815
 20
2.8573147265
 30
0.0
 10
5.3908391816
 20
2.8451768436
 30
0.0
 10
5.3909168241
 20
2.8370156749
 30
0.0
 10
5.3909259191
 20
2.83291614
 30
0.0
 11
5.381531308
 21
2.9579982351
 31
0.0
 11
5.382881144
 21
2.9484777685
 31
0.0
 11
5.3861524979
 21
2.9214167167
 31
0.0
 11
5.3870609749
 21
2.9123422643
 31
0.0
 11
5.3879386726
 21
2.9025016485
 31
0.0
 11
5.3887523373
 21
2.8919849025
 31
0.0
 11
5.3894715471
 21
2.8808919944
 31
0.0
 11
5.390068207
 21
2.8693262846
 31
0.0
 11
5.3905204188
 21
2.8573957764
 31
0.0
 11
5.3908096309
 21
2.8452142252
 31
0.0
 11
5.3909259191
 21
2.83291614
 31
0.0
  0
ENDSEC
  0
SECTION
  2
OBJECTS
  0
DICTIONARY
  5
C
100
AcDbDictionary
280
0
281
1
  3
ACAD_GROUP
350
D
  3
ACAD_MLINESTYLE
350
17
  3
ACAD_LAYOUT
350
1A
  3
ACAD_PLOTSETTINGS
350
19
  3
ACAD_PLOTSTYLENAME
350
E
  0
DICTIONARY
  5
D
102
{ACAD_REACTORS
330
C
102
}
100
AcDbDictionary
280
0
281
1
  0
ACDBDICTIONARYWDFLT
  5
E
102
{ACAD_REACTORS
330
C
102
}
100
AcDbDictionary
281
1
  3
Normal
350
F
100
AcDbDictionaryWithDefault
340
F
  0
DICTIONARY
  5
17
102
{ACAD_REACTORS
330
C
102
}
100
AcDbDictionary
280
0
281
1
  3
Standard
350
18
  0
DICTIONARY
  5
19
102
{ACAD_REACTORS
330
C
102
}
100
AcDbDictionary
281
1
  0
DICTIONARY
  5
1A
102
{ACAD_REACTORS
330
C
102
}
100
AcDbDictionary
281
1
  3
Model
350
242
  3
Layout1
350
243
  0
ACDBPLACEHOLDER
  5
F
102
{ACAD_REACTORS
330
E
102
}
  0
MLINESTYLE
  5
18
102
{ACAD_REACTORS
330
17
102
}
100
AcDbMlineStyle
  2
STANDARD
 70
0
  3

 62
256
 51
90.0
 52
90.0
 71
2
 49
0.5
 62
256
  6
BYLAYER
 49
-0.5
 62
256
  6
BYLAYER
  0
LAYOUT
  5
242
102
{ACAD_REACTORS
330
1A
102
}
100
AcDbPlotSettings
  1

  2
none_device
  4
ISO_A4_(297.00_x_210.00_MM)
  6

 40
0.0
 41
0.0
 42
0.0
 43
0.0
 44
297.0
 45
210.0
 46
0.0
 47
0.0
 48
0.0
 49
0.0
140
0.0
141
0.0
142
1.0
143
1.0
 70
1024
 72
0
 73
0
 74
0
  7

 75
0
147
1.0
148
0.0
149
0.0
100
AcDbLayout
  1
Model
 70
0
 71
0
 10
0.0
 20
0.0
 11
11.6929133858
 21
8.2677165354
 12
0.0
 22
0.0
 32
0.0
 14
0.0
 24
0.0
 34
0.0
 15
0.0
 25
0.0
 35
0.0
146
0.0
 13
0.0
 23
0.0
 33
0.0
 16
1.0
 26
0.0
 36
0.0
 17
0.0
 27
1.0
 37
0.0
 76
0
330
203
345
0
346
0
  0
LAYOUT
  5
243
102
{ACAD_REACTORS
330
1A
102
}
100
AcDbPlotSettings
  1

  2
none_device
  4
ISO_A4_(297.00_x_210.00_MM)
  6

 40
0.0
 41
0.0
 42
0.0
 43
0.0
 44
297.0
 45
210.0
 46
0.0
 47
0.0
 48
0.0
 49
0.0
140
0.0
141
0.0
142
1.0
143
1.0
 70
0
 72
0
 73
0
 74
0
  7

 75
0
147
1.0
148
0.0
149
0.0
100
AcDbLayout
  1
Layout1
 70
0
 71
1
 10
0.0
 20
0.0
 11
11.6929133858
 21
8.2677165354
 12
0.0
 22
0.0
 32
0.0
 14
0.0
 24
0.0
 34
0.0
 15
0.0
 25
0.0
 35
0.0
146
0.0
 13
0.0
 23
0.0
 33
0.0
 16
1.0
 26
0.0
 36
0.0
 17
0.0
 27
1.0
 37
0.0
 76
0
330
204
345
0
346
0
  0
ENDSEC
  0
EOF
