  0
SECTION
  2
HEADER
  9
$ACADVER
  1
AC1015
  9
$DWGCODEPAGE
  3
ANSI_1252
  9
$EXTMAX
 10
11.6929133858
 20
8.2677165354
 30
0.0
  9
$EXTMIN
 10
0.0
 20
0.0
 30
0.0
  9
$LIMMIN
 10
0.0
 20
0.0
  9
$LIMMAX
 10
11.6929133858
 20
8.2677165354
  9
$VIEWCTR
 10
5.8464566929
 20
4.1338582677
  9
$VIEWSIZE
 40
8.2677165354
  9
$CLAYER
  8
0
  9
$LTSCALE
 40
0.6431102362
  9
$CELTYPE
  6
BYLAYER
  9
$DIMSCALE
 40
1.0
  9
$DIMASZ
 40
0.1875
  9
$DIMEXO
 40
0.0730807087
  9
$DIMDLI
 40
0.4443307087
  9
$DIMEXE
 40
0.2104724409
  9
$DIMCEN
 40
0.1052362205
  9
$DIMLFAC
 40
1.0
  9
$DIMBLK
  1
_CLOSED
  9
$DIMTXT
 40
0.15625
  9
$DIMTOL
 70
0
  9
$DIMLIM
 70
0
  9
$DIMTFAC
 40
1.0
  9
$PDMODE
 70
3
  9
$PDSIZE
 40
0.3125
  9
$HANDSEED
  5
256
  9
$TILEMODE
 70
1
  9
$MEASUREMENT
 70
0
  9
$INSUNITS
 70
1
  0
ENDSEC
  0
SECTION
  2
CLASSES
  0
CLASS
  1
ACDBDICTIONARYWDFLT
  2
AcDbDictionaryWithDefault
  3
AutoCAD 2000
 90
0
280
0
281
0
  0
CLASS
  1
ACDBPLACEHOLDER
  2
AcDbPlaceHolder
  3
AutoCAD 2000
 90
0
280
0
281
0
  0
CLASS
  1
LAYOUT
  2
AcDbLayout
  3
AutoCAD 2000
 90
0
280
0
281
0
  0
ENDSEC
  0
SECTION
  2
TABLES
  0
TABLE
  2
VPORT
  5
8
100
AcDbSymbolTable
 70
2
  0
VPORT
  5
1F4
100
AcDbSymbolTableRecord
100
AcDbViewportTableRecord
  2
*ACTIVE
 70
0
 10
0.0
 20
0.0
 11
1.0
 21
1.0
 12
5.8464566929
 22
4.1338582677
 13
0.0
 23
0.0
 14
1.0
 24
1.0
 15
0.0
 25
0.0
 16
0.0
 26
0.0
 36
1.0
 17
0.0
 27
0.0
 37
0.0
 40
8.2677165354
 41
1.4142857143
 42
50.0
 43
0.0
 44
0.0
 50
0.0
 51
0.0
 71
0
 72
100
 73
1
 74
1
 75
0
 76
0
 77
0
 78
0
  0
ENDTAB
  0
TABLE
  2
LTYPE
  5
5
100
AcDbSymbolTable
 70
6
  0
LTYPE
  5
14
100
AcDbSymbolTableRecord
100
AcDbLinetypeTableRecord
  2
BYBLOCK
 70
0
  3

 72
65
 73
0
 40
0.0
  0
LTYPE
  5
15
100
AcDbSymbolTableRecord
100
AcDbLinetypeTableRecord
  2
BYLAYER
 70
0
  3

 72
65
 73
0
 40
0.0
  0
LTYPE
  5
16
100
AcDbSymbolTableRecord
100
AcDbLinetypeTableRecord
  2
CONTINUOUS
 70
64
  3
Solid line
 72
65
 73
0
 40
0.0
  0
LTYPE
  5
1F5
100
AcDbSymbolTableRecord
100
AcDbLinetypeTableRecord
  2
CENTER
 70
64
  3
____ _ ____ _ ____ _ ____ _ ____ _ ____ _ ____
 72
65
 73
4
 40
0.6
 49
0.375
 74
0
 49
-0.075
 74
0
 49
0.075
 74
0
 49
-0.075
 74
0
  0
LTYPE
  5
1F6
100
AcDbSymbolTableRecord
100
AcDbLinetypeTableRecord
  2
HIDDEN
 70
64
  3
- - - - - - - - - - - - - - - - - - - -
 72
65
 73
2
 40
0.2
 49
0.1
 74
0
 49
-0.1
 74
0
  0
LTYPE
  5
1F7
100
AcDbSymbolTableRecord
100
AcDbLinetypeTableRecord
  2
PHANTOM
 70
64
  3
_____ _ _ _____ _ _ _____ _ _ _____
 72
65
 73
6
 40
0.8
 49
0.45
 74
0
 49
-0.05
 74
0
 49
0.1
 74
0
 49
-0.05
 74
0
 49
0.1
 74
0
 49
-0.05
 74
0
  0
LTYPE
  5
1F8
100
AcDbSymbolTableRecord
100
AcDbLinetypeTableRecord
  2
DOT
 70
64
  3
. . . . . . . . . . . . . . . . . . . .
 72
65
 73
2
 40
0.2
 49
0.1
 74
0
 49
-0.1
 74
0
  0
LTYPE
  5
1F9
100
AcDbSymbolTableRecord
100
AcDbLinetypeTableRecord
  2
DASHED
 70
64
  3
- - - - - - - - - - - - - - - - - - - -
 72
65
 73
2
 40
0.2
 49
0.1
 74
0
 49
-0.1
 74
0
  0
ENDTAB
  0
TABLE
  2
LAYER
  5
2
100
AcDbSymbolTable
 70
36
  0
LAYER
  5
10
100
AcDbSymbolTableRecord
100
AcDbLayerTableRecord
  2
0
 70
0
 62
7
  6
CONTINUOUS
370
-3
390
F
  0
LAYER
  5
1FA
100
AcDbSymbolTableRecord
100
AcDbLayerTableRecord
  2
DEFAULT_1
 70
0
 62
7
  6
CENTER
370
-3
390
F
  0
LAYER
  5
1FB
100
AcDbSymbolTableRecord
100
AcDbLayerTableRecord
  2
DEFAULT_2
 70
0
 62
8
  6
HIDDEN
370
-3
390
F
  0
LAYER
  5
1FC
100
AcDbSymbolTableRecord
100
AcDbLayerTableRecord
  2
DEFAULT_3
 70
0
 62
7
  6
PHANTOM
370
-3
390
F
  0
LAYER
  5
1FD
100
AcDbSymbolTableRecord
100
AcDbLayerTableRecord
  2
DEFAULT_COORDINATE_SYSTEM
 70
0
 62
7
  6
CONTINUOUS
370
-3
390
F
  0
LAYER
  5
1FE
100
AcDbSymbolTableRecord
100
AcDbLayerTableRecord
  2
DEFAULT_DATUM_AXES
 70
0
 62
7
  6
CONTINUOUS
370
-3
390
F
  0
LAYER
  5
1FF
100
AcDbSymbolTableRecord
100
AcDbLayerTableRecord
  2
DEFAULT_DATUM_CURVES
 70
0
 62
7
  6
CONTINUOUS
370
-3
390
F
  0
LAYER
  5
200
100
AcDbSymbolTableRecord
100
AcDbLayerTableRecord
  2
DEFAULT_DATUM_PLANES
 70
0
 62
7
  6
CONTINUOUS
370
-3
390
F
  0
ENDTAB
  0
TABLE
  2
STYLE
  5
3
100
AcDbSymbolTable
 70
1
  0
STYLE
  5
11
100
AcDbSymbolTableRecord
100
AcDbTextStyleTableRecord
  2
STANDARD
 70
0
 40
0.0
 41
0.8
 50
0.0
 71
0
 42
0.2
  3
txt
  4

  0
STYLE
  5
201
100
AcDbSymbolTableRecord
100
AcDbTextStyleTableRecord
  2
TEXTSTYLE_1
 70
0
 40
0.0
 41
0.8
 50
0.0
 71
0
 42
0.2
  3
gdt
  4

  0
ENDTAB
  0
TABLE
  2
VIEW
  5
6
100
AcDbSymbolTable
 70
0
  0
ENDTAB
  0
TABLE
  2
UCS
  5
7
100
AcDbSymbolTable
 70
0
  0
ENDTAB
  0
TABLE
  2
APPID
  5
9
100
AcDbSymbolTable
 70
1
  0
APPID
  5
202
100
AcDbSymbolTableRecord
100
AcDbRegAppTableRecord
  2
ACAD
 70
0
  0
ENDTAB
  0
TABLE
  2
BLOCK_RECORD
  5
1
100
AcDbSymbolTable
 70
0
  0
BLOCK_RECORD
  5
203
100
AcDbSymbolTableRecord
100
AcDbBlockTableRecord
  2
*Model_Space
  0
BLOCK_RECORD
  5
204
100
AcDbSymbolTableRecord
100
AcDbBlockTableRecord
  2
*Paper_Space
  0
ENDTAB
  0
TABLE
  2
DIMSTYLE
  5
A
100
AcDbSymbolTable
 70
1
100
AcDbDimStyleTable
 71
0
  0
DIMSTYLE
105
205
100
AcDbSymbolTableRecord
100
AcDbDimStyleTableRecord
  2
STANDARD
 70
0
  3

  4

 40
1.0
 41
0.1875
 42
0.0625
 43
0.38
 44
0.18
 45
0.0
 46
0.0
 47
0.01
 48
0.01
140
0.15625
141
0.09
142
0.0
143
25.4
144
1.0
145
0.0
146
1.0
147
0.09
 71
0.0
 72
0.0
 73
1
 74
1
 75
0
 76
0
 77
0
 78
4
170
0
171
2
172
0
173
0
174
0
175
0
176
0
177
0
178
0
270
2
271
2
272
2
273
2
274
2
275
0
280
0
281
0
282
0
283
1
284
4
285
0
286
0
287
3
288
0
340
11
  0
ENDTAB
  0
ENDSEC
  0
SECTION
  2
BLOCKS
  0
BLOCK
  5
20
100
AcDbEntity
  8
0
100
AcDbBlockBegin
  2
*Model_Space
 70
0
 10
0.0
 20
0.0
 30
0.0
  3
*Model_Space
  1

  0
ENDBLK
  5
21
100
AcDbEntity
  8
0
100
AcDbBlockEnd
  0
BLOCK
  5
1C
100
AcDbEntity
  8
0
100
AcDbBlockBegin
  2
*Paper_Space
 70
0
 10
0.0
 20
0.0
 30
0.0
  3
*Paper_Space
  1

  0
ENDBLK
  5
1D
100
AcDbEntity
  8
0
100
AcDbBlockEnd
  0
ENDSEC
  0
SECTION
  2
ENTITIES
  0
LINE
  5
206
100
AcDbEntity
  8
0
100
AcDbLine
 62
9
  6
CONTINUOUS
 10
3.1197050038
 20
3.8989324128
 11
3.1197050038
 21
4.0277467519
  0
LINE
  5
207
100
AcDbEntity
  8
0
100
AcDbLine
 62
9
  6
CONTINUOUS
 10
3.1197050038
 20
4.3951850335
 11
3.1197050038
 21
4.5239324128
  0
LINE
  5
208
100
AcDbEntity
  8
0
100
AcDbLine
 62
9
  6
CONTINUOUS
 10
3.1923234415
 20
3.8676824128
 11
3.1923234415
 21
4.5551824128
  0
LINE
  5
209
100
AcDbEntity
  8
0
100
AcDbLine
 62
9
  6
CONTINUOUS
 10
3.2649418793
 20
3.8364324128
 11
3.2649418793
 21
4.5864324128
  0
LWPOLYLINE
  5
20A
100
AcDbEntity
  8
0
100
AcDbPolyline
 62
6
  6
CONTINUOUS
 90
12
 70
0
 10
3.7327067472
 20
4.5753549588
 10
3.729421321
 20
4.5796381983
 10
3.725903628
 20
4.5837365501
 10
3.7222683067
 20
4.5874636035
 10
3.7184713607
 20
4.590834461
 10
3.7144831573
 20
4.5938400822
 10
3.7103038379
 20
4.5964461681
 10
3.705979857
 20
4.5986003914
 10
3.7015862769
 20
4.6002597812
 10
3.6971997705
 20
4.6014063765
 10
3.6928982419
 20
4.6020440474
 10
3.689429431
 20
4.6022044797
  0
LINE
  5
20B
100
AcDbEntity
  8
0
100
AcDbLine
 62
9
  6
CONTINUOUS
 10
3.7327397623
 20
4.5753119167
 11
3.7326880885
 21
4.5753825592
  0
LINE
  5
20C
100
AcDbEntity
  8
0
100
AcDbLine
 62
6
  6
CONTINUOUS
 10
3.7327370736
 20
4.5753100991
 11
3.7326880885
 21
4.5753825592
  0
LINE
  5
20D
100
AcDbEntity
  8
0
100
AcDbLine
 62
6
  6
CONTINUOUS
 10
5.5847050038
 20
4.6114324128
 11
5.5847050038
 21
3.8114324128
  0
LWPOLYLINE
  5
20E
100
AcDbEntity
  8
0
100
AcDbPolyline
 62
6
  6
CONTINUOUS
 90
5
 70
0
 10
7.7688382623
 20
3.8089446952
 10
7.7724925062
 20
3.8091116388
 10
7.7770134101
 20
3.8097754449
 10
7.7816148914
 20
3.8109700015
 10
7.7828440064
 20
3.8114324128
  0
LWPOLYLINE
  5
20F
100
AcDbEntity
  8
0
100
AcDbPolyline
 62
6
  6
CONTINUOUS
 90
8
 70
0
 10
8.2488326323
 20
3.800158071
 10
8.2524447566
 20
3.8003224646
 10
8.2568771415
 20
3.8009687893
 10
8.2613786455
 20
3.8021261513
 10
8.2659081924
 20
3.8038121879
 10
8.2704133639
 20
3.806034505
 10
8.2748004369
 20
3.8087617506
 10
8.2783272414
 20
3.8114324128
  0
LWPOLYLINE
  5
210
100
AcDbEntity
  8
0
100
AcDbPolyline
 62
6
  6
CONTINUOUS
 90
5
 70
0
 10
4.8884141972
 20
3.8331926566
 10
4.892122288
 20
3.8333606655
 10
4.8967168985
 20
3.8340302343
 10
4.9013983375
 20
3.8352370415
 10
4.904597447
 20
3.8364324128
  0
LWPOLYLINE
  5
211
100
AcDbEntity
  8
0
100
AcDbPolyline
 62
6
  6
CONTINUOUS
 90
7
 70
0
 10
4.4084163341
 20
3.82825889
 10
4.4121086281
 20
3.8284262829
 10
4.4166831706
 20
3.8290932843
 10
4.4213431501
 20
3.8302951478
 10
4.4260215084
 20
3.8320440538
 10
4.4306475102
 20
3.8343339312
 10
4.4340175816
 20
3.8364324128
  0
LWPOLYLINE
  5
212
100
AcDbEntity
  8
0
100
AcDbPolyline
 62
6
  6
CONTINUOUS
 90
9
 70
0
 10
3.9284182173
 20
3.8233251266
 10
3.9320816286
 20
3.8234907028
 10
3.9366228077
 20
3.8241509376
 10
3.9412481376
 20
3.8253405565
 10
3.9458901485
 20
3.8270710088
 10
3.9504777793
 20
3.8293352803
 10
3.9549412259
 20
3.832106106
 10
3.9592160458
 20
3.8353334817
 10
3.9604425686
 20
3.8364324128
  0
LWPOLYLINE
  5
213
100
AcDbEntity
  8
0
100
AcDbPolyline
 62
6
  6
CONTINUOUS
 90
20
 70
0
 10
3.6018898445
 20
3.8188046841
 10
3.6036027854
 20
3.8188621203
 10
3.6058694117
 20
3.8191121939
 10
3.6081756185
 20
3.819568615
 10
3.6104743802
 20
3.8202294543
 10
3.612721119
 20
3.8210826989
 10
3.6148739718
 20
3.8221070799
 10
3.6168952863
 20
3.8232730881
 10
3.6187495339
 20
3.8245414769
 10
3.6204068377
 20
3.8258643553
 10
3.6218521917
 20
3.8271936899
 10
3.6230871938
 20
3.8284887684
 10
3.6241232565
 20
3.8297160197
 10
3.6249933504
 20
3.8308710883
 10
3.6257461457
 20
3.8319860336
 10
3.6264162779
 20
3.8330933991
 10
3.6270227232
 20
3.8342149384
 10
3.627561784
 20
3.8353323902
 10
3.6280286202
 20
3.83641676
 10
3.6280346472
 20
3.8364324128
  0
LWPOLYLINE
  5
214
100
AcDbEntity
  8
0
100
AcDbPolyline
 62
6
  6
CONTINUOUS
 90
21
 70
0
 10
8.4763955033
 20
3.7937517016
 10
8.4780717128
 20
3.7938068121
 10
8.4803236964
 20
3.7940519168
 10
8.4826290917
 20
3.7945044242
 10
8.4849317409
 20
3.7951630621
 10
8.4871788058
 20
3.7960136248
 10
8.4893215154
 20
3.7970302367
 10
8.4913176642
 20
3.7981773291
 10
8.4931398967
 20
3.7994166288
 10
8.4947728176
 20
3.8007097924
 10
8.496209833
 20
3.80201926
 10
8.4974529607
 20
3.8033107232
 10
8.4985111693
 20
3.8045544808
 10
8.4994121166
 20
3.8057453005
 10
8.5001956239
 20
3.8069065836
 10
8.5008906159
 20
3.8080632008
 10
8.5015124523
 20
3.8092294546
 10
8.5020576535
 20
3.8103837367
 10
8.5025230924
 20
3.8114960985
 10
8.5029117884
 20
3.8125427587
 10
8.5031460215
 20
3.8132509319
  0
LINE
  5
215
100
AcDbEntity
  8
0
100
AcDbLine
 62
6
  6
CONTINUOUS
 10
8.450293401
 20
3.8114324128
 11
5.5847050038
 21
3.8114324128
  0
LINE
  5
216
100
AcDbEntity
  8
0
100
AcDbLine
 62
6
  6
CONTINUOUS
 10
5.5847050038
 20
3.8364324128
 11
3.2649418793
 21
3.8364324128
  0
LINE
  5
217
100
AcDbEntity
  8
0
100
AcDbLine
 62
6
  6
CONTINUOUS
 10
8.7126148245
 20
3.8989324128
 11
8.6497050038
 21
3.8989324128
  0
LINE
  5
218
100
AcDbEntity
  8
0
100
AcDbLine
 62
6
  6
CONTINUOUS
 10
3.1197050038
 20
3.8989324128
 11
3.0567949088
 21
3.8989324128
  0
LWPOLYLINE
  5
219
100
AcDbEntity
  8
0
100
AcDbPolyline
 62
6
  6
CONTINUOUS
 90
7
 70
0
 10
8.0088354414
 20
4.61831344
 10
8.005288074
 20
4.6181554456
 10
8.0007318545
 20
4.6174938048
 10
7.9960555387
 20
4.6162787094
 10
7.9913768023
 20
4.614506153
 10
7.9868100804
 20
4.6122102105
 10
7.9855795371
 20
4.6114324128
  0
LWPOLYLINE
  5
21A
100
AcDbEntity
  8
0
100
AcDbPolyline
 62
6
  6
CONTINUOUS
 90
15
 70
0
 10
8.4475758651
 20
4.6280106843
 10
8.4454341344
 20
4.627926639
 10
8.4426478616
 20
4.627569445
 10
8.4398555321
 20
4.6269316129
 10
8.4371550248
 20
4.6260418751
 10
8.4346321189
 20
4.6249546114
 10
8.4323168455
 20
4.6237202508
 10
8.4301884154
 20
4.6223628281
 10
8.4282273677
 20
4.6208970673
 10
8.4264256754
 20
4.6193394565
 10
8.4247978618
 20
4.6177279109
 10
8.4233466361
 20
4.616097805
 10
8.4220588375
 20
4.6144712137
 10
8.4209101279
 20
4.6128536042
 10
8.4199976398
 20
4.6114324128
  0
LINE
  5
21B
100
AcDbEntity
  8
0
100
AcDbLine
 62
6
  6
CONTINUOUS
 10
8.7126150987
 20
4.5239324128
 11
8.6497050038
 21
4.5239324128
  0
LINE
  5
21C
100
AcDbEntity
  8
0
100
AcDbLine
 62
6
  6
CONTINUOUS
 10
3.1197050038
 20
4.5239324128
 11
3.0567951831
 21
4.5239324128
  0
LWPOLYLINE
  5
21D
100
AcDbEntity
  8
0
100
AcDbPolyline
 62
6
  6
CONTINUOUS
 90
10
 70
0
 10
3.6894296787
 20
4.6022044797
 10
3.6860800731
 20
4.6020542068
 10
3.6819430967
 20
4.601456461
 10
3.677770324
 20
4.6003892595
 10
3.6735822722
 20
4.5988334333
 10
3.6694192326
 20
4.5967734283
 10
3.6653844474
 20
4.5942384968
 10
3.6615925943
 20
4.591308503
 10
3.6580981971
 20
4.5880655093
 10
3.6566055944
 20
4.5864324128
  0
LWPOLYLINE
  5
21E
100
AcDbEntity
  8
0
100
AcDbPolyline
 62
6
  6
CONTINUOUS
 90
6
 70
0
 10
4.6484153479
 20
4.5921390536
 10
4.6447825653
 20
4.5919773773
 10
4.6401972645
 20
4.5913164314
 10
4.6355253495
 20
4.5901194194
 10
4.6308340297
 20
4.5883739942
 10
4.6268964976
 20
4.5864324128
  0
LWPOLYLINE
  5
21F
100
AcDbEntity
  8
0
100
AcDbPolyline
 62
6
  6
CONTINUOUS
 90
8
 70
0
 10
4.1684172527
 20
4.5970728167
 10
4.1648269582
 20
4.5969141287
 10
4.1602924738
 20
4.5962648538
 10
4.1556735533
 20
4.5950892289
 10
4.1510350896
 20
4.5933750242
 10
4.1464462211
 20
4.5911276564
 10
4.1419764775
 20
4.5883728139
 10
4.1393888075
 20
4.5864324128
  0
LWPOLYLINE
  5
220
100
AcDbEntity
  8
0
100
AcDbPolyline
 62
6
  6
CONTINUOUS
 90
3
 70
0
 10
5.1284131205
 20
4.5872052856
 10
5.1248005601
 20
4.5870461763
 10
5.1205003573
 20
4.5864324128
  0
LINE
  5
221
100
AcDbEntity
  8
0
100
AcDbLine
 62
6
  6
CONTINUOUS
 10
5.5847050038
 20
4.5864324128
 11
3.6108831331
 21
4.5864324128
  0
LINE
  5
222
100
AcDbEntity
  8
0
100
AcDbLine
 62
6
  6
CONTINUOUS
 10
3.5592929967
 20
4.5864324128
 11
3.2649418793
 21
4.5864324128
  0
LINE
  5
223
100
AcDbEntity
  8
0
100
AcDbLine
 62
6
  6
CONTINUOUS
 10
8.4843455468
 20
4.6114324128
 11
5.5847050038
 21
4.6114324128
  0
LINE
  5
224
100
AcDbEntity
  8
0
100
AcDbLine
 62
9
  6
CONTINUOUS
 10
8.5670252753
 20
4.5676824128
 11
8.5670252753
 21
3.8551824128
  0
LINE
  5
225
100
AcDbEntity
  8
0
100
AcDbLine
 62
9
  6
CONTINUOUS
 10
8.6497050038
 20
4.5239324128
 11
8.6497050038
 21
4.3951180736
  0
LINE
  5
226
100
AcDbEntity
  8
0
100
AcDbLine
 62
9
  6
CONTINUOUS
 10
8.6497050038
 20
4.027679792
 11
8.6497050038
 21
3.8989324128
  0
ARC
  5
227
100
AcDbEntity
  8
0
100
AcDbCircle
 62
7
  6
CONTINUOUS
 10
2.5622778262
 20
4.2114112174
 40
0.5870740719
100
AcDbArc
 50
356.0804758859
 51
0.0020685768
  0
ARC
  5
228
100
AcDbEntity
  8
0
100
AcDbCircle
 62
6
  6
CONTINUOUS
 10
3.1197050038
 20
3.7989324128
 40
0.1
100
AcDbArc
 50
43.4325365578
 51
90.0
  0
ARC
  5
229
100
AcDbEntity
  8
0
100
AcDbCircle
 62
6
  6
CONTINUOUS
 10
3.2649418793
 20
3.9364324128
 40
0.1
100
AcDbArc
 50
223.4325365578
 51
270.0
  0
ARC
  5
22A
100
AcDbEntity
  8
0
100
AcDbCircle
 62
6
  6
CONTINUOUS
 10
2.7597050038
 20
4.2114324128
 40
1.175
100
AcDbArc
 50
18.6117641056
 51
341.3882358943
  0
ARC
  5
22B
100
AcDbEntity
  8
0
100
AcDbCircle
 62
9
  6
CONTINUOUS
 10
2.7597050038
 20
4.2114324128
 40
1.1065117064
100
AcDbArc
 50
19.8347516714
 51
340.1652483286
  0
ARC
  5
22C
100
AcDbEntity
  8
0
100
AcDbCircle
 62
6
  6
CONTINUOUS
 10
2.7597050038
 20
4.2114324128
 40
0.8249370024
100
AcDbArc
 50
27.0422011277
 51
332.9577988722
  0
ARC
  5
22D
100
AcDbEntity
  8
0
100
AcDbCircle
 62
6
  6
CONTINUOUS
 10
2.7597050038
 20
4.2114324128
 40
0.75
100
AcDbArc
 50
30.0719431757
 51
329.9280568243
  0
ARC
  5
22E
100
AcDbEntity
  8
0
100
AcDbCircle
 62
7
  6
CONTINUOUS
 10
2.5617527543
 20
4.211435651
 40
0.5875991433
100
AcDbArc
 50
359.9996842505
 51
3.9177712869
  0
ARC
  5
22F
100
AcDbEntity
  8
0
100
AcDbCircle
 62
9
  6
CONTINUOUS
 10
2.7597050038
 20
4.2114324128
 40
0.5857901033
100
AcDbArc
 50
38.4115982169
 51
321.5884017831
  0
ARC
  5
230
100
AcDbEntity
  8
0
100
AcDbCircle
 62
7
  6
CONTINUOUS
 10
2.7597050038
 20
4.2114324128
 40
0.4325
100
AcDbArc
 50
47.2315264511
 51
312.7684735489
  0
ARC
  5
231
100
AcDbEntity
  8
0
100
AcDbCircle
 62
7
  6
CONTINUOUS
 10
2.7597050038
 20
4.2114324128
 40
0.3905882029
100
AcDbArc
 50
6.8595166115
 51
353.1404833885
  0
ARC
  5
232
100
AcDbEntity
  8
0
100
AcDbCircle
 62
7
  6
CONTINUOUS
 10
2.7597050038
 20
4.2114324128
 40
0.3903441907
100
AcDbArc
 50
5.9038845523
 51
354.0961154477
  0
CIRCLE
  5
233
100
AcDbEntity
  8
0
100
AcDbCircle
 62
9
  6
CONTINUOUS
 10
2.7597050038
 20
4.2114324128
 40
0.275291821
  0
CIRCLE
  5
234
100
AcDbEntity
  8
0
100
AcDbCircle
 62
9
  6
CONTINUOUS
 10
2.7597050038
 20
4.2114324128
 40
0.154558207
  0
CIRCLE
  5
235
100
AcDbEntity
  8
0
100
AcDbCircle
 62
9
  6
CONTINUOUS
 10
2.7597050038
 20
4.2114324128
 40
0.1261955382
  0
ARC
  5
236
100
AcDbEntity
  8
0
100
AcDbCircle
 62
6
  6
CONTINUOUS
 10
3.1197050038
 20
4.6239324128
 40
0.1
100
AcDbArc
 50
270.0
 51
316.5674634422
  0
ARC
  5
237
100
AcDbEntity
  8
0
100
AcDbCircle
 62
6
  6
CONTINUOUS
 10
3.2649418793
 20
4.4864324128
 40
0.1
100
AcDbArc
 50
90.0
 51
136.5674634422
  0
ARC
  5
238
100
AcDbEntity
  8
0
100
AcDbCircle
 62
9
  6
CONTINUOUS
 10
3.7119400534
 20
4.560440045
 40
0.0255526926
100
AcDbArc
 50
35.7623360917
 51
36.0766967389
  0
ARC
  5
239
100
AcDbEntity
  8
0
100
AcDbCircle
 62
7
  6
CONTINUOUS
 10
9.2076572532
 20
4.2114291746
 40
0.5875991433
100
AcDbArc
 50
179.9996842505
 51
183.9177712869
  0
ARC
  5
23A
100
AcDbEntity
  8
0
100
AcDbCircle
 62
6
  6
CONTINUOUS
 10
8.4843455468
 20
3.9114324128
 40
0.1
100
AcDbArc
 50
288.4548060399
 51
325.7711336722
  0
ARC
  5
23B
100
AcDbEntity
  8
0
100
AcDbCircle
 62
6
  6
CONTINUOUS
 10
8.6497050038
 20
3.7989324128
 40
0.1
100
AcDbArc
 50
90.0
 51
145.7711336722
  0
ARC
  5
23C
100
AcDbEntity
  8
0
100
AcDbCircle
 62
6
  6
CONTINUOUS
 10
8.4843455468
 20
4.5114324128
 40
0.1
100
AcDbArc
 50
34.2288663278
 51
90.0
  0
ARC
  5
23D
100
AcDbEntity
  8
0
100
AcDbCircle
 62
6
  6
CONTINUOUS
 10
8.6497050038
 20
4.6239324128
 40
0.1
100
AcDbArc
 50
214.2288663278
 51
270.0
  0
ARC
  5
23E
100
AcDbEntity
  8
0
100
AcDbCircle
 62
6
  6
CONTINUOUS
 10
9.0097050038
 20
4.2114324128
 40
1.175
100
AcDbArc
 50
199.904934384
 51
160.095065616
  0
ARC
  5
23F
100
AcDbEntity
  8
0
100
AcDbCircle
 62
9
  6
CONTINUOUS
 10
9.0097050038
 20
4.2114324128
 40
1.1065117064
100
AcDbArc
 50
201.21018772
 51
158.78981228
  0
ARC
  5
240
100
AcDbEntity
  8
0
100
AcDbCircle
 62
6
  6
CONTINUOUS
 10
9.0097050038
 20
4.2114324128
 40
0.8249370024
100
AcDbArc
 50
209.0094651899
 51
150.99053481
  0
ARC
  5
241
100
AcDbEntity
  8
0
100
AcDbCircle
 62
6
  6
CONTINUOUS
 10
9.0097050038
 20
4.2114324128
 40
0.75
100
AcDbArc
 50
212.2498271503
 51
147.7501728497
  0
ARC
  5
242
100
AcDbEntity
  8
0
100
AcDbCircle
 62
7
  6
CONTINUOUS
 10
9.2071321814
 20
4.2114536082
 40
0.5870740719
100
AcDbArc
 50
176.0804758859
 51
180.0020685768
  0
ARC
  5
243
100
AcDbEntity
  8
0
100
AcDbCircle
 62
9
  6
CONTINUOUS
 10
9.0097050038
 20
4.2114324128
 40
0.5857901033
100
AcDbArc
 50
219.1655829298
 51
140.8344170702
  0
ARC
  5
244
100
AcDbEntity
  8
0
100
AcDbCircle
 62
7
  6
CONTINUOUS
 10
9.0097050038
 20
4.2114324128
 40
0.4325
100
AcDbArc
 50
227.2315264511
 51
132.7684735489
  0
ARC
  5
245
100
AcDbEntity
  8
0
100
AcDbCircle
 62
7
  6
CONTINUOUS
 10
9.0097050038
 20
4.2114324128
 40
0.3905882029
100
AcDbArc
 50
186.8595166115
 51
173.1404833885
  0
ARC
  5
246
100
AcDbEntity
  8
0
100
AcDbCircle
 62
7
  6
CONTINUOUS
 10
9.0097050038
 20
4.2114324128
 40
0.3903441907
100
AcDbArc
 50
185.9038845523
 51
174.0961154477
  0
CIRCLE
  5
247
100
AcDbEntity
  8
0
100
AcDbCircle
 62
9
  6
CONTINUOUS
 10
9.0097050038
 20
4.2114324128
 40
0.275291821
  0
CIRCLE
  5
248
100
AcDbEntity
  8
0
100
AcDbCircle
 62
9
  6
CONTINUOUS
 10
9.0097050038
 20
4.2114324128
 40
0.154558207
  0
CIRCLE
  5
249
100
AcDbEntity
  8
0
100
AcDbCircle
 62
9
  6
CONTINUOUS
 10
9.0097050038
 20
4.2114324128
 40
0.1261955382
  0
SPLINE
  5
24A
100
AcDbEntity
  8
0
100
AcDbSpline
 62
7
  6
CONTINUOUS
 70
0
 71
3
 72
62
 73
58
 74
56
 42
0.0000001
 43
0.0000001
 44
0.0000000001
 12
0.0230103943
 22
-0.2891003931
 32
0.0
 13
0.2129008243
 23
-0.1969308366
 33
0.0
 40
0.0
 40
0.0
 40
0.0
 40
0.0
 40
0.0491199546
 40
0.0978624923
 40
0.1461130478
 40
0.1937555991
 40
0.2406894539
 40
0.2868491911
 40
0.3321719726
 40
0.3765932893
 40
0.4200527723
 40
0.462491198
 40
0.5038470796
 40
0.5440628253
 40
0.5830847397
 40
0.6208567267
 40
0.6573202351
 40
0.6924141446
 40
0.7260745987
 40
0.7582323208
 40
0.7888114808
 40
0.8177333444
 40
0.8449121839
 40
0.8702522457
 40
0.8936547785
 40
0.9150169942
 40
0.9248990854
 40
0.9342300366
 40
0.9429959
 40
0.9511826482
 40
0.9587769389
 40
0.9657665014
 40
0.9721390986
 40
0.9778824384
 40
0.9829841772
 40
0.985290576
 40
0.9874320284
 40
0.989407657
 40
0.9912167801
 40
0.9928587155
 40
0.9943327805
 40
0.9956382919
 40
0.9967745663
 40
0.9977409194
 40
0.9981601616
 40
0.998536667
 40
0.9988703498
 40
0.9991611247
 40
0.9994089062
 40
0.999613609
 40
0.9997751484
 40
0.9998397056
 40
0.9998934408
 40
0.9999363442
 40
0.9999684068
 40
0.9999896226
 40
1.0
 40
1.0
 40
1.0
 40
1.0
 10
8.6219126394
 20
4.164782371
 30
0.0
 10
8.6222893959
 20
4.1600488382
 30
0.0
 10
8.6231558458
 20
4.1506269615
 30
0.0
 10
8.6247889753
 20
4.1365954201
 30
0.0
 10
8.6267366713
 20
4.1227482355
 30
0.0
 10
8.6289847011
 20
4.1091238449
 30
0.0
 10
8.6315183327
 20
4.0957553729
 30
0.0
 10
8.6343157623
 20
4.0826689152
 30
0.0
 10
8.6373564799
 20
4.0698864249
 30
0.0
 10
8.6406205965
 20
4.0574288677
 30
0.0
 10
8.6440851853
 20
4.0453153993
 30
0.0
 10
8.647725984
 20
4.0335636692
 30
0.0
 10
8.6515197929
 20
4.0221905904
 30
0.0
 10
8.6554419209
 20
4.0112113012
 30
0.0
 10
8.6594659145
 20
4.0006389174
 30
0.0
 10
8.6635662128
 20
3.9904861346
 30
0.0
 10
8.6677160184
 20
3.9807651407
 30
0.0
 10
8.6718868466
 20
3.971487358
 30
0.0
 10
8.6760506275
 20
3.962664667
 30
0.0
 10
8.6801779793
 20
3.9543091084
 30
0.0
 10
8.6842376172
 20
3.9464325393
 30
0.0
 10
8.688198283
 20
3.9390477712
 30
0.0
 10
8.6920275335
 20
3.9321683947
 30
0.0
 10
8.6956911293
 20
3.9258084296
 30
0.0
 10
8.6991545308
 20
3.91998287
 30
0.0
 10
8.7019120349
 20
3.9154766947
 30
0.0
 10
8.7039895941
 20
3.9121495813
 30
0.0
 10
8.7054349794
 20
3.9098633861
 30
0.0
 10
8.706804095
 20
3.9077229158
 30
0.0
 10
8.7080925471
 20
3.9057301784
 30
0.0
 10
8.7092962021
 20
3.9038871281
 30
0.0
 10
8.7104113602
 20
3.9021957711
 30
0.0
 10
8.7114343376
 20
3.9006579835
 30
0.0
 10
8.7123614681
 20
3.8992756426
 30
0.0
 10
8.7130732039
 20
3.8982221582
 30
0.0
 10
8.7135916829
 20
3.8974583325
 30
0.0
 10
8.7139410533
 20
3.8969449695
 30
0.0
 10
8.7142639462
 20
3.8964717366
 30
0.0
 10
8.7145601573
 20
3.8960387574
 30
0.0
 10
8.7148294892
 20
3.8956461379
 30
0.0
 10
8.7150717456
 20
3.8952939843
 30
0.0
 10
8.7152867294
 20
3.8949824025
 30
0.0
 10
8.7154742441
 20
3.8947114987
 30
0.0
 10
8.7156133259
 20
3.8945112703
 30
0.0
 10
8.7157107173
 20
3.8943715121
 30
0.0
 10
8.7157732375
 20
3.8942820005
 30
0.0
 10
8.7158287428
 20
3.8942027378
 30
0.0
 10
8.7158772085
 20
3.8941337374
 30
0.0
 10
8.7159186087
 20
3.8940750113
 30
0.0
 10
8.7159529195
 20
3.8940265737
 30
0.0
 10
8.7159770934
 20
3.8939926612
 30
0.0
 10
8.7159928853
 20
3.8939706979
 30
0.0
 10
8.7160020214
 20
3.8939580724
 30
0.0
 10
8.7160093777
 20
3.8939480424
 30
0.0
 10
8.7160149031
 20
3.8939405544
 30
0.0
 10
8.7160186908
 20
3.8939357219
 30
0.0
 10
8.71602056
 20
3.8939332829
 30
0.0
 10
8.7160212964
 20
3.8939326017
 30
0.0
 11
8.6219126394
 21
4.164782371
 31
0.0
 11
8.6232164705
 21
4.1505966555
 31
0.0
 11
8.6248505445
 21
4.136555368
 31
0.0
 11
8.6268000508
 21
4.122698463
 31
0.0
 11
8.6290501713
 21
4.1090658722
 31
0.0
 11
8.6315845039
 21
4.0956923805
 31
0.0
 11
8.6343830742
 21
4.0826011692
 31
0.0
 11
8.6374254185
 21
4.0698138306
 31
0.0
 11
8.640690885
 21
4.0573517224
 31
0.0
 11
8.6441568592
 21
4.0452337597
 31
0.0
 11
8.6477995607
 21
4.0334774065
 31
0.0
 11
8.6515951554
 21
4.0221000163
 31
0.0
 11
8.6555188502
 21
4.0111166724
 31
0.0
 11
8.6595448506
 21
4.0005400859
 31
0.0
 11
8.6636472854
 21
3.990382843
 31
0.0
 11
8.6677992758
 21
3.9806570731
 31
0.0
 11
8.6719727151
 21
3.9713743483
 31
0.0
 11
8.6761393935
 21
3.9625462148
 31
0.0
 11
8.680269876
 21
3.9541845562
 31
0.0
 11
8.6843330571
 21
3.9463017158
 31
0.0
 11
8.6882976952
 21
3.9389100821
 31
0.0
 11
8.6921313788
 21
3.9320229251
 31
0.0
 11
8.6957997496
 21
3.9256549813
 31
0.0
 11
8.6992682641
 21
3.9198211286
 31
0.0
 11
8.7025021669
 21
3.9145367828
 31
0.0
 11
8.7040201378
 21
3.9121058483
 31
0.0
 11
8.7054662422
 21
3.9098185292
 31
0.0
 11
8.7068360707
 21
3.907676918
 31
0.0
 11
8.708125219
 21
3.9056831054
 31
0.0
 11
8.7093295644
 21
3.9038390978
 31
0.0
 11
8.7104453992
 21
3.9021467773
 31
0.0
 11
8.7114690492
 21
3.9006080158
 31
0.0
 11
8.7123968402
 21
3.8992246853
 31
0.0
 11
8.7132250979
 21
3.8979986577
 31
0.0
 11
8.7136007536
 21
3.8974452175
 31
0.0
 11
8.7139501794
 21
3.8969317898
 31
0.0
 11
8.71427312
 21
3.8964585098
 31
0.0
 11
8.714569379
 21
3.8960254837
 31
0.0
 11
8.7148387601
 21
3.8956328181
 31
0.0
 11
8.7150810671
 21
3.8952806193
 31
0.0
 11
8.7152961036
 21
3.8949689937
 31
0.0
 11
8.7154836733
 21
3.8946980477
 31
0.0
 11
8.7156435799
 21
3.8944678877
 31
0.0
 11
8.7157130983
 21
3.8943681357
 31
0.0
 11
8.7157756272
 21
3.8942786201
 31
0.0
 11
8.7158311422
 21
3.8941993542
 31
0.0
 11
8.7158796188
 21
3.8941303513
 31
0.0
 11
8.7159210323
 21
3.8940716247
 31
0.0
 11
8.7159553584
 21
3.8940231877
 31
0.0
 11
8.7159825723
 21
3.8939850536
 31
0.0
 11
8.7159935046
 21
3.8939698543
 31
0.0
 11
8.7160026497
 21
3.8939572357
 31
0.0
 11
8.7160100045
 21
3.8939471995
 31
0.0
 11
8.7160155659
 21
3.8939397473
 31
0.0
 11
8.7160193309
 21
3.8939348808
 31
0.0
 11
8.7160212964
 21
3.8939326017
 31
0.0
  0
SPLINE
  5
24B
100
AcDbEntity
  8
0
100
AcDbSpline
 62
7
  6
CONTINUOUS
 70
0
 71
3
 72
62
 73
58
 74
56
 42
0.0000001
 43
0.0000001
 44
0.0000000001
 12
-0.0230103943
 22
0.2891003931
 32
0.0
 13
-0.2129008246
 23
0.1969308366
 33
0.0
 40
0.0
 40
0.0
 40
0.0
 40
0.0
 40
0.0491199546
 40
0.0978624923
 40
0.1461130478
 40
0.1937555991
 40
0.2406894539
 40
0.2868491911
 40
0.3321719726
 40
0.3765932893
 40
0.4200527723
 40
0.462491198
 40
0.5038470796
 40
0.5440628253
 40
0.5830847397
 40
0.6208567267
 40
0.6573202351
 40
0.6924141446
 40
0.7260745987
 40
0.7582323208
 40
0.7888114808
 40
0.8177333444
 40
0.8449121839
 40
0.8702522457
 40
0.8936547785
 40
0.9150169942
 40
0.9248990854
 40
0.9342300366
 40
0.9429959
 40
0.9511826482
 40
0.9587769389
 40
0.9657665014
 40
0.9721390986
 40
0.9778824384
 40
0.9829841772
 40
0.985290576
 40
0.9874320284
 40
0.989407657
 40
0.9912167801
 40
0.9928587155
 40
0.9943327805
 40
0.9956382919
 40
0.9967745663
 40
0.9977409194
 40
0.9981601616
 40
0.998536667
 40
0.9988703498
 40
0.9991611247
 40
0.9994089062
 40
0.999613609
 40
0.9997751484
 40
0.9998397056
 40
0.9998934408
 40
0.9999363442
 40
0.9999684068
 40
0.9999896226
 40
1.0
 40
1.0
 40
1.0
 40
1.0
 10
3.1474973681
 20
4.2580824546
 30
0.0
 10
3.1471206116
 20
4.2628159873
 30
0.0
 10
3.1462541617
 20
4.2722378641
 30
0.0
 10
3.1446210323
 20
4.2862694055
 30
0.0
 10
3.1426733363
 20
4.30011659
 30
0.0
 10
3.1404253064
 20
4.3137409806
 30
0.0
 10
3.1378916749
 20
4.3271094527
 30
0.0
 10
3.1350942453
 20
4.3401959103
 30
0.0
 10
3.1320535277
 20
4.3529784007
 30
0.0
 10
3.1287894111
 20
4.3654359579
 30
0.0
 10
3.1253248223
 20
4.3775494262
 30
0.0
 10
3.1216840235
 20
4.3893011564
 30
0.0
 10
3.1178902147
 20
4.4006742352
 30
0.0
 10
3.1139680867
 20
4.4116535244
 30
0.0
 10
3.109944093
 20
4.4222259082
 30
0.0
 10
3.1058437947
 20
4.4323786909
 30
0.0
 10
3.1016939891
 20
4.4420996848
 30
0.0
 10
3.0975231609
 20
4.4513774675
 30
0.0
 10
3.0933593801
 20
4.4602001585
 30
0.0
 10
3.0892320282
 20
4.4685557172
 30
0.0
 10
3.0851723903
 20
4.4764322862
 30
0.0
 10
3.0812117246
 20
4.4838170543
 30
0.0
 10
3.077382474
 20
4.4906964309
 30
0.0
 10
3.0737188783
 20
4.497056396
 30
0.0
 10
3.0702554767
 20
4.5028819555
 30
0.0
 10
3.0674979727
 20
4.5073881309
 30
0.0
 10
3.0654204135
 20
4.5107152442
 30
0.0
 10
3.0639750282
 20
4.5130014394
 30
0.0
 10
3.0626059125
 20
4.5151419097
 30
0.0
 10
3.0613174604
 20
4.5171346471
 30
0.0
 10
3.0601138054
 20
4.5189776974
 30
0.0
 10
3.0589986473
 20
4.5206690545
 30
0.0
 10
3.05797567
 20
4.5222068421
 30
0.0
 10
3.0570485394
 20
4.523589183
 30
0.0
 10
3.0563368036
 20
4.5246426673
 30
0.0
 10
3.0558183246
 20
4.525406493
 30
0.0
 10
3.0554689542
 20
4.525919856
 30
0.0
 10
3.0551460613
 20
4.526393089
 30
0.0
 10
3.0548498503
 20
4.5268260681
 30
0.0
 10
3.0545805184
 20
4.5272186877
 30
0.0
 10
3.054338262
 20
4.5275708412
 30
0.0
 10
3.0541232781
 20
4.527882423
 30
0.0
 10
3.0539357635
 20
4.5281533269
 30
0.0
 10
3.0537966817
 20
4.5283535552
 30
0.0
 10
3.0536992902
 20
4.5284933134
 30
0.0
 10
3.0536367701
 20
4.5285828251
 30
0.0
 10
3.0535812648
 20
4.5286620877
 30
0.0
 10
3.0535327991
 20
4.5287310882
 30
0.0
 10
3.0534913989
 20
4.5287898142
 30
0.0
 10
3.053457088
 20
4.5288382518
 30
0.0
 10
3.0534329142
 20
4.5288721644
 30
0.0
 10
3.0534171222
 20
4.5288941276
 30
0.0
 10
3.0534079862
 20
4.5289067531
 30
0.0
 10
3.0534006298
 20
4.5289167832
 30
0.0
 10
3.0533951045
 20
4.5289242712
 30
0.0
 10
3.0533913167
 20
4.5289291036
 30
0.0
 10
3.0533894476
 20
4.5289315426
 30
0.0
 10
3.0533887111
 20
4.5289322239
 30
0.0
 11
3.1474973681
 21
4.2580824546
 31
0.0
 11
3.1461935371
 21
4.27226817
 31
0.0
 11
3.144559463
 21
4.2863094575
 31
0.0
 11
3.1426099568
 21
4.3001663625
 31
0.0
 11
3.1403598362
 21
4.3137989534
 31
0.0
 11
3.1378255036
 21
4.3271724451
 31
0.0
 11
3.1350269334
 21
4.3402636563
 31
0.0
 11
3.131984589
 21
4.353050995
 31
0.0
 11
3.1287191225
 21
4.3655131032
 31
0.0
 11
3.1252531484
 21
4.3776310658
 31
0.0
 11
3.1216104468
 21
4.3893874191
 31
0.0
 11
3.1178148522
 21
4.4007648093
 31
0.0
 11
3.1138911574
 21
4.4117481532
 31
0.0
 11
3.1098651569
 21
4.4223247396
 31
0.0
 11
3.1057627222
 21
4.4324819825
 31
0.0
 11
3.1016107317
 21
4.4422077525
 31
0.0
 11
3.0974372924
 21
4.4514904772
 31
0.0
 11
3.0932706141
 21
4.4603186107
 31
0.0
 11
3.0891401315
 21
4.4686802694
 31
0.0
 11
3.0850769504
 21
4.4765631098
 31
0.0
 11
3.0811123124
 21
4.4839547434
 31
0.0
 11
3.0772786287
 21
4.4908419004
 31
0.0
 11
3.0736102579
 21
4.4972098443
 31
0.0
 11
3.0701417435
 21
4.5030436969
 31
0.0
 11
3.0669078406
 21
4.5083280427
 31
0.0
 11
3.0653898698
 21
4.5107589772
 31
0.0
 11
3.0639437653
 21
4.5130462963
 31
0.0
 11
3.0625739368
 21
4.5151879075
 31
0.0
 11
3.0612847885
 21
4.5171817202
 31
0.0
 11
3.0600804432
 21
4.5190257277
 31
0.0
 11
3.0589646084
 21
4.5207180482
 31
0.0
 11
3.0579409583
 21
4.5222568097
 31
0.0
 11
3.0570131673
 21
4.5236401403
 31
0.0
 11
3.0561849096
 21
4.5248661678
 31
0.0
 11
3.055809254
 21
4.525419608
 31
0.0
 11
3.0554598282
 21
4.5259330357
 31
0.0
 11
3.0551368876
 21
4.5264063158
 31
0.0
 11
3.0548406285
 21
4.5268393418
 31
0.0
 11
3.0545712474
 21
4.5272320074
 31
0.0
 11
3.0543289404
 21
4.5275842063
 31
0.0
 11
3.054113904
 21
4.5278958319
 31
0.0
 11
3.0539263342
 21
4.5281667779
 31
0.0
 11
3.0537664276
 21
4.5283969379
 31
0.0
 11
3.0536969093
 21
4.5284966899
 31
0.0
 11
3.0536343804
 21
4.5285862055
 31
0.0
 11
3.0535788653
 21
4.5286654714
 31
0.0
 11
3.0535303888
 21
4.5287344742
 31
0.0
 11
3.0534889752
 21
4.5287932008
 31
0.0
 11
3.0534546492
 21
4.5288416378
 31
0.0
 11
3.0534274352
 21
4.5288797719
 31
0.0
 11
3.0534165029
 21
4.5288949713
 31
0.0
 11
3.0534073579
 21
4.5289075898
 31
0.0
 11
3.0534000031
 21
4.5289176261
 31
0.0
 11
3.0533944417
 21
4.5289250783
 31
0.0
 11
3.0533906766
 21
4.5289299447
 31
0.0
 11
3.0533887111
 21
4.5289322239
 31
0.0
  0
SPLINE
  5
24C
100
AcDbEntity
  8
0
100
AcDbSpline
 62
6
  6
CONTINUOUS
 70
0
 71
3
 72
19
 73
15
 74
13
 42
0.0000001
 43
0.0000001
 44
0.0000000001
 12
-0.0334130606
 22
0.0
 32
0.0
 13
-0.0120014543
 23
-0.0311832922
 33
0.0
 40
0.0
 40
0.0
 40
0.0
 40
0.0
 40
0.0620964515
 40
0.1243959573
 40
0.1869000966
 40
0.2495749666
 40
0.3123594517
 40
0.3751731923
 40
0.5005258942
 40
0.6254566515
 40
0.687827017
 40
0.7501668339
 40
0.8749252038
 40
1.0
 40
1.0
 40
1.0
 40
1.0
 10
3.5847050038
 20
4.6044324128
 30
0.0
 10
3.5840133929
 20
4.6044324128
 30
0.0
 10
3.5826272948
 20
4.6043749031
 30
0.0
 10
3.5805588795
 20
4.6041236641
 30
0.0
 10
3.5785093314
 20
4.6037140717
 30
0.0
 10
3.5764905941
 20
4.6031528253
 30
0.0
 10
3.5745142265
 20
4.6024465035
 30
0.0
 10
3.5719536615
 20
4.6013212203
 30
0.0
 10
3.5689153668
 20
4.5995846575
 30
0.0
 10
3.5661616072
 20
4.5974310706
 30
0.0
 10
3.5641784609
 20
4.5954787652
 30
0.0
 10
3.5623550094
 20
4.5933787561
 30
0.0
 10
3.5604007998
 20
4.5904848329
 30
0.0
 10
3.5592075786
 20
4.5879579413
 30
0.0
 10
3.5587072188
 20
4.58665786
 30
0.0
 11
3.5847050038
 21
4.6044324128
 31
0.0
 11
3.582631903
 21
4.6043476593
 31
0.0
 11
3.5805653356
 21
4.6040978007
 31
0.0
 11
3.578517194
 21
4.60368944
 31
0.0
 11
3.5764993705
 21
4.6031291801
 31
0.0
 11
3.5745237575
 21
4.602423624
 31
0.0
 11
3.5726022473
 21
4.6015793744
 31
0.0
 11
3.568967544
 21
4.5994980835
 31
0.0
 11
3.565682566
 21
4.5969224556
 31
0.0
 11
3.5641980148
 21
4.5954598893
 31
0.0
 11
3.5628330438
 21
4.5938864874
 31
0.0
 11
3.560495231
 21
4.5904351811
 31
0.0
 11
3.5587072188
 21
4.58665786
 31
0.0
  0
SPLINE
  5
24D
100
AcDbEntity
  8
0
100
AcDbSpline
 62
7
  6
CONTINUOUS
 70
0
 71
3
 72
61
 73
57
 74
55
 42
0.0000001
 43
0.0000001
 44
0.0000000001
 12
-0.212899994
 22
-0.1969300681
 32
0.0
 13
-0.0230103045
 23
-0.2890992649
 33
0.0
 40
0.0
 40
0.0
 40
0.0
 40
0.0
 40
0.0000103766
 40
0.00003159
 40
0.0000636489
 40
0.0001065471
 40
0.0001602759
 40
0.0002248254
 40
0.0003863459
 40
0.0005910258
 40
0.0008387808
 40
0.0011295262
 40
0.0014631772
 40
0.0018396488
 40
0.0022588562
 40
0.0032251378
 40
0.0043613423
 40
0.0056667902
 40
0.0071408022
 40
0.0087826997
 40
0.0105918046
 40
0.012567439
 40
0.0147089251
 40
0.0170153485
 40
0.0221170546
 40
0.027860287
 40
0.034232742
 40
0.0412221678
 40
0.0488163667
 40
0.0570030817
 40
0.0657689093
 40
0.0750998161
 40
0.0849818535
 40
0.1063439299
 40
0.129746324
 40
0.1550862858
 40
0.1822649575
 40
0.2111865835
 40
0.2417656113
 40
0.2739231886
 40
0.3075834171
 40
0.3426771593
 40
0.3791405452
 40
0.4559304152
 40
0.4961462815
 40
0.5375024695
 40
0.5799410836
 40
0.6234007715
 40
0.6678225022
 40
0.7131458288
 40
0.7593063171
 40
0.8062413018
 40
0.853885184
 40
0.9021366699
 40
0.9508797759
 40
1.0
 40
1.0
 40
1.0
 40
1.0
 10
8.7160212964
 20
4.5289322239
 30
0.0
 10
8.71602056
 20
4.5289315427
 30
0.0
 10
8.7160186912
 20
4.5289291039
 30
0.0
 10
8.716014904
 20
4.5289242718
 30
0.0
 10
8.7160093796
 20
4.5289167845
 30
0.0
 10
8.7160020246
 20
4.5289067554
 30
0.0
 10
8.7159928902
 20
4.5288941311
 30
0.0
 10
8.715977101
 20
4.5288721699
 30
0.0
 10
8.7159529314
 20
4.5288382604
 30
0.0
 10
8.7159186263
 20
4.5287898272
 30
0.0
 10
8.7158772326
 20
4.5287311061
 30
0.0
 10
8.7158287742
 20
4.5286621113
 30
0.0
 10
8.7157732768
 20
4.5285828548
 30
0.0
 10
8.7157107649
 20
4.5284933498
 30
0.0
 10
8.715613385
 20
4.5283536009
 30
0.0
 10
8.7154743175
 20
4.5281533845
 30
0.0
 10
8.7152868187
 20
4.5278824954
 30
0.0
 10
8.7150718485
 20
4.5275709279
 30
0.0
 10
8.7148296023
 20
4.5272187874
 30
0.0
 10
8.7145602759
 20
4.5268261791
 30
0.0
 10
8.7142640643
 20
4.5263932087
 30
0.0
 10
8.7139411641
 20
4.5259199809
 30
0.0
 10
8.7135917788
 20
4.5254066235
 30
0.0
 10
8.7130732863
 20
4.5246428083
 30
0.0
 10
8.7123615541
 20
4.523589341
 30
0.0
 10
8.7114344456
 20
4.5222070259
 30
0.0
 10
8.7104115011
 20
4.52066927
 30
0.0
 10
8.7092963741
 20
4.5189779448
 30
0.0
 10
8.7080927374
 20
4.5171349231
 30
0.0
 10
8.7068042865
 20
4.5151422145
 30
0.0
 10
8.7054351789
 20
4.5130017638
 30
0.0
 10
8.7039898053
 20
4.5107155891
 30
0.0
 10
8.701912268
 20
4.5073885071
 30
0.0
 10
8.699154793
 20
4.5028823758
 30
0.0
 10
8.6956914123
 20
4.4970568772
 30
0.0
 10
8.6920278369
 20
4.4906969787
 30
0.0
 10
8.6881986179
 20
4.4838176757
 30
0.0
 10
8.6842379939
 20
4.4764329812
 30
0.0
 10
8.6801783687
 20
4.4685565012
 30
0.0
 10
8.6760510353
 20
4.460201025
 30
0.0
 10
8.6718873026
 20
4.4513784229
 30
0.0
 10
8.6677164596
 20
4.4421006982
 30
0.0
 10
8.6620857236
 20
4.4289107527
 30
0.0
 10
8.6566706375
 20
4.4150930852
 30
0.0
 10
8.651520235
 20
4.4006755499
 30
0.0
 10
8.6477264166
 20
4.3893023982
 30
0.0
 10
8.6440855651
 20
4.3775506817
 30
0.0
 10
8.6406209094
 20
4.3654371972
 30
0.0
 10
8.6373567871
 20
4.3529795783
 30
0.0
 10
8.6343160074
 20
4.3401969856
 30
0.0
 10
8.631518494
 20
4.3271103592
 30
0.0
 10
8.6289848168
 20
4.3137416333
 30
0.0
 10
8.6267367893
 20
4.3001169648
 30
0.0
 10
8.6247890383
 20
4.2862695673
 30
0.0
 10
8.6231558642
 20
4.2722379144
 30
0.0
 10
8.6222893965
 20
4.2628159948
 30
0.0
 10
8.6219126394
 20
4.2580824546
 30
0.0
 11
8.7160212964
 21
4.5289322239
 31
0.0
 11
8.7160193311
 21
4.5289299449
 31
0.0
 11
8.7160155667
 21
4.5289250788
 31
0.0
 11
8.7160100062
 21
4.5289176273
 31
0.0
 11
8.7160026528
 21
4.5289075921
 31
0.0
 11
8.7159935093
 21
4.5288949747
 31
0.0
 11
8.715982579
 21
4.5288797768
 31
0.0
 11
8.7159553698
 21
4.5288416462
 31
0.0
 11
8.7159210496
 21
4.5287932136
 31
0.0
 11
8.7158796426
 21
4.528734492
 31
0.0
 11
8.7158311734
 21
4.5286654948
 31
0.0
 11
8.7157756663
 21
4.5285862351
 31
0.0
 11
8.7157131456
 21
4.5284967262
 31
0.0
 11
8.7156436358
 21
4.5283969812
 31
0.0
 11
8.7154837463
 21
4.5281668359
 31
0.0
 11
8.7152961927
 21
4.5278959049
 31
0.0
 11
8.7150811701
 21
4.5275842939
 31
0.0
 11
8.7148388737
 21
4.5272321086
 31
0.0
 11
8.7145694983
 21
4.5268394545
 31
0.0
 11
8.7142732391
 21
4.5264064375
 31
0.0
 11
8.7139502912
 21
4.5259331631
 31
0.0
 11
8.7136008497
 21
4.5254197371
 31
0.0
 11
8.7132251815
 21
4.5248663001
 31
0.0
 11
8.7123969237
 21
4.5236402909
 31
0.0
 11
8.7114691558
 21
4.5222569903
 31
0.0
 11
8.7104455397
 21
4.5207182644
 31
0.0
 11
8.7093297372
 21
4.5190259795
 31
0.0
 11
8.7081254104
 21
4.5171820019
 31
0.0
 11
8.7068362637
 21
4.5151882107
 31
0.0
 11
8.7054664417
 21
4.5130466195
 31
0.0
 11
8.7040203487
 21
4.5107593209
 31
0.0
 11
8.7025023928
 21
4.5083284086
 31
0.0
 11
8.6992685238
 21
4.5030441178
 31
0.0
 11
8.6958000342
 21
4.497210328
 31
0.0
 11
8.6921316799
 21
4.4908424412
 31
0.0
 11
8.6882980279
 21
4.4839553575
 31
0.0
 11
8.6843334337
 21
4.4765638156
 31
0.0
 11
8.6802702661
 21
4.4686810503
 31
0.0
 11
8.6761398024
 21
4.4603194698
 31
0.0
 11
8.6719731632
 21
4.4514914323
 31
0.0
 11
8.6677997314
 21
4.4422088009
 31
0.0
 11
8.6636477455
 21
4.4324831125
 31
0.0
 11
8.6555193133
 21
4.4117494185
 31
0.0
 11
8.6515955936
 21
4.4007660947
 31
0.0
 11
8.6477999832
 21
4.3893886654
 31
0.0
 11
8.644157238
 21
4.3776323187
 31
0.0
 11
8.6406912151
 21
4.3655143594
 31
0.0
 11
8.6374257215
 21
4.3530521861
 31
0.0
 11
8.6343833228
 21
4.3402647507
 31
0.0
 11
8.6315846815
 21
4.3271733853
 31
0.0
 11
8.6290502988
 21
4.3137996236
 31
0.0
 11
8.626800152
 21
4.3001667005
 31
0.0
 11
8.6248506027
 21
4.2863095843
 31
0.0
 11
8.6232164879
 21
4.2722681911
 31
0.0
 11
8.6219126394
 21
4.2580824546
 31
0.0
  0
SPLINE
  5
24E
100
AcDbEntity
  8
0
100
AcDbSpline
 62
7
  6
CONTINUOUS
 70
0
 71
3
 72
61
 73
57
 74
55
 42
0.0000001
 43
0.0000001
 44
0.0000000001
 12
0.2128999937
 22
0.1969300681
 32
0.0
 13
0.0230103045
 23
0.2890992649
 33
0.0
 40
0.0
 40
0.0
 40
0.0
 40
0.0
 40
0.0000103766
 40
0.00003159
 40
0.0000636489
 40
0.0001065471
 40
0.0001602759
 40
0.0002248254
 40
0.0003863459
 40
0.0005910258
 40
0.0008387808
 40
0.0011295262
 40
0.0014631772
 40
0.0018396488
 40
0.0022588562
 40
0.0032251378
 40
0.0043613423
 40
0.0056667902
 40
0.0071408022
 40
0.0087826997
 40
0.0105918046
 40
0.012567439
 40
0.0147089251
 40
0.0170153485
 40
0.0221170546
 40
0.027860287
 40
0.034232742
 40
0.0412221678
 40
0.0488163667
 40
0.0570030817
 40
0.0657689093
 40
0.0750998161
 40
0.0849818535
 40
0.1063439299
 40
0.129746324
 40
0.1550862858
 40
0.1822649575
 40
0.2111865835
 40
0.2417656113
 40
0.2739231886
 40
0.3075834171
 40
0.3426771593
 40
0.3791405452
 40
0.4559304152
 40
0.4961462815
 40
0.5375024695
 40
0.5799410836
 40
0.6234007715
 40
0.6678225022
 40
0.7131458288
 40
0.7593063171
 40
0.8062413018
 40
0.853885184
 40
0.9021366699
 40
0.9508797759
 40
1.0
 40
1.0
 40
1.0
 40
1.0
 10
3.0533887111
 20
3.8939326017
 30
0.0
 10
3.0533894475
 20
3.8939332828
 30
0.0
 10
3.0533913164
 20
3.8939357217
 30
0.0
 10
3.0533951035
 20
3.8939405537
 30
0.0
 10
3.0534006279
 20
3.893948041
 30
0.0
 10
3.053407983
 20
3.8939580701
 30
0.0
 10
3.0534171174
 20
3.8939706944
 30
0.0
 10
3.0534329066
 20
3.8939926556
 30
0.0
 10
3.0534570762
 20
3.8940265651
 30
0.0
 10
3.0534913813
 20
3.8940749984
 30
0.0
 10
3.0535327749
 20
3.8941337194
 30
0.0
 10
3.0535812333
 20
3.8942027142
 30
0.0
 10
3.0536367307
 20
3.8942819707
 30
0.0
 10
3.0536992427
 20
3.8943714758
 30
0.0
 10
3.0537966225
 20
3.8945112247
 30
0.0
 10
3.0539356901
 20
3.894711441
 30
0.0
 10
3.0541231889
 20
3.8949823302
 30
0.0
 10
3.0543381591
 20
3.8952938977
 30
0.0
 10
3.0545804053
 20
3.8956460382
 30
0.0
 10
3.0548497317
 20
3.8960386464
 30
0.0
 10
3.0551459432
 20
3.8964716169
 30
0.0
 10
3.0554688434
 20
3.8969448447
 30
0.0
 10
3.0558182287
 20
3.8974582021
 30
0.0
 10
3.0563367212
 20
3.8982220172
 30
0.0
 10
3.0570484534
 20
3.8992754845
 30
0.0
 10
3.0579755619
 20
3.9006577996
 30
0.0
 10
3.0589985065
 20
3.9021955555
 30
0.0
 10
3.0601136334
 20
3.9038868807
 30
0.0
 10
3.0613172702
 20
3.9057299024
 30
0.0
 10
3.062605721
 20
3.9077226111
 30
0.0
 10
3.0639748287
 20
3.9098630617
 30
0.0
 10
3.0654202023
 20
3.9121492365
 30
0.0
 10
3.0674977396
 20
3.9154763184
 30
0.0
 10
3.0702552146
 20
3.9199824498
 30
0.0
 10
3.0737185953
 20
3.9258079484
 30
0.0
 10
3.0773821706
 20
3.9321678469
 30
0.0
 10
3.0812113897
 20
3.9390471499
 30
0.0
 10
3.0851720137
 20
3.9464318444
 30
0.0
 10
3.0892316388
 20
3.9543083243
 30
0.0
 10
3.0933589722
 20
3.9626638005
 30
0.0
 10
3.0975227049
 20
3.9714864027
 30
0.0
 10
3.1016935479
 20
3.9807641274
 30
0.0
 10
3.107324284
 20
3.9939540729
 30
0.0
 10
3.11273937
 20
4.0077717403
 30
0.0
 10
3.1178897726
 20
4.0221892756
 30
0.0
 10
3.1216835909
 20
4.0335624273
 30
0.0
 10
3.1253244424
 20
4.0453141438
 30
0.0
 10
3.1287890981
 20
4.0574276283
 30
0.0
 10
3.1320532205
 20
4.0698852472
 30
0.0
 10
3.1350940002
 20
4.08266784
 30
0.0
 10
3.1378915135
 20
4.0957544663
 30
0.0
 10
3.1404251907
 20
4.1091231923
 30
0.0
 10
3.1426732183
 20
4.1227478607
 30
0.0
 10
3.1446209693
 20
4.1365952583
 30
0.0
 10
3.1462541434
 20
4.1506269112
 30
0.0
 10
3.147120611
 20
4.1600488307
 30
0.0
 10
3.1474973681
 20
4.164782371
 30
0.0
 11
3.0533887111
 21
3.8939326017
 31
0.0
 11
3.0533906764
 21
3.8939348807
 31
0.0
 11
3.0533944409
 21
3.8939397467
 31
0.0
 11
3.0534000013
 21
3.8939471982
 31
0.0
 11
3.0534073548
 21
3.8939572335
 31
0.0
 11
3.0534164982
 21
3.8939698509
 31
0.0
 11
3.0534274286
 21
3.8939850487
 31
0.0
 11
3.0534546377
 21
3.8940231793
 31
0.0
 11
3.053488958
 21
3.894071612
 31
0.0
 11
3.0535303649
 21
3.8941303335
 31
0.0
 11
3.0535788341
 21
3.8941993307
 31
0.0
 11
3.0536343413
 21
3.8942785904
 31
0.0
 11
3.0536968619
 21
3.8943680993
 31
0.0
 11
3.0537663717
 21
3.8944678443
 31
0.0
 11
3.0539262613
 21
3.8946979896
 31
0.0
 11
3.0541138149
 21
3.8949689206
 31
0.0
 11
3.0543288374
 21
3.8952805316
 31
0.0
 11
3.0545711339
 21
3.895632717
 31
0.0
 11
3.0548405093
 21
3.896025371
 31
0.0
 11
3.0551367684
 21
3.8964583881
 31
0.0
 11
3.0554597164
 21
3.8969316625
 31
0.0
 11
3.0558091578
 21
3.8974450884
 31
0.0
 11
3.0561848261
 21
3.8979985255
 31
0.0
 11
3.0570130838
 21
3.8992245346
 31
0.0
 11
3.0579408518
 21
3.9006078353
 31
0.0
 11
3.0589644679
 21
3.9021465612
 31
0.0
 11
3.0600802703
 21
3.903838846
 31
0.0
 11
3.0612845971
 21
3.9056828237
 31
0.0
 11
3.0625737438
 21
3.9076766148
 31
0.0
 11
3.0639435659
 21
3.909818206
 31
0.0
 11
3.0653896589
 21
3.9121055046
 31
0.0
 11
3.0669076148
 21
3.914536417
 31
0.0
 11
3.0701414838
 21
3.9198207077
 31
0.0
 11
3.0736099734
 21
3.9256544975
 31
0.0
 11
3.0772783276
 21
3.9320223844
 31
0.0
 11
3.0811119796
 21
3.9389094681
 31
0.0
 11
3.0850765738
 21
3.9463010099
 31
0.0
 11
3.0891397414
 21
3.9541837752
 31
0.0
 11
3.0932702052
 21
3.9625453557
 31
0.0
 11
3.0974368444
 21
3.9713733932
 31
0.0
 11
3.1016102761
 21
3.9806560246
 31
0.0
 11
3.1057622621
 21
3.990381713
 31
0.0
 11
3.1138906942
 21
4.0111154071
 31
0.0
 11
3.117814414
 21
4.0220987309
 31
0.0
 11
3.1216100244
 21
4.0334761601
 31
0.0
 11
3.1252527695
 21
4.0452325068
 31
0.0
 11
3.1287187924
 21
4.0573504662
 31
0.0
 11
3.131984286
 21
4.0698126394
 31
0.0
 11
3.1350266847
 21
4.0826000748
 31
0.0
 11
3.1378253261
 21
4.0956914403
 31
0.0
 11
3.1403597087
 21
4.109065202
 31
0.0
 11
3.1426098556
 21
4.122698125
 31
0.0
 11
3.1445594049
 21
4.1365552413
 31
0.0
 11
3.1461935196
 21
4.1505966345
 31
0.0
 11
3.1474973681
 21
4.164782371
 31
0.0
  0
SPLINE
  5
24F
100
AcDbEntity
  8
0
100
AcDbSpline
 62
6
  6
CONTINUOUS
 70
0
 71
3
 72
23
 73
19
 74
17
 42
0.0000001
 43
0.0000001
 44
0.0000000001
 12
-0.0118080716
 22
0.0306808273
 32
0.0
 13
-0.0328668028
 23
0.0007190244
 33
0.0
 40
0.0
 40
0.0
 40
0.0
 40
0.0
 40
0.0625813693
 40
0.1251049024
 40
0.1875473884
 40
0.2499071699
 40
0.3122176594
 40
0.3745524236
 40
0.4369658256
 40
0.4994838217
 40
0.5621094091
 40
0.6248280922
 40
0.6876075712
 40
0.7503740948
 40
0.8130473099
 40
0.8755636354
 40
0.9378836976
 40
1.0
 40
1.0
 40
1.0
 40
1.0
 10
3.6107027888
 20
4.58665786
 30
0.0
 10
3.610456467
 20
4.587297876
 30
0.0
 10
3.6099172303
 20
4.5885598726
 30
0.0
 10
3.6089718593
 20
4.5903867536
 30
0.0
 10
3.6078932484
 20
4.5921356343
 30
0.0
 10
3.6066847078
 20
4.5937946426
 30
0.0
 10
3.6053490983
 20
4.5953516458
 30
0.0
 10
3.6038970711
 20
4.5968012966
 30
0.0
 10
3.602339032
 20
4.5981396946
 30
0.0
 10
3.6006851512
 20
4.59936289
 30
0.0
 10
3.5989455998
 20
4.6004669714
 30
0.0
 10
3.5971305591
 20
4.6014479211
 30
0.0
 10
3.5952506678
 20
4.6023017104
 30
0.0
 10
3.5933164604
 20
4.6030227501
 30
0.0
 10
3.5913389324
 20
4.6036047887
 30
0.0
 10
3.5893292008
 20
4.6040415375
 30
0.0
 10
3.5872985941
 20
4.6043266452
 30
0.0
 10
3.585935949
 20
4.6044114927
 30
0.0
 10
3.5852554276
 20
4.6044263804
 30
0.0
 11
3.6107027888
 21
4.58665786
 31
0.0
 11
3.6098941148
 21
4.5885496055
 31
0.0
 11
3.6089490142
 21
4.590374878
 31
0.0
 11
3.6078708732
 21
4.5921217327
 31
0.0
 11
3.6066630784
 21
4.5937782246
 31
0.0
 11
3.6053299495
 21
4.5953334929
 31
0.0
 11
3.6038803166
 21
4.5967819152
 31
0.0
 11
3.6023243712
 21
4.5981194496
 31
0.0
 11
3.6006723047
 21
4.5993420546
 31
0.0
 11
3.5989343088
 21
4.6004456889
 31
0.0
 11
3.5971205751
 21
4.6014263108
 31
0.0
 11
3.5952414034
 21
4.6022796623
 31
0.0
 11
3.593307811
 21
4.6030000496
 31
0.0
 11
3.5913311071
 21
4.6035811946
 31
0.0
 11
3.5893226019
 21
4.6040168179
 31
0.0
 11
3.5872936053
 21
4.6043006397
 31
0.0
 11
3.5852554276
 21
4.6044263804
 31
0.0
  0
SPLINE
  5
250
100
AcDbEntity
  8
0
100
AcDbSpline
 62
9
  6
CONTINUOUS
 70
0
 71
3
 72
36
 73
32
 74
30
 42
0.0000001
 43
0.0000001
 44
0.0000000001
 12
-0.0604435623
 22
0.0
 32
0.0
 13
0.0372394425
 23
-0.0476093283
 33
0.0
 40
0.0
 40
0.0
 40
0.0
 40
0.0
 40
0.0317605421
 40
0.0636014718
 40
0.0955170198
 40
0.1274863096
 40
0.1914128761
 40
0.2233133071
 40
0.2551105729
 40
0.286787646
 40
0.3183347878
 40
0.3497512359
 40
0.381047461
 40
0.4122474511
 40
0.4433853081
 40
0.4744803277
 40
0.5055384042
 40
0.5365576022
 40
0.5675307621
 40
0.5984481164
 40
0.6293008655
 40
0.6600986247
 40
0.6908635752
 40
0.7216155719
 40
0.7523732937
 40
0.7831559427
 40
0.8139849372
 40
0.8757922616
 40
0.9377992956
 40
0.9688799056
 40
1.0
 40
1.0
 40
1.0
 40
1.0
 10
3.7097050038
 20
4.586949005
 30
0.0
 10
3.709065097
 20
4.586949005
 30
0.0
 10
3.7077831955
 20
4.5869010902
 30
0.0
 10
3.7058686863
 20
4.5866916239
 30
0.0
 10
3.7039689019
 20
4.5863500195
 30
0.0
 10
3.7014690455
 20
4.5857260656
 30
0.0
 10
3.6990353347
 20
4.5848600063
 30
0.0
 10
3.6967036572
 20
4.5837730459
 30
0.0
 10
3.6950155892
 20
4.5828519958
 30
0.0
 10
3.6933965093
 20
4.5818278273
 30
0.0
 10
3.6918546626
 20
4.5807035173
 30
0.0
 10
3.690398505
 20
4.5794820299
 30
0.0
 10
3.6890364508
 20
4.578166336
 30
0.0
 10
3.687777065
 20
4.576759396
 30
0.0
 10
3.6866292605
 20
4.5752651286
 30
0.0
 10
3.6855957818
 20
4.5736931623
 30
0.0
 10
3.6846795536
 20
4.5720528782
 30
0.0
 10
3.6838835242
 20
4.5703537629
 30
0.0
 10
3.6832106922
 20
4.5686052619
 30
0.0
 10
3.6826639723
 20
4.5668168171
 30
0.0
 10
3.6822465888
 20
4.5649974554
 30
0.0
 10
3.6819600664
 20
4.5631560822
 30
0.0
 10
3.6818042221
 20
4.56130114
 30
0.0
 10
3.6817791048
 20
4.559440638
 30
0.0
 10
3.6818846918
 20
4.5575826271
 30
0.0
 10
3.682121011
 20
4.5557350231
 30
0.0
 10
3.6826106593
 20
4.5532952717
 30
0.0
 10
3.6835496285
 20
4.5503127602
 30
0.0
 10
3.6849013957
 20
4.547487437
 30
0.0
 10
3.6862182682
 20
4.5453573829
 30
0.0
 10
3.6869539904
 20
4.5443411361
 30
0.0
 10
3.6873402887
 20
4.5438472672
 30
0.0
 11
3.7097050038
 21
4.586949005
 31
0.0
 11
3.7077865853
 21
4.5868783182
 31
0.0
 11
3.7058733231
 21
4.5866699129
 31
0.0
 11
3.7039745472
 21
4.5863292722
 31
0.0
 11
3.7020995878
 21
4.5858618788
 31
0.0
 11
3.6984584392
 21
4.5845687655
 31
0.0
 11
3.6967108875
 21
4.5837539499
 31
0.0
 11
3.6950239783
 21
4.5828329771
 31
0.0
 11
3.6934061591
 21
4.581808945
 31
0.0
 11
3.691865862
 21
4.5806849104
 31
0.0
 11
3.6904115193
 21
4.5794639305
 31
0.0
 11
3.6890515631
 21
4.578149062
 31
0.0
 11
3.6877944257
 21
4.576743362
 31
0.0
 11
3.6866475356
 21
4.5752510887
 31
0.0
 11
3.6856147301
 21
4.5736807991
 31
0.0
 11
3.6846990435
 21
4.5720420111
 31
0.0
 11
3.6839035101
 21
4.5703442428
 31
0.0
 11
3.6832311642
 21
4.5685970122
 31
0.0
 11
3.6826850401
 21
4.5668098374
 31
0.0
 11
3.6822680894
 21
4.5649921966
 31
0.0
 11
3.6819817224
 21
4.5631528288
 31
0.0
 11
3.6818259861
 21
4.5612998185
 31
0.0
 11
3.6818008806
 21
4.5594412278
 31
0.0
 11
3.6819064058
 21
4.5575851188
 31
0.0
 11
3.6821425618
 21
4.5557395536
 31
0.0
 11
3.6825093483
 21
4.5539125943
 31
0.0
 11
3.6836303376
 21
4.5503488892
 31
0.0
 11
3.6852487426
 21
4.5469683989
 31
0.0
 11
3.6862368902
 21
4.5453706542
 31
0.0
 11
3.6873402887
 21
4.5438472672
 31
0.0
  0
SPLINE
  5
251
100
AcDbEntity
  8
0
100
AcDbSpline
 62
9
  6
CONTINUOUS
 70
0
 71
3
 72
27
 73
23
 74
21
 42
0.0000001
 43
0.0000001
 44
0.0000000001
 12
-0.0396698135
 22
0.0
 32
0.0
 13
0.001338102
 23
-0.0396472393
 33
0.0
 40
0.0
 40
0.0
 40
0.0
 40
0.0
 40
0.0697914771
 40
0.1395755313
 40
0.2090631264
 40
0.2779198293
 40
0.3120062039
 40
0.3458021827
 40
0.4123851479
 40
0.4774752838
 40
0.540934389
 40
0.6027174203
 40
0.6629023664
 40
0.7216416611
 40
0.7790857183
 40
0.8353934621
 40
0.8631914038
 40
0.8907828137
 40
0.9182124423
 40
0.9455274227
 40
0.9727744598
 40
1.0
 40
1.0
 40
1.0
 40
1.0
 10
8.4597050038
 20
4.5346260632
 30
0.0
 10
8.4587821321
 20
4.5346260632
 30
0.0
 10
8.4569356262
 20
4.5345459688
 30
0.0
 10
8.454190017
 20
4.5342001198
 30
0.0
 10
8.4514922811
 20
4.5336418814
 30
0.0
 10
8.4492993753
 20
4.5330085172
 30
0.0
 10
8.4475939145
 20
4.5324066768
 30
0.0
 10
8.4459411689
 20
4.5317499343
 30
0.0
 10
8.4439570592
 20
4.5308212829
 30
0.0
 10
8.4417181484
 20
4.5295321044
 30
0.0
 10
8.4396576327
 20
4.5280802906
 30
0.0
 10
8.4378005382
 20
4.5264722843
 30
0.0
 10
8.4361733711
 20
4.5247155808
 30
0.0
 10
8.4347866236
 20
4.5228342986
 30
0.0
 10
8.4336492955
 20
4.5208514427
 30
0.0
 10
8.4329135415
 20
4.5191250051
 30
0.0
 10
8.4324614206
 20
4.5177180742
 30
0.0
 10
8.4321916361
 20
4.5166559219
 30
0.0
 10
8.4319899208
 20
4.5155853063
 30
0.0
 10
8.4318562648
 20
4.5145086488
 30
0.0
 10
8.4317906725
 20
4.5134284614
 30
0.0
 10
8.4317923236
 20
4.5127075952
 30
0.0
 10
8.4318044671
 20
4.5123477894
 30
0.0
 11
8.4597050038
 21
4.5346260632
 31
0.0
 11
8.4569388963
 21
4.5345082599
 31
0.0
 11
8.454192104
 21
4.5341636874
 31
0.0
 11
8.4514926293
 21
4.5336056022
 31
0.0
 11
8.4488684746
 21
4.5328472606
 31
0.0
 11
8.4475933929
 21
4.5323971363
 31
0.0
 11
8.44634758
 21
4.5319017842
 31
0.0
 11
8.4439565659
 21
4.5307794225
 31
0.0
 11
8.4417207886
 21
4.5294876755
 31
0.0
 11
8.4396655538
 21
4.528033933
 31
0.0
 11
8.437816167
 21
4.5264255848
 31
0.0
 11
8.4361951263
 21
4.5246727285
 31
0.0
 11
8.4348141323
 21
4.5227958747
 31
0.0
 11
8.4336822909
 21
4.5208180371
 31
0.0
 11
8.4328087079
 21
4.5187622288
 31
0.0
 11
8.4324716088
 21
4.5177122775
 31
0.0
 11
8.4322022835
 21
4.516651384
 31
0.0
 11
8.4320009067
 21
4.5155820522
 31
0.0
 11
8.4318674784
 21
4.5145067183
 31
0.0
 11
8.4318019985
 21
4.5134278187
 31
0.0
 11
8.4318044671
 21
4.5123477894
 31
0.0
  0
SPLINE
  5
252
100
AcDbEntity
  8
0
100
AcDbSpline
 62
9
  6
CONTINUOUS
 70
0
 71
3
 72
18
 73
14
 74
12
 42
0.0000001
 43
0.0000001
 44
0.0000000001
 12
-0.0156080382
 22
0.0214222308
 32
0.0
 13
-0.0265051472
 23
-0.0
 33
0.0
 40
0.0
 40
0.0
 40
0.0
 40
0.0
 40
0.0614576396
 40
0.1230214975
 40
0.1847437122
 40
0.2466636437
 40
0.3711142228
 40
0.4964295028
 40
0.5593853175
 40
0.6224632852
 40
0.7486582813
 40
0.8745888773
 40
1.0
 40
1.0
 40
1.0
 40
1.0
 10
3.7325924923
 20
4.5754872
 30
0.0
 10
3.7322727479
 20
4.5759260532
 30
0.0
 10
3.731604478
 20
4.5767843773
 30
0.0
 10
3.7305195171
 20
4.5780052251
 30
0.0
 10
3.7293568491
 20
4.5791581767
 30
0.0
 10
3.7277081431
 20
4.5806042839
 30
0.0
 10
3.7254788286
 20
4.5822321987
 30
0.0
 10
3.7230724743
 20
4.5836019001
 30
0.0
 10
3.721058292
 20
4.584539318
 30
0.0
 10
3.7189888991
 20
4.5853686211
 30
0.0
 10
3.716321331
 20
4.5861900996
 30
0.0
 10
3.7130358794
 20
4.5868050871
 30
0.0
 10
3.7108130172
 20
4.586949005
 30
0.0
 10
3.7097050038
 20
4.586949005
 30
0.0
 11
3.7325924923
 21
4.5754872
 31
0.0
 11
3.731591526
 21
4.5767723165
 31
0.0
 11
3.7305079992
 21
4.5779924014
 31
0.0
 11
3.7293467571
 21
4.5791447339
 31
0.0
 11
3.7281132635
 21
4.580227333
 31
0.0
 11
3.7254513771
 21
4.5821754082
 31
0.0
 11
3.7225660502
 21
4.5838207807
 31
0.0
 11
3.7210532663
 21
4.5845249738
 31
0.0
 11
3.7195013026
 21
4.5851467678
 31
0.0
 11
3.7163039761
 21
4.5861290628
 31
0.0
 11
3.7130224215
 21
4.5867392825
 31
0.0
 11
3.7097050038
 21
4.586949005
 31
0.0
  0
SPLINE
  5
253
100
AcDbEntity
  8
0
100
AcDbSpline
 62
9
  6
CONTINUOUS
 70
0
 71
3
 72
29
 73
25
 74
23
 42
0.0000001
 43
0.0000001
 44
0.0000000001
 12
-0.0012942439
 22
0.0384944514
 32
0.0
 13
-0.0385162025
 23
0.0
 33
0.0
 40
0.0
 40
0.0
 40
0.0
 40
0.0
 40
0.0271268506
 40
0.0543207382
 40
0.0816251033
 40
0.1090837718
 40
0.1645958307
 40
0.2211039205
 40
0.2497938964
 40
0.2787912043
 40
0.3377557119
 40
0.3677797476
 40
0.3981822474
 40
0.4289794808
 40
0.4601797835
 40
0.5237703504
 40
0.5889063965
 40
0.6554439014
 40
0.6891836258
 40
0.7231912872
 40
0.791831446
 40
0.8610448447
 40
0.9305231232
 40
1.0
 40
1.0
 40
1.0
 40
1.0
 10
8.4876056148
 20
4.5135040746
 30
0.0
 10
8.4875939118
 20
4.5138521523
 30
0.0
 10
8.4875492539
 20
4.514548641
 30
0.0
 10
8.4874187448
 20
4.515589056
 30
0.0
 10
8.4872246414
 20
4.5166239077
 30
0.0
 10
8.4868799503
 20
4.5179978547
 30
0.0
 10
8.4862873617
 20
4.5196924686
 30
0.0
 10
8.4854955319
 20
4.5213208074
 30
0.0
 10
8.4847457574
 20
4.5225814818
 30
0.0
 10
8.4839096737
 20
4.5238247935
 30
0.0
 10
8.4829611792
 20
4.5250104209
 30
0.0
 10
8.481910562
 20
4.5261272973
 30
0.0
 10
8.4810632137
 20
4.5269366631
 30
0.0
 10
8.4801636818
 20
4.5277108471
 30
0.0
 10
8.4788908292
 20
4.5287015052
 30
0.0
 10
8.4771824028
 20
4.5298460289
 30
0.0
 10
8.4749842803
 20
4.531057158
 30
0.0
 10
8.4730454519
 20
4.5319295727
 30
0.0
 10
8.4714351422
 20
4.5325463378
 30
0.0
 10
8.4697772499
 20
4.5331109681
 30
0.0
 10
8.4676498724
 20
4.5337047428
 30
0.0
 10
8.4650373142
 20
4.5342276473
 30
0.0
 10
8.4623817885
 20
4.5345512312
 30
0.0
 10
8.4605969989
 20
4.5346260632
 30
0.0
 10
8.4597050038
 20
4.5346260632
 30
0.0
 11
8.4876056148
 21
4.5135040746
 31
0.0
 11
8.4875387864
 21
4.5145467584
 31
0.0
 11
8.4874084802
 21
4.5155860265
 31
0.0
 11
8.4872146961
 21
4.516619679
 31
0.0
 11
8.4869574342
 21
4.5176455161
 31
0.0
 11
8.4862536639
 21
4.5196644855
 31
0.0
 11
8.4853038206
 21
4.5216227628
 31
0.0
 11
8.4847391909
 21
4.5225726482
 31
0.0
 11
8.4841161261
 21
4.523499568
 31
0.0
 11
8.4826988026
 21
4.5252741212
 31
0.0
 11
8.4819065993
 21
4.5261165595
 31
0.0
 11
8.4810601365
 21
4.5269257044
 31
0.0
 11
8.4801614871
 21
4.5276999666
 31
0.0
 11
8.4792134873
 21
4.5284384925
 31
0.0
 11
8.4771808612
 21
4.5298049993
 31
0.0
 11
8.474985108
 21
4.5310185522
 31
0.0
 11
8.4726490772
 21
4.5320724786
 31
0.0
 11
8.4714355994
 21
4.5325374943
 31
0.0
 11
8.4701957244
 21
4.5329598761
 31
0.0
 11
8.4676493675
 21
4.5336708782
 31
0.0
 11
8.4650352719
 21
4.5341935566
 31
0.0
 11
8.4623787224
 21
4.5345159416
 31
0.0
 11
8.4597050038
 21
4.5346260632
 31
0.0
  0
ENDSEC
  0
SECTION
  2
OBJECTS
  0
DICTIONARY
  5
C
100
AcDbDictionary
280
0
281
1
  3
ACAD_GROUP
350
D
  3
ACAD_MLINESTYLE
350
17
  3
ACAD_LAYOUT
350
1A
  3
ACAD_PLOTSETTINGS
350
19
  3
ACAD_PLOTSTYLENAME
350
E
  0
DICTIONARY
  5
D
102
{ACAD_REACTORS
330
C
102
}
100
AcDbDictionary
280
0
281
1
  0
ACDBDICTIONARYWDFLT
  5
E
102
{ACAD_REACTORS
330
C
102
}
100
AcDbDictionary
281
1
  3
Normal
350
F
100
AcDbDictionaryWithDefault
340
F
  0
DICTIONARY
  5
17
102
{ACAD_REACTORS
330
C
102
}
100
AcDbDictionary
280
0
281
1
  3
Standard
350
18
  0
DICTIONARY
  5
19
102
{ACAD_REACTORS
330
C
102
}
100
AcDbDictionary
281
1
  0
DICTIONARY
  5
1A
102
{ACAD_REACTORS
330
C
102
}
100
AcDbDictionary
281
1
  3
Model
350
254
  3
Layout1
350
255
  0
ACDBPLACEHOLDER
  5
F
102
{ACAD_REACTORS
330
E
102
}
  0
MLINESTYLE
  5
18
102
{ACAD_REACTORS
330
17
102
}
100
AcDbMlineStyle
  2
STANDARD
 70
0
  3

 62
256
 51
90.0
 52
90.0
 71
2
 49
0.5
 62
256
  6
BYLAYER
 49
-0.5
 62
256
  6
BYLAYER
  0
LAYOUT
  5
254
102
{ACAD_REACTORS
330
1A
102
}
100
AcDbPlotSettings
  1

  2
none_device
  4
ISO_A4_(297.00_x_210.00_MM)
  6

 40
0.0
 41
0.0
 42
0.0
 43
0.0
 44
297.0
 45
210.0
 46
0.0
 47
0.0
 48
0.0
 49
0.0
140
0.0
141
0.0
142
1.0
143
1.0
 70
1024
 72
0
 73
0
 74
0
  7

 75
0
147
1.0
148
0.0
149
0.0
100
AcDbLayout
  1
Model
 70
0
 71
0
 10
0.0
 20
0.0
 11
11.6929133858
 21
8.2677165354
 12
0.0
 22
0.0
 32
0.0
 14
0.0
 24
0.0
 34
0.0
 15
0.0
 25
0.0
 35
0.0
146
0.0
 13
0.0
 23
0.0
 33
0.0
 16
1.0
 26
0.0
 36
0.0
 17
0.0
 27
1.0
 37
0.0
 76
0
330
203
345
0
346
0
  0
LAYOUT
  5
255
102
{ACAD_REACTORS
330
1A
102
}
100
AcDbPlotSettings
  1

  2
none_device
  4
ISO_A4_(297.00_x_210.00_MM)
  6

 40
0.0
 41
0.0
 42
0.0
 43
0.0
 44
297.0
 45
210.0
 46
0.0
 47
0.0
 48
0.0
 49
0.0
140
0.0
141
0.0
142
1.0
143
1.0
 70
0
 72
0
 73
0
 74
0
  7

 75
0
147
1.0
148
0.0
149
0.0
100
AcDbLayout
  1
Layout1
 70
0
 71
1
 10
0.0
 20
0.0
 11
11.6929133858
 21
8.2677165354
 12
0.0
 22
0.0
 32
0.0
 14
0.0
 24
0.0
 34
0.0
 15
0.0
 25
0.0
 35
0.0
146
0.0
 13
0.0
 23
0.0
 33
0.0
 16
1.0
 26
0.0
 36
0.0
 17
0.0
 27
1.0
 37
0.0
 76
0
330
204
345
0
346
0
  0
ENDSEC
  0
EOF
