999
DXF file: E:\BT Custom\CADOUTPUT\_TOP.dxf
999
Pro/ENGINEER 2018400 by Parametric Technology Corporation
  0
SECTION
  2
HEADER
  9
$ACADVER
  1
AC1018
  9
$DWGCODEPAGE
  3
ANSI_1252
  9
$EXTMAX
 10
22.0
 20
17.0
 30
0.0
  9
$EXTMIN
 10
0.0
 20
0.0
 30
0.0
  9
$LIMMIN
 10
0.0
 20
0.0
  9
$LIMMAX
 10
22.0
 20
17.0
  9
$VIEWCTR
 10
11.0
 20
8.5
  9
$VIEWSIZE
 40
17.0
  9
$CLAYER
  8
0
  9
$LTSCALE
 40
1.21
  9
$CELTYPE
  6
BYLAYER
  9
$DIMSCALE
 40
1.0
  9
$DIMASZ
 40
0.1
  9
$DIMEXO
 40
0.0625
  9
$DIMDLI
 40
0.836
  9
$DIMEXE
 40
0.125
  9
$DIMCEN
 40
0.198
  9
$DIMLFAC
 40
1.0
  9
$DIMBLK
  1
_FILLED
  9
$DIMALT
 70
1
  9
$DIMALTD
 70
2
  9
$DIMALTTD
 70
2
  9
$DIMALTF
 40
25.4
  9
$DIMTXT
 40
0.08
  9
$DIMTOL
 70
1
  9
$DIMLIM
 70
0
  9
$DIMTFAC
 40
1.0
  9
$DIMTP
 40
0.001
  9
$DIMTM
 40
0.001
  9
$DIMGAP
 40
0.09
  9
$DIMDSEP
 70
46
  9
$AUNITS
 70
0
  9
$PDMODE
 70
3
  9
$PDSIZE
 40
0.06
  9
$HANDSEED
  5
23F
  9
$TILEMODE
 70
1
  9
$MEASUREMENT
 70
0
  9
$INSUNITS
 70
1
  0
ENDSEC
  0
SECTION
  2
CLASSES
  0
CLASS
  1
ACDBDICTIONARYWDFLT
  2
AcDbDictionaryWithDefault
  3
AutoCAD 2000
 90
0
 91
1
280
0
281
0
  0
CLASS
  1
ACDBPLACEHOLDER
  2
AcDbPlaceHolder
  3
AutoCAD 2000
 90
0
 91
1
280
0
281
0
  0
CLASS
  1
LAYOUT
  2
AcDbLayout
  3
AutoCAD 2000
 90
0
 91
0
280
0
281
0
  0
ENDSEC
  0
SECTION
  2
TABLES
  0
TABLE
  2
VPORT
  5
8
100
AcDbSymbolTable
 70
2
  0
VPORT
  5
1F4
100
AcDbSymbolTableRecord
100
AcDbViewportTableRecord
  2
*ACTIVE
 70
0
 10
0.0
 20
0.0
 11
1.0
 21
1.0
 12
11.0
 22
8.5
 13
0.0
 23
0.0
 14
1.0
 24
1.0
 15
0.0
 25
0.0
 16
0.0
 26
0.0
 36
1.0
 17
0.0
 27
0.0
 37
0.0
 40
17.0
 41
1.2941176471
 42
50.0
 43
0.0
 44
0.0
 50
0.0
 51
0.0
 71
0
 72
100
 73
1
 74
1
 75
0
 76
0
 77
0
 78
0
  0
ENDTAB
  0
TABLE
  2
LTYPE
  5
5
100
AcDbSymbolTable
 70
6
  0
LTYPE
  5
14
100
AcDbSymbolTableRecord
100
AcDbLinetypeTableRecord
  2
BYBLOCK
 70
0
  3

 72
65
 73
0
 40
0.0
  0
LTYPE
  5
15
100
AcDbSymbolTableRecord
100
AcDbLinetypeTableRecord
  2
BYLAYER
 70
0
  3

 72
65
 73
0
 40
0.0
  0
LTYPE
  5
16
100
AcDbSymbolTableRecord
100
AcDbLinetypeTableRecord
  2
CONTINUOUS
 70
64
  3
Solid line
 72
65
 73
0
 40
0.0
  0
LTYPE
  5
1F5
100
AcDbSymbolTableRecord
100
AcDbLinetypeTableRecord
  2
CENTER
 70
64
  3
____ _ ____ _ ____ _ ____ _ ____ _ ____ _ ____
 72
65
 73
4
 40
0.6
 49
0.375
 74
0
 49
-0.075
 74
0
 49
0.075
 74
0
 49
-0.075
 74
0
  0
LTYPE
  5
1F6
100
AcDbSymbolTableRecord
100
AcDbLinetypeTableRecord
  2
HIDDEN
 70
64
  3
- - - - - - - - - - - - - - - - - - - -
 72
65
 73
2
 40
0.2
 49
0.1
 74
0
 49
-0.1
 74
0
  0
LTYPE
  5
1F7
100
AcDbSymbolTableRecord
100
AcDbLinetypeTableRecord
  2
PHANTOM
 70
64
  3
_____ _ _ _____ _ _ _____ _ _ _____
 72
65
 73
6
 40
0.8
 49
0.45
 74
0
 49
-0.05
 74
0
 49
0.1
 74
0
 49
-0.05
 74
0
 49
0.1
 74
0
 49
-0.05
 74
0
  0
LTYPE
  5
1F8
100
AcDbSymbolTableRecord
100
AcDbLinetypeTableRecord
  2
DOT
 70
64
  3
. . . . . . . . . . . . . . . . . . . .
 72
65
 73
2
 40
0.2
 49
0.1
 74
0
 49
-0.1
 74
0
  0
LTYPE
  5
1F9
100
AcDbSymbolTableRecord
100
AcDbLinetypeTableRecord
  2
DASHED
 70
64
  3
- - - - - - - - - - - - - - - - - - - -
 72
65
 73
2
 40
0.2
 49
0.1
 74
0
 49
-0.1
 74
0
  0
ENDTAB
  0
TABLE
  2
LAYER
  5
2
100
AcDbSymbolTable
 70
36
  0
LAYER
  5
10
100
AcDbSymbolTableRecord
100
AcDbLayerTableRecord
  2
0
 70
0
 62
7
  6
CONTINUOUS
370
-3
390
F
  0
LAYER
  5
1FA
100
AcDbSymbolTableRecord
100
AcDbLayerTableRecord
  2
DEFAULT_1
 70
0
 62
7
  6
CENTER
370
-3
390
F
  0
LAYER
  5
1FB
100
AcDbSymbolTableRecord
100
AcDbLayerTableRecord
  2
DEFAULT_2
 70
0
 62
8
  6
HIDDEN
370
-3
390
F
  0
LAYER
  5
1FC
100
AcDbSymbolTableRecord
100
AcDbLayerTableRecord
  2
DEFAULT_3
 70
0
 62
7
  6
PHANTOM
370
-3
390
F
  0
LAYER
  5
1FD
100
AcDbSymbolTableRecord
100
AcDbLayerTableRecord
  2
ALL_FEATURES
 70
0
 62
7
  6
CONTINUOUS
370
-3
390
F
  0
LAYER
  5
1FE
100
AcDbSymbolTableRecord
100
AcDbLayerTableRecord
  2
AXES_FEATURES
 70
0
 62
7
  6
CONTINUOUS
370
-3
390
F
  0
LAYER
  5
1FF
100
AcDbSymbolTableRecord
100
AcDbLayerTableRecord
  2
DIMENSIONS
 70
0
 62
7
  6
CONTINUOUS
370
-3
390
F
  0
ENDTAB
  0
TABLE
  2
STYLE
  5
3
100
AcDbSymbolTable
 70
1
  0
STYLE
  5
11
100
AcDbSymbolTableRecord
100
AcDbTextStyleTableRecord
  2
STANDARD
 70
0
 40
0.0
 41
0.8
 50
0.0
 71
0
 42
0.2
  3
txt
  4

  0
STYLE
  5
200
100
AcDbSymbolTableRecord
100
AcDbTextStyleTableRecord
  2
TEXTSTYLE_1
 70
0
 40
0.0
 41
0.8
 50
0.0
 71
0
 42
0.2
  3
gdt
  4

  0
ENDTAB
  0
TABLE
  2
VIEW
  5
6
100
AcDbSymbolTable
 70
0
  0
ENDTAB
  0
TABLE
  2
UCS
  5
7
100
AcDbSymbolTable
 70
0
  0
ENDTAB
  0
TABLE
  2
APPID
  5
9
100
AcDbSymbolTable
 70
1
  0
APPID
  5
201
100
AcDbSymbolTableRecord
100
AcDbRegAppTableRecord
  2
ACAD
 70
0
  0
ENDTAB
  0
TABLE
  2
BLOCK_RECORD
  5
1
100
AcDbSymbolTable
 70
0
  0
BLOCK_RECORD
  5
202
100
AcDbSymbolTableRecord
100
AcDbBlockTableRecord
  2
*Model_Space
  0
BLOCK_RECORD
  5
203
100
AcDbSymbolTableRecord
100
AcDbBlockTableRecord
  2
*Paper_Space
  0
BLOCK_RECORD
  5
204
100
AcDbSymbolTableRecord
100
AcDbBlockTableRecord
  2
_FILLED
  0
ENDTAB
  0
TABLE
  2
DIMSTYLE
  5
A
100
AcDbSymbolTable
 70
1
100
AcDbDimStyleTable
 71
0
  0
DIMSTYLE
105
205
100
AcDbSymbolTableRecord
100
AcDbDimStyleTableRecord
  2
STANDARD
 70
0
  3

  4

 40
1.0
 41
0.1
 42
0.0625
 43
0.38
 44
0.125
 45
0.0
 46
0.0
 47
0.001
 48
0.001
140
0.08
141
0.09
142
0.0
143
25.4
144
1.0
145
0.0
146
1.0
147
0.09
 71
1.0
 72
0.0
 73
1
 74
1
 75
0
 76
0
 77
0
 78
4
 79
1
170
1
171
2
172
0
173
0
174
0
175
0
176
0
177
0
178
0
270
2
179
3
271
3
272
3
273
2
274
2
275
0
280
0
281
0
282
0
283
1
284
4
285
0
286
0
287
3
288
0
340
11
278
46
341
204
342
204
343
204
344
204
  0
ENDTAB
  0
ENDSEC
  0
SECTION
  2
BLOCKS
  0
BLOCK
  5
20
100
AcDbEntity
  8
0
100
AcDbBlockBegin
  2
*Model_Space
 70
0
 10
0.0
 20
0.0
 30
0.0
  3
*Model_Space
  1

  0
ENDBLK
  5
21
100
AcDbEntity
  8
0
100
AcDbBlockEnd
  0
BLOCK
  5
1C
100
AcDbEntity
  8
0
100
AcDbBlockBegin
  2
*Paper_Space
 70
0
 10
0.0
 20
0.0
 30
0.0
  3
*Paper_Space
  1

  0
ENDBLK
  5
1D
100
AcDbEntity
  8
0
100
AcDbBlockEnd
  0
BLOCK
  5
206
100
AcDbEntity
  8
0
100
AcDbBlockBegin
  2
_FILLED
 70
64
 10
0.0
 20
0.0
  3
_FILLED
  1

  0
SOLID
  5
207
100
AcDbEntity
  8
0
  6
BYBLOCK
 62
0
100
AcDbTrace
 10
0.0
 20
0.0
 11
-1.0
 21
0.2
 12
-1.0
 22
-0.2
 13
-1.0
 23
-0.2
  0
ENDBLK
  5
208
100
AcDbEntity
  8
0
  6
BYBLOCK
 62
0
100
AcDbBlockEnd
  0
ENDSEC
  0
SECTION
  2
ENTITIES
  0
LINE
  5
209
100
AcDbEntity
  8
0
100
AcDbLine
 62
7
  6
CONTINUOUS
 10
4.0473183383
 20
10.2185818598
 11
4.0473183383
 21
9.5085818598
  0
LINE
  5
20A
100
AcDbEntity
  8
0
100
AcDbLine
 62
9
  6
CONTINUOUS
 10
4.0673183383
 20
10.2385818598
 11
4.0673183383
 21
9.4885818598
  0
LINE
  5
20B
100
AcDbEntity
  8
0
100
AcDbLine
 62
9
  6
CONTINUOUS
 10
11.148032624
 20
10.3216642409
 11
11.1523183383
 21
10.3411996614
  0
LINE
  5
20C
100
AcDbEntity
  8
0
100
AcDbLine
 62
7
  6
CONTINUOUS
 10
10.6098183383
 20
4.6135818598
 11
10.6098183383
 21
9.8635818598
  0
LINE
  5
20D
100
AcDbEntity
  8
0
100
AcDbLine
 62
7
  6
CONTINUOUS
 10
10.9223183383
 20
10.3411996614
 11
10.9223183383
 21
10.7121176153
  0
LINE
  5
20E
100
AcDbEntity
  8
0
100
AcDbLine
 62
9
  6
CONTINUOUS
 10
10.9423183383
 20
10.7121176153
 11
10.9423183383
 21
10.3411996614
  0
LINE
  5
20F
100
AcDbEntity
  8
0
100
AcDbLine
 62
9
  6
CONTINUOUS
 10
11.1523183383
 20
10.7121176154
 11
11.1547716093
 21
10.7319665816
  0
LINE
  5
210
100
AcDbEntity
  8
0
100
AcDbLine
 62
9
  6
CONTINUOUS
 10
11.1523183383
 20
10.3411996614
 11
11.1523183383
 21
10.7121176153
  0
LINE
  5
211
100
AcDbEntity
  8
0
100
AcDbLine
 62
7
  6
CONTINUOUS
 10
11.1723183383
 20
10.7121176153
 11
11.1723183383
 21
10.3411996614
  0
LINE
  5
212
100
AcDbEntity
  8
0
100
AcDbLine
 62
7
  6
CONTINUOUS
 10
11.4848183383
 20
4.6135818598
 11
11.4848183383
 21
9.8635818598
  0
LINE
  5
213
100
AcDbEntity
  8
0
100
AcDbLine
 62
9
  6
CONTINUOUS
 10
10.9423183383
 20
10.3411996614
 11
10.9466040526
 21
10.3216642409
  0
LINE
  5
214
100
AcDbEntity
  8
0
100
AcDbLine
 62
9
  6
CONTINUOUS
 10
10.9398650673
 20
10.7319665816
 11
10.9423183383
 21
10.7121176153
  0
LINE
  5
215
100
AcDbEntity
  8
0
100
AcDbLine
 62
7
  6
CONTINUOUS
 10
7.0473157582
 20
9.4885818598
 11
4.0673183383
 21
9.4885818598
  0
LINE
  5
216
100
AcDbEntity
  8
0
100
AcDbLine
 62
7
  6
CONTINUOUS
 10
15.0473180246
 20
9.4885818598
 11
18.0273183383
 21
9.4885818598
  0
LINE
  5
217
100
AcDbEntity
  8
0
100
AcDbLine
 62
9
  6
CONTINUOUS
 10
14.7023183383
 20
9.8635818547
 11
14.6723183383
 21
9.8635818547
  0
LINE
  5
218
100
AcDbEntity
  8
0
100
AcDbLine
 62
9
  6
CONTINUOUS
 10
7.3923183383
 20
9.8635818649
 11
7.4223183383
 21
9.8635818649
  0
LINE
  5
219
100
AcDbEntity
  8
0
100
AcDbLine
 62
7
  6
CONTINUOUS
 10
7.047318652
 20
10.2385818598
 11
4.0673183383
 21
10.2385818598
  0
LINE
  5
21A
100
AcDbEntity
  8
0
100
AcDbLine
 62
7
  6
CONTINUOUS
 10
15.0473209184
 20
10.2385818598
 11
18.0273183383
 21
10.2385818598
  0
LINE
  5
21B
100
AcDbEntity
  8
0
100
AcDbLine
 62
9
  6
CONTINUOUS
 10
10.9223183383
 20
10.3411996614
 11
10.9423183383
 21
10.3411996614
  0
LINE
  5
21C
100
AcDbEntity
  8
0
100
AcDbLine
 62
9
  6
CONTINUOUS
 10
11.1523183383
 20
10.3411996614
 11
11.1723183383
 21
10.3411996614
  0
LINE
  5
21D
100
AcDbEntity
  8
0
100
AcDbLine
 62
9
  6
CONTINUOUS
 10
11.1723183383
 20
10.7121176153
 11
11.1523183383
 21
10.7121176153
  0
LINE
  5
21E
100
AcDbEntity
  8
0
100
AcDbLine
 62
9
  6
CONTINUOUS
 10
10.9423183383
 20
10.7121176153
 11
10.9223183383
 21
10.7121176153
  0
LINE
  5
21F
100
AcDbEntity
  8
0
100
AcDbLine
 62
9
  6
CONTINUOUS
 10
18.0273183383
 20
9.4885818598
 11
18.0273183383
 21
10.2385818598
  0
LINE
  5
220
100
AcDbEntity
  8
0
100
AcDbLine
 62
7
  6
CONTINUOUS
 10
18.0473183383
 20
9.5085818598
 11
18.0473183383
 21
10.2185818598
  0
ARC
  5
221
100
AcDbEntity
  8
0
100
AcDbCircle
 62
7
  6
CONTINUOUS
 10
11.0473183383
 20
9.8635818598
 40
0.925
100
AcDbArc
 50
298.2936024
 51
241.7041540322
  0
ARC
  5
222
100
AcDbEntity
  8
0
100
AcDbCircle
 62
7
  6
CONTINUOUS
 10
15.0473183383
 20
9.8635818598
 40
0.925
100
AcDbArc
 50
23.931634286
 51
336.0767999857
  0
ARC
  5
223
100
AcDbEntity
  8
0
100
AcDbCircle
 62
7
  6
CONTINUOUS
 10
7.0473183383
 20
9.8635818598
 40
0.925
100
AcDbArc
 50
203.931634286
 51
156.0767999857
  0
ARC
  5
224
100
AcDbEntity
  8
0
100
AcDbCircle
 62
9
  6
CONTINUOUS
 10
15.0473183383
 20
9.8635818598
 40
0.905
100
AcDbArc
 50
24.5069480872
 51
335.4923458499
  0
ARC
  5
225
100
AcDbEntity
  8
0
100
AcDbCircle
 62
9
  6
CONTINUOUS
 10
7.0473183383
 20
9.8635818598
 40
0.905
100
AcDbArc
 50
204.5069480872
 51
155.4923458499
  0
ARC
  5
226
100
AcDbEntity
  8
0
100
AcDbCircle
 62
9
  6
CONTINUOUS
 10
11.0473183383
 20
9.8635818598
 40
0.9049999969
100
AcDbArc
 50
298.9721235382
 51
241.029883604
  0
ARC
  5
227
100
AcDbEntity
  8
0
100
AcDbCircle
 62
7
  6
CONTINUOUS
 10
11.0473183383
 20
9.8625818598
 40
0.876
100
AcDbArc
 50
82.9541512444
 51
97.0458487553
  0
ARC
  5
228
100
AcDbEntity
  8
0
100
AcDbCircle
 62
9
  6
CONTINUOUS
 10
11.0473183383
 20
9.8625818598
 40
0.856
100
AcDbArc
 50
82.9541512436
 51
97.0458487564
  0
ARC
  5
229
100
AcDbEntity
  8
0
100
AcDbCircle
 62
9
  6
CONTINUOUS
 10
11.0473183383
 20
9.8625818598
 40
0.49
100
AcDbArc
 50
77.6263748838
 51
102.3736251162
  0
ARC
  5
22A
100
AcDbEntity
  8
0
100
AcDbCircle
 62
7
  6
CONTINUOUS
 10
11.0473183383
 20
9.8625818598
 40
0.47
100
AcDbArc
 50
77.6263748866
 51
102.3736251142
  0
ARC
  5
22B
100
AcDbEntity
  8
0
100
AcDbCircle
 62
7
  6
CONTINUOUS
 10
7.0473183383
 20
9.8635818598
 40
0.43
100
AcDbArc
 50
240.7929538909
 51
119.2001778741
  0
ARC
  5
22C
100
AcDbEntity
  8
0
100
AcDbCircle
 62
7
  6
CONTINUOUS
 10
15.0473183383
 20
9.8635818598
 40
0.43
100
AcDbArc
 50
60.7929538909
 51
299.2001778741
  0
ARC
  5
22D
100
AcDbEntity
  8
0
100
AcDbCircle
 62
7
  6
CONTINUOUS
 10
15.0473183383
 20
9.8635818598
 40
0.375
100
AcDbArc
 50
89.9993445053
 51
270.0006444529
  0
ARC
  5
22E
100
AcDbEntity
  8
0
100
AcDbCircle
 62
7
  6
CONTINUOUS
 10
7.0473183383
 20
9.8635818598
 40
0.375
100
AcDbArc
 50
269.9993445053
 51
90.0006444529
  0
ARC
  5
22F
100
AcDbEntity
  8
0
100
AcDbCircle
 62
7
  6
CONTINUOUS
 10
11.1523183383
 20
10.3411996614
 40
0.02
100
AcDbArc
 50
257.6263748193
 51
360.0
  0
ARC
  5
230
100
AcDbEntity
  8
0
100
AcDbCircle
 62
7
  6
CONTINUOUS
 10
10.9423183383
 20
10.3411996614
 40
0.02
100
AcDbArc
 50
179.9999999321
 51
282.3736251162
  0
ARC
  5
231
100
AcDbEntity
  8
0
100
AcDbCircle
 62
7
  6
CONTINUOUS
 10
10.9423183383
 20
10.7121176153
 40
0.02
100
AcDbArc
 50
97.0458487076
 51
180.0
  0
ARC
  5
232
100
AcDbEntity
  8
0
100
AcDbCircle
 62
7
  6
CONTINUOUS
 10
11.1523183383
 20
10.7121176153
 40
0.02
100
AcDbArc
 50
0.0
 51
82.9541512436
  0
ARC
  5
233
100
AcDbEntity
  8
0
100
AcDbCircle
 62
7
  6
CONTINUOUS
 10
18.0273183383
 20
10.2185818598
 40
0.02
100
AcDbArc
 50
0.0
 51
90.0
  0
ARC
  5
234
100
AcDbEntity
  8
0
100
AcDbCircle
 62
7
  6
CONTINUOUS
 10
18.0273183383
 20
9.5085818598
 40
0.02
100
AcDbArc
 50
270.0
 51
360.0
  0
ARC
  5
235
100
AcDbEntity
  8
0
100
AcDbCircle
 62
7
  6
CONTINUOUS
 10
4.0673183383
 20
9.5085818598
 40
0.02
100
AcDbArc
 50
180.0
 51
270.0
  0
ARC
  5
236
100
AcDbEntity
  8
0
100
AcDbCircle
 62
7
  6
CONTINUOUS
 10
4.0673183383
 20
10.2185818598
 40
0.02
100
AcDbArc
 50
90.0
 51
180.0
  0
SPLINE
  5
237
100
AcDbEntity
  8
0
100
AcDbSpline
 62
9
  6
CONTINUOUS
 70
0
 71
3
 72
23
 73
19
 74
0
 42
0.0000001
 43
0.0000001
 44
0.0000000001
 40
0.0
 40
0.0
 40
0.0
 40
0.0
 40
0.0770244831
 40
0.1530500641
 40
0.2272540579
 40
0.2990864407
 40
0.3682776731
 40
0.4347861578
 40
0.4987251281
 40
0.5603011713
 40
0.6197692085
 40
0.6774049808
 40
0.7334876145
 40
0.7882932285
 40
0.8420901068
 40
0.8951365571
 40
0.9476911683
 40
1.0
 40
1.0
 40
1.0
 40
1.0
 10
14.7023183383
 20
9.8635818598
 30
0.0
 10
14.7023183896
 20
9.8490626014
 30
0.0
 10
14.7038620811
 20
9.8201884156
 30
0.0
 10
14.7106964057
 20
9.7778215946
 30
0.0
 10
14.7216968596
 20
9.7373531223
 30
0.0
 10
14.7363719054
 20
9.6994523109
 30
0.0
 10
14.7541807665
 20
9.6645452747
 30
0.0
 10
14.774597061
 20
9.6328582485
 30
0.0
 10
14.7971503724
 20
9.6044719829
 30
0.0
 10
14.8214379675
 20
9.5793757418
 30
0.0
 10
14.8471225154
 20
9.557507261
 30
0.0
 10
14.8739252532
 20
9.5387832287
 30
0.0
 10
14.9016131971
 20
9.5231138572
 30
0.0
 10
14.9299911579
 20
9.5104161137
 30
0.0
 10
14.9588910439
 20
9.5006184893
 30
0.0
 10
14.9881666344
 20
9.4936606362
 30
0.0
 10
15.0176830325
 20
9.4895043315
 30
0.0
 10
15.0374622443
 20
9.4885838439
 30
0.0
 10
15.0473225562
 20
9.4885818598
 30
0.0
  0
SPLINE
  5
238
100
AcDbEntity
  8
0
100
AcDbSpline
 62
9
  6
CONTINUOUS
 70
0
 71
3
 72
27
 73
23
 74
0
 42
0.0000001
 43
0.0000001
 44
0.0000000001
 40
0.0
 40
0.0
 40
0.0
 40
0.0
 40
0.03858529
 40
0.0770442997
 40
0.1152477741
 40
0.1530888263
 40
0.190469059
 40
0.2273108092
 40
0.2635549519
 40
0.2991599332
 40
0.3683442348
 40
0.4348459125
 40
0.4987786528
 40
0.560348054
 40
0.619810648
 40
0.6774398629
 40
0.7335173857
 40
0.7883177943
 40
0.8421089642
 40
0.8951505342
 40
0.9476989775
 40
1.0
 40
1.0
 40
1.0
 40
1.0
 10
14.7023183383
 20
9.8635818598
 30
0.0
 10
14.7023185452
 20
9.8708559893
 30
0.0
 10
14.7027130181
 20
9.8853832791
 30
0.0
 10
14.7044512483
 20
9.9070499485
 30
0.0
 10
14.7073265748
 20
9.9284544859
 30
0.0
 10
14.711301076
 20
9.949474878
 30
0.0
 10
14.716312818
 20
9.9700081018
 30
0.0
 10
14.7223126333
 20
9.9899601036
 30
0.0
 10
14.7292282518
 20
10.0092584712
 30
0.0
 10
14.7394783991
 20
10.033801269
 30
0.0
 10
14.7541817141
 20
10.0626195662
 30
0.0
 10
14.774596282
 20
10.0943059375
 30
0.0
 10
14.7971509681
 20
10.1226914666
 30
0.0
 10
14.8214372723
 20
10.1477889166
 30
0.0
 10
14.8471229646
 20
10.1696558976
 30
0.0
 10
14.8739247957
 20
10.1883812453
 30
0.0
 10
14.901613265
 20
10.2040498326
 30
0.0
 10
14.9299913137
 20
10.2167475054
 30
0.0
 10
14.9588912064
 20
10.2265454118
 30
0.0
 10
14.9881667245
 20
10.2335029772
 30
0.0
 10
15.0176825193
 20
10.2376593691
 30
0.0
 10
15.0374610883
 20
10.2385800095
 30
0.0
 10
15.0473209184
 20
10.2385818598
 30
0.0
  0
SPLINE
  5
239
100
AcDbEntity
  8
0
100
AcDbSpline
 62
9
  6
CONTINUOUS
 70
0
 71
3
 72
23
 73
19
 74
0
 42
0.0000001
 43
0.0000001
 44
0.0000000001
 40
0.0
 40
0.0
 40
0.0
 40
0.0
 40
0.0770244831
 40
0.1530500641
 40
0.2272540579
 40
0.2990864407
 40
0.3682776731
 40
0.4347861578
 40
0.4987251281
 40
0.5603011713
 40
0.6197692085
 40
0.6774049808
 40
0.7334876145
 40
0.7882932285
 40
0.8420901068
 40
0.8951365571
 40
0.9476911683
 40
1.0
 40
1.0
 40
1.0
 40
1.0
 10
7.3923183383
 20
9.8635818598
 30
0.0
 10
7.3923182869
 20
9.8781011181
 30
0.0
 10
7.3907745954
 20
9.906975304
 30
0.0
 10
7.3839402708
 20
9.9493421249
 30
0.0
 10
7.372939817
 20
9.9898105973
 30
0.0
 10
7.3582647711
 20
10.0277114086
 30
0.0
 10
7.3404559101
 20
10.0626184449
 30
0.0
 10
7.3200396156
 20
10.094305471
 30
0.0
 10
7.2974863042
 20
10.1226917366
 30
0.0
 10
7.2731987091
 20
10.1477879777
 30
0.0
 10
7.2475141612
 20
10.1696564586
 30
0.0
 10
7.2207114233
 20
10.1883804908
 30
0.0
 10
7.1930234794
 20
10.2040498624
 30
0.0
 10
7.1646455187
 20
10.2167476058
 30
0.0
 10
7.1357456327
 20
10.2265452303
 30
0.0
 10
7.1064700422
 20
10.2335030834
 30
0.0
 10
7.0769536441
 20
10.2376593881
 30
0.0
 10
7.0571744323
 20
10.2385798756
 30
0.0
 10
7.0473141203
 20
10.2385818598
 30
0.0
  0
SPLINE
  5
23A
100
AcDbEntity
  8
0
100
AcDbSpline
 62
9
  6
CONTINUOUS
 70
0
 71
3
 72
27
 73
23
 74
0
 42
0.0000001
 43
0.0000001
 44
0.0000000001
 40
0.0
 40
0.0
 40
0.0
 40
0.0
 40
0.03858529
 40
0.0770442997
 40
0.1152477741
 40
0.1530888263
 40
0.190469059
 40
0.2273108092
 40
0.2635549519
 40
0.2991599332
 40
0.3683442348
 40
0.4348459125
 40
0.4987786528
 40
0.560348054
 40
0.619810648
 40
0.6774398629
 40
0.7335173857
 40
0.7883177943
 40
0.8421089642
 40
0.8951505342
 40
0.9476989775
 40
1.0
 40
1.0
 40
1.0
 40
1.0
 10
7.3923183383
 20
9.8635818598
 30
0.0
 10
7.3923181314
 20
9.8563077302
 30
0.0
 10
7.3919236585
 20
9.8417804404
 30
0.0
 10
7.3901854283
 20
9.8201137711
 30
0.0
 10
7.3873101017
 20
9.7987092336
 30
0.0
 10
7.3833356006
 20
9.7776888415
 30
0.0
 10
7.3783238585
 20
9.7571556177
 30
0.0
 10
7.3723240432
 20
9.737203616
 30
0.0
 10
7.3654084247
 20
9.7179052484
 30
0.0
 10
7.3551582775
 20
9.6933624505
 30
0.0
 10
7.3404549624
 20
9.6645441533
 30
0.0
 10
7.3200403945
 20
9.632857782
 30
0.0
 10
7.2974857085
 20
9.6044722529
 30
0.0
 10
7.2731994042
 20
9.5793748029
 30
0.0
 10
7.2475137119
 20
9.5575078219
 30
0.0
 10
7.2207118808
 20
9.5387824742
 30
0.0
 10
7.1930234116
 20
9.5231138869
 30
0.0
 10
7.1646453629
 20
9.5104162141
 30
0.0
 10
7.1357454702
 20
9.5006183077
 30
0.0
 10
7.1064699521
 20
9.4936607423
 30
0.0
 10
7.0769541573
 20
9.4895043504
 30
0.0
 10
7.0571755883
 20
9.48858371
 30
0.0
 10
7.0473157582
 20
9.4885818598
 30
0.0
  0
ELLIPSE
  5
23B
100
AcDbEntity
  8
0
100
AcDbEllipse
 62
7
  6
CONTINUOUS
 10
11.0473183383
 20
9.8635818598
 30
0.0
 11
0.4375
 21
0.0
 31
0.0
 40
1.0
 41
0.0
 42
3.1415926536
  0
ELLIPSE
  5
23C
100
AcDbEntity
  8
0
100
AcDbEllipse
 62
7
  6
CONTINUOUS
 10
11.0473183383
 20
4.6135818598
 30
0.0
 11
-0.0
 21
0.4375
 31
0.0
 40
1.0
 41
1.5707963268
 42
4.7123889804
  0
ENDSEC
  0
SECTION
  2
OBJECTS
  0
DICTIONARY
  5
C
100
AcDbDictionary
280
0
281
1
  3
ACAD_GROUP
350
D
  3
ACAD_MLINESTYLE
350
17
  3
ACAD_LAYOUT
350
1A
  3
ACAD_PLOTSETTINGS
350
19
  3
ACAD_PLOTSTYLENAME
350
E
  0
DICTIONARY
  5
D
102
{ACAD_REACTORS
330
C
102
}
100
AcDbDictionary
280
0
281
1
  0
ACDBDICTIONARYWDFLT
  5
E
102
{ACAD_REACTORS
330
C
102
}
100
AcDbDictionary
281
1
  3
Normal
350
F
100
AcDbDictionaryWithDefault
340
F
  0
DICTIONARY
  5
17
102
{ACAD_REACTORS
330
C
102
}
100
AcDbDictionary
280
0
281
1
  3
Standard
350
18
  0
DICTIONARY
  5
19
102
{ACAD_REACTORS
330
C
102
}
100
AcDbDictionary
281
1
  0
DICTIONARY
  5
1A
102
{ACAD_REACTORS
330
C
102
}
100
AcDbDictionary
281
1
  3
Model
350
23D
  3
Layout1
350
23E
  0
ACDBPLACEHOLDER
  5
F
102
{ACAD_REACTORS
330
E
102
}
  0
MLINESTYLE
  5
18
102
{ACAD_REACTORS
330
17
102
}
100
AcDbMlineStyle
  2
STANDARD
 70
0
  3

 62
256
 51
90.0
 52
90.0
 71
2
 49
0.5
 62
256
  6
BYLAYER
 49
-0.5
 62
256
  6
BYLAYER
  0
LAYOUT
  5
23D
102
{ACAD_REACTORS
330
1A
102
}
100
AcDbPlotSettings
  1

  2
none_device
  4
ANSI_C_(22.00_x_17.00_Inches)
  6

 40
0.0
 41
0.0
 42
0.0
 43
0.0
 44
558.8
 45
431.8
 46
0.0
 47
0.0
 48
0.0
 49
0.0
140
0.0
141
0.0
142
1.0
143
1.0
 70
1024
 72
0
 73
0
 74
0
  7

 75
0
147
1.0
148
0.0
149
0.0
100
AcDbLayout
  1
Model
 70
0
 71
0
 10
0.0
 20
0.0
 11
22.0
 21
17.0
 12
0.0
 22
0.0
 32
0.0
 14
0.0
 24
0.0
 34
0.0
 15
0.0
 25
0.0
 35
0.0
146
0.0
 13
0.0
 23
0.0
 33
0.0
 16
1.0
 26
0.0
 36
0.0
 17
0.0
 27
1.0
 37
0.0
 76
0
330
202
345
0
346
0
  0
LAYOUT
  5
23E
102
{ACAD_REACTORS
330
1A
102
}
100
AcDbPlotSettings
  1

  2
none_device
  4
ANSI_C_(22.00_x_17.00_Inches)
  6

 40
0.0
 41
0.0
 42
0.0
 43
0.0
 44
558.8
 45
431.8
 46
0.0
 47
0.0
 48
0.0
 49
0.0
140
0.0
141
0.0
142
1.0
143
1.0
 70
0
 72
0
 73
0
 74
0
  7

 75
0
147
1.0
148
0.0
149
0.0
100
AcDbLayout
  1
Layout1
 70
0
 71
1
 10
0.0
 20
0.0
 11
22.0
 21
17.0
 12
0.0
 22
0.0
 32
0.0
 14
0.0
 24
0.0
 34
0.0
 15
0.0
 25
0.0
 35
0.0
146
0.0
 13
0.0
 23
0.0
 33
0.0
 16
1.0
 26
0.0
 36
0.0
 17
0.0
 27
1.0
 37
0.0
 76
0
330
203
345
0
346
0
  0
ENDSEC
  0
EOF
