999
DXF file: 3140-3912_front.dxf
999
Pro/ENGINEER 2018400 by Parametric Technology Corporation
  0
SECTION
  2
HEADER
  9
$ACADVER
  1
AC1027
  9
$DWGCODEPAGE
  3
ANSI_1252
  9
$EXTMAX
 10
11.0
 20
8.5
 30
0.0
  9
$EXTMIN
 10
0.0
 20
0.0
 30
0.0
  9
$LIMMIN
 10
0.0
 20
0.0
  9
$LIMMAX
 10
11.0
 20
8.5
  9
$VIEWCTR
 10
5.5
 20
4.25
  9
$VIEWSIZE
 40
8.5
  9
$CLAYER
  8
0
  9
$LTSCALE
 40
0.605
  9
$CELTYPE
  6
BYLAYER
  9
$DIMSCALE
 40
1.0
  9
$DIMASZ
 40
0.1
  9
$DIMEXO
 40
0.0625
  9
$DIMDLI
 40
0.418
  9
$DIMEXE
 40
0.125
  9
$DIMCEN
 40
0.099
  9
$DIMLFAC
 40
1.0
  9
$DIMBLK
  1
_FILLED
  9
$DIMALT
 70
1
  9
$DIMALTD
 70
1
  9
$DIMALTTD
 70
2
  9
$DIMALTF
 40
25.4
  9
$DIMTXT
 40
0.08
  9
$DIMTOL
 70
1
  9
$DIMLIM
 70
0
  9
$DIMTFAC
 40
1.0
  9
$DIMTP
 40
0.01
  9
$DIMTM
 40
0.01
  9
$DIMGAP
 40
0.09
  9
$DIMDSEP
 70
46
  9
$AUNITS
 70
0
  9
$PDMODE
 70
3
  9
$PDSIZE
 40
0.3125
  9
$HANDSEED
  5
260
  9
$TILEMODE
 70
1
  9
$MEASUREMENT
 70
0
  9
$INSUNITS
 70
1
  0
ENDSEC
  0
SECTION
  2
CLASSES
  0
CLASS
  1
ACDBDICTIONARYWDFLT
  2
AcDbDictionaryWithDefault
  3
AutoCAD 2000
 90
0
 91
1
280
0
281
0
  0
CLASS
  1
ACDBPLACEHOLDER
  2
AcDbPlaceHolder
  3
AutoCAD 2000
 90
0
 91
1
280
0
281
0
  0
CLASS
  1
LAYOUT
  2
AcDbLayout
  3
AutoCAD 2000
 90
0
 91
0
280
0
281
0
  0
ENDSEC
  0
SECTION
  2
TABLES
  0
TABLE
  2
VPORT
  5
8
100
AcDbSymbolTable
 70
2
  0
VPORT
  5
1F4
100
AcDbSymbolTableRecord
100
AcDbViewportTableRecord
  2
*ACTIVE
 70
0
 10
0.0
 20
0.0
 11
1.0
 21
1.0
 12
5.5
 22
4.25
 13
0.0
 23
0.0
 14
1.0
 24
1.0
 15
0.0
 25
0.0
 16
0.0
 26
0.0
 36
1.0
 17
0.0
 27
0.0
 37
0.0
 40
8.5
 41
1.2941176471
 42
50.0
 43
0.0
 44
0.0
 50
0.0
 51
0.0
 71
0
 72
100
 73
1
 74
1
 75
0
 76
0
 77
0
 78
0
  0
ENDTAB
  0
TABLE
  2
LTYPE
  5
5
100
AcDbSymbolTable
 70
6
  0
LTYPE
  5
14
100
AcDbSymbolTableRecord
100
AcDbLinetypeTableRecord
  2
BYBLOCK
 70
0
  3

 72
65
 73
0
 40
0.0
  0
LTYPE
  5
15
100
AcDbSymbolTableRecord
100
AcDbLinetypeTableRecord
  2
BYLAYER
 70
0
  3

 72
65
 73
0
 40
0.0
  0
LTYPE
  5
16
100
AcDbSymbolTableRecord
100
AcDbLinetypeTableRecord
  2
CONTINUOUS
 70
64
  3
Solid line
 72
65
 73
0
 40
0.0
  0
LTYPE
  5
1F5
100
AcDbSymbolTableRecord
100
AcDbLinetypeTableRecord
  2
CENTER
 70
64
  3
____ _ ____ _ ____ _ ____ _ ____ _ ____ _ ____
 72
65
 73
4
 40
0.6
 49
0.375
 74
0
 49
-0.075
 74
0
 49
0.075
 74
0
 49
-0.075
 74
0
  0
LTYPE
  5
1F6
100
AcDbSymbolTableRecord
100
AcDbLinetypeTableRecord
  2
HIDDEN
 70
64
  3
- - - - - - - - - - - - - - - - - - - -
 72
65
 73
2
 40
0.2
 49
0.1
 74
0
 49
-0.1
 74
0
  0
LTYPE
  5
1F7
100
AcDbSymbolTableRecord
100
AcDbLinetypeTableRecord
  2
PHANTOM
 70
64
  3
_____ _ _ _____ _ _ _____ _ _ _____
 72
65
 73
6
 40
0.8
 49
0.45
 74
0
 49
-0.05
 74
0
 49
0.1
 74
0
 49
-0.05
 74
0
 49
0.1
 74
0
 49
-0.05
 74
0
  0
LTYPE
  5
1F8
100
AcDbSymbolTableRecord
100
AcDbLinetypeTableRecord
  2
DOT
 70
64
  3
. . . . . . . . . . . . . . . . . . . .
 72
65
 73
2
 40
0.2
 49
0.1
 74
0
 49
-0.1
 74
0
  0
LTYPE
  5
1F9
100
AcDbSymbolTableRecord
100
AcDbLinetypeTableRecord
  2
DASHED
 70
64
  3
- - - - - - - - - - - - - - - - - - - -
 72
65
 73
2
 40
0.2
 49
0.1
 74
0
 49
-0.1
 74
0
  0
ENDTAB
  0
TABLE
  2
LAYER
  5
2
100
AcDbSymbolTable
 70
36
  0
LAYER
  5
10
100
AcDbSymbolTableRecord
100
AcDbLayerTableRecord
  2
0
 70
0
 62
7
  6
CONTINUOUS
370
-3
390
F
  0
LAYER
  5
1FA
100
AcDbSymbolTableRecord
100
AcDbLayerTableRecord
  2
DEFAULT_1
 70
0
 62
7
  6
CENTER
370
-3
390
F
  0
LAYER
  5
1FB
100
AcDbSymbolTableRecord
100
AcDbLayerTableRecord
  2
DEFAULT_2
 70
0
 62
8
  6
HIDDEN
370
-3
390
F
  0
LAYER
  5
1FC
100
AcDbSymbolTableRecord
100
AcDbLayerTableRecord
  2
DEFAULT_3
 70
0
 62
7
  6
PHANTOM
370
-3
390
F
  0
LAYER
  5
1FD
100
AcDbSymbolTableRecord
100
AcDbLayerTableRecord
  2
DEFAULT_COORDINATE_SYSTEM
 70
0
 62
7
  6
CONTINUOUS
370
-3
390
F
  0
LAYER
  5
1FE
100
AcDbSymbolTableRecord
100
AcDbLayerTableRecord
  2
DEFAULT_DATUM_AXES
 70
0
 62
7
  6
CONTINUOUS
370
-3
390
F
  0
LAYER
  5
1FF
100
AcDbSymbolTableRecord
100
AcDbLayerTableRecord
  2
DEFAULT_DATUM_PLANES
 70
0
 62
7
  6
CONTINUOUS
370
-3
390
F
  0
ENDTAB
  0
TABLE
  2
STYLE
  5
3
100
AcDbSymbolTable
 70
1
  0
STYLE
  5
11
100
AcDbSymbolTableRecord
100
AcDbTextStyleTableRecord
  2
STANDARD
 70
0
 40
0.0
 41
0.8
 50
0.0
 71
0
 42
0.2
  3
txt
  4

  0
STYLE
  5
200
100
AcDbSymbolTableRecord
100
AcDbTextStyleTableRecord
  2
TEXTSTYLE_1
 70
0
 40
0.0
 41
0.8
 50
0.0
 71
0
 42
0.2
  3
gdt
  4

  0
ENDTAB
  0
TABLE
  2
VIEW
  5
6
100
AcDbSymbolTable
 70
0
  0
ENDTAB
  0
TABLE
  2
UCS
  5
7
100
AcDbSymbolTable
 70
0
  0
ENDTAB
  0
TABLE
  2
APPID
  5
9
100
AcDbSymbolTable
 70
1
  0
APPID
  5
201
100
AcDbSymbolTableRecord
100
AcDbRegAppTableRecord
  2
ACAD
 70
0
  0
ENDTAB
  0
TABLE
  2
BLOCK_RECORD
  5
1
100
AcDbSymbolTable
 70
0
  0
BLOCK_RECORD
  5
202
100
AcDbSymbolTableRecord
100
AcDbBlockTableRecord
  2
*Model_Space
  0
BLOCK_RECORD
  5
203
100
AcDbSymbolTableRecord
100
AcDbBlockTableRecord
  2
*Paper_Space
  0
BLOCK_RECORD
  5
204
100
AcDbSymbolTableRecord
100
AcDbBlockTableRecord
  2
_FILLED
  0
ENDTAB
  0
TABLE
  2
DIMSTYLE
  5
A
100
AcDbSymbolTable
 70
1
100
AcDbDimStyleTable
 71
0
  0
DIMSTYLE
105
205
100
AcDbSymbolTableRecord
100
AcDbDimStyleTableRecord
  2
STANDARD
 70
0
  3

  4

 40
1.0
 41
0.1
 42
0.0625
 43
0.38
 44
0.125
 45
0.0
 46
0.0
 47
0.01
 48
0.01
140
0.08
141
0.09
142
0.0
143
25.4
144
1.0
145
0.0
146
1.0
147
0.09
 71
1.0
 72
0.0
 73
1
 74
1
 75
0
 76
0
 77
0
 78
4
 79
1
170
1
171
1
172
0
173
0
174
0
175
0
176
0
177
0
178
0
270
2
179
2
271
2
272
2
273
2
274
2
275
0
280
0
281
0
282
0
283
1
284
4
285
0
286
0
287
3
288
0
340
11
278
46
341
204
342
204
343
204
344
204
  0
ENDTAB
  0
ENDSEC
  0
SECTION
  2
BLOCKS
  0
BLOCK
  5
20
100
AcDbEntity
  8
0
100
AcDbBlockBegin
  2
*Model_Space
 70
0
 10
0.0
 20
0.0
 30
0.0
  3
*Model_Space
  1

  0
ENDBLK
  5
21
100
AcDbEntity
  8
0
100
AcDbBlockEnd
  0
BLOCK
  5
1C
100
AcDbEntity
  8
0
100
AcDbBlockBegin
  2
*Paper_Space
 70
0
 10
0.0
 20
0.0
 30
0.0
  3
*Paper_Space
  1

  0
ENDBLK
  5
1D
100
AcDbEntity
  8
0
100
AcDbBlockEnd
  0
BLOCK
  5
206
100
AcDbEntity
  8
0
100
AcDbBlockBegin
  2
_FILLED
 70
64
 10
0.0
 20
0.0
  3
_FILLED
  1

  0
SOLID
  5
207
100
AcDbEntity
  8
0
  6
BYBLOCK
 62
0
100
AcDbTrace
 10
0.0
 20
0.0
 11
-1.0
 21
0.2
 12
-1.0
 22
-0.2
 13
-1.0
 23
-0.2
  0
ENDBLK
  5
208
100
AcDbEntity
  8
0
  6
BYBLOCK
 62
0
100
AcDbBlockEnd
  0
ENDSEC
  0
SECTION
  2
ENTITIES
  0
MTEXT
  5
209
100
AcDbEntity
  8
0
100
AcDbMText
 62
2
  6
CONTINUOUS
  7
STANDARD
 71
3
 72
1
 10
5.5461180124
 20
2.4307569876
 30
0.0
 11
1.0
 21
0.0
 31
0.0
 73
2
 44
0.9
  1
SCALE  .500
 40
0.08
 41
0.704
  0
LINE
  5
20A
100
AcDbEntity
  8
0
100
AcDbLine
 62
7
  6
CONTINUOUS
 10
0.0
 20
0.0
 11
0.0
 21
8.5
  0
LINE
  5
20B
100
AcDbEntity
  8
0
100
AcDbLine
 62
7
  6
CONTINUOUS
 10
0.0
 20
0.0
 11
11.0
 21
0.0
  0
LINE
  5
20C
100
AcDbEntity
  8
0
100
AcDbLine
 62
7
  6
CONTINUOUS
 10
0.0
 20
8.5
 11
11.0
 21
8.5
  0
LINE
  5
20D
100
AcDbEntity
  8
0
100
AcDbLine
 62
7
  6
CONTINUOUS
 10
11.0
 20
0.0
 11
11.0
 21
8.5
  0
LINE
  5
20E
100
AcDbEntity
  8
0
100
AcDbLine
 62
7
  6
CONTINUOUS
 10
1.5194099379
 20
5.5637694099
 11
1.5194099379
 21
4.1237694099
  0
LINE
  5
20F
100
AcDbEntity
  8
0
100
AcDbLine
 62
7
  6
CONTINUOUS
 10
1.5344099379
 20
5.5637694099
 11
1.5344099379
 21
4.1237694099
  0
LINE
  5
210
100
AcDbEntity
  8
0
100
AcDbLine
 62
7
  6
CONTINUOUS
 10
1.5494099379
 20
4.1087694099
 11
1.5494099379
 21
4.0937694099
  0
LINE
  5
211
100
AcDbEntity
  8
0
100
AcDbLine
 62
7
  6
CONTINUOUS
 10
1.5494099379
 20
5.5787694099
 11
1.5494099379
 21
5.5937694099
  0
LINE
  5
212
100
AcDbEntity
  8
0
100
AcDbLine
 62
7
  6
CONTINUOUS
 10
2.8219099379
 20
4.5312694099
 11
2.8219099379
 21
5.1562694099
  0
LINE
  5
213
100
AcDbEntity
  8
0
100
AcDbLine
 62
7
  6
CONTINUOUS
 10
2.8319099379
 20
4.5412694099
 11
2.8319099379
 21
5.1462694099
  0
LINE
  5
214
100
AcDbEntity
  8
0
100
AcDbLine
 62
7
  6
CONTINUOUS
 10
2.8419099379
 20
4.5312694099
 11
2.8419099379
 21
5.1562694099
  0
LINE
  5
215
100
AcDbEntity
  8
0
100
AcDbLine
 62
7
  6
CONTINUOUS
 10
2.9894099379
 20
4.1087694099
 11
2.9894099379
 21
4.0937694099
  0
LINE
  5
216
100
AcDbEntity
  8
0
100
AcDbLine
 62
7
  6
CONTINUOUS
 10
2.9894099379
 20
5.5787694099
 11
2.9894099379
 21
5.5937694099
  0
LINE
  5
217
100
AcDbEntity
  8
0
100
AcDbLine
 62
7
  6
CONTINUOUS
 10
3.0044099379
 20
4.1237694099
 11
3.0044099379
 21
4.5312694099
  0
LINE
  5
218
100
AcDbEntity
  8
0
100
AcDbLine
 62
7
  6
CONTINUOUS
 10
3.0044099379
 20
5.1562694099
 11
3.0044099379
 21
5.5637694099
  0
LINE
  5
219
100
AcDbEntity
  8
0
100
AcDbLine
 62
7
  6
CONTINUOUS
 10
3.0194099379
 20
4.1237694099
 11
3.0194099379
 21
4.5312694099
  0
LINE
  5
21A
100
AcDbEntity
  8
0
100
AcDbLine
 62
7
  6
CONTINUOUS
 10
3.0194099379
 20
5.1562694099
 11
3.0194099379
 21
5.5637694099
  0
LINE
  5
21B
100
AcDbEntity
  8
0
100
AcDbLine
 62
7
  6
CONTINUOUS
 10
2.8319099379
 20
5.1462694099
 11
2.8419099379
 21
5.1562694099
  0
LINE
  5
21C
100
AcDbEntity
  8
0
100
AcDbLine
 62
7
  6
CONTINUOUS
 10
2.8319099379
 20
4.5412694099
 11
2.8419099379
 21
4.5312694099
  0
LINE
  5
21D
100
AcDbEntity
  8
0
100
AcDbLine
 62
7
  6
CONTINUOUS
 10
2.8319099379
 20
4.5412694099
 11
2.8219099379
 21
4.5312694099
  0
LINE
  5
21E
100
AcDbEntity
  8
0
100
AcDbLine
 62
7
  6
CONTINUOUS
 10
2.8319099379
 20
5.1462694099
 11
2.8219099379
 21
5.1562694099
  0
LINE
  5
21F
100
AcDbEntity
  8
0
100
AcDbLine
 62
7
  6
CONTINUOUS
 10
1.5494099379
 20
4.0937694099
 11
2.9894099379
 21
4.0937694099
  0
LINE
  5
220
100
AcDbEntity
  8
0
100
AcDbLine
 62
7
  6
CONTINUOUS
 10
7.5494099379
 20
4.0937694099
 11
8.9894099379
 21
4.0937694099
  0
LINE
  5
221
100
AcDbEntity
  8
0
100
AcDbLine
 62
7
  6
CONTINUOUS
 10
1.5494099379
 20
4.1087694099
 11
2.9894099379
 21
4.1087694099
  0
LINE
  5
222
100
AcDbEntity
  8
0
100
AcDbLine
 62
7
  6
CONTINUOUS
 10
7.5494099379
 20
4.1087694099
 11
8.9894099379
 21
4.1087694099
  0
LINE
  5
223
100
AcDbEntity
  8
0
100
AcDbLine
 62
7
  6
CONTINUOUS
 10
7.5344099379
 20
4.1237694099
 11
7.5194099379
 21
4.12376941
  0
LINE
  5
224
100
AcDbEntity
  8
0
100
AcDbLine
 62
7
  6
CONTINUOUS
 10
1.5344099379
 20
4.1237694099
 11
1.5194099379
 21
4.12376941
  0
LINE
  5
225
100
AcDbEntity
  8
0
100
AcDbLine
 62
7
  6
CONTINUOUS
 10
3.0044099379
 20
4.1237694099
 11
3.0194099379
 21
4.1237694099
  0
LINE
  5
226
100
AcDbEntity
  8
0
100
AcDbLine
 62
7
  6
CONTINUOUS
 10
9.0044099379
 20
4.1237694099
 11
9.0194099379
 21
4.1237694099
  0
LINE
  5
227
100
AcDbEntity
  8
0
100
AcDbLine
 62
7
  6
CONTINUOUS
 10
2.8219099379
 20
4.5312694099
 11
2.2694147152
 21
4.5312694099
  0
LINE
  5
228
100
AcDbEntity
  8
0
100
AcDbLine
 62
7
  6
CONTINUOUS
 10
2.8419099379
 20
4.5312694099
 11
7.6969099379
 21
4.5312694099
  0
LINE
  5
229
100
AcDbEntity
  8
0
100
AcDbLine
 62
7
  6
CONTINUOUS
 10
7.7169099379
 20
4.5312694099
 11
8.2694050828
 21
4.5312694099
  0
LINE
  5
22A
100
AcDbEntity
  8
0
100
AcDbLine
 62
7
  6
CONTINUOUS
 10
2.8219099379
 20
5.1562694099
 11
2.269414793
 21
5.1562694099
  0
LINE
  5
22B
100
AcDbEntity
  8
0
100
AcDbLine
 62
7
  6
CONTINUOUS
 10
2.8419099379
 20
5.1562694099
 11
7.6969099379
 21
5.1562694099
  0
LINE
  5
22C
100
AcDbEntity
  8
0
100
AcDbLine
 62
7
  6
CONTINUOUS
 10
7.7169099379
 20
5.1562694099
 11
8.2694051605
 21
5.1562694099
  0
LINE
  5
22D
100
AcDbEntity
  8
0
100
AcDbLine
 62
7
  6
CONTINUOUS
 10
7.5344099379
 20
5.5637694099
 11
7.5194099379
 21
5.5637694099
  0
LINE
  5
22E
100
AcDbEntity
  8
0
100
AcDbLine
 62
7
  6
CONTINUOUS
 10
1.5344099379
 20
5.5637694099
 11
1.5194099379
 21
5.5637694099
  0
LINE
  5
22F
100
AcDbEntity
  8
0
100
AcDbLine
 62
7
  6
CONTINUOUS
 10
3.0044099379
 20
5.5637694099
 11
3.0194099379
 21
5.5637694099
  0
LINE
  5
230
100
AcDbEntity
  8
0
100
AcDbLine
 62
7
  6
CONTINUOUS
 10
9.0044099379
 20
5.5637694099
 11
9.0194099379
 21
5.5637694099
  0
LINE
  5
231
100
AcDbEntity
  8
0
100
AcDbLine
 62
7
  6
CONTINUOUS
 10
8.9894099379
 20
5.5787694099
 11
7.5494099379
 21
5.5787694099
  0
LINE
  5
232
100
AcDbEntity
  8
0
100
AcDbLine
 62
7
  6
CONTINUOUS
 10
2.9894099379
 20
5.5787694099
 11
1.5494099379
 21
5.5787694099
  0
LINE
  5
233
100
AcDbEntity
  8
0
100
AcDbLine
 62
7
  6
CONTINUOUS
 10
8.9894099379
 20
5.5937694099
 11
7.5494099379
 21
5.5937694099
  0
LINE
  5
234
100
AcDbEntity
  8
0
100
AcDbLine
 62
7
  6
CONTINUOUS
 10
2.9894099379
 20
5.5937694099
 11
1.5494099379
 21
5.5937694099
  0
LINE
  5
235
100
AcDbEntity
  8
0
100
AcDbLine
 62
7
  6
CONTINUOUS
 10
7.7069099379
 20
5.1462694099
 11
7.7169099379
 21
5.1562694099
  0
LINE
  5
236
100
AcDbEntity
  8
0
100
AcDbLine
 62
7
  6
CONTINUOUS
 10
7.7069099379
 20
4.5412694099
 11
7.7169099379
 21
4.5312694099
  0
LINE
  5
237
100
AcDbEntity
  8
0
100
AcDbLine
 62
7
  6
CONTINUOUS
 10
7.7069099379
 20
4.5412694099
 11
7.6969099379
 21
4.5312694099
  0
LINE
  5
238
100
AcDbEntity
  8
0
100
AcDbLine
 62
7
  6
CONTINUOUS
 10
7.7069099379
 20
5.1462694099
 11
7.6969099379
 21
5.1562694099
  0
LINE
  5
239
100
AcDbEntity
  8
0
100
AcDbLine
 62
7
  6
CONTINUOUS
 10
7.5194099379
 20
5.5637694099
 11
7.5194099379
 21
5.1562694099
  0
LINE
  5
23A
100
AcDbEntity
  8
0
100
AcDbLine
 62
7
  6
CONTINUOUS
 10
7.5194099379
 20
4.5312694099
 11
7.5194099379
 21
4.1237694099
  0
LINE
  5
23B
100
AcDbEntity
  8
0
100
AcDbLine
 62
7
  6
CONTINUOUS
 10
7.5344099379
 20
5.5637694099
 11
7.5344099379
 21
5.1562694099
  0
LINE
  5
23C
100
AcDbEntity
  8
0
100
AcDbLine
 62
7
  6
CONTINUOUS
 10
7.5344099379
 20
4.5312694099
 11
7.5344099379
 21
4.1237694099
  0
LINE
  5
23D
100
AcDbEntity
  8
0
100
AcDbLine
 62
7
  6
CONTINUOUS
 10
7.5494099379
 20
4.1087694099
 11
7.5494099379
 21
4.0937694099
  0
LINE
  5
23E
100
AcDbEntity
  8
0
100
AcDbLine
 62
7
  6
CONTINUOUS
 10
7.5494099379
 20
5.5787694099
 11
7.5494099379
 21
5.5937694099
  0
LINE
  5
23F
100
AcDbEntity
  8
0
100
AcDbLine
 62
7
  6
CONTINUOUS
 10
7.6969099379
 20
5.1562694099
 11
7.6969099379
 21
4.5312694099
  0
LINE
  5
240
100
AcDbEntity
  8
0
100
AcDbLine
 62
7
  6
CONTINUOUS
 10
7.7069099379
 20
5.1462694099
 11
7.7069099379
 21
4.5412694099
  0
LINE
  5
241
100
AcDbEntity
  8
0
100
AcDbLine
 62
7
  6
CONTINUOUS
 10
7.7169099379
 20
5.1562694099
 11
7.7169099379
 21
4.5312694099
  0
LINE
  5
242
100
AcDbEntity
  8
0
100
AcDbLine
 62
7
  6
CONTINUOUS
 10
8.9894099379
 20
4.1087694099
 11
8.9894099379
 21
4.0937694099
  0
LINE
  5
243
100
AcDbEntity
  8
0
100
AcDbLine
 62
7
  6
CONTINUOUS
 10
8.9894099379
 20
5.5787694099
 11
8.9894099379
 21
5.5937694099
  0
LINE
  5
244
100
AcDbEntity
  8
0
100
AcDbLine
 62
7
  6
CONTINUOUS
 10
9.0044099379
 20
4.1237694099
 11
9.0044099379
 21
5.5637694099
  0
LINE
  5
245
100
AcDbEntity
  8
0
100
AcDbLine
 62
7
  6
CONTINUOUS
 10
9.0194099379
 20
4.1237694099
 11
9.0194099379
 21
5.5637694099
  0
ARC
  5
246
100
AcDbEntity
  8
0
100
AcDbCircle
 62
7
  6
CONTINUOUS
 10
2.2694099379
 20
4.8437694099
 40
0.4375
100
AcDbArc
 50
45.5860779499
 51
314.4139220501
  0
ARC
  5
247
100
AcDbEntity
  8
0
100
AcDbCircle
 62
7
  6
CONTINUOUS
 10
8.2694099379
 20
4.8437694099
 40
0.4375
100
AcDbArc
 50
225.5906360649
 51
134.4093639351
  0
ARC
  5
248
100
AcDbEntity
  8
0
100
AcDbCircle
 62
7
  6
CONTINUOUS
 10
2.2694099379
 20
4.8437694099
 40
0.3125
100
AcDbArc
 50
90.0
 51
270.0
  0
ARC
  5
249
100
AcDbEntity
  8
0
100
AcDbCircle
 62
7
  6
CONTINUOUS
 10
8.2694099379
 20
4.8437694099
 40
0.3125
100
AcDbArc
 50
270.0
 51
90.0
  0
ARC
  5
24A
100
AcDbEntity
  8
0
100
AcDbCircle
 62
7
  6
CONTINUOUS
 10
7.5494099379
 20
5.5637694099
 40
0.03
100
AcDbArc
 50
90.0
 51
180.0
  0
ARC
  5
24B
100
AcDbEntity
  8
0
100
AcDbCircle
 62
7
  6
CONTINUOUS
 10
8.9894099379
 20
5.5637694099
 40
0.03
100
AcDbArc
 50
0.0
 51
90.0
  0
ARC
  5
24C
100
AcDbEntity
  8
0
100
AcDbCircle
 62
7
  6
CONTINUOUS
 10
8.9894099379
 20
4.1237694099
 40
0.03
100
AcDbArc
 50
270.0
 51
360.0
  0
ARC
  5
24D
100
AcDbEntity
  8
0
100
AcDbCircle
 62
7
  6
CONTINUOUS
 10
7.5494099379
 20
4.1237694099
 40
0.03
100
AcDbArc
 50
180.0
 51
270.0
  0
ARC
  5
24E
100
AcDbEntity
  8
0
100
AcDbCircle
 62
7
  6
CONTINUOUS
 10
1.5494099379
 20
4.1237694099
 40
0.03
100
AcDbArc
 50
180.0
 51
270.0
  0
ARC
  5
24F
100
AcDbEntity
  8
0
100
AcDbCircle
 62
7
  6
CONTINUOUS
 10
2.9894099379
 20
4.1237694099
 40
0.03
100
AcDbArc
 50
270.0
 51
360.0
  0
ARC
  5
250
100
AcDbEntity
  8
0
100
AcDbCircle
 62
7
  6
CONTINUOUS
 10
2.9894099379
 20
5.5637694099
 40
0.03
100
AcDbArc
 50
0.0
 51
90.0
  0
ARC
  5
251
100
AcDbEntity
  8
0
100
AcDbCircle
 62
7
  6
CONTINUOUS
 10
1.5494099379
 20
5.5637694099
 40
0.03
100
AcDbArc
 50
90.0
 51
180.0
  0
ARC
  5
252
100
AcDbEntity
  8
0
100
AcDbCircle
 62
7
  6
CONTINUOUS
 10
1.5494099379
 20
5.5637694099
 40
0.015
100
AcDbArc
 50
90.0
 51
180.0
  0
ARC
  5
253
100
AcDbEntity
  8
0
100
AcDbCircle
 62
7
  6
CONTINUOUS
 10
2.9894099379
 20
5.5637694099
 40
0.015
100
AcDbArc
 50
0.0
 51
90.0
  0
ARC
  5
254
100
AcDbEntity
  8
0
100
AcDbCircle
 62
7
  6
CONTINUOUS
 10
2.9894099379
 20
4.1237694099
 40
0.015
100
AcDbArc
 50
270.0
 51
360.0
  0
ARC
  5
255
100
AcDbEntity
  8
0
100
AcDbCircle
 62
7
  6
CONTINUOUS
 10
1.5494099379
 20
4.1237694099
 40
0.015
100
AcDbArc
 50
180.0
 51
270.0
  0
ARC
  5
256
100
AcDbEntity
  8
0
100
AcDbCircle
 62
7
  6
CONTINUOUS
 10
7.5494099379
 20
4.1237694099
 40
0.015
100
AcDbArc
 50
180.0
 51
270.0
  0
ARC
  5
257
100
AcDbEntity
  8
0
100
AcDbCircle
 62
7
  6
CONTINUOUS
 10
8.9894099379
 20
4.1237694099
 40
0.015
100
AcDbArc
 50
270.0
 51
360.0
  0
ARC
  5
258
100
AcDbEntity
  8
0
100
AcDbCircle
 62
7
  6
CONTINUOUS
 10
8.9894099379
 20
5.5637694099
 40
0.015
100
AcDbArc
 50
0.0
 51
90.0
  0
ARC
  5
259
100
AcDbEntity
  8
0
100
AcDbCircle
 62
7
  6
CONTINUOUS
 10
7.5494099379
 20
5.5637694099
 40
0.015
100
AcDbArc
 50
90.0
 51
180.0
  0
SPLINE
  5
25A
100
AcDbEntity
  8
0
100
AcDbSpline
 62
7
  6
CONTINUOUS
 70
0
 71
3
 72
33
 73
29
 74
0
 42
0.0000001
 43
0.0000001
 44
0.0000000001
 40
0.0
 40
0.0
 40
0.0
 40
0.0
 40
0.0165387725
 40
0.0331986362
 40
0.0502388293
 40
0.0678635896
 40
0.1053912008
 40
0.125572505
 40
0.1468182198
 40
0.1692068096
 40
0.1928009647
 40
0.2176481957
 40
0.2437786424
 40
0.271212297
 40
0.2999570891
 40
0.3300118784
 40
0.3613669057
 40
0.4278825837
 40
0.4629895529
 40
0.499271647
 40
0.5366747965
 40
0.575138595
 40
0.6145963722
 40
0.6549734234
 40
0.7381475312
 40
0.823933914
 40
0.9115122018
 40
1.0
 40
1.0
 40
1.0
 40
1.0
 10
8.2694099379
 20
5.1562694099
 30
0.0
 10
8.2713919473
 20
5.1562686158
 30
0.0
 10
8.2753744635
 20
5.1560332333
 30
0.0
 10
8.2813136015
 20
5.1549701787
 30
0.0
 10
8.2872179896
 20
5.1532006687
 30
0.0
 10
8.2952048542
 20
5.1498398393
 30
0.0
 10
8.3029481073
 20
5.1450795834
 30
0.0
 10
8.3103422506
 20
5.1391672708
 30
0.0
 10
8.3159384355
 20
5.1339433295
 30
0.0
 10
8.3214358431
 20
5.1280460767
 30
0.0
 10
8.3268266439
 20
5.1214827777
 30
0.0
 10
8.3320998129
 20
5.1142622507
 30
0.0
 10
8.337243722
 20
5.1063937819
 30
0.0
 10
8.3422451948
 20
5.0978879586
 30
0.0
 10
8.3470917137
 20
5.0887573026
 30
0.0
 10
8.3517703346
 20
5.0790156219
 30
0.0
 10
8.3578877224
 20
5.0649553104
 30
0.0
 10
8.3634669872
 20
5.0500133295
 30
0.0
 10
8.3685525923
 20
5.0342873132
 30
0.0
 10
8.3722101867
 20
5.0217712341
 30
0.0
 10
8.37562852
 20
5.0087716474
 30
0.0
 10
8.3787892528
 20
4.9953157928
 30
0.0
 10
8.3816815248
 20
4.9814355327
 30
0.0
 10
8.3852110433
 20
4.9622204885
 30
0.0
 10
8.3888928293
 20
4.9373958792
 30
0.0
 10
8.3920684448
 20
4.906807031
 30
0.0
 10
8.3939698794
 20
4.8754757633
 30
0.0
 10
8.3944104306
 20
4.8543738044
 30
0.0
 10
8.3944099379
 20
4.8437694099
 30
0.0
  0
SPLINE
  5
25B
100
AcDbEntity
  8
0
100
AcDbSpline
 62
7
  6
CONTINUOUS
 70
0
 71
3
 72
33
 73
29
 74
0
 42
0.0000001
 43
0.0000001
 44
0.0000000001
 40
0.0
 40
0.0
 40
0.0
 40
0.0
 40
0.088487797
 40
0.1760660858
 40
0.2618524673
 40
0.3450265799
 40
0.3854036356
 40
0.424861405
 40
0.4633251943
 40
0.5007283428
 40
0.5370104431
 40
0.5721174207
 40
0.6386330955
 40
0.669988107
 40
0.7000428869
 40
0.7287876815
 40
0.7562213473
 40
0.7823518067
 40
0.8071990417
 40
0.8307931821
 40
0.8531817499
 40
0.8744274601
 40
0.8946087857
 40
0.932136429
 40
0.9497610895
 40
0.9668010119
 40
0.9834607005
 40
1.0
 40
1.0
 40
1.0
 40
1.0
 10
8.3944099379
 20
4.8437694099
 30
0.0
 10
8.3944104534
 20
4.8331650155
 30
0.0
 10
8.3939698216
 20
4.8120630556
 30
0.0
 10
8.3920683442
 20
4.7807317967
 30
0.0
 10
8.3888930242
 20
4.7501429133
 30
0.0
 10
8.3852109913
 20
4.7253183363
 30
0.0
 10
8.3816814514
 20
4.7061032975
 30
0.0
 10
8.3787892426
 20
4.6922230257
 30
0.0
 10
8.3756285516
 20
4.678767163
 30
0.0
 10
8.3722102143
 20
4.6657675773
 30
0.0
 10
8.3685525956
 20
4.6532515033
 30
0.0
 10
8.3634669503
 20
4.6375254984
 30
0.0
 10
8.3578876899
 20
4.6225835189
 30
0.0
 10
8.3517703425
 20
4.6085231933
 30
0.0
 10
8.3470917333
 20
4.5987815095
 30
0.0
 10
8.3422452087
 20
4.5896508557
 30
0.0
 10
8.3372437227
 20
4.5811450362
 30
0.0
 10
8.3320998015
 20
4.5732765714
 30
0.0
 10
8.3268266287
 20
4.566056047
 30
0.0
 10
8.3214358388
 20
4.5594927444
 30
0.0
 10
8.3159384444
 20
4.5535954856
 30
0.0
 10
8.3103422606
 20
4.5483715436
 30
0.0
 10
8.3029481025
 20
4.5424592393
 30
0.0
 10
8.2952048518
 20
4.5376989938
 30
0.0
 10
8.2872180356
 20
4.5343381563
 30
0.0
 10
8.2813137185
 20
4.5325686364
 30
0.0
 10
8.2753745691
 20
4.5315055809
 30
0.0
 10
8.2713920105
 20
4.5312702124
 30
0.0
 10
8.2694099379
 20
4.5312694099
 30
0.0
  0
SPLINE
  5
25C
100
AcDbEntity
  8
0
100
AcDbSpline
 62
7
  6
CONTINUOUS
 70
0
 71
3
 72
35
 73
31
 74
0
 42
0.0000001
 43
0.0000001
 44
0.0000000001
 40
0.0
 40
0.0
 40
0.0
 40
0.0
 40
0.0884818608
 40
0.1760575998
 40
0.2618389838
 40
0.3038018272
 40
0.3450150114
 40
0.3853913766
 40
0.4248471863
 40
0.5007029238
 40
0.5369822989
 40
0.5720891615
 40
0.6059780317
 40
0.6386142465
 40
0.6699676927
 40
0.7000201301
 40
0.728761872
 40
0.7561915326
 40
0.7823197725
 40
0.8071654407
 40
0.830760633
 40
0.8531506596
 40
0.8743948852
 40
0.8945734094
 40
0.9137843895
 40
0.9321397601
 40
0.94976292
 40
0.9667994294
 40
0.983460293
 40
1.0
 40
1.0
 40
1.0
 40
1.0
 10
2.1444099379
 20
4.8437694099
 30
0.0
 10
2.1444094224
 20
4.8543735969
 30
0.0
 10
2.1448493802
 20
4.8754757531
 30
0.0
 10
2.1467597275
 20
4.9068058335
 30
0.0
 10
2.1494130851
 20
4.9324833179
 30
0.0
 10
2.1521666031
 20
4.9525455366
 30
0.0
 10
2.1545128581
 20
4.9671670365
 30
0.0
 10
2.1571405235
 20
4.981435321
 30
0.0
 10
2.1609522441
 20
4.999701527
 30
0.0
 10
2.1653136448
 20
5.0173480637
 30
0.0
 10
2.1702603892
 20
5.0342889024
 30
0.0
 10
2.1741457626
 20
5.0462945624
 30
0.0
 10
2.1782493396
 20
5.0577647693
 30
0.0
 10
2.1825568386
 20
5.0686779496
 30
0.0
 10
2.1870551223
 20
5.079014535
 30
0.0
 10
2.1917318679
 20
5.0887566284
 30
0.0
 10
2.196575645
 20
5.0978880501
 30
0.0
 10
2.2015752566
 20
5.106394229
 30
0.0
 10
2.2067176174
 20
5.1142631405
 30
0.0
 10
2.2119909824
 20
5.1214837163
 30
0.0
 10
2.2173832098
 20
5.1280464188
 30
0.0
 10
2.2228823454
 20
5.1339431421
 30
0.0
 10
2.228477742
 20
5.1391663421
 30
0.0
 10
2.2341588584
 20
5.1437098166
 30
0.0
 10
2.2399155898
 20
5.1475669404
 30
0.0
 10
2.2457350623
 20
5.1507318208
 30
0.0
 10
2.2516016427
 20
5.1532006673
 30
0.0
 10
2.2575055099
 20
5.1549700397
 30
0.0
 10
2.2634448128
 20
5.1560330553
 30
0.0
 10
2.2674277222
 20
5.1562686075
 30
0.0
 10
2.2694099379
 20
5.1562694099
 30
0.0
  0
SPLINE
  5
25D
100
AcDbEntity
  8
0
100
AcDbSpline
 62
7
  6
CONTINUOUS
 70
0
 71
3
 72
35
 73
31
 74
0
 42
0.0000001
 43
0.0000001
 44
0.0000000001
 40
0.0
 40
0.0
 40
0.0
 40
0.0
 40
0.0165391586
 40
0.0332001738
 40
0.0502369777
 40
0.0678602557
 40
0.0862156282
 40
0.1054265822
 40
0.1256050903
 40
0.1468493132
 40
0.1692393488
 40
0.192834554
 40
0.2176802312
 40
0.2438084738
 40
0.2712381327
 40
0.2999798701
 40
0.3300323018
 40
0.3613857417
 40
0.3940219522
 40
0.4279108244
 40
0.4630176957
 40
0.4992970793
 40
0.5751528151
 40
0.6146086222
 40
0.6549849857
 40
0.6961981705
 40
0.7381610162
 40
0.8239423995
 40
0.9115181379
 40
1.0
 40
1.0
 40
1.0
 40
1.0
 10
2.2694099379
 20
4.5312694099
 30
0.0
 10
2.267427788
 20
4.5312702041
 30
0.0
 10
2.2634449263
 20
4.5315057689
 30
0.0
 10
2.2575056377
 20
4.5325687848
 30
0.0
 10
2.251601697
 20
4.5343381466
 30
0.0
 10
2.2457350625
 20
4.5368069946
 30
0.0
 10
2.239915578
 20
4.539971877
 30
0.0
 10
2.2341588537
 20
4.543829003
 30
0.0
 10
2.2284777461
 20
4.5483724797
 30
0.0
 10
2.2228823534
 20
4.5535956817
 30
0.0
 10
2.2173832131
 20
4.5594924034
 30
0.0
 10
2.2119909768
 20
4.5660551032
 30
0.0
 10
2.2067176044
 20
4.5732756771
 30
0.0
 10
2.2015752415
 20
4.5811445887
 30
0.0
 10
2.1965756322
 20
4.5896507684
 30
0.0
 10
2.1917318613
 20
4.5987821917
 30
0.0
 10
2.1870551251
 20
4.6085242872
 30
0.0
 10
2.1825568539
 20
4.6188608758
 30
0.0
 10
2.1782493674
 20
4.6297740597
 30
0.0
 10
2.1741457913
 20
4.6412442674
 30
0.0
 10
2.1702603941
 20
4.6532499216
 30
0.0
 10
2.1653136056
 20
4.6701907493
 30
0.0
 10
2.1609522261
 20
4.6878372931
 30
0.0
 10
2.1571405557
 20
4.7061035084
 30
0.0
 10
2.1545129108
 20
4.7203717959
 30
0.0
 10
2.1521666525
 20
4.734993295
 30
0.0
 10
2.1494130767
 20
4.7550555053
 30
0.0
 10
2.1467596181
 20
4.7807329804
 30
0.0
 10
2.1448493562
 20
4.812063068
 30
0.0
 10
2.1444094452
 20
4.833165223
 30
0.0
 10
2.1444099379
 20
4.8437694099
 30
0.0
  0
ENDSEC
  0
SECTION
  2
OBJECTS
  0
DICTIONARY
  5
C
100
AcDbDictionary
280
0
281
1
  3
ACAD_GROUP
350
D
  3
ACAD_MLINESTYLE
350
17
  3
ACAD_LAYOUT
350
1A
  3
ACAD_PLOTSETTINGS
350
19
  3
ACAD_PLOTSTYLENAME
350
E
  0
DICTIONARY
  5
D
102
{ACAD_REACTORS
330
C
102
}
100
AcDbDictionary
280
0
281
1
  0
ACDBDICTIONARYWDFLT
  5
E
102
{ACAD_REACTORS
330
C
102
}
100
AcDbDictionary
281
1
  3
Normal
350
F
100
AcDbDictionaryWithDefault
340
F
  0
DICTIONARY
  5
17
102
{ACAD_REACTORS
330
C
102
}
100
AcDbDictionary
280
0
281
1
  3
Standard
350
18
  0
DICTIONARY
  5
19
102
{ACAD_REACTORS
330
C
102
}
100
AcDbDictionary
281
1
  0
DICTIONARY
  5
1A
102
{ACAD_REACTORS
330
C
102
}
100
AcDbDictionary
281
1
  3
Model
350
25E
  3
Layout1
350
25F
  0
ACDBPLACEHOLDER
  5
F
102
{ACAD_REACTORS
330
E
102
}
  0
MLINESTYLE
  5
18
102
{ACAD_REACTORS
330
17
102
}
100
AcDbMlineStyle
  2
STANDARD
 70
0
  3

 62
256
 51
90.0
 52
90.0
 71
2
 49
0.5
 62
256
  6
BYLAYER
 49
-0.5
 62
256
  6
BYLAYER
  0
LAYOUT
  5
25E
102
{ACAD_REACTORS
330
1A
102
}
100
AcDbPlotSettings
  1

  2
none_device
  4
ANSI_A_(11.00_x_8.50_Inches)
  6

 40
0.0
 41
0.0
 42
0.0
 43
0.0
 44
279.4
 45
215.9
 46
0.0
 47
0.0
 48
0.0
 49
0.0
140
0.0
141
0.0
142
1.0
143
1.0
 70
1024
 72
0
 73
0
 74
0
  7

 75
0
147
1.0
148
0.0
149
0.0
100
AcDbLayout
  1
Model
 70
0
 71
0
 10
0.0
 20
0.0
 11
11.0
 21
8.5
 12
0.0
 22
0.0
 32
0.0
 14
0.0
 24
0.0
 34
0.0
 15
0.0
 25
0.0
 35
0.0
146
0.0
 13
0.0
 23
0.0
 33
0.0
 16
1.0
 26
0.0
 36
0.0
 17
0.0
 27
1.0
 37
0.0
 76
0
330
202
345
0
346
0
  0
LAYOUT
  5
25F
102
{ACAD_REACTORS
330
1A
102
}
100
AcDbPlotSettings
  1

  2
none_device
  4
ANSI_A_(11.00_x_8.50_Inches)
  6

 40
0.0
 41
0.0
 42
0.0
 43
0.0
 44
279.4
 45
215.9
 46
0.0
 47
0.0
 48
0.0
 49
0.0
140
0.0
141
0.0
142
1.0
143
1.0
 70
0
 72
0
 73
0
 74
0
  7

 75
0
147
1.0
148
0.0
149
0.0
100
AcDbLayout
  1
Layout1
 70
0
 71
1
 10
0.0
 20
0.0
 11
11.0
 21
8.5
 12
0.0
 22
0.0
 32
0.0
 14
0.0
 24
0.0
 34
0.0
 15
0.0
 25
0.0
 35
0.0
146
0.0
 13
0.0
 23
0.0
 33
0.0
 16
1.0
 26
0.0
 36
0.0
 17
0.0
 27
1.0
 37
0.0
 76
0
330
203
345
0
346
0
  0
ENDSEC
  0
EOF
