999
DXF file: E:\BT Custom\CADOUTPUT\_RIGHT.dxf
999
Pro/ENGINEER 2018400 by Parametric Technology Corporation
  0
SECTION
  2
HEADER
  9
$ACADVER
  1
AC1018
  9
$DWGCODEPAGE
  3
ANSI_1252
  9
$EXTMAX
 10
22.0
 20
17.0
 30
0.0
  9
$EXTMIN
 10
0.0
 20
0.0
 30
0.0
  9
$LIMMIN
 10
0.0
 20
0.0
  9
$LIMMAX
 10
22.0
 20
17.0
  9
$VIEWCTR
 10
11.0
 20
8.5
  9
$VIEWSIZE
 40
17.0
  9
$CLAYER
  8
0
  9
$LTSCALE
 40
1.21
  9
$CELTYPE
  6
BYLAYER
  9
$DIMSCALE
 40
1.0
  9
$DIMASZ
 40
0.1
  9
$DIMEXO
 40
0.0625
  9
$DIMDLI
 40
0.836
  9
$DIMEXE
 40
0.125
  9
$DIMCEN
 40
0.198
  9
$DIMLFAC
 40
1.0
  9
$DIMBLK
  1
_FILLED
  9
$DIMALT
 70
1
  9
$DIMALTD
 70
2
  9
$DIMALTTD
 70
2
  9
$DIMALTF
 40
25.4
  9
$DIMTXT
 40
0.08
  9
$DIMTOL
 70
1
  9
$DIMLIM
 70
0
  9
$DIMTFAC
 40
1.0
  9
$DIMTP
 40
0.001
  9
$DIMTM
 40
0.001
  9
$DIMGAP
 40
0.09
  9
$DIMDSEP
 70
46
  9
$AUNITS
 70
0
  9
$PDMODE
 70
3
  9
$PDSIZE
 40
0.06
  9
$HANDSEED
  5
251
  9
$TILEMODE
 70
1
  9
$MEASUREMENT
 70
0
  9
$INSUNITS
 70
1
  0
ENDSEC
  0
SECTION
  2
CLASSES
  0
CLASS
  1
ACDBDICTIONARYWDFLT
  2
AcDbDictionaryWithDefault
  3
AutoCAD 2000
 90
0
 91
1
280
0
281
0
  0
CLASS
  1
ACDBPLACEHOLDER
  2
AcDbPlaceHolder
  3
AutoCAD 2000
 90
0
 91
1
280
0
281
0
  0
CLASS
  1
LAYOUT
  2
AcDbLayout
  3
AutoCAD 2000
 90
0
 91
0
280
0
281
0
  0
ENDSEC
  0
SECTION
  2
TABLES
  0
TABLE
  2
VPORT
  5
8
100
AcDbSymbolTable
 70
2
  0
VPORT
  5
1F4
100
AcDbSymbolTableRecord
100
AcDbViewportTableRecord
  2
*ACTIVE
 70
0
 10
0.0
 20
0.0
 11
1.0
 21
1.0
 12
11.0
 22
8.5
 13
0.0
 23
0.0
 14
1.0
 24
1.0
 15
0.0
 25
0.0
 16
0.0
 26
0.0
 36
1.0
 17
0.0
 27
0.0
 37
0.0
 40
17.0
 41
1.2941176471
 42
50.0
 43
0.0
 44
0.0
 50
0.0
 51
0.0
 71
0
 72
100
 73
1
 74
1
 75
0
 76
0
 77
0
 78
0
  0
ENDTAB
  0
TABLE
  2
LTYPE
  5
5
100
AcDbSymbolTable
 70
6
  0
LTYPE
  5
14
100
AcDbSymbolTableRecord
100
AcDbLinetypeTableRecord
  2
BYBLOCK
 70
0
  3

 72
65
 73
0
 40
0.0
  0
LTYPE
  5
15
100
AcDbSymbolTableRecord
100
AcDbLinetypeTableRecord
  2
BYLAYER
 70
0
  3

 72
65
 73
0
 40
0.0
  0
LTYPE
  5
16
100
AcDbSymbolTableRecord
100
AcDbLinetypeTableRecord
  2
CONTINUOUS
 70
64
  3
Solid line
 72
65
 73
0
 40
0.0
  0
LTYPE
  5
1F5
100
AcDbSymbolTableRecord
100
AcDbLinetypeTableRecord
  2
CENTER
 70
64
  3
____ _ ____ _ ____ _ ____ _ ____ _ ____ _ ____
 72
65
 73
4
 40
0.6
 49
0.375
 74
0
 49
-0.075
 74
0
 49
0.075
 74
0
 49
-0.075
 74
0
  0
LTYPE
  5
1F6
100
AcDbSymbolTableRecord
100
AcDbLinetypeTableRecord
  2
HIDDEN
 70
64
  3
- - - - - - - - - - - - - - - - - - - -
 72
65
 73
2
 40
0.2
 49
0.1
 74
0
 49
-0.1
 74
0
  0
LTYPE
  5
1F7
100
AcDbSymbolTableRecord
100
AcDbLinetypeTableRecord
  2
PHANTOM
 70
64
  3
_____ _ _ _____ _ _ _____ _ _ _____
 72
65
 73
6
 40
0.8
 49
0.45
 74
0
 49
-0.05
 74
0
 49
0.1
 74
0
 49
-0.05
 74
0
 49
0.1
 74
0
 49
-0.05
 74
0
  0
LTYPE
  5
1F8
100
AcDbSymbolTableRecord
100
AcDbLinetypeTableRecord
  2
DOT
 70
64
  3
. . . . . . . . . . . . . . . . . . . .
 72
65
 73
2
 40
0.2
 49
0.1
 74
0
 49
-0.1
 74
0
  0
LTYPE
  5
1F9
100
AcDbSymbolTableRecord
100
AcDbLinetypeTableRecord
  2
DASHED
 70
64
  3
- - - - - - - - - - - - - - - - - - - -
 72
65
 73
2
 40
0.2
 49
0.1
 74
0
 49
-0.1
 74
0
  0
ENDTAB
  0
TABLE
  2
LAYER
  5
2
100
AcDbSymbolTable
 70
36
  0
LAYER
  5
10
100
AcDbSymbolTableRecord
100
AcDbLayerTableRecord
  2
0
 70
0
 62
7
  6
CONTINUOUS
370
-3
390
F
  0
LAYER
  5
1FA
100
AcDbSymbolTableRecord
100
AcDbLayerTableRecord
  2
DEFAULT_1
 70
0
 62
7
  6
CENTER
370
-3
390
F
  0
LAYER
  5
1FB
100
AcDbSymbolTableRecord
100
AcDbLayerTableRecord
  2
DEFAULT_2
 70
0
 62
8
  6
HIDDEN
370
-3
390
F
  0
LAYER
  5
1FC
100
AcDbSymbolTableRecord
100
AcDbLayerTableRecord
  2
DEFAULT_3
 70
0
 62
7
  6
PHANTOM
370
-3
390
F
  0
LAYER
  5
1FD
100
AcDbSymbolTableRecord
100
AcDbLayerTableRecord
  2
ALL_FEATURES
 70
0
 62
7
  6
CONTINUOUS
370
-3
390
F
  0
LAYER
  5
1FE
100
AcDbSymbolTableRecord
100
AcDbLayerTableRecord
  2
AXES_FEATURES
 70
0
 62
7
  6
CONTINUOUS
370
-3
390
F
  0
LAYER
  5
1FF
100
AcDbSymbolTableRecord
100
AcDbLayerTableRecord
  2
DEFAULT_COORDINATE_SYSTEM
 70
0
 62
7
  6
CONTINUOUS
370
-3
390
F
  0
LAYER
  5
200
100
AcDbSymbolTableRecord
100
AcDbLayerTableRecord
  2
DEFAULT_DATUM_AXES
 70
0
 62
7
  6
CONTINUOUS
370
-3
390
F
  0
LAYER
  5
201
100
AcDbSymbolTableRecord
100
AcDbLayerTableRecord
  2
DEFAULT_DATUM_PLANES
 70
0
 62
7
  6
CONTINUOUS
370
-3
390
F
  0
LAYER
  5
202
100
AcDbSymbolTableRecord
100
AcDbLayerTableRecord
  2
DIMENSIONS
 70
0
 62
7
  6
CONTINUOUS
370
-3
390
F
  0
ENDTAB
  0
TABLE
  2
STYLE
  5
3
100
AcDbSymbolTable
 70
1
  0
STYLE
  5
11
100
AcDbSymbolTableRecord
100
AcDbTextStyleTableRecord
  2
STANDARD
 70
0
 40
0.0
 41
0.8
 50
0.0
 71
0
 42
0.2
  3
txt
  4

  0
STYLE
  5
203
100
AcDbSymbolTableRecord
100
AcDbTextStyleTableRecord
  2
TEXTSTYLE_1
 70
0
 40
0.0
 41
0.8
 50
0.0
 71
0
 42
0.2
  3
gdt
  4

  0
ENDTAB
  0
TABLE
  2
VIEW
  5
6
100
AcDbSymbolTable
 70
0
  0
ENDTAB
  0
TABLE
  2
UCS
  5
7
100
AcDbSymbolTable
 70
0
  0
ENDTAB
  0
TABLE
  2
APPID
  5
9
100
AcDbSymbolTable
 70
1
  0
APPID
  5
204
100
AcDbSymbolTableRecord
100
AcDbRegAppTableRecord
  2
ACAD
 70
0
  0
ENDTAB
  0
TABLE
  2
BLOCK_RECORD
  5
1
100
AcDbSymbolTable
 70
0
  0
BLOCK_RECORD
  5
205
100
AcDbSymbolTableRecord
100
AcDbBlockTableRecord
  2
*Model_Space
  0
BLOCK_RECORD
  5
206
100
AcDbSymbolTableRecord
100
AcDbBlockTableRecord
  2
*Paper_Space
  0
BLOCK_RECORD
  5
207
100
AcDbSymbolTableRecord
100
AcDbBlockTableRecord
  2
_FILLED
  0
ENDTAB
  0
TABLE
  2
DIMSTYLE
  5
A
100
AcDbSymbolTable
 70
1
100
AcDbDimStyleTable
 71
0
  0
DIMSTYLE
105
208
100
AcDbSymbolTableRecord
100
AcDbDimStyleTableRecord
  2
STANDARD
 70
0
  3

  4

 40
1.0
 41
0.1
 42
0.0625
 43
0.38
 44
0.125
 45
0.0
 46
0.0
 47
0.001
 48
0.001
140
0.08
141
0.09
142
0.0
143
25.4
144
1.0
145
0.0
146
1.0
147
0.09
 71
1.0
 72
0.0
 73
1
 74
1
 75
0
 76
0
 77
0
 78
4
 79
1
170
1
171
2
172
0
173
0
174
0
175
0
176
0
177
0
178
0
270
2
179
3
271
3
272
3
273
2
274
2
275
0
280
0
281
0
282
0
283
1
284
4
285
0
286
0
287
3
288
0
340
11
278
46
341
207
342
207
343
207
344
207
  0
ENDTAB
  0
ENDSEC
  0
SECTION
  2
BLOCKS
  0
BLOCK
  5
20
100
AcDbEntity
  8
0
100
AcDbBlockBegin
  2
*Model_Space
 70
0
 10
0.0
 20
0.0
 30
0.0
  3
*Model_Space
  1

  0
ENDBLK
  5
21
100
AcDbEntity
  8
0
100
AcDbBlockEnd
  0
BLOCK
  5
1C
100
AcDbEntity
  8
0
100
AcDbBlockBegin
  2
*Paper_Space
 70
0
 10
0.0
 20
0.0
 30
0.0
  3
*Paper_Space
  1

  0
ENDBLK
  5
1D
100
AcDbEntity
  8
0
100
AcDbBlockEnd
  0
BLOCK
  5
209
100
AcDbEntity
  8
0
100
AcDbBlockBegin
  2
_FILLED
 70
64
 10
0.0
 20
0.0
  3
_FILLED
  1

  0
SOLID
  5
20A
100
AcDbEntity
  8
0
  6
BYBLOCK
 62
0
100
AcDbTrace
 10
0.0
 20
0.0
 11
-1.0
 21
0.2
 12
-1.0
 22
-0.2
 13
-1.0
 23
-0.2
  0
ENDBLK
  5
20B
100
AcDbEntity
  8
0
  6
BYBLOCK
 62
0
100
AcDbBlockEnd
  0
ENDSEC
  0
SECTION
  2
ENTITIES
  0
LINE
  5
20C
100
AcDbEntity
  8
0
100
AcDbLine
 62
7
  6
CONTINUOUS
 10
11.5924834891
 20
7.509891804
 11
11.7456381232
 21
7.509891804
  0
LINE
  5
20D
100
AcDbEntity
  8
0
100
AcDbLine
 62
7
  6
CONTINUOUS
 10
11.8431060666
 20
7.559891804
 11
12.0874834891
 21
7.559891804
  0
LINE
  5
20E
100
AcDbEntity
  8
0
100
AcDbLine
 62
9
  6
CONTINUOUS
 10
11.5624834891
 20
7.569891804
 11
11.742967652
 21
7.569891804
  0
LINE
  5
20F
100
AcDbEntity
  8
0
100
AcDbLine
 62
9
  6
CONTINUOUS
 10
11.7456381232
 20
7.6198919288
 11
12.0874834891
 21
7.619891804
  0
LINE
  5
210
100
AcDbEntity
  8
0
100
AcDbLine
 62
9
  6
CONTINUOUS
 10
11.744056129
 20
7.5780735696
 11
11.769747114
 21
7.5760273006
  0
LINE
  5
211
100
AcDbEntity
  8
0
100
AcDbLine
 62
9
  6
CONTINUOUS
 10
11.742967652
 20
7.569891804
 11
11.7694289123
 21
7.5652412163
  0
LINE
  5
212
100
AcDbEntity
  8
0
100
AcDbLine
 62
7
  6
CONTINUOUS
 10
11.5624834891
 20
8.134891804
 11
11.5474834891
 21
8.134891804
  0
LINE
  5
213
100
AcDbEntity
  8
0
100
AcDbLine
 62
7
  6
CONTINUOUS
 10
9.9574931814
 20
8.384891804
 11
11.4874834891
 21
8.384891804
  0
LINE
  5
214
100
AcDbEntity
  8
0
100
AcDbLine
 62
7
  6
CONTINUOUS
 10
9.9574834891
 20
9.634891804
 11
11.4874834891
 21
9.634891804
  0
LINE
  5
215
100
AcDbEntity
  8
0
100
AcDbLine
 62
7
  6
CONTINUOUS
 10
11.4874834891
 20
8.194891804
 11
11.4874834891
 21
9.824891804
  0
LINE
  5
216
100
AcDbEntity
  8
0
100
AcDbLine
 62
9
  6
CONTINUOUS
 10
11.5474834891
 20
8.134891804
 11
11.5474834891
 21
9.884891804
  0
LINE
  5
217
100
AcDbEntity
  8
0
100
AcDbLine
 62
7
  6
CONTINUOUS
 10
11.5624834891
 20
7.539891804
 11
11.5624834891
 21
10.479891804
  0
LINE
  5
218
100
AcDbEntity
  8
0
100
AcDbLine
 62
9
  6
CONTINUOUS
 10
11.5924834891
 20
7.509891804
 11
11.5924834891
 21
10.509891804
  0
LINE
  5
219
100
AcDbEntity
  8
0
100
AcDbLine
 62
7
  6
CONTINUOUS
 10
11.5474834891
 20
9.884891804
 11
11.5624834891
 21
9.884891804
  0
LINE
  5
21A
100
AcDbEntity
  8
0
100
AcDbLine
 62
9
  6
CONTINUOUS
 10
11.7456381232
 20
7.6198919288
 11
11.7456381232
 21
10.3998917759
  0
LINE
  5
21B
100
AcDbEntity
  8
0
100
AcDbLine
 62
9
  6
CONTINUOUS
 10
11.770005109
 20
7.619891804
 11
11.770005109
 21
10.399891933
  0
LINE
  5
21C
100
AcDbEntity
  8
0
100
AcDbLine
 62
9
  6
CONTINUOUS
 10
11.8431060666
 20
7.619891804
 11
11.8431060666
 21
10.399891804
  0
LINE
  5
21D
100
AcDbEntity
  8
0
100
AcDbLine
 62
9
  6
CONTINUOUS
 10
11.7429676082
 20
10.4498918036
 11
11.7694289182
 21
10.4545421821
  0
LINE
  5
21E
100
AcDbEntity
  8
0
100
AcDbLine
 62
9
  6
CONTINUOUS
 10
11.7440561318
 20
10.4417100041
 11
11.7697475518
 21
10.4437573276
  0
LINE
  5
21F
100
AcDbEntity
  8
0
100
AcDbLine
 62
7
  6
CONTINUOUS
 10
12.0874834891
 20
7.559891804
 11
12.0874834891
 21
10.459891804
  0
LINE
  5
220
100
AcDbEntity
  8
0
100
AcDbLine
 62
9
  6
CONTINUOUS
 10
12.0874834891
 20
10.399891804
 11
11.7456381232
 21
10.3998917759
  0
LINE
  5
221
100
AcDbEntity
  8
0
100
AcDbLine
 62
9
  6
CONTINUOUS
 10
11.5624834891
 20
10.449891804
 11
11.7429676082
 21
10.449891804
  0
LINE
  5
222
100
AcDbEntity
  8
0
100
AcDbLine
 62
7
  6
CONTINUOUS
 10
11.8431060666
 20
10.459891804
 11
12.0874834891
 21
10.459891804
  0
LINE
  5
223
100
AcDbEntity
  8
0
100
AcDbLine
 62
7
  6
CONTINUOUS
 10
11.5924834891
 20
10.509891804
 11
11.7456381232
 21
10.509891804
  0
ARC
  5
224
100
AcDbEntity
  8
0
100
AcDbCircle
 62
7
  6
CONTINUOUS
 10
9.9574834891
 20
9.009891804
 40
0.625
100
AcDbArc
 50
90.0
 51
270.0
  0
ARC
  5
225
100
AcDbEntity
  8
0
100
AcDbCircle
 62
7
  6
CONTINUOUS
 10
11.8431060666
 20
7.469891804
 40
0.09
100
AcDbArc
 50
90.0
 51
144.3146652872
  0
ARC
  5
226
100
AcDbEntity
  8
0
100
AcDbCircle
 62
7
  6
CONTINUOUS
 10
11.5474834891
 20
8.194891804
 40
0.06
100
AcDbArc
 50
180.0
 51
270.0
  0
ARC
  5
227
100
AcDbEntity
  8
0
100
AcDbCircle
 62
7
  6
CONTINUOUS
 10
11.5924834891
 20
7.539891804
 40
0.03
100
AcDbArc
 50
180.0
 51
270.0
  0
ARC
  5
228
100
AcDbEntity
  8
0
100
AcDbCircle
 62
7
  6
CONTINUOUS
 10
11.7456381232
 20
7.539891804
 40
0.03
100
AcDbArc
 50
270.0000000008
 51
324.3146652878
  0
ARC
  5
229
100
AcDbEntity
  8
0
100
AcDbCircle
 62
9
  6
CONTINUOUS
 10
11.7440368802
 20
7.5397790909
 40
0.0298881574
100
AcDbArc
 50
270.0369063417
 51
329.3397801919
  0
ARC
  5
22A
100
AcDbEntity
  8
0
100
AcDbCircle
 62
7
  6
CONTINUOUS
 10
11.8431060666
 20
10.549891804
 40
0.09
100
AcDbArc
 50
215.6853347116
 51
270.0000000002
  0
ARC
  5
22B
100
AcDbEntity
  8
0
100
AcDbCircle
 62
7
  6
CONTINUOUS
 10
11.5474834891
 20
9.824891804
 40
0.06
100
AcDbArc
 50
90.0
 51
180.0
  0
ARC
  5
22C
100
AcDbEntity
  8
0
100
AcDbCircle
 62
7
  6
CONTINUOUS
 10
11.5924834891
 20
10.479891804
 40
0.03
100
AcDbArc
 50
90.0
 51
180.0
  0
ARC
  5
22D
100
AcDbEntity
  8
0
100
AcDbCircle
 62
7
  6
CONTINUOUS
 10
11.7456381232
 20
10.479891804
 40
0.03
100
AcDbArc
 50
35.6853347122
 51
89.9999999992
  0
ARC
  5
22E
100
AcDbEntity
  8
0
100
AcDbCircle
 62
9
  6
CONTINUOUS
 10
11.744036949
 20
10.4800044906
 40
0.0298881801
100
AcDbArc
 50
30.6621909352
 51
89.9632307003
  0
SPLINE
  5
22F
100
AcDbEntity
  8
0
100
AcDbSpline
 62
9
  6
CONTINUOUS
 70
0
 71
3
 72
9
 73
5
 74
0
 42
0.0000001
 43
0.0000001
 44
0.0000000001
 40
0.0
 40
0.0
 40
0.0
 40
0.0
 40
0.2495164337
 40
1.0
 40
1.0
 40
1.0
 40
1.0
 10
11.7694290573
 20
7.5652433585
 30
0.0
 10
11.7694959157
 20
7.5661383028
 30
0.0
 10
11.7697277361
 20
7.5697275121
 30
0.0
 10
11.7698007475
 20
7.5733278845
 30
0.0
 10
11.7697475753
 20
7.5760266323
 30
0.0
  0
SPLINE
  5
230
100
AcDbEntity
  8
0
100
AcDbSpline
 62
9
  6
CONTINUOUS
 70
0
 71
3
 72
17
 73
13
 74
0
 42
0.0000001
 43
0.0000001
 44
0.0000000001
 40
0.0
 40
0.0
 40
0.0
 40
0.0
 40
0.0224855357
 40
0.051017392
 40
0.0857000919
 40
0.1265268624
 40
0.2260717216
 40
0.3480284836
 40
0.4898486223
 40
0.6482563713
 40
0.8196613028
 40
1.0
 40
1.0
 40
1.0
 40
1.0
 10
11.7694288778
 20
7.5265435663
 30
0.0
 10
11.7693273303
 20
7.52681619
 30
0.0
 10
11.7691465657
 20
7.5274528815
 30
0.0
 10
11.768933303
 20
7.528541481
 30
0.0
 10
11.7687500967
 20
7.5298756957
 30
0.0
 10
11.7685343114
 20
7.5321306727
 30
0.0
 10
11.7683699309
 20
7.5355223202
 30
0.0
 10
11.7683119406
 20
7.540223183
 30
0.0
 10
11.7683903212
 20
7.5456854815
 30
0.0
 10
11.7686025864
 20
7.5517841867
 30
0.0
 10
11.768947465
 20
7.5583758965
 30
0.0
 10
11.7692554252
 20
7.5629165736
 30
0.0
 10
11.7694290573
 20
7.5652433585
 30
0.0
  0
SPLINE
  5
231
100
AcDbEntity
  8
0
100
AcDbSpline
 62
9
  6
CONTINUOUS
 70
0
 71
3
 72
9
 73
5
 74
0
 42
0.0000001
 43
0.0000001
 44
0.0000000001
 40
0.0
 40
0.0
 40
0.0
 40
0.0
 40
0.4694364683
 40
1.0
 40
1.0
 40
1.0
 40
1.0
 10
11.7697475404
 20
7.5245372237
 30
0.0
 10
11.7697852306
 20
7.5248550586
 30
0.0
 10
11.7697468045
 20
7.5255464315
 30
0.0
 10
11.7695554424
 20
7.5262046917
 30
0.0
 10
11.7694288778
 20
7.5265435663
 30
0.0
  0
SPLINE
  5
232
100
AcDbEntity
  8
0
100
AcDbSpline
 62
9
  6
CONTINUOUS
 70
0
 71
3
 72
15
 73
11
 74
0
 42
0.0000001
 43
0.0000001
 44
0.0000000001
 40
0.0
 40
0.0
 40
0.0
 40
0.0
 40
0.143834988
 40
0.2862800157
 40
0.4251091017
 40
0.558331714
 40
0.6840138323
 40
0.8004244437
 40
0.906141387
 40
1.0
 40
1.0
 40
1.0
 40
1.0
 10
11.8468203042
 20
7.599891804
 30
0.0
 10
11.8429468458
 20
7.5994382709
 30
0.0
 10
11.8352557598
 20
7.598369643
 30
0.0
 10
11.8239144225
 20
7.5962933212
 30
0.0
 10
11.8129569783
 20
7.5937773649
 30
0.0
 10
11.8025686987
 20
7.5908658878
 30
0.0
 10
11.792922769
 20
7.5876075329
 30
0.0
 10
11.7841782214
 20
7.5840583095
 30
0.0
 10
11.776481238
 20
7.5802782032
 30
0.0
 10
11.7718410309
 20
7.5774726487
 30
0.0
 10
11.7697471173
 20
7.576026316
 30
0.0
  0
LINE
  5
233
100
AcDbEntity
  8
0
100
AcDbLine
 62
9
  6
CONTINUOUS
 10
11.7697471173
 20
7.576026316
 11
11.7700051116
 21
7.619891804
  0
LINE
  5
234
100
AcDbEntity
  8
0
100
AcDbLine
 62
9
  6
CONTINUOUS
 10
11.7700051109
 20
10.399891933
 11
11.7697470712
 21
10.4437568828
  0
SPLINE
  5
235
100
AcDbEntity
  8
0
100
AcDbSpline
 62
9
  6
CONTINUOUS
 70
0
 71
3
 72
15
 73
11
 74
0
 42
0.0000001
 43
0.0000001
 44
0.0000000001
 40
0.0
 40
0.0
 40
0.0
 40
0.0
 40
0.1438345057
 40
0.2862790204
 40
0.4251076176
 40
0.5583298462
 40
0.6840117864
 40
0.8004225441
 40
0.9061400887
 40
1.0
 40
1.0
 40
1.0
 40
1.0
 10
11.8468203042
 20
10.419891804
 30
0.0
 10
11.8429468789
 20
10.420345279
 30
0.0
 10
11.8352558586
 20
10.4214137985
 30
0.0
 10
11.8239146116
 20
10.4234899525
 30
0.0
 10
11.8129572464
 20
10.426005742
 30
0.0
 10
11.8025690315
 20
10.428917073
 30
0.0
 10
11.7929231492
 20
10.4321753178
 30
0.0
 10
11.7841786285
 20
10.4357244797
 30
0.0
 10
11.7764816473
 20
10.4395045859
 30
0.0
 10
11.7718414479
 20
10.4423101858
 30
0.0
 10
11.7697475404
 20
10.4437565587
 30
0.0
  0
SPLINE
  5
236
100
AcDbEntity
  8
0
100
AcDbSpline
 62
9
  6
CONTINUOUS
 70
0
 71
3
 72
9
 73
5
 74
0
 42
0.0000001
 43
0.0000001
 44
0.0000000001
 40
0.0
 40
0.0
 40
0.0
 40
0.0
 40
0.5305582989
 40
1.0
 40
1.0
 40
1.0
 40
1.0
 10
11.7694290573
 20
10.4932404366
 30
0.0
 10
11.7695554408
 20
10.4935792738
 30
0.0
 10
11.7697469032
 20
10.4942373095
 30
0.0
 10
11.7697852099
 20
10.4949285098
 30
0.0
 10
11.7697475753
 20
10.4952462704
 30
0.0
  0
SPLINE
  5
237
100
AcDbEntity
  8
0
100
AcDbSpline
 62
9
  6
CONTINUOUS
 70
0
 71
3
 72
17
 73
13
 74
0
 42
0.0000001
 43
0.0000001
 44
0.0000000001
 40
0.0
 40
0.0
 40
0.0
 40
0.0
 40
0.1803430874
 40
0.3517520515
 40
0.5101634114
 40
0.6519817794
 40
0.7739349481
 40
0.8734814333
 40
0.9143081329
 40
0.9489870034
 40
0.9775144097
 40
1.0
 40
1.0
 40
1.0
 40
1.0
 10
11.7694288778
 20
10.4545421547
 30
0.0
 10
11.7692551706
 20
10.4568689012
 30
0.0
 10
11.7689473831
 20
10.4614095257
 30
0.0
 10
11.7686025798
 20
10.4680011397
 30
0.0
 10
11.7683901965
 20
10.474099683
 30
0.0
 10
11.7683119264
 20
10.4795617528
 30
0.0
 10
11.7683700562
 20
10.484262384
 30
0.0
 10
11.7685343669
 20
10.4876538756
 30
0.0
 10
11.7687501001
 20
10.4899087426
 30
0.0
 10
11.7689333903
 20
10.4912427857
 30
0.0
 10
11.7691467878
 20
10.4923312109
 30
0.0
 10
11.7693275739
 20
10.4929678002
 30
0.0
 10
11.7694290573
 20
10.4932404366
 30
0.0
  0
SPLINE
  5
238
100
AcDbEntity
  8
0
100
AcDbSpline
 62
9
  6
CONTINUOUS
 70
0
 71
3
 72
9
 73
5
 74
0
 42
0.0000001
 43
0.0000001
 44
0.0000000001
 40
0.0
 40
0.0
 40
0.0
 40
0.0
 40
0.2506299784
 40
1.0
 40
1.0
 40
1.0
 40
1.0
 10
11.7697475404
 20
10.4437565587
 30
0.0
 10
11.7697653287
 20
10.4446580386
 30
0.0
 10
11.7697886588
 20
10.4482558002
 30
0.0
 10
11.7696298715
 20
10.4518537571
 30
0.0
 10
11.7694288778
 20
10.4545421547
 30
0.0
  0
SPLINE
  5
239
100
AcDbEntity
  8
0
100
AcDbSpline
 62
9
  6
CONTINUOUS
 70
0
 71
3
 72
15
 73
11
 74
0
 42
0.0000001
 43
0.0000001
 44
0.0000000001
 40
0.0
 40
0.0
 40
0.0
 40
0.0
 40
0.1283596952
 40
0.2559123779
 40
0.3824338148
 40
0.5078989978
 40
0.6322874288
 40
0.7556533387
 40
0.8781836238
 40
1.0
 40
1.0
 40
1.0
 40
1.0
 10
11.8468203042
 20
10.4564603465
 30
0.0
 10
11.8429600048
 20
10.4563005431
 30
0.0
 10
11.8352353328
 20
10.4564564171
 30
0.0
 10
11.8238161064
 20
10.4581227104
 30
0.0
 10
11.8127807132
 20
10.4611966394
 30
0.0
 10
11.8023184997
 20
10.4656246386
 30
0.0
 10
11.7926064248
 20
10.4713351751
 30
0.0
 10
11.7838076153
 20
10.4782318021
 30
0.0
 10
11.7760762515
 20
10.4861975464
 30
0.0
 10
11.7717070472
 20
10.4921481209
 30
0.0
 10
11.7697471173
 20
10.4952469945
 30
0.0
  0
LINE
  5
23A
100
AcDbEntity
  8
0
100
AcDbLine
 62
9
  6
CONTINUOUS
 10
11.7697471173
 20
10.4952469945
 11
11.7700051116
 21
10.4973918005
  0
SPLINE
  5
23B
100
AcDbEntity
  8
0
100
AcDbSpline
 62
9
  6
CONTINUOUS
 70
0
 71
3
 72
15
 73
11
 74
0
 42
0.0000001
 43
0.0000001
 44
0.0000000001
 40
0.0
 40
0.0
 40
0.0
 40
0.0
 40
0.3198960204
 40
0.4705406835
 40
0.610243579
 40
0.7357238252
 40
0.8440677758
 40
0.9327973844
 40
0.9691813155
 40
1.0
 40
1.0
 40
1.0
 40
1.0
 10
11.7429676082
 20
10.449891804
 30
0.0
 10
11.7424430755
 20
10.4558896085
 30
0.0
 10
11.7418317647
 20
10.4647266573
 30
0.0
 10
11.7413031664
 20
10.4761999838
 30
0.0
 10
11.7410624352
 20
10.484022826
 30
0.0
 10
11.7409624716
 20
10.4910526304
 30
0.0
 10
11.7410009131
 20
10.4971235881
 30
0.0
 10
11.7411534332
 20
10.5015161239
 30
0.0
 10
11.7413661376
 20
10.5044434761
 30
0.0
 10
11.7415005861
 20
10.5057015867
 30
0.0
 10
11.7415780233
 20
10.5062764265
 30
0.0
  0
SPLINE
  5
23C
100
AcDbEntity
  8
0
100
AcDbSpline
 62
9
  6
CONTINUOUS
 70
0
 71
3
 72
15
 73
11
 74
0
 42
0.0000001
 43
0.0000001
 44
0.0000000001
 40
0.0
 40
0.0
 40
0.0
 40
0.0
 40
0.2100613868
 40
0.3940815788
 40
0.5521542035
 40
0.6846186792
 40
0.7923258461
 40
0.87724948
 40
0.943593689
 40
1.0
 40
1.0
 40
1.0
 40
1.0
 10
11.7415780233
 20
10.5062764265
 30
0.0
 10
11.7416158973
 20
10.5065575763
 30
0.0
 10
11.7416942282
 20
10.5070841054
 30
0.0
 10
11.7418319286
 20
10.507817195
 30
0.0
 10
11.7419821532
 20
10.5084406272
 30
0.0
 10
11.7421449628
 20
10.5089538368
 30
0.0
 10
11.7423208836
 20
10.5093574664
 30
0.0
 10
11.7425113919
 20
10.5096531627
 30
0.0
 10
11.7427239318
 20
10.5098451083
 30
0.0
 10
11.7428914749
 20
10.5098917929
 30
0.0
 10
11.742967652
 20
10.509891804
 30
0.0
  0
SPLINE
  5
23D
100
AcDbEntity
  8
0
100
AcDbSpline
 62
9
  6
CONTINUOUS
 70
0
 71
3
 72
15
 73
11
 74
0
 42
0.0000001
 43
0.0000001
 44
0.0000000001
 40
0.0
 40
0.0
 40
0.0
 40
0.0
 40
0.0564288892
 40
0.1227805331
 40
0.2077019172
 40
0.3154030489
 40
0.4478614648
 40
0.6059286999
 40
0.7899438345
 40
1.0
 40
1.0
 40
1.0
 40
1.0
 10
11.7429676082
 20
7.509891804
 30
0.0
 10
11.7428914665
 20
7.509891826
 30
0.0
 10
11.7427240294
 20
7.5099384605
 30
0.0
 10
11.7425116077
 20
7.5101302276
 30
0.0
 10
11.7423212352
 20
7.5104256501
 30
0.0
 10
11.7421454414
 20
7.5108288982
 30
0.0
 10
11.7419827315
 20
7.511341626
 30
0.0
 10
11.741832565
 20
7.5119644784
 30
0.0
 10
11.7416948697
 20
7.5126968909
 30
0.0
 10
11.7416165018
 20
7.5132229348
 30
0.0
 10
11.7415785985
 20
7.5135038261
 30
0.0
  0
SPLINE
  5
23E
100
AcDbEntity
  8
0
100
AcDbSpline
 62
9
  6
CONTINUOUS
 70
0
 71
3
 72
15
 73
11
 74
0
 42
0.0000001
 43
0.0000001
 44
0.0000000001
 40
0.0
 40
0.0
 40
0.0
 40
0.0
 40
0.030809551
 40
0.0671854165
 40
0.1559027184
 40
0.2642409642
 40
0.3897208555
 40
0.5294286308
 40
0.6800814802
 40
1.0
 40
1.0
 40
1.0
 40
1.0
 10
11.7415785985
 20
7.5135038261
 30
0.0
 10
11.7415010506
 20
7.5140785128
 30
0.0
 10
11.7413663282
 20
7.5153363454
 30
0.0
 10
11.7411532914
 20
7.5182633032
 30
0.0
 10
11.741002069
 20
7.5226556595
 30
0.0
 10
11.7409619055
 20
7.5287266056
 30
0.0
 10
11.741061936
 20
7.5357568335
 30
0.0
 10
11.7413035035
 20
7.5435803521
 30
0.0
 10
11.7418309514
 20
7.555055096
 30
0.0
 10
11.7424431148
 20
7.5638932102
 30
0.0
 10
11.742967652
 20
7.569891804
 30
0.0
  0
LINE
  5
23F
100
AcDbEntity
  8
0
100
AcDbLine
 62
9
  6
CONTINUOUS
 10
11.8468203042
 20
10.4564603465
 11
11.8431060666
 21
10.459891804
  0
SPLINE
  5
240
100
AcDbEntity
  8
0
100
AcDbSpline
 62
9
  6
CONTINUOUS
 70
0
 71
3
 72
18
 73
14
 74
0
 42
0.0000001
 43
0.0000001
 44
0.0000000001
 40
0.0
 40
0.0
 40
0.0
 40
0.0
 40
0.1665058378
 40
0.3242079382
 40
0.3990619759
 40
0.4709192582
 40
0.6047922491
 40
0.7243811763
 40
0.7785622526
 40
0.8289885708
 40
0.9194198394
 40
0.9605749004
 40
1.0
 40
1.0
 40
1.0
 40
1.0
 10
11.8468203042
 20
10.419891804
 30
0.0
 10
11.847471223
 20
10.4218799644
 30
0.0
 10
11.8485667161
 20
10.4258099304
 30
0.0
 10
11.8494897909
 20
10.4307440249
 30
0.0
 10
11.8499696713
 20
10.4345392212
 30
0.0
 10
11.8502894788
 20
10.4380506274
 30
0.0
 10
11.8504510511
 20
10.4421380168
 30
0.0
 10
11.8503163782
 20
10.4460064766
 30
0.0
 10
11.8499862887
 20
10.4488062289
 30
0.0
 10
11.8495387934
 20
10.4512153416
 30
0.0
 10
11.8488398232
 20
10.4534165872
 30
0.0
 10
11.8477835099
 20
10.4552952886
 30
0.0
 10
11.8471568432
 20
10.456096883
 30
0.0
 10
11.8468203042
 20
10.4564603465
 30
0.0
  0
SPLINE
  5
241
100
AcDbEntity
  8
0
100
AcDbSpline
 62
9
  6
CONTINUOUS
 70
0
 71
3
 72
11
 73
7
 74
0
 42
0.0000001
 43
0.0000001
 44
0.0000000001
 40
0.0
 40
0.0
 40
0.0
 40
0.0
 40
0.254272349
 40
0.506740724
 40
0.7558033821
 40
1.0
 40
1.0
 40
1.0
 40
1.0
 10
11.8431060666
 20
10.399891804
 30
0.0
 10
11.8431060635
 20
10.4016231745
 30
0.0
 10
11.8432937906
 20
10.4050763126
 30
0.0
 10
11.8440953031
 20
10.4101671237
 30
0.0
 10
11.8453041836
 20
10.4151035042
 30
0.0
 10
11.8462999473
 20
10.4183125601
 30
0.0
 10
11.8468203042
 20
10.419891804
 30
0.0
  0
SPLINE
  5
242
100
AcDbEntity
  8
0
100
AcDbSpline
 62
9
  6
CONTINUOUS
 70
0
 71
3
 72
11
 73
7
 74
0
 42
0.0000001
 43
0.0000001
 44
0.0000000001
 40
0.0
 40
0.0
 40
0.0
 40
0.0
 40
0.2441969748
 40
0.4932609459
 40
0.7457292018
 40
1.0
 40
1.0
 40
1.0
 40
1.0
 10
11.8468203042
 20
7.599891804
 30
0.0
 10
11.8462997256
 20
7.6014709784
 30
0.0
 10
11.8453038911
 20
7.6046800374
 30
0.0
 10
11.8440953128
 20
7.609616506
 30
0.0
 10
11.8432938764
 20
7.6147073187
 30
0.0
 10
11.8431060664
 20
7.6181604433
 30
0.0
 10
11.8431060666
 20
7.619891804
 30
0.0
  0
SPLINE
  5
243
100
AcDbEntity
  8
0
100
AcDbSpline
 62
9
  6
CONTINUOUS
 70
0
 71
3
 72
18
 73
14
 74
0
 42
0.0000001
 43
0.0000001
 44
0.0000000001
 40
0.0
 40
0.0
 40
0.0
 40
0.0
 40
0.039424995
 40
0.0805795011
 40
0.171011078
 40
0.2214375632
 40
0.275618674
 40
0.3952076068
 40
0.5290805854
 40
0.600937919
 40
0.6757919875
 40
0.8334939865
 40
1.0
 40
1.0
 40
1.0
 40
1.0
 10
11.8468203042
 20
7.5633232616
 30
0.0
 10
11.847156856
 20
7.5636867113
 30
0.0
 10
11.8477835164
 20
7.564488306
 30
0.0
 10
11.8488397339
 20
7.5663670541
 30
0.0
 10
11.8495387374
 20
7.5685682727
 30
0.0
 10
11.8499863287
 20
7.5709773761
 30
0.0
 10
11.8503164451
 20
7.5737771288
 30
0.0
 10
11.8504510449
 20
7.5776455937
 30
0.0
 10
11.8502894116
 20
7.5817329781
 30
0.0
 10
11.8499696342
 20
7.5852443867
 30
0.0
 10
11.8494898563
 20
7.5890395946
 30
0.0
 10
11.84856681
 20
7.5939737037
 30
0.0
 10
11.8474711854
 20
7.5979036293
 30
0.0
 10
11.8468203042
 20
7.599891804
 30
0.0
  0
LINE
  5
244
100
AcDbEntity
  8
0
100
AcDbLine
 62
9
  6
CONTINUOUS
 10
11.8431060666
 20
7.559891804
 11
11.8468203042
 21
7.5633232616
  0
SPLINE
  5
245
100
AcDbEntity
  8
0
100
AcDbSpline
 62
9
  6
CONTINUOUS
 70
0
 71
3
 72
11
 73
7
 74
0
 42
0.0000001
 43
0.0000001
 44
0.0000000001
 40
0.0
 40
0.0
 40
0.0
 40
0.0
 40
0.2488721506
 40
0.4982661114
 40
0.7485976016
 40
1.0
 40
1.0
 40
1.0
 40
1.0
 10
11.742967652
 20
10.509891804
 30
0.0
 10
11.7456922224
 20
10.509891804
 30
0.0
 10
11.7511778959
 20
10.5091156056
 30
0.0
 10
11.758746999
 20
10.5057106234
 30
0.0
 10
11.7651090196
 20
10.5003392791
 30
0.0
 10
11.7682192181
 20
10.4957121495
 30
0.0
 10
11.7694289123
 20
10.4932399776
 30
0.0
  0
LINE
  5
246
100
AcDbEntity
  8
0
100
AcDbLine
 62
9
  6
CONTINUOUS
 10
11.742967652
 20
7.569891804
 11
11.744056129
 21
7.5780735696
  0
SPLINE
  5
247
100
AcDbEntity
  8
0
100
AcDbSpline
 62
9
  6
CONTINUOUS
 70
0
 71
3
 72
9
 73
5
 74
0
 42
0.0000001
 43
0.0000001
 44
0.0000000001
 40
0.0
 40
0.0
 40
0.0
 40
0.0
 40
0.4999968416
 40
1.0
 40
1.0
 40
1.0
 40
1.0
 10
11.744056129
 20
7.5780735696
 30
0.0
 10
11.7446095887
 20
7.5850275788
 30
0.0
 10
11.7453874194
 20
7.5989627921
 30
0.0
 10
11.7456381091
 20
7.6129158417
 30
0.0
 10
11.7456381232
 20
7.6198919288
 30
0.0
  0
SPLINE
  5
248
100
AcDbEntity
  8
0
100
AcDbSpline
 62
9
  6
CONTINUOUS
 70
0
 71
3
 72
11
 73
7
 74
0
 42
0.0000001
 43
0.0000001
 44
0.0000000001
 40
0.0
 40
0.0
 40
0.0
 40
0.0
 40
0.2488713744
 40
0.4982651151
 40
0.7485969534
 40
1.0
 40
1.0
 40
1.0
 40
1.0
 10
11.7429676082
 20
7.509891804
 30
0.0
 10
11.7456921736
 20
7.509891804
 30
0.0
 10
11.751177843
 20
7.5106680062
 30
0.0
 10
11.7587469454
 20
7.5140729969
 30
0.0
 10
11.7651089828
 20
7.5194443483
 30
0.0
 10
11.7682192074
 20
7.5240714803
 30
0.0
 10
11.7694289182
 20
7.5265436559
 30
0.0
  0
SPLINE
  5
249
100
AcDbEntity
  8
0
100
AcDbSpline
 62
9
  6
CONTINUOUS
 70
0
 71
3
 72
9
 73
5
 74
0
 42
0.0000001
 43
0.0000001
 44
0.0000000001
 40
0.0
 40
0.0
 40
0.0
 40
0.0
 40
0.5000031865
 40
1.0
 40
1.0
 40
1.0
 40
1.0
 10
11.7456381232
 20
10.3998917759
 30
0.0
 10
11.7456381192
 20
10.4068678417
 30
0.0
 10
11.7453874513
 20
10.4208208484
 30
0.0
 10
11.7446096126
 20
10.4347560187
 30
0.0
 10
11.7440561318
 20
10.4417100041
 30
0.0
  0
SPLINE
  5
24A
100
AcDbEntity
  8
0
100
AcDbSpline
 62
9
  6
CONTINUOUS
 70
0
 71
3
 72
31
 73
27
 74
0
 42
0.0000001
 43
0.0000001
 44
0.0000000001
 40
0.0
 40
0.0
 40
0.0
 40
0.0
 40
0.0165415935
 40
0.0332009768
 40
0.050240446
 40
0.0678644438
 40
0.1053901791
 40
0.1255712319
 40
0.1468177591
 40
0.169207916
 40
0.1928038272
 40
0.2176519901
 40
0.2437818988
 40
0.2712135
 40
0.2999558742
 40
0.3300097325
 40
0.3613650664
 40
0.3940015399
 40
0.4278921923
 40
0.499272947
 40
0.5751320902
 40
0.6549615894
 40
0.7381355073
 40
0.823921681
 40
0.911504731
 40
1.0
 40
1.0
 40
1.0
 40
1.0
 10
9.9574834891
 20
9.634891804
 30
0.0
 10
9.9535188316
 20
9.6348901083
 30
0.0
 10
9.9455533145
 20
9.6344195131
 30
0.0
 10
9.9336747295
 20
9.632293497
 30
0.0
 10
9.9218665428
 20
9.6287545453
 30
0.0
 10
9.9058938263
 20
9.6220329434
 30
0.0
 10
9.8904085346
 20
9.6125121189
 30
0.0
 10
9.8756207925
 20
9.6006876452
 30
0.0
 10
9.864427706
 20
9.590240034
 30
0.0
 10
9.8534308892
 20
9.5784462747
 30
0.0
 10
9.8426468371
 20
9.5653205744
 30
0.0
 10
9.8320986222
 20
9.550880436
 30
0.0
 10
9.8218112198
 20
9.5351438385
 30
0.0
 10
9.8118127602
 20
9.5181311199
 30
0.0
 10
9.8021254057
 20
9.4998684512
 30
0.0
 10
9.7927712617
 20
9.4803848923
 30
0.0
 10
9.7837742407
 20
9.4597124059
 30
0.0
 10
9.7751600939
 20
9.4378859945
 30
0.0
 10
9.7640282854
 20
9.4067582375
 30
0.0
 10
9.7513162657
 20
9.3652198584
 30
0.0
 10
9.7382420432
 20
9.3123661097
 30
0.0
 10
9.7272552891
 20
9.256157852
 30
0.0
 10
9.7185160655
 20
9.1971521743
 30
0.0
 10
9.7121873554
 20
9.1359717412
 30
0.0
 10
9.7083454512
 20
9.0733093736
 30
0.0
 10
9.7074836453
 20
9.031102183
 30
0.0
 10
9.7074834891
 20
9.009891804
 30
0.0
  0
LINE
  5
24B
100
AcDbEntity
  8
0
100
AcDbLine
 62
9
  6
CONTINUOUS
 10
11.7440561318
 20
10.4417100041
 11
11.7429676082
 21
10.449891804
  0
SPLINE
  5
24C
100
AcDbEntity
  8
0
100
AcDbSpline
 62
9
  6
CONTINUOUS
 70
0
 71
3
 72
32
 73
28
 74
0
 42
0.0000001
 43
0.0000001
 44
0.0000000001
 40
0.0
 40
0.0
 40
0.0
 40
0.0
 40
0.0884917559
 40
0.1760713176
 40
0.2618540758
 40
0.3450246908
 40
0.4248509983
 40
0.5007070997
 40
0.5720851371
 40
0.6059745102
 40
0.6386096612
 40
0.6699636408
 40
0.7000161922
 40
0.7287573716
 40
0.7561878956
 40
0.7823168516
 40
0.8071641987
 40
0.8307594222
 40
0.8531488409
 40
0.8743942772
 40
0.894573912
 40
0.9137840595
 40
0.9321380386
 40
0.9497625015
 40
0.9668025551
 40
0.9834614972
 40
1.0
 40
1.0
 40
1.0
 40
1.0
 10
9.7074834891
 20
9.009891804
 30
0.0
 10
9.7074836217
 20
8.9886814257
 30
0.0
 10
9.7083454994
 20
8.9464742418
 30
0.0
 10
9.7121871178
 20
8.8838118676
 30
0.0
 10
9.7185158855
 20
8.8226314322
 30
0.0
 10
9.7272558872
 20
8.7636258896
 30
0.0
 10
9.7382418272
 20
8.7074175067
 30
0.0
 10
9.7513156047
 20
8.6545636075
 30
0.0
 10
9.7640284738
 20
8.6130254386
 30
0.0
 10
9.7751607541
 20
8.5818978184
 30
0.0
 10
9.7837747344
 20
8.560071366
 30
0.0
 10
9.7927713147
 20
8.5393987552
 30
0.0
 10
9.8021251185
 20
8.5199151043
 30
0.0
 10
9.8118123503
 20
8.5016524116
 30
0.0
 10
9.8218108499
 20
8.4846396986
 30
0.0
 10
9.8320984001
 20
8.4689031361
 30
0.0
 10
9.8426469234
 20
8.4544630118
 30
0.0
 10
9.8534311462
 20
8.4413374952
 30
0.0
 10
9.8644286741
 20
8.429543535
 30
0.0
 10
9.875619573
 20
8.419096954
 30
0.0
 10
9.8869830587
 20
8.4100114097
 30
0.0
 10
9.8984958677
 20
8.4022972168
 30
0.0
 10
9.9101339126
 20
8.3959667133
 30
0.0
 10
9.9218676905
 20
8.3910288202
 30
0.0
 10
9.9336759944
 20
8.3874903211
 30
0.0
 10
9.945554456
 20
8.3853640786
 30
0.0
 10
9.9535194151
 20
8.3848934094
 30
0.0
 10
9.9574834891
 20
8.384891804
 30
0.0
  0
LINE
  5
24D
100
AcDbEntity
  8
0
100
AcDbLine
 62
9
  6
CONTINUOUS
 10
11.7700051109
 20
7.5223918066
 11
11.7697470712
 21
7.5245364819
  0
SPLINE
  5
24E
100
AcDbEntity
  8
0
100
AcDbSpline
 62
9
  6
CONTINUOUS
 70
0
 71
3
 72
15
 73
11
 74
0
 42
0.0000001
 43
0.0000001
 44
0.0000000001
 40
0.0
 40
0.0
 40
0.0
 40
0.0
 40
0.1283598176
 40
0.2559126884
 40
0.3824343604
 40
0.5078997675
 40
0.6322883391
 40
0.755654235
 40
0.8781842498
 40
1.0
 40
1.0
 40
1.0
 40
1.0
 10
11.8468203042
 20
7.5633232616
 30
0.0
 10
11.842960036
 20
7.5634830446
 30
0.0
 10
11.8352354273
 20
7.5633271427
 30
0.0
 10
11.8238162944
 20
7.5616608377
 30
0.0
 10
11.8127809862
 20
7.5585869286
 30
0.0
 10
11.8023188446
 20
7.5541589855
 30
0.0
 10
11.7926068244
 20
7.5484485429
 30
0.0
 10
11.7838080501
 20
7.5415520476
 30
0.0
 10
11.7760766992
 20
7.5335864733
 30
0.0
 10
11.771707481
 20
7.5276360281
 30
0.0
 10
11.7697475404
 20
7.5245372237
 30
0.0
  0
ENDSEC
  0
SECTION
  2
OBJECTS
  0
DICTIONARY
  5
C
100
AcDbDictionary
280
0
281
1
  3
ACAD_GROUP
350
D
  3
ACAD_MLINESTYLE
350
17
  3
ACAD_LAYOUT
350
1A
  3
ACAD_PLOTSETTINGS
350
19
  3
ACAD_PLOTSTYLENAME
350
E
  0
DICTIONARY
  5
D
102
{ACAD_REACTORS
330
C
102
}
100
AcDbDictionary
280
0
281
1
  0
ACDBDICTIONARYWDFLT
  5
E
102
{ACAD_REACTORS
330
C
102
}
100
AcDbDictionary
281
1
  3
Normal
350
F
100
AcDbDictionaryWithDefault
340
F
  0
DICTIONARY
  5
17
102
{ACAD_REACTORS
330
C
102
}
100
AcDbDictionary
280
0
281
1
  3
Standard
350
18
  0
DICTIONARY
  5
19
102
{ACAD_REACTORS
330
C
102
}
100
AcDbDictionary
281
1
  0
DICTIONARY
  5
1A
102
{ACAD_REACTORS
330
C
102
}
100
AcDbDictionary
281
1
  3
Model
350
24F
  3
Layout1
350
250
  0
ACDBPLACEHOLDER
  5
F
102
{ACAD_REACTORS
330
E
102
}
  0
MLINESTYLE
  5
18
102
{ACAD_REACTORS
330
17
102
}
100
AcDbMlineStyle
  2
STANDARD
 70
0
  3

 62
256
 51
90.0
 52
90.0
 71
2
 49
0.5
 62
256
  6
BYLAYER
 49
-0.5
 62
256
  6
BYLAYER
  0
LAYOUT
  5
24F
102
{ACAD_REACTORS
330
1A
102
}
100
AcDbPlotSettings
  1

  2
none_device
  4
ANSI_C_(22.00_x_17.00_Inches)
  6

 40
0.0
 41
0.0
 42
0.0
 43
0.0
 44
558.8
 45
431.8
 46
0.0
 47
0.0
 48
0.0
 49
0.0
140
0.0
141
0.0
142
1.0
143
1.0
 70
1024
 72
0
 73
0
 74
0
  7

 75
0
147
1.0
148
0.0
149
0.0
100
AcDbLayout
  1
Model
 70
0
 71
0
 10
0.0
 20
0.0
 11
22.0
 21
17.0
 12
0.0
 22
0.0
 32
0.0
 14
0.0
 24
0.0
 34
0.0
 15
0.0
 25
0.0
 35
0.0
146
0.0
 13
0.0
 23
0.0
 33
0.0
 16
1.0
 26
0.0
 36
0.0
 17
0.0
 27
1.0
 37
0.0
 76
0
330
205
345
0
346
0
  0
LAYOUT
  5
250
102
{ACAD_REACTORS
330
1A
102
}
100
AcDbPlotSettings
  1

  2
none_device
  4
ANSI_C_(22.00_x_17.00_Inches)
  6

 40
0.0
 41
0.0
 42
0.0
 43
0.0
 44
558.8
 45
431.8
 46
0.0
 47
0.0
 48
0.0
 49
0.0
140
0.0
141
0.0
142
1.0
143
1.0
 70
0
 72
0
 73
0
 74
0
  7

 75
0
147
1.0
148
0.0
149
0.0
100
AcDbLayout
  1
Layout1
 70
0
 71
1
 10
0.0
 20
0.0
 11
22.0
 21
17.0
 12
0.0
 22
0.0
 32
0.0
 14
0.0
 24
0.0
 34
0.0
 15
0.0
 25
0.0
 35
0.0
146
0.0
 13
0.0
 23
0.0
 33
0.0
 16
1.0
 26
0.0
 36
0.0
 17
0.0
 27
1.0
 37
0.0
 76
0
330
206
345
0
346
0
  0
ENDSEC
  0
EOF
