999
DXF file: E:\BT Custom\CADOUTPUT\_TOP.dxf
999
Pro/ENGINEER 2018400 by Parametric Technology Corporation
  0
SECTION
  2
HEADER
  9
$ACADVER
  1
AC1018
  9
$DWGCODEPAGE
  3
ANSI_1252
  9
$EXTMAX
 10
22.0
 20
17.0
 30
0.0
  9
$EXTMIN
 10
0.0
 20
0.0
 30
0.0
  9
$LIMMIN
 10
0.0
 20
0.0
  9
$LIMMAX
 10
22.0
 20
17.0
  9
$VIEWCTR
 10
11.0
 20
8.5
  9
$VIEWSIZE
 40
17.0
  9
$CLAYER
  8
0
  9
$LTSCALE
 40
1.21
  9
$CELTYPE
  6
BYLAYER
  9
$DIMSCALE
 40
1.0
  9
$DIMASZ
 40
0.1
  9
$DIMEXO
 40
0.0625
  9
$DIMDLI
 40
0.836
  9
$DIMEXE
 40
0.125
  9
$DIMCEN
 40
0.198
  9
$DIMLFAC
 40
1.0
  9
$DIMBLK
  1
_FILLED
  9
$DIMALT
 70
1
  9
$DIMALTD
 70
2
  9
$DIMALTTD
 70
2
  9
$DIMALTF
 40
25.4
  9
$DIMTXT
 40
0.08
  9
$DIMTOL
 70
1
  9
$DIMLIM
 70
0
  9
$DIMTFAC
 40
1.0
  9
$DIMTP
 40
0.001
  9
$DIMTM
 40
0.001
  9
$DIMGAP
 40
0.09
  9
$DIMDSEP
 70
46
  9
$AUNITS
 70
0
  9
$PDMODE
 70
3
  9
$PDSIZE
 40
0.06
  9
$HANDSEED
  5
2AD
  9
$TILEMODE
 70
1
  9
$MEASUREMENT
 70
0
  9
$INSUNITS
 70
1
  0
ENDSEC
  0
SECTION
  2
CLASSES
  0
CLASS
  1
ACDBDICTIONARYWDFLT
  2
AcDbDictionaryWithDefault
  3
AutoCAD 2000
 90
0
 91
1
280
0
281
0
  0
CLASS
  1
ACDBPLACEHOLDER
  2
AcDbPlaceHolder
  3
AutoCAD 2000
 90
0
 91
1
280
0
281
0
  0
CLASS
  1
LAYOUT
  2
AcDbLayout
  3
AutoCAD 2000
 90
0
 91
0
280
0
281
0
  0
ENDSEC
  0
SECTION
  2
TABLES
  0
TABLE
  2
VPORT
  5
8
100
AcDbSymbolTable
 70
2
  0
VPORT
  5
1F4
100
AcDbSymbolTableRecord
100
AcDbViewportTableRecord
  2
*ACTIVE
 70
0
 10
0.0
 20
0.0
 11
1.0
 21
1.0
 12
11.0
 22
8.5
 13
0.0
 23
0.0
 14
1.0
 24
1.0
 15
0.0
 25
0.0
 16
0.0
 26
0.0
 36
1.0
 17
0.0
 27
0.0
 37
0.0
 40
17.0
 41
1.2941176471
 42
50.0
 43
0.0
 44
0.0
 50
0.0
 51
0.0
 71
0
 72
100
 73
1
 74
1
 75
0
 76
0
 77
0
 78
0
  0
ENDTAB
  0
TABLE
  2
LTYPE
  5
5
100
AcDbSymbolTable
 70
6
  0
LTYPE
  5
14
100
AcDbSymbolTableRecord
100
AcDbLinetypeTableRecord
  2
BYBLOCK
 70
0
  3

 72
65
 73
0
 40
0.0
  0
LTYPE
  5
15
100
AcDbSymbolTableRecord
100
AcDbLinetypeTableRecord
  2
BYLAYER
 70
0
  3

 72
65
 73
0
 40
0.0
  0
LTYPE
  5
16
100
AcDbSymbolTableRecord
100
AcDbLinetypeTableRecord
  2
CONTINUOUS
 70
64
  3
Solid line
 72
65
 73
0
 40
0.0
  0
LTYPE
  5
1F5
100
AcDbSymbolTableRecord
100
AcDbLinetypeTableRecord
  2
CENTER
 70
64
  3
____ _ ____ _ ____ _ ____ _ ____ _ ____ _ ____
 72
65
 73
4
 40
0.6
 49
0.375
 74
0
 49
-0.075
 74
0
 49
0.075
 74
0
 49
-0.075
 74
0
  0
LTYPE
  5
1F6
100
AcDbSymbolTableRecord
100
AcDbLinetypeTableRecord
  2
HIDDEN
 70
64
  3
- - - - - - - - - - - - - - - - - - - -
 72
65
 73
2
 40
0.2
 49
0.1
 74
0
 49
-0.1
 74
0
  0
LTYPE
  5
1F7
100
AcDbSymbolTableRecord
100
AcDbLinetypeTableRecord
  2
PHANTOM
 70
64
  3
_____ _ _ _____ _ _ _____ _ _ _____
 72
65
 73
6
 40
0.8
 49
0.45
 74
0
 49
-0.05
 74
0
 49
0.1
 74
0
 49
-0.05
 74
0
 49
0.1
 74
0
 49
-0.05
 74
0
  0
LTYPE
  5
1F8
100
AcDbSymbolTableRecord
100
AcDbLinetypeTableRecord
  2
DOT
 70
64
  3
. . . . . . . . . . . . . . . . . . . .
 72
65
 73
2
 40
0.2
 49
0.1
 74
0
 49
-0.1
 74
0
  0
LTYPE
  5
1F9
100
AcDbSymbolTableRecord
100
AcDbLinetypeTableRecord
  2
DASHED
 70
64
  3
- - - - - - - - - - - - - - - - - - - -
 72
65
 73
2
 40
0.2
 49
0.1
 74
0
 49
-0.1
 74
0
  0
ENDTAB
  0
TABLE
  2
LAYER
  5
2
100
AcDbSymbolTable
 70
36
  0
LAYER
  5
10
100
AcDbSymbolTableRecord
100
AcDbLayerTableRecord
  2
0
 70
0
 62
7
  6
CONTINUOUS
370
-3
390
F
  0
LAYER
  5
1FA
100
AcDbSymbolTableRecord
100
AcDbLayerTableRecord
  2
DEFAULT_1
 70
0
 62
7
  6
CENTER
370
-3
390
F
  0
LAYER
  5
1FB
100
AcDbSymbolTableRecord
100
AcDbLayerTableRecord
  2
DEFAULT_2
 70
0
 62
8
  6
HIDDEN
370
-3
390
F
  0
LAYER
  5
1FC
100
AcDbSymbolTableRecord
100
AcDbLayerTableRecord
  2
DEFAULT_3
 70
0
 62
7
  6
PHANTOM
370
-3
390
F
  0
LAYER
  5
1FD
100
AcDbSymbolTableRecord
100
AcDbLayerTableRecord
  2
ALL_FEATURES
 70
0
 62
7
  6
CONTINUOUS
370
-3
390
F
  0
LAYER
  5
1FE
100
AcDbSymbolTableRecord
100
AcDbLayerTableRecord
  2
AXES_FEATURES
 70
0
 62
7
  6
CONTINUOUS
370
-3
390
F
  0
LAYER
  5
1FF
100
AcDbSymbolTableRecord
100
AcDbLayerTableRecord
  2
DEFAULT_COORDINATE_SYSTEM
 70
0
 62
7
  6
CONTINUOUS
370
-3
390
F
  0
LAYER
  5
200
100
AcDbSymbolTableRecord
100
AcDbLayerTableRecord
  2
DEFAULT_DATUM_AXES
 70
0
 62
7
  6
CONTINUOUS
370
-3
390
F
  0
LAYER
  5
201
100
AcDbSymbolTableRecord
100
AcDbLayerTableRecord
  2
DEFAULT_DATUM_PLANES
 70
0
 62
7
  6
CONTINUOUS
370
-3
390
F
  0
LAYER
  5
202
100
AcDbSymbolTableRecord
100
AcDbLayerTableRecord
  2
DIMENSIONS
 70
0
 62
7
  6
CONTINUOUS
370
-3
390
F
  0
ENDTAB
  0
TABLE
  2
STYLE
  5
3
100
AcDbSymbolTable
 70
1
  0
STYLE
  5
11
100
AcDbSymbolTableRecord
100
AcDbTextStyleTableRecord
  2
STANDARD
 70
0
 40
0.0
 41
0.8
 50
0.0
 71
0
 42
0.2
  3
txt
  4

  0
STYLE
  5
203
100
AcDbSymbolTableRecord
100
AcDbTextStyleTableRecord
  2
TEXTSTYLE_1
 70
0
 40
0.0
 41
0.8
 50
0.0
 71
0
 42
0.2
  3
gdt
  4

  0
ENDTAB
  0
TABLE
  2
VIEW
  5
6
100
AcDbSymbolTable
 70
0
  0
ENDTAB
  0
TABLE
  2
UCS
  5
7
100
AcDbSymbolTable
 70
0
  0
ENDTAB
  0
TABLE
  2
APPID
  5
9
100
AcDbSymbolTable
 70
1
  0
APPID
  5
204
100
AcDbSymbolTableRecord
100
AcDbRegAppTableRecord
  2
ACAD
 70
0
  0
ENDTAB
  0
TABLE
  2
BLOCK_RECORD
  5
1
100
AcDbSymbolTable
 70
0
  0
BLOCK_RECORD
  5
205
100
AcDbSymbolTableRecord
100
AcDbBlockTableRecord
  2
*Model_Space
  0
BLOCK_RECORD
  5
206
100
AcDbSymbolTableRecord
100
AcDbBlockTableRecord
  2
*Paper_Space
  0
BLOCK_RECORD
  5
207
100
AcDbSymbolTableRecord
100
AcDbBlockTableRecord
  2
_FILLED
  0
ENDTAB
  0
TABLE
  2
DIMSTYLE
  5
A
100
AcDbSymbolTable
 70
1
100
AcDbDimStyleTable
 71
0
  0
DIMSTYLE
105
208
100
AcDbSymbolTableRecord
100
AcDbDimStyleTableRecord
  2
STANDARD
 70
0
  3

  4

 40
1.0
 41
0.1
 42
0.0625
 43
0.38
 44
0.125
 45
0.0
 46
0.0
 47
0.001
 48
0.001
140
0.08
141
0.09
142
0.0
143
25.4
144
1.0
145
0.0
146
1.0
147
0.09
 71
1.0
 72
0.0
 73
1
 74
1
 75
0
 76
0
 77
0
 78
4
 79
1
170
1
171
2
172
0
173
0
174
0
175
0
176
0
177
0
178
0
270
2
179
3
271
3
272
3
273
2
274
2
275
0
280
0
281
0
282
0
283
1
284
4
285
0
286
0
287
3
288
0
340
11
278
46
341
207
342
207
343
207
344
207
  0
ENDTAB
  0
ENDSEC
  0
SECTION
  2
BLOCKS
  0
BLOCK
  5
20
100
AcDbEntity
  8
0
100
AcDbBlockBegin
  2
*Model_Space
 70
0
 10
0.0
 20
0.0
 30
0.0
  3
*Model_Space
  1

  0
ENDBLK
  5
21
100
AcDbEntity
  8
0
100
AcDbBlockEnd
  0
BLOCK
  5
1C
100
AcDbEntity
  8
0
100
AcDbBlockBegin
  2
*Paper_Space
 70
0
 10
0.0
 20
0.0
 30
0.0
  3
*Paper_Space
  1

  0
ENDBLK
  5
1D
100
AcDbEntity
  8
0
100
AcDbBlockEnd
  0
BLOCK
  5
209
100
AcDbEntity
  8
0
100
AcDbBlockBegin
  2
_FILLED
 70
64
 10
0.0
 20
0.0
  3
_FILLED
  1

  0
SOLID
  5
20A
100
AcDbEntity
  8
0
  6
BYBLOCK
 62
0
100
AcDbTrace
 10
0.0
 20
0.0
 11
-1.0
 21
0.2
 12
-1.0
 22
-0.2
 13
-1.0
 23
-0.2
  0
ENDBLK
  5
20B
100
AcDbEntity
  8
0
  6
BYBLOCK
 62
0
100
AcDbBlockEnd
  0
ENDSEC
  0
SECTION
  2
ENTITIES
  0
LINE
  5
20C
100
AcDbEntity
  8
0
100
AcDbLine
 62
9
  6
CONTINUOUS
 10
1.6155001382
 20
8.516404503
 11
1.6134528148
 21
8.5420959231
  0
LINE
  5
20D
100
AcDbEntity
  8
0
100
AcDbLine
 62
7
  6
CONTINUOUS
 10
1.5473183383
 20
8.3648318604
 11
1.5473183383
 21
8.5179864944
  0
LINE
  5
20E
100
AcDbEntity
  8
0
100
AcDbLine
 62
7
  6
CONTINUOUS
 10
1.5973183383
 20
8.6154544379
 11
1.5973183383
 21
8.8598318604
  0
LINE
  5
20F
100
AcDbEntity
  8
0
100
AcDbLine
 62
9
  6
CONTINUOUS
 10
1.6073183383
 20
8.3348318604
 11
1.6073183383
 21
8.5153159795
  0
LINE
  5
210
100
AcDbEntity
  8
0
100
AcDbLine
 62
9
  6
CONTINUOUS
 10
1.6573183664
 20
8.5179864944
 11
1.6573183383
 21
8.8598318604
  0
LINE
  5
211
100
AcDbEntity
  8
0
100
AcDbLine
 62
7
  6
CONTINUOUS
 10
2.1723183383
 20
8.3198318604
 11
2.1723183383
 21
8.3348318604
  0
LINE
  5
212
100
AcDbEntity
  8
0
100
AcDbLine
 62
9
  6
CONTINUOUS
 10
1.6073183387
 20
8.5153159795
 11
1.6026679602
 21
8.5417772894
  0
LINE
  5
213
100
AcDbEntity
  8
0
100
AcDbLine
 62
7
  6
CONTINUOUS
 10
2.4223183383
 20
6.4798318604
 11
2.4223183383
 21
8.2598318604
  0
LINE
  5
214
100
AcDbEntity
  8
0
100
AcDbLine
 62
7
  6
CONTINUOUS
 10
3.6723183383
 20
7.4168318604
 11
3.6723183383
 21
8.2598318604
  0
LINE
  5
215
100
AcDbEntity
  8
0
100
AcDbLine
 62
7
  6
CONTINUOUS
 10
3.9223183383
 20
8.3198318604
 11
3.9223183383
 21
8.3348318604
  0
LINE
  5
216
100
AcDbEntity
  8
0
100
AcDbLine
 62
7
  6
CONTINUOUS
 10
4.1523183383
 20
6.1048318604
 11
4.1523183383
 21
7.3548318604
  0
LINE
  5
217
100
AcDbEntity
  8
0
100
AcDbLine
 62
7
  6
CONTINUOUS
 10
4.1723183383
 20
6.1248318604
 11
4.1723183383
 21
7.3348318604
  0
LINE
  5
218
100
AcDbEntity
  8
0
100
AcDbLine
 62
7
  6
CONTINUOUS
 10
4.1923183383
 20
6.1048318604
 11
4.1923183383
 21
7.3548318604
  0
LINE
  5
219
100
AcDbEntity
  8
0
100
AcDbLine
 62
9
  6
CONTINUOUS
 10
4.4373182136
 20
8.5179864944
 11
4.4373183383
 21
8.8598318604
  0
LINE
  5
21A
100
AcDbEntity
  8
0
100
AcDbLine
 62
9
  6
CONTINUOUS
 10
4.4873183383
 20
8.3348318604
 11
4.4873183383
 21
8.5153160233
  0
LINE
  5
21B
100
AcDbEntity
  8
0
100
AcDbLine
 62
7
  6
CONTINUOUS
 10
4.4973183383
 20
8.6154544379
 11
4.4973183383
 21
8.8598318604
  0
LINE
  5
21C
100
AcDbEntity
  8
0
100
AcDbLine
 62
7
  6
CONTINUOUS
 10
4.5473183383
 20
8.3648318604
 11
4.5473183383
 21
8.5179864944
  0
LINE
  5
21D
100
AcDbEntity
  8
0
100
AcDbLine
 62
9
  6
CONTINUOUS
 10
4.4791365727
 20
8.5164045003
 11
4.4811828418
 21
8.5420954853
  0
LINE
  5
21E
100
AcDbEntity
  8
0
100
AcDbLine
 62
9
  6
CONTINUOUS
 10
4.4873183383
 20
8.5153160233
 11
4.491968926
 21
8.5417772836
  0
LINE
  5
21F
100
AcDbEntity
  8
0
100
AcDbLine
 62
7
  6
CONTINUOUS
 10
4.1723183383
 20
6.1248318604
 11
4.1923183374
 21
6.1048318612
  0
LINE
  5
220
100
AcDbEntity
  8
0
100
AcDbLine
 62
7
  6
CONTINUOUS
 10
4.1723183383
 20
7.3348318604
 11
4.1923183374
 21
7.3548318596
  0
LINE
  5
221
100
AcDbEntity
  8
0
100
AcDbLine
 62
7
  6
CONTINUOUS
 10
4.1523183383
 20
7.3548318604
 11
4.1723183383
 21
7.3348318604
  0
LINE
  5
222
100
AcDbEntity
  8
0
100
AcDbLine
 62
7
  6
CONTINUOUS
 10
4.1523183383
 20
6.1048318604
 11
4.1723183383
 21
6.1248318604
  0
LINE
  5
223
100
AcDbEntity
  8
0
100
AcDbLine
 62
7
  6
CONTINUOUS
 10
17.9023183383
 20
6.1048318604
 11
4.1923183383
 21
6.1048318604
  0
LINE
  5
224
100
AcDbEntity
  8
0
100
AcDbLine
 62
7
  6
CONTINUOUS
 10
4.1523183383
 20
6.1048318604
 11
2.7973183383
 21
6.1048318604
  0
LINE
  5
225
100
AcDbEntity
  8
0
100
AcDbLine
 62
7
  6
CONTINUOUS
 10
17.9423183383
 20
6.1048318604
 11
19.2973183383
 21
6.1048318604
  0
LINE
  5
226
100
AcDbEntity
  8
0
100
AcDbLine
 62
7
  6
CONTINUOUS
 10
17.9023183383
 20
7.3548318604
 11
4.1923183383
 21
7.3548318604
  0
LINE
  5
227
100
AcDbEntity
  8
0
100
AcDbLine
 62
7
  6
CONTINUOUS
 10
4.1523183383
 20
7.3548318604
 11
3.7343183383
 21
7.3548318604
  0
LINE
  5
228
100
AcDbEntity
  8
0
100
AcDbLine
 62
7
  6
CONTINUOUS
 10
17.9423183383
 20
7.3548318604
 11
18.3603183383
 21
7.3548318604
  0
LINE
  5
229
100
AcDbEntity
  8
0
100
AcDbLine
 62
7
  6
CONTINUOUS
 10
19.862316321
 20
8.2598318604
 11
18.2323203556
 21
8.2598318604
  0
LINE
  5
22A
100
AcDbEntity
  8
0
100
AcDbLine
 62
7
  6
CONTINUOUS
 10
3.862316321
 20
8.2598318604
 11
2.2323203556
 21
8.2598318604
  0
LINE
  5
22B
100
AcDbEntity
  8
0
100
AcDbLine
 62
9
  6
CONTINUOUS
 10
19.9223183383
 20
8.3198318604
 11
18.1723183383
 21
8.3198318604
  0
LINE
  5
22C
100
AcDbEntity
  8
0
100
AcDbLine
 62
9
  6
CONTINUOUS
 10
3.9223183383
 20
8.3198318604
 11
2.1723183383
 21
8.3198318604
  0
LINE
  5
22D
100
AcDbEntity
  8
0
100
AcDbLine
 62
7
  6
CONTINUOUS
 10
20.5173183383
 20
8.3348318604
 11
17.5773183383
 21
8.3348318604
  0
LINE
  5
22E
100
AcDbEntity
  8
0
100
AcDbLine
 62
7
  6
CONTINUOUS
 10
4.5173183383
 20
8.3348318604
 11
1.5773183383
 21
8.3348318604
  0
LINE
  5
22F
100
AcDbEntity
  8
0
100
AcDbLine
 62
9
  6
CONTINUOUS
 10
20.5473183383
 20
8.3648318604
 11
17.5473183383
 21
8.3648318604
  0
LINE
  5
230
100
AcDbEntity
  8
0
100
AcDbLine
 62
9
  6
CONTINUOUS
 10
4.5473183383
 20
8.3648318604
 11
1.5473183383
 21
8.3648318604
  0
LINE
  5
231
100
AcDbEntity
  8
0
100
AcDbLine
 62
9
  6
CONTINUOUS
 10
20.4373182136
 20
8.5179864944
 11
17.6573183664
 21
8.5179864944
  0
LINE
  5
232
100
AcDbEntity
  8
0
100
AcDbLine
 62
9
  6
CONTINUOUS
 10
4.4373182136
 20
8.5179864944
 11
1.6573183664
 21
8.5179864944
  0
LINE
  5
233
100
AcDbEntity
  8
0
100
AcDbLine
 62
9
  6
CONTINUOUS
 10
20.4373183383
 20
8.5423534803
 11
17.6573182093
 21
8.5423534803
  0
LINE
  5
234
100
AcDbEntity
  8
0
100
AcDbLine
 62
9
  6
CONTINUOUS
 10
4.4373183383
 20
8.5423534803
 11
1.6573182093
 21
8.5423534803
  0
LINE
  5
235
100
AcDbEntity
  8
0
100
AcDbLine
 62
9
  6
CONTINUOUS
 10
20.4373183383
 20
8.6154544379
 11
17.6573183383
 21
8.6154544379
  0
LINE
  5
236
100
AcDbEntity
  8
0
100
AcDbLine
 62
9
  6
CONTINUOUS
 10
4.4373183383
 20
8.6154544379
 11
1.6573183383
 21
8.6154544379
  0
LINE
  5
237
100
AcDbEntity
  8
0
100
AcDbLine
 62
7
  6
CONTINUOUS
 10
1.5973183383
 20
8.8598318604
 11
4.4973183383
 21
8.8598318604
  0
LINE
  5
238
100
AcDbEntity
  8
0
100
AcDbLine
 62
7
  6
CONTINUOUS
 10
17.5973183383
 20
8.8598318604
 11
20.4973183383
 21
8.8598318604
  0
LINE
  5
239
100
AcDbEntity
  8
0
100
AcDbLine
 62
7
  6
CONTINUOUS
 10
17.9423183383
 20
6.1048318604
 11
17.9223183383
 21
6.1248318604
  0
LINE
  5
23A
100
AcDbEntity
  8
0
100
AcDbLine
 62
7
  6
CONTINUOUS
 10
17.9423183383
 20
7.3548318604
 11
17.9223183383
 21
7.3348318604
  0
LINE
  5
23B
100
AcDbEntity
  8
0
100
AcDbLine
 62
7
  6
CONTINUOUS
 10
17.9223183383
 20
7.3348318604
 11
17.9023183395
 21
7.3548318592
  0
LINE
  5
23C
100
AcDbEntity
  8
0
100
AcDbLine
 62
7
  6
CONTINUOUS
 10
17.9223183383
 20
6.1248318604
 11
17.9023183395
 21
6.1048318616
  0
LINE
  5
23D
100
AcDbEntity
  8
0
100
AcDbLine
 62
9
  6
CONTINUOUS
 10
17.6155001382
 20
8.516404503
 11
17.6134528148
 21
8.5420959231
  0
LINE
  5
23E
100
AcDbEntity
  8
0
100
AcDbLine
 62
7
  6
CONTINUOUS
 10
17.5473183383
 20
8.3648318604
 11
17.5473183383
 21
8.5179864944
  0
LINE
  5
23F
100
AcDbEntity
  8
0
100
AcDbLine
 62
7
  6
CONTINUOUS
 10
17.5973183383
 20
8.6154544379
 11
17.5973183383
 21
8.8598318604
  0
LINE
  5
240
100
AcDbEntity
  8
0
100
AcDbLine
 62
9
  6
CONTINUOUS
 10
17.6073183383
 20
8.3348318604
 11
17.6073183383
 21
8.5153159795
  0
LINE
  5
241
100
AcDbEntity
  8
0
100
AcDbLine
 62
9
  6
CONTINUOUS
 10
17.6573183664
 20
8.5179864944
 11
17.6573183383
 21
8.8598318604
  0
LINE
  5
242
100
AcDbEntity
  8
0
100
AcDbLine
 62
7
  6
CONTINUOUS
 10
17.9023183383
 20
7.3548318604
 11
17.9023183383
 21
6.1048318604
  0
LINE
  5
243
100
AcDbEntity
  8
0
100
AcDbLine
 62
7
  6
CONTINUOUS
 10
17.9223183383
 20
7.3348318604
 11
17.9223183383
 21
6.1248318604
  0
LINE
  5
244
100
AcDbEntity
  8
0
100
AcDbLine
 62
7
  6
CONTINUOUS
 10
17.9423183383
 20
7.3548318604
 11
17.9423183383
 21
6.1048318604
  0
LINE
  5
245
100
AcDbEntity
  8
0
100
AcDbLine
 62
7
  6
CONTINUOUS
 10
18.1723183383
 20
8.3198318604
 11
18.1723183383
 21
8.3348318604
  0
LINE
  5
246
100
AcDbEntity
  8
0
100
AcDbLine
 62
9
  6
CONTINUOUS
 10
17.6073183387
 20
8.5153159795
 11
17.6026679602
 21
8.5417772894
  0
LINE
  5
247
100
AcDbEntity
  8
0
100
AcDbLine
 62
7
  6
CONTINUOUS
 10
18.4223183383
 20
7.4168318604
 11
18.4223183383
 21
8.2598318604
  0
LINE
  5
248
100
AcDbEntity
  8
0
100
AcDbLine
 62
7
  6
CONTINUOUS
 10
19.6723183383
 20
6.4798318604
 11
19.6723183383
 21
8.2598318604
  0
LINE
  5
249
100
AcDbEntity
  8
0
100
AcDbLine
 62
7
  6
CONTINUOUS
 10
19.9223183383
 20
8.3198318604
 11
19.9223183383
 21
8.3348318604
  0
LINE
  5
24A
100
AcDbEntity
  8
0
100
AcDbLine
 62
9
  6
CONTINUOUS
 10
20.4373182136
 20
8.5179864944
 11
20.4373183383
 21
8.8598318604
  0
LINE
  5
24B
100
AcDbEntity
  8
0
100
AcDbLine
 62
9
  6
CONTINUOUS
 10
20.4873183383
 20
8.3348318604
 11
20.4873183383
 21
8.5153160233
  0
LINE
  5
24C
100
AcDbEntity
  8
0
100
AcDbLine
 62
7
  6
CONTINUOUS
 10
20.4973183383
 20
8.6154544379
 11
20.4973183383
 21
8.8598318604
  0
LINE
  5
24D
100
AcDbEntity
  8
0
100
AcDbLine
 62
7
  6
CONTINUOUS
 10
20.5473183383
 20
8.3648318604
 11
20.5473183383
 21
8.5179864944
  0
LINE
  5
24E
100
AcDbEntity
  8
0
100
AcDbLine
 62
9
  6
CONTINUOUS
 10
20.4791365727
 20
8.5164045003
 11
20.4811828418
 21
8.5420954853
  0
LINE
  5
24F
100
AcDbEntity
  8
0
100
AcDbLine
 62
9
  6
CONTINUOUS
 10
20.4873183383
 20
8.5153160233
 11
20.491968926
 21
8.5417772836
  0
ARC
  5
250
100
AcDbEntity
  8
0
100
AcDbCircle
 62
7
  6
CONTINUOUS
 10
19.2973182304
 20
6.4798319683
 40
0.3749998382
100
AcDbArc
 50
270.0000164854
 51
359.9999835146
  0
ARC
  5
251
100
AcDbEntity
  8
0
100
AcDbCircle
 62
7
  6
CONTINUOUS
 10
2.7973184462
 20
6.4798319683
 40
0.3749998382
100
AcDbArc
 50
180.0000164854
 51
269.9999835146
  0
ARC
  5
252
100
AcDbEntity
  8
0
100
AcDbCircle
 62
7
  6
CONTINUOUS
 10
4.5873183383
 20
8.6154544379
 40
0.09
100
AcDbArc
 50
180.0
 51
234.3146652872
  0
ARC
  5
253
100
AcDbEntity
  8
0
100
AcDbCircle
 62
7
  6
CONTINUOUS
 10
17.5073183383
 20
8.6154544379
 40
0.09
100
AcDbArc
 50
305.6853347116
 51
360.0
  0
ARC
  5
254
100
AcDbEntity
  8
0
100
AcDbCircle
 62
7
  6
CONTINUOUS
 10
20.5873183383
 20
8.6154544379
 40
0.09
100
AcDbArc
 50
179.9999999998
 51
234.3146652884
  0
ARC
  5
255
100
AcDbEntity
  8
0
100
AcDbCircle
 62
7
  6
CONTINUOUS
 10
1.5073183383
 20
8.6154544379
 40
0.09
100
AcDbArc
 50
305.6853347128
 51
360.0
  0
ARC
  5
256
100
AcDbEntity
  8
0
100
AcDbCircle
 62
7
  6
CONTINUOUS
 10
18.3603186344
 20
7.4168315643
 40
0.0619999733
100
AcDbArc
 50
269.9997263728
 51
0.0002736272
  0
ARC
  5
257
100
AcDbEntity
  8
0
100
AcDbCircle
 62
7
  6
CONTINUOUS
 10
3.7343180422
 20
7.4168315643
 40
0.0619999733
100
AcDbArc
 50
179.9997263728
 51
270.0002736272
  0
ARC
  5
258
100
AcDbEntity
  8
0
100
AcDbCircle
 62
7
  6
CONTINUOUS
 10
18.2323183383
 20
8.3198318604
 40
0.06
100
AcDbArc
 50
180.0
 51
270.0
  0
ARC
  5
259
100
AcDbEntity
  8
0
100
AcDbCircle
 62
7
  6
CONTINUOUS
 10
19.8623183383
 20
8.3198318604
 40
0.06
100
AcDbArc
 50
270.0
 51
360.0
  0
ARC
  5
25A
100
AcDbEntity
  8
0
100
AcDbCircle
 62
7
  6
CONTINUOUS
 10
2.2323183383
 20
8.3198318604
 40
0.06
100
AcDbArc
 50
180.0
 51
270.0
  0
ARC
  5
25B
100
AcDbEntity
  8
0
100
AcDbCircle
 62
7
  6
CONTINUOUS
 10
3.8623183383
 20
8.3198318604
 40
0.06
100
AcDbArc
 50
270.0
 51
360.0
  0
ARC
  5
25C
100
AcDbEntity
  8
0
100
AcDbCircle
 62
7
  6
CONTINUOUS
 10
17.5773183383
 20
8.5179864944
 40
0.03
100
AcDbArc
 50
125.6853347285
 51
180.0
  0
ARC
  5
25D
100
AcDbEntity
  8
0
100
AcDbCircle
 62
7
  6
CONTINUOUS
 10
20.5173183383
 20
8.5179864944
 40
0.03
100
AcDbArc
 50
0.0000000008
 51
54.3146652878
  0
ARC
  5
25E
100
AcDbEntity
  8
0
100
AcDbCircle
 62
7
  6
CONTINUOUS
 10
17.5773183383
 20
8.3648318604
 40
0.03
100
AcDbArc
 50
180.0
 51
270.0
  0
ARC
  5
25F
100
AcDbEntity
  8
0
100
AcDbCircle
 62
7
  6
CONTINUOUS
 10
20.5173183383
 20
8.3648318604
 40
0.03
100
AcDbArc
 50
270.0
 51
360.0
  0
ARC
  5
260
100
AcDbEntity
  8
0
100
AcDbCircle
 62
7
  6
CONTINUOUS
 10
4.5173183383
 20
8.3648318604
 40
0.03
100
AcDbArc
 50
270.0
 51
360.0
  0
ARC
  5
261
100
AcDbEntity
  8
0
100
AcDbCircle
 62
7
  6
CONTINUOUS
 10
1.5773183383
 20
8.3648318604
 40
0.03
100
AcDbArc
 50
180.0
 51
270.0
  0
ARC
  5
262
100
AcDbEntity
  8
0
100
AcDbCircle
 62
7
  6
CONTINUOUS
 10
1.5773183383
 20
8.5179864944
 40
0.03
100
AcDbArc
 50
125.6853347122
 51
179.9999999992
  0
ARC
  5
263
100
AcDbEntity
  8
0
100
AcDbCircle
 62
7
  6
CONTINUOUS
 10
4.5173183383
 20
8.5179864944
 40
0.03
100
AcDbArc
 50
0.0
 51
54.3146652715
  0
ARC
  5
264
100
AcDbEntity
  8
0
100
AcDbCircle
 62
9
  6
CONTINUOUS
 10
17.5772056505
 20
8.516385321
 40
0.0298881801
100
AcDbArc
 50
120.6621896746
 51
179.963232148
  0
ARC
  5
265
100
AcDbEntity
  8
0
100
AcDbCircle
 62
9
  6
CONTINUOUS
 10
1.5772056505
 20
8.516385321
 40
0.0298881801
100
AcDbArc
 50
120.6621896746
 51
179.963232148
  0
ARC
  5
266
100
AcDbEntity
  8
0
100
AcDbCircle
 62
9
  6
CONTINUOUS
 10
4.5174310505
 20
8.5163852511
 40
0.0298881574
100
AcDbArc
 50
0.0369072201
 51
59.3397791326
  0
ARC
  5
267
100
AcDbEntity
  8
0
100
AcDbCircle
 62
9
  6
CONTINUOUS
 10
20.5174310505
 20
8.5163852511
 40
0.0298881574
100
AcDbArc
 50
0.0369072201
 51
59.3397791326
  0
LINE
  5
268
100
AcDbEntity
  8
0
100
AcDbLine
 62
9
  6
CONTINUOUS
 10
19.0473183383
 20
6.7298318604
 11
19.2973183383
 21
6.1048318604
  0
LINE
  5
269
100
AcDbEntity
  8
0
100
AcDbLine
 62
9
  6
CONTINUOUS
 10
17.6573182093
 20
8.5423534822
 11
17.6134532595
 21
8.5420954424
  0
SPLINE
  5
26A
100
AcDbEntity
  8
0
100
AcDbSpline
 62
9
  6
CONTINUOUS
 70
0
 71
3
 72
15
 73
11
 74
0
 42
0.0000001
 43
0.0000001
 44
0.0000000001
 40
0.0
 40
0.0
 40
0.0
 40
0.0
 40
0.1438345057
 40
0.2862790204
 40
0.4251076176
 40
0.5583298462
 40
0.6840117864
 40
0.8004225441
 40
0.9061400887
 40
1.0
 40
1.0
 40
1.0
 40
1.0
 10
17.6373183383
 20
8.6191686755
 30
0.0
 10
17.6368648633
 20
8.6152952502
 30
0.0
 10
17.6357963439
 20
8.6076042298
 30
0.0
 10
17.6337201899
 20
8.5962629828
 30
0.0
 10
17.6312044003
 20
8.5853056176
 30
0.0
 10
17.6282930693
 20
8.5749174027
 30
0.0
 10
17.6250348245
 20
8.5652715205
 30
0.0
 10
17.6214856626
 20
8.5565269997
 30
0.0
 10
17.6177055564
 20
8.5488300185
 30
0.0
 10
17.6148999565
 20
8.5441898191
 30
0.0
 10
17.6134535836
 20
8.5420959117
 30
0.0
  0
LINE
  5
26B
100
AcDbEntity
  8
0
100
AcDbLine
 62
9
  6
CONTINUOUS
 10
4.4973183383
 20
8.6154544379
 11
4.4938868808
 21
8.6191686755
  0
SPLINE
  5
26C
100
AcDbEntity
  8
0
100
AcDbSpline
 62
9
  6
CONTINUOUS
 70
0
 71
3
 72
18
 73
14
 74
0
 42
0.0000001
 43
0.0000001
 44
0.0000000001
 40
0.0
 40
0.0
 40
0.0
 40
0.0
 40
0.039424995
 40
0.0805795011
 40
0.171011078
 40
0.2214375632
 40
0.275618674
 40
0.3952076068
 40
0.5290805854
 40
0.600937919
 40
0.6757919875
 40
0.8334939865
 40
1.0
 40
1.0
 40
1.0
 40
1.0
 10
4.4938868808
 20
8.6191686755
 30
0.0
 10
4.493523431
 20
8.6195052273
 30
0.0
 10
4.4927218363
 20
8.6201318877
 30
0.0
 10
4.4908430883
 20
8.6211881052
 30
0.0
 10
4.4886418696
 20
8.6218871086
 30
0.0
 10
4.4862327662
 20
8.6223347
 30
0.0
 10
4.4834330135
 20
8.6226648163
 30
0.0
 10
4.4795645486
 20
8.6227994162
 30
0.0
 10
4.4754771643
 20
8.6226377829
 30
0.0
 10
4.4719657556
 20
8.6223180054
 30
0.0
 10
4.4681705477
 20
8.6218382275
 30
0.0
 10
4.4632364386
 20
8.6209151813
 30
0.0
 10
4.459306513
 20
8.6198195567
 30
0.0
 10
4.4573183383
 20
8.6191686755
 30
0.0
  0
SPLINE
  5
26D
100
AcDbEntity
  8
0
100
AcDbSpline
 62
9
  6
CONTINUOUS
 70
0
 71
3
 72
11
 73
7
 74
0
 42
0.0000001
 43
0.0000001
 44
0.0000000001
 40
0.0
 40
0.0
 40
0.0
 40
0.0
 40
0.2441966056
 40
0.4932602329
 40
0.7457287832
 40
1.0
 40
1.0
 40
1.0
 40
1.0
 10
4.4573183383
 20
8.6191686755
 30
0.0
 10
4.4557391663
 20
8.6186480976
 30
0.0
 10
4.4525301114
 20
8.6176522667
 30
0.0
 10
4.4475936468
 20
8.6164436841
 30
0.0
 10
4.4425028309
 20
8.615642253
 30
0.0
 10
4.4390497019
 20
8.6154544376
 30
0.0
 10
4.4373183383
 20
8.6154544379
 30
0.0
  0
SPLINE
  5
26E
100
AcDbEntity
  8
0
100
AcDbSpline
 62
9
  6
CONTINUOUS
 70
0
 71
3
 72
11
 73
7
 74
0
 42
0.0000001
 43
0.0000001
 44
0.0000000001
 40
0.0
 40
0.0
 40
0.0
 40
0.0
 40
0.2542726309
 40
0.5067412841
 40
0.7558037335
 40
1.0
 40
1.0
 40
1.0
 40
1.0
 10
1.6573183383
 20
8.6154544379
 30
0.0
 10
1.6555869659
 20
8.6154544348
 30
0.0
 10
1.6521338243
 20
8.6156421658
 30
0.0
 10
1.6470430104
 20
8.6164436749
 30
0.0
 10
1.6421066321
 20
8.6176525568
 30
0.0
 10
1.6388975799
 20
8.6186483193
 30
0.0
 10
1.6373183383
 20
8.6191686755
 30
0.0
  0
SPLINE
  5
26F
100
AcDbEntity
  8
0
100
AcDbSpline
 62
9
  6
CONTINUOUS
 70
0
 71
3
 72
18
 73
14
 74
0
 42
0.0000001
 43
0.0000001
 44
0.0000000001
 40
0.0
 40
0.0
 40
0.0
 40
0.0
 40
0.1665058378
 40
0.3242079382
 40
0.3990619759
 40
0.4709192582
 40
0.6047922491
 40
0.7243811763
 40
0.7785622526
 40
0.8289885708
 40
0.9194198394
 40
0.9605749004
 40
1.0
 40
1.0
 40
1.0
 40
1.0
 10
1.6373183383
 20
8.6191686755
 30
0.0
 10
1.6353301779
 20
8.6198195943
 30
0.0
 10
1.631400212
 20
8.6209150873
 30
0.0
 10
1.6264661174
 20
8.6218381621
 30
0.0
 10
1.6226709211
 20
8.6223180426
 30
0.0
 10
1.6191595149
 20
8.6226378501
 30
0.0
 10
1.6150721255
 20
8.6227994224
 30
0.0
 10
1.6112036657
 20
8.6226647495
 30
0.0
 10
1.6084039134
 20
8.62233466
 30
0.0
 10
1.6059948008
 20
8.6218871647
 30
0.0
 10
1.6037935551
 20
8.6211881944
 30
0.0
 10
1.6019148537
 20
8.6201318812
 30
0.0
 10
1.6011132593
 20
8.6195052145
 30
0.0
 10
1.6007497958
 20
8.6191686755
 30
0.0
  0
LINE
  5
270
100
AcDbEntity
  8
0
100
AcDbLine
 62
9
  6
CONTINUOUS
 10
1.6007497958
 20
8.6191686755
 11
1.5973183383
 21
8.6154544379
  0
SPLINE
  5
271
100
AcDbEntity
  8
0
100
AcDbSpline
 62
9
  6
CONTINUOUS
 70
0
 71
3
 72
9
 73
5
 74
0
 42
0.0000001
 43
0.0000001
 44
0.0000000001
 40
0.0
 40
0.0
 40
0.0
 40
0.0
 40
0.5305582989
 40
1.0
 40
1.0
 40
1.0
 40
1.0
 10
17.5639697058
 20
8.5417774285
 30
0.0
 10
17.5636308685
 20
8.541903812
 30
0.0
 10
17.5629728329
 20
8.5420952744
 30
0.0
 10
17.5622816326
 20
8.5421335812
 30
0.0
 10
17.5619638719
 20
8.5420959465
 30
0.0
  0
SPLINE
  5
272
100
AcDbEntity
  8
0
100
AcDbSpline
 62
9
  6
CONTINUOUS
 70
0
 71
3
 72
17
 73
13
 74
0
 42
0.0000001
 43
0.0000001
 44
0.0000000001
 40
0.0
 40
0.0
 40
0.0
 40
0.0
 40
0.1803430874
 40
0.3517520515
 40
0.5101634114
 40
0.6519817794
 40
0.7739349481
 40
0.8734814333
 40
0.9143081329
 40
0.9489870034
 40
0.9775144097
 40
1.0
 40
1.0
 40
1.0
 40
1.0
 10
17.6026679877
 20
8.5417772491
 30
0.0
 10
17.6003412411
 20
8.5416035419
 30
0.0
 10
17.5958006166
 20
8.5412957543
 30
0.0
 10
17.5892090026
 20
8.540950951
 30
0.0
 10
17.5831104593
 20
8.5407385677
 30
0.0
 10
17.5776483895
 20
8.5406602977
 30
0.0
 10
17.5729477583
 20
8.5407184274
 30
0.0
 10
17.5695562667
 20
8.5408827382
 30
0.0
 10
17.5673013997
 20
8.5410984714
 30
0.0
 10
17.5659673566
 20
8.5412817616
 30
0.0
 10
17.5648789314
 20
8.5414951591
 30
0.0
 10
17.5642423421
 20
8.5416759452
 30
0.0
 10
17.5639697058
 20
8.5417774285
 30
0.0
  0
SPLINE
  5
273
100
AcDbEntity
  8
0
100
AcDbSpline
 62
9
  6
CONTINUOUS
 70
0
 71
3
 72
9
 73
5
 74
0
 42
0.0000001
 43
0.0000001
 44
0.0000000001
 40
0.0
 40
0.0
 40
0.0
 40
0.0
 40
0.2506299784
 40
1.0
 40
1.0
 40
1.0
 40
1.0
 10
17.6134535836
 20
8.5420959117
 30
0.0
 10
17.6125521037
 20
8.5421136999
 30
0.0
 10
17.6089543421
 20
8.54213703
 30
0.0
 10
17.6053563853
 20
8.5419782427
 30
0.0
 10
17.6026679877
 20
8.5417772491
 30
0.0
  0
SPLINE
  5
274
100
AcDbEntity
  8
0
100
AcDbSpline
 62
9
  6
CONTINUOUS
 70
0
 71
3
 72
15
 73
11
 74
0
 42
0.0000001
 43
0.0000001
 44
0.0000000001
 40
0.0
 40
0.0
 40
0.0
 40
0.0
 40
0.1283596952
 40
0.2559123779
 40
0.3824338148
 40
0.5078989978
 40
0.6322874288
 40
0.7556533387
 40
0.8781836238
 40
1.0
 40
1.0
 40
1.0
 40
1.0
 10
17.6007497958
 20
8.6191686755
 30
0.0
 10
17.6009095992
 20
8.6153083761
 30
0.0
 10
17.6007537253
 20
8.6075837041
 30
0.0
 10
17.599087432
 20
8.5961644777
 30
0.0
 10
17.596013503
 20
8.5851290845
 30
0.0
 10
17.5915855037
 20
8.574666871
 30
0.0
 10
17.5858749672
 20
8.5649547961
 30
0.0
 10
17.5789783403
 20
8.5561559866
 30
0.0
 10
17.5710125959
 20
8.5484246227
 30
0.0
 10
17.5650620214
 20
8.5440554185
 30
0.0
 10
17.5619631478
 20
8.5420954886
 30
0.0
  0
SPLINE
  5
275
100
AcDbEntity
  8
0
100
AcDbSpline
 62
9
  6
CONTINUOUS
 70
0
 71
3
 72
12
 73
8
 74
0
 42
0.0000001
 43
0.0000001
 44
0.0000000001
 40
0.0
 40
0.0
 40
0.0
 40
0.0
 40
0.0830712065
 40
0.1699512107
 40
0.3759498767
 40
0.6484366749
 40
1.0
 40
1.0
 40
1.0
 40
1.0
 10
4.5473183383
 20
8.5153159795
 30
0.0
 10
4.547318326
 20
8.5152735116
 30
0.0
 10
4.547305737
 20
8.5151861075
 30
0.0
 10
4.5472246283
 20
8.5150094051
 30
0.0
 10
4.5470113859
 20
8.5148029754
 30
0.0
 10
4.5466390116
 20
8.5145964961
 30
0.0
 10
4.5463392507
 20
8.5144841798
 30
0.0
 10
4.5461684089
 20
8.5144283685
 30
0.0
  0
SPLINE
  5
276
100
AcDbEntity
  8
0
100
AcDbSpline
 62
9
  6
CONTINUOUS
 70
0
 71
3
 72
18
 73
14
 74
0
 42
0.0000001
 43
0.0000001
 44
0.0000000001
 40
0.0
 40
0.0
 40
0.0
 40
0.0
 40
0.0212986063
 40
0.0495043209
 40
0.0845754663
 40
0.1263208581
 40
0.1744746947
 40
0.2287071097
 40
0.3537913743
 40
0.4979327488
 40
0.6568541386
 40
0.8258939291
 40
1.0
 40
1.0
 40
1.0
 40
1.0
 10
4.5461684089
 20
8.5144283685
 30
0.0
 10
4.5457703714
 20
8.5142983359
 30
0.0
 10
4.5448182019
 20
8.514082259
 30
0.0
 10
4.5431723884
 20
8.5138437171
 30
0.0
 10
4.5411158504
 20
8.5136502527
 30
0.0
 10
4.5386632022
 20
8.5135012755
 30
0.0
 10
4.5358311929
 20
8.5133971868
 30
0.0
 10
4.5313596284
 20
8.5133144199
 30
0.0
 10
4.5249996214
 20
8.51333892
 30
0.0
 10
4.5165841228
 20
8.5135412442
 30
0.0
 10
4.5073098549
 20
8.5139246976
 30
0.0
 10
4.4974553214
 20
8.5144999079
 30
0.0
 10
4.49072832
 20
8.515017843
 30
0.0
 10
4.4873183383
 20
8.5153160233
 30
0.0
  0
SPLINE
  5
277
100
AcDbEntity
  8
0
100
AcDbSpline
 62
9
  6
CONTINUOUS
 70
0
 71
3
 72
26
 73
22
 74
0
 42
0.0000001
 43
0.0000001
 44
0.0000000001
 40
0.0
 40
0.0
 40
0.0
 40
0.0
 40
0.1936654283
 40
0.3799228601
 40
0.4680065687
 40
0.5515910037
 40
0.6298491623
 40
0.7020356
 40
0.7674494766
 40
0.8254824446
 40
0.875583749
 40
0.9173284787
 40
0.9349578538
 40
0.950392241
 40
0.963625803
 40
0.9746699499
 40
0.9835741328
 40
0.9904761793
 40
0.9956946759
 40
0.9978956474
 40
1.0
 40
1.0
 40
1.0
 40
1.0
 10
1.6073183383
 20
8.5153159795
 30
0.0
 10
1.6034265856
 20
8.5149756297
 30
0.0
 10
1.5957838001
 20
8.514398678
 30
0.0
 10
1.5863566463
 20
8.5138833946
 30
0.0
 10
1.5791422393
 20
8.5135954495
 30
0.0
 10
1.5741029101
 20
8.5134445539
 30
0.0
 10
1.5693828814
 20
8.5133531007
 30
0.0
 10
1.5650285939
 20
8.5133207984
 30
0.0
 10
1.5610822322
 20
8.513347266
 30
0.0
 10
1.5575821984
 20
8.5134320796
 30
0.0
 10
1.5545619684
 20
8.5135751647
 30
0.0
 10
1.552359845
 20
8.5137503939
 30
0.0
 10
1.5508613725
 20
8.5139304336
 30
0.0
 10
1.5499382366
 20
8.5140733301
 30
0.0
 10
1.549152603
 20
8.5142318892
 30
0.0
 10
1.5485057256
 20
8.5144059228
 30
0.0
 10
1.5479971653
 20
8.5145966378
 30
0.0
 10
1.5476250069
 20
8.5148031553
 30
0.0
 10
1.5474119494
 20
8.5150095591
 30
0.0
 10
1.5473309154
 20
8.5151862055
 30
0.0
 10
1.5473183445
 20
8.5152735744
 30
0.0
 10
1.5473183383
 20
8.5153160233
 30
0.0
  0
LINE
  5
278
100
AcDbEntity
  8
0
100
AcDbLine
 62
9
  6
CONTINUOUS
 10
4.4811838263
 20
8.5420954886
 11
4.4373183383
 21
8.5423534828
  0
SPLINE
  5
279
100
AcDbEntity
  8
0
100
AcDbSpline
 62
9
  6
CONTINUOUS
 70
0
 71
3
 72
15
 73
11
 74
0
 42
0.0000001
 43
0.0000001
 44
0.0000000001
 40
0.0
 40
0.0
 40
0.0
 40
0.0
 40
0.143834988
 40
0.2862800157
 40
0.4251091017
 40
0.558331714
 40
0.6840138323
 40
0.8004244437
 40
0.906141387
 40
1.0
 40
1.0
 40
1.0
 40
1.0
 10
4.4573183383
 20
8.6191686755
 30
0.0
 10
4.4577718714
 20
8.615295217
 30
0.0
 10
4.4588404994
 20
8.6076041311
 30
0.0
 10
4.4609168211
 20
8.5962627937
 30
0.0
 10
4.4634327774
 20
8.5853053496
 30
0.0
 10
4.4663442545
 20
8.5749170699
 30
0.0
 10
4.4696026094
 20
8.5652711403
 30
0.0
 10
4.4731518328
 20
8.5565265926
 30
0.0
 10
4.4769319391
 20
8.5488296093
 30
0.0
 10
4.4797374936
 20
8.5441894022
 30
0.0
 10
4.4811838263
 20
8.5420954886
 30
0.0
  0
SPLINE
  5
27A
100
AcDbEntity
  8
0
100
AcDbSpline
 62
9
  6
CONTINUOUS
 70
0
 71
3
 72
9
 73
5
 74
0
 42
0.0000001
 43
0.0000001
 44
0.0000000001
 40
0.0
 40
0.0
 40
0.0
 40
0.0
 40
0.4694364046
 40
1.0
 40
1.0
 40
1.0
 40
1.0
 10
4.5326729186
 20
8.5420959117
 30
0.0
 10
4.5323550838
 20
8.5421336019
 30
0.0
 10
4.5316637109
 20
8.5420951756
 30
0.0
 10
4.5310054506
 20
8.5419038137
 30
0.0
 10
4.530666576
 20
8.5417772491
 30
0.0
  0
SPLINE
  5
27B
100
AcDbEntity
  8
0
100
AcDbSpline
 62
9
  6
CONTINUOUS
 70
0
 71
3
 72
17
 73
13
 74
0
 42
0.0000001
 43
0.0000001
 44
0.0000000001
 40
0.0
 40
0.0
 40
0.0
 40
0.0
 40
0.0224855357
 40
0.051017392
 40
0.0857000919
 40
0.1265268624
 40
0.2260717216
 40
0.3480284836
 40
0.4898486223
 40
0.6482563713
 40
0.8196613028
 40
1.0
 40
1.0
 40
1.0
 40
1.0
 10
4.530666576
 20
8.5417772491
 30
0.0
 10
4.5303939523
 20
8.5416757016
 30
0.0
 10
4.5297572608
 20
8.541494937
 30
0.0
 10
4.5286686613
 20
8.5412816743
 30
0.0
 10
4.5273344466
 20
8.541098468
 30
0.0
 10
4.5250794697
 20
8.5408826827
 30
0.0
 10
4.5216878221
 20
8.5407183021
 30
0.0
 10
4.5169869593
 20
8.5406603119
 30
0.0
 10
4.5115246608
 20
8.5407386925
 30
0.0
 10
4.5054259556
 20
8.5409509577
 30
0.0
 10
4.4988342458
 20
8.5412958363
 30
0.0
 10
4.4942935688
 20
8.5416037965
 30
0.0
 10
4.4919667838
 20
8.5417774285
 30
0.0
  0
SPLINE
  5
27C
100
AcDbEntity
  8
0
100
AcDbSpline
 62
9
  6
CONTINUOUS
 70
0
 71
3
 72
9
 73
5
 74
0
 42
0.0000001
 43
0.0000001
 44
0.0000000001
 40
0.0
 40
0.0
 40
0.0
 40
0.0
 40
0.249516427
 40
1.0
 40
1.0
 40
1.0
 40
1.0
 10
4.4919667838
 20
8.5417774285
 30
0.0
 10
4.4910718396
 20
8.541844287
 30
0.0
 10
4.4874826302
 20
8.5420761073
 30
0.0
 10
4.4838822579
 20
8.5421491187
 30
0.0
 10
4.48118351
 20
8.5420959465
 30
0.0
  0
SPLINE
  5
27D
100
AcDbEntity
  8
0
100
AcDbSpline
 62
9
  6
CONTINUOUS
 70
0
 71
3
 72
15
 73
11
 74
0
 42
0.0000001
 43
0.0000001
 44
0.0000000001
 40
0.0
 40
0.0
 40
0.0
 40
0.0
 40
0.1283598176
 40
0.2559126884
 40
0.3824343604
 40
0.5078997675
 40
0.6322883391
 40
0.755654235
 40
0.8781842498
 40
1.0
 40
1.0
 40
1.0
 40
1.0
 10
4.4938868808
 20
8.6191686755
 30
0.0
 10
4.4937270978
 20
8.6153084072
 30
0.0
 10
4.4938829997
 20
8.6075837985
 30
0.0
 10
4.4955493047
 20
8.5961646656
 30
0.0
 10
4.4986232137
 20
8.5851293575
 30
0.0
 10
4.5030511569
 20
8.5746672159
 30
0.0
 10
4.5087615994
 20
8.5649551957
 30
0.0
 10
4.5156580948
 20
8.5561564214
 30
0.0
 10
4.523623669
 20
8.5484250705
 30
0.0
 10
4.5295741142
 20
8.5440558523
 30
0.0
 10
4.5326729186
 20
8.5420959117
 30
0.0
  0
LINE
  5
27E
100
AcDbEntity
  8
0
100
AcDbLine
 62
9
  6
CONTINUOUS
 10
4.5348183357
 20
8.5423534822
 11
4.5326736604
 21
8.5420954424
  0
LINE
  5
27F
100
AcDbEntity
  8
0
100
AcDbLine
 62
9
  6
CONTINUOUS
 10
17.5619631478
 20
8.5420954886
 11
17.5598183418
 21
8.5423534828
  0
LINE
  5
280
100
AcDbEntity
  8
0
100
AcDbLine
 62
9
  6
CONTINUOUS
 10
19.0473183383
 20
6.7298318604
 11
19.6723183383
 21
6.4798318604
  0
LINE
  5
281
100
AcDbEntity
  8
0
100
AcDbLine
 62
9
  6
CONTINUOUS
 10
3.6723183383
 20
7.4168318604
 11
3.0473183383
 21
6.7298318604
  0
SPLINE
  5
282
100
AcDbEntity
  8
0
100
AcDbSpline
 62
9
  6
CONTINUOUS
 70
0
 71
3
 72
11
 73
7
 74
0
 42
0.0000001
 43
0.0000001
 44
0.0000000001
 40
0.0
 40
0.0
 40
0.0
 40
0.0
 40
0.2488721506
 40
0.4982661114
 40
0.7485976016
 40
1.0
 40
1.0
 40
1.0
 40
1.0
 10
17.5473183383
 20
8.5153160233
 30
0.0
 10
17.5473183383
 20
8.5180405937
 30
0.0
 10
17.5480945367
 20
8.5235262672
 30
0.0
 10
17.5514995189
 20
8.5310953702
 30
0.0
 10
17.5568708632
 20
8.5374573909
 30
0.0
 10
17.5614979929
 20
8.5405675893
 30
0.0
 10
17.5639701648
 20
8.5417772836
 30
0.0
  0
LINE
  5
283
100
AcDbEntity
  8
0
100
AcDbLine
 62
9
  6
CONTINUOUS
 10
20.5348183357
 20
8.5423534822
 11
20.5326736604
 21
8.5420954424
  0
SPLINE
  5
284
100
AcDbEntity
  8
0
100
AcDbSpline
 62
9
  6
CONTINUOUS
 70
0
 71
3
 72
15
 73
11
 74
0
 42
0.0000001
 43
0.0000001
 44
0.0000000001
 40
0.0
 40
0.0
 40
0.0
 40
0.0
 40
0.1283598176
 40
0.2559126884
 40
0.3824343604
 40
0.5078997675
 40
0.6322883391
 40
0.755654235
 40
0.8781842498
 40
1.0
 40
1.0
 40
1.0
 40
1.0
 10
20.4938868808
 20
8.6191686755
 30
0.0
 10
20.4937270978
 20
8.6153084072
 30
0.0
 10
20.4938829997
 20
8.6075837985
 30
0.0
 10
20.4955493047
 20
8.5961646656
 30
0.0
 10
20.4986232137
 20
8.5851293575
 30
0.0
 10
20.5030511569
 20
8.5746672159
 30
0.0
 10
20.5087615994
 20
8.5649551957
 30
0.0
 10
20.5156580948
 20
8.5561564214
 30
0.0
 10
20.523623669
 20
8.5484250705
 30
0.0
 10
20.5295741142
 20
8.5440558523
 30
0.0
 10
20.5326729186
 20
8.5420959117
 30
0.0
  0
SPLINE
  5
285
100
AcDbEntity
  8
0
100
AcDbSpline
 62
9
  6
CONTINUOUS
 70
0
 71
3
 72
9
 73
5
 74
0
 42
0.0000001
 43
0.0000001
 44
0.0000000001
 40
0.0
 40
0.0
 40
0.0
 40
0.0
 40
0.2495164337
 40
1.0
 40
1.0
 40
1.0
 40
1.0
 10
20.4919667838
 20
8.5417774285
 30
0.0
 10
20.4910718395
 20
8.541844287
 30
0.0
 10
20.4874826302
 20
8.5420761074
 30
0.0
 10
20.4838822579
 20
8.5421491187
 30
0.0
 10
20.48118351
 20
8.5420959465
 30
0.0
  0
SPLINE
  5
286
100
AcDbEntity
  8
0
100
AcDbSpline
 62
9
  6
CONTINUOUS
 70
0
 71
3
 72
17
 73
13
 74
0
 42
0.0000001
 43
0.0000001
 44
0.0000000001
 40
0.0
 40
0.0
 40
0.0
 40
0.0
 40
0.0224855357
 40
0.051017392
 40
0.0857000919
 40
0.1265268624
 40
0.2260717216
 40
0.3480284836
 40
0.4898486223
 40
0.6482563713
 40
0.8196613028
 40
1.0
 40
1.0
 40
1.0
 40
1.0
 10
20.530666576
 20
8.5417772491
 30
0.0
 10
20.5303939523
 20
8.5416757016
 30
0.0
 10
20.5297572608
 20
8.541494937
 30
0.0
 10
20.5286686613
 20
8.5412816743
 30
0.0
 10
20.5273344466
 20
8.541098468
 30
0.0
 10
20.5250794697
 20
8.5408826827
 30
0.0
 10
20.5216878221
 20
8.5407183021
 30
0.0
 10
20.5169869593
 20
8.5406603119
 30
0.0
 10
20.5115246608
 20
8.5407386925
 30
0.0
 10
20.5054259556
 20
8.5409509577
 30
0.0
 10
20.4988342458
 20
8.5412958363
 30
0.0
 10
20.4942935688
 20
8.5416037965
 30
0.0
 10
20.4919667838
 20
8.5417774285
 30
0.0
  0
SPLINE
  5
287
100
AcDbEntity
  8
0
100
AcDbSpline
 62
9
  6
CONTINUOUS
 70
0
 71
3
 72
9
 73
5
 74
0
 42
0.0000001
 43
0.0000001
 44
0.0000000001
 40
0.0
 40
0.0
 40
0.0
 40
0.0
 40
0.4694364683
 40
1.0
 40
1.0
 40
1.0
 40
1.0
 10
20.5326729186
 20
8.5420959117
 30
0.0
 10
20.5323550837
 20
8.5421336019
 30
0.0
 10
20.5316637108
 20
8.5420951758
 30
0.0
 10
20.5310054506
 20
8.5419038137
 30
0.0
 10
20.530666576
 20
8.5417772491
 30
0.0
  0
SPLINE
  5
288
100
AcDbEntity
  8
0
100
AcDbSpline
 62
9
  6
CONTINUOUS
 70
0
 71
3
 72
15
 73
11
 74
0
 42
0.0000001
 43
0.0000001
 44
0.0000000001
 40
0.0
 40
0.0
 40
0.0
 40
0.0
 40
0.143834988
 40
0.2862800157
 40
0.4251091017
 40
0.558331714
 40
0.6840138323
 40
0.8004244437
 40
0.906141387
 40
1.0
 40
1.0
 40
1.0
 40
1.0
 10
20.4573183383
 20
8.6191686755
 30
0.0
 10
20.4577718714
 20
8.615295217
 30
0.0
 10
20.4588404994
 20
8.6076041311
 30
0.0
 10
20.4609168211
 20
8.5962627937
 30
0.0
 10
20.4634327774
 20
8.5853053496
 30
0.0
 10
20.4663442545
 20
8.5749170699
 30
0.0
 10
20.4696026094
 20
8.5652711403
 30
0.0
 10
20.4731518328
 20
8.5565265926
 30
0.0
 10
20.4769319391
 20
8.5488296093
 30
0.0
 10
20.4797374936
 20
8.5441894022
 30
0.0
 10
20.4811838263
 20
8.5420954886
 30
0.0
  0
LINE
  5
289
100
AcDbEntity
  8
0
100
AcDbLine
 62
9
  6
CONTINUOUS
 10
20.4811838263
 20
8.5420954886
 11
20.4373183383
 21
8.5423534828
  0
SPLINE
  5
28A
100
AcDbEntity
  8
0
100
AcDbSpline
 62
9
  6
CONTINUOUS
 70
0
 71
3
 72
15
 73
11
 74
0
 42
0.0000001
 43
0.0000001
 44
0.0000000001
 40
0.0
 40
0.0
 40
0.0
 40
0.0
 40
0.3198960204
 40
0.4705406835
 40
0.610243579
 40
0.7357238252
 40
0.8440677758
 40
0.9327973844
 40
0.9691813155
 40
1.0
 40
1.0
 40
1.0
 40
1.0
 10
17.6073183383
 20
8.5153159795
 30
0.0
 10
17.6013205338
 20
8.5147914468
 30
0.0
 10
17.592483485
 20
8.5141801359
 30
0.0
 10
17.5810101586
 20
8.5136515377
 30
0.0
 10
17.5731873163
 20
8.5134108065
 30
0.0
 10
17.5661575119
 20
8.5133108429
 30
0.0
 10
17.5600865542
 20
8.5133492843
 30
0.0
 10
17.5556940185
 20
8.5135018045
 30
0.0
 10
17.5527666662
 20
8.5137145089
 30
0.0
 10
17.5515085556
 20
8.5138489574
 30
0.0
 10
17.5509337159
 20
8.5139263946
 30
0.0
  0
SPLINE
  5
28B
100
AcDbEntity
  8
0
100
AcDbSpline
 62
9
  6
CONTINUOUS
 70
0
 71
3
 72
15
 73
11
 74
0
 42
0.0000001
 43
0.0000001
 44
0.0000000001
 40
0.0
 40
0.0
 40
0.0
 40
0.0
 40
0.2100613868
 40
0.3940815788
 40
0.5521542035
 40
0.6846186792
 40
0.7923258461
 40
0.87724948
 40
0.943593689
 40
1.0
 40
1.0
 40
1.0
 40
1.0
 10
17.5509337159
 20
8.5139263946
 30
0.0
 10
17.5506525661
 20
8.5139642686
 30
0.0
 10
17.5501260369
 20
8.5140425995
 30
0.0
 10
17.5493929473
 20
8.5141802999
 30
0.0
 10
17.5487695151
 20
8.5143305245
 30
0.0
 10
17.5482563055
 20
8.5144933341
 30
0.0
 10
17.5478526759
 20
8.5146692549
 30
0.0
 10
17.5475569796
 20
8.5148597631
 30
0.0
 10
17.5473650341
 20
8.515072303
 30
0.0
 10
17.5473183495
 20
8.5152398462
 30
0.0
 10
17.5473183383
 20
8.5153160233
 30
0.0
  0
SPLINE
  5
28C
100
AcDbEntity
  8
0
100
AcDbSpline
 62
9
  6
CONTINUOUS
 70
0
 71
3
 72
15
 73
11
 74
0
 42
0.0000001
 43
0.0000001
 44
0.0000000001
 40
0.0
 40
0.0
 40
0.0
 40
0.0
 40
0.0564288892
 40
0.1227805331
 40
0.2077019172
 40
0.3154030489
 40
0.4478614648
 40
0.6059286999
 40
0.7899438345
 40
1.0
 40
1.0
 40
1.0
 40
1.0
 10
20.5473183383
 20
8.5153159795
 30
0.0
 10
20.5473183163
 20
8.5152398378
 30
0.0
 10
20.5472716818
 20
8.5150724007
 30
0.0
 10
20.5470799148
 20
8.514859979
 30
0.0
 10
20.5467844922
 20
8.5146696065
 30
0.0
 10
20.5463812441
 20
8.5144938127
 30
0.0
 10
20.5458685164
 20
8.5143311027
 30
0.0
 10
20.5452456639
 20
8.5141809362
 30
0.0
 10
20.5445132514
 20
8.514043241
 30
0.0
 10
20.5439872075
 20
8.5139648731
 30
0.0
 10
20.5437063162
 20
8.5139269698
 30
0.0
  0
SPLINE
  5
28D
100
AcDbEntity
  8
0
100
AcDbSpline
 62
9
  6
CONTINUOUS
 70
0
 71
3
 72
15
 73
11
 74
0
 42
0.0000001
 43
0.0000001
 44
0.0000000001
 40
0.0
 40
0.0
 40
0.0
 40
0.0
 40
0.030809551
 40
0.0671854165
 40
0.1559027184
 40
0.2642409642
 40
0.3897208555
 40
0.5294286308
 40
0.6800814802
 40
1.0
 40
1.0
 40
1.0
 40
1.0
 10
20.5437063162
 20
8.5139269698
 30
0.0
 10
20.5431316296
 20
8.5138494219
 30
0.0
 10
20.541873797
 20
8.5137146994
 30
0.0
 10
20.5389468391
 20
8.5135016627
 30
0.0
 10
20.5345544829
 20
8.5133504403
 30
0.0
 10
20.5284835367
 20
8.5133102768
 30
0.0
 10
20.5214533088
 20
8.5134103073
 30
0.0
 10
20.5136297902
 20
8.5136518747
 30
0.0
 10
20.5021550463
 20
8.5141793227
 30
0.0
 10
20.4933169322
 20
8.5147914861
 30
0.0
 10
20.4873183383
 20
8.5153160233
 30
0.0
  0
LINE
  5
28E
100
AcDbEntity
  8
0
100
AcDbLine
 62
9
  6
CONTINUOUS
 10
17.6007497958
 20
8.6191686755
 11
17.5973183383
 21
8.6154544379
  0
LINE
  5
28F
100
AcDbEntity
  8
0
100
AcDbLine
 62
9
  6
CONTINUOUS
 10
2.4223183383
 20
6.4798318604
 11
3.0473183383
 21
6.7298318604
  0
LINE
  5
290
100
AcDbEntity
  8
0
100
AcDbLine
 62
9
  6
CONTINUOUS
 10
1.5619631478
 20
8.5420954886
 11
1.5598183418
 21
8.5423534828
  0
SPLINE
  5
291
100
AcDbEntity
  8
0
100
AcDbSpline
 62
9
  6
CONTINUOUS
 70
0
 71
3
 72
15
 73
11
 74
0
 42
0.0000001
 43
0.0000001
 44
0.0000000001
 40
0.0
 40
0.0
 40
0.0
 40
0.0
 40
0.1283596952
 40
0.2559123779
 40
0.3824338148
 40
0.5078989978
 40
0.6322874288
 40
0.7556533387
 40
0.8781836238
 40
1.0
 40
1.0
 40
1.0
 40
1.0
 10
1.6007497958
 20
8.6191686755
 30
0.0
 10
1.6009095992
 20
8.6153083761
 30
0.0
 10
1.6007537253
 20
8.6075837041
 30
0.0
 10
1.599087432
 20
8.5961644777
 30
0.0
 10
1.596013503
 20
8.5851290845
 30
0.0
 10
1.5915855037
 20
8.574666871
 30
0.0
 10
1.5858749672
 20
8.5649547961
 30
0.0
 10
1.5789783403
 20
8.5561559866
 30
0.0
 10
1.5710125959
 20
8.5484246227
 30
0.0
 10
1.5650620214
 20
8.5440554185
 30
0.0
 10
1.5619631478
 20
8.5420954886
 30
0.0
  0
SPLINE
  5
292
100
AcDbEntity
  8
0
100
AcDbSpline
 62
9
  6
CONTINUOUS
 70
0
 71
3
 72
9
 73
5
 74
0
 42
0.0000001
 43
0.0000001
 44
0.0000000001
 40
0.0
 40
0.0
 40
0.0
 40
0.0
 40
0.2506299848
 40
1.0
 40
1.0
 40
1.0
 40
1.0
 10
1.6134535836
 20
8.5420959117
 30
0.0
 10
1.6125521037
 20
8.5421136999
 30
0.0
 10
1.6089543421
 20
8.5421370299
 30
0.0
 10
1.6053563852
 20
8.5419782427
 30
0.0
 10
1.6026679877
 20
8.5417772491
 30
0.0
  0
SPLINE
  5
293
100
AcDbEntity
  8
0
100
AcDbSpline
 62
9
  6
CONTINUOUS
 70
0
 71
3
 72
17
 73
13
 74
0
 42
0.0000001
 43
0.0000001
 44
0.0000000001
 40
0.0
 40
0.0
 40
0.0
 40
0.0
 40
0.1803430874
 40
0.3517520515
 40
0.5101634114
 40
0.6519817794
 40
0.7739349481
 40
0.8734814333
 40
0.9143081329
 40
0.9489870034
 40
0.9775144097
 40
1.0
 40
1.0
 40
1.0
 40
1.0
 10
1.6026679877
 20
8.5417772491
 30
0.0
 10
1.6003412411
 20
8.5416035419
 30
0.0
 10
1.5958006166
 20
8.5412957543
 30
0.0
 10
1.5892090026
 20
8.540950951
 30
0.0
 10
1.5831104593
 20
8.5407385677
 30
0.0
 10
1.5776483895
 20
8.5406602977
 30
0.0
 10
1.5729477583
 20
8.5407184274
 30
0.0
 10
1.5695562667
 20
8.5408827382
 30
0.0
 10
1.5673013997
 20
8.5410984714
 30
0.0
 10
1.5659673566
 20
8.5412817616
 30
0.0
 10
1.5648789314
 20
8.5414951591
 30
0.0
 10
1.5642423421
 20
8.5416759452
 30
0.0
 10
1.5639697058
 20
8.5417774285
 30
0.0
  0
SPLINE
  5
294
100
AcDbEntity
  8
0
100
AcDbSpline
 62
9
  6
CONTINUOUS
 70
0
 71
3
 72
9
 73
5
 74
0
 42
0.0000001
 43
0.0000001
 44
0.0000000001
 40
0.0
 40
0.0
 40
0.0
 40
0.0
 40
0.5305583351
 40
1.0
 40
1.0
 40
1.0
 40
1.0
 10
1.5639697058
 20
8.5417774285
 30
0.0
 10
1.5636308685
 20
8.541903812
 30
0.0
 10
1.5629728328
 20
8.5420952743
 30
0.0
 10
1.5622816325
 20
8.5421335812
 30
0.0
 10
1.5619638719
 20
8.5420959465
 30
0.0
  0
SPLINE
  5
295
100
AcDbEntity
  8
0
100
AcDbSpline
 62
9
  6
CONTINUOUS
 70
0
 71
3
 72
15
 73
11
 74
0
 42
0.0000001
 43
0.0000001
 44
0.0000000001
 40
0.0
 40
0.0
 40
0.0
 40
0.0
 40
0.1438345057
 40
0.2862790204
 40
0.4251076176
 40
0.5583298462
 40
0.6840117864
 40
0.8004225441
 40
0.9061400887
 40
1.0
 40
1.0
 40
1.0
 40
1.0
 10
1.6373183383
 20
8.6191686755
 30
0.0
 10
1.6368648633
 20
8.6152952502
 30
0.0
 10
1.6357963439
 20
8.6076042298
 30
0.0
 10
1.6337201899
 20
8.5962629828
 30
0.0
 10
1.6312044003
 20
8.5853056176
 30
0.0
 10
1.6282930693
 20
8.5749174027
 30
0.0
 10
1.6250348245
 20
8.5652715205
 30
0.0
 10
1.6214856626
 20
8.5565269997
 30
0.0
 10
1.6177055564
 20
8.5488300185
 30
0.0
 10
1.6148999565
 20
8.5441898191
 30
0.0
 10
1.6134535836
 20
8.5420959117
 30
0.0
  0
LINE
  5
296
100
AcDbEntity
  8
0
100
AcDbLine
 62
9
  6
CONTINUOUS
 10
1.6573182093
 20
8.5423534822
 11
1.6134532595
 21
8.5420954424
  0
LINE
  5
297
100
AcDbEntity
  8
0
100
AcDbLine
 62
9
  6
CONTINUOUS
 10
19.0473183383
 20
6.7298318604
 11
18.4223183381
 21
7.416831862
  0
SPLINE
  5
298
100
AcDbEntity
  8
0
100
AcDbSpline
 62
9
  6
CONTINUOUS
 70
0
 71
3
 72
18
 73
14
 74
0
 42
0.0000001
 43
0.0000001
 44
0.0000000001
 40
0.0
 40
0.0
 40
0.0
 40
0.0
 40
0.1665058378
 40
0.3242079382
 40
0.3990619759
 40
0.4709192582
 40
0.6047922491
 40
0.7243811763
 40
0.7785622526
 40
0.8289885708
 40
0.9194198394
 40
0.9605749004
 40
1.0
 40
1.0
 40
1.0
 40
1.0
 10
17.6373183383
 20
8.6191686755
 30
0.0
 10
17.6353301779
 20
8.6198195943
 30
0.0
 10
17.631400212
 20
8.6209150873
 30
0.0
 10
17.6264661174
 20
8.6218381621
 30
0.0
 10
17.6226709211
 20
8.6223180426
 30
0.0
 10
17.6191595149
 20
8.6226378501
 30
0.0
 10
17.6150721255
 20
8.6227994224
 30
0.0
 10
17.6112036657
 20
8.6226647495
 30
0.0
 10
17.6084039134
 20
8.62233466
 30
0.0
 10
17.6059948008
 20
8.6218871647
 30
0.0
 10
17.6037935551
 20
8.6211881944
 30
0.0
 10
17.6019148537
 20
8.6201318812
 30
0.0
 10
17.6011132593
 20
8.6195052145
 30
0.0
 10
17.6007497958
 20
8.6191686755
 30
0.0
  0
SPLINE
  5
299
100
AcDbEntity
  8
0
100
AcDbSpline
 62
9
  6
CONTINUOUS
 70
0
 71
3
 72
11
 73
7
 74
0
 42
0.0000001
 43
0.0000001
 44
0.0000000001
 40
0.0
 40
0.0
 40
0.0
 40
0.0
 40
0.254272349
 40
0.506740724
 40
0.7558033821
 40
1.0
 40
1.0
 40
1.0
 40
1.0
 10
17.6573183383
 20
8.6154544379
 30
0.0
 10
17.6555869679
 20
8.6154544348
 30
0.0
 10
17.6521338297
 20
8.6156421619
 30
0.0
 10
17.6470430186
 20
8.6164436744
 30
0.0
 10
17.6421066381
 20
8.6176525548
 30
0.0
 10
17.6388975822
 20
8.6186483186
 30
0.0
 10
17.6373183383
 20
8.6191686755
 30
0.0
  0
LINE
  5
29A
100
AcDbEntity
  8
0
100
AcDbLine
 62
9
  6
CONTINUOUS
 10
3.7343183383
 20
7.3548318604
 11
3.0473183383
 21
6.7298318604
  0
SPLINE
  5
29B
100
AcDbEntity
  8
0
100
AcDbSpline
 62
9
  6
CONTINUOUS
 70
0
 71
3
 72
11
 73
7
 74
0
 42
0.0000001
 43
0.0000001
 44
0.0000000001
 40
0.0
 40
0.0
 40
0.0
 40
0.0
 40
0.2441969748
 40
0.4932609459
 40
0.7457292018
 40
1.0
 40
1.0
 40
1.0
 40
1.0
 10
20.4573183383
 20
8.6191686755
 30
0.0
 10
20.4557391639
 20
8.6186480968
 30
0.0
 10
20.4525301049
 20
8.6176522623
 30
0.0
 10
20.4475936363
 20
8.6164436841
 30
0.0
 10
20.4425028236
 20
8.6156422477
 30
0.0
 10
20.4390496991
 20
8.6154544376
 30
0.0
 10
20.4373183383
 20
8.6154544379
 30
0.0
  0
SPLINE
  5
29C
100
AcDbEntity
  8
0
100
AcDbSpline
 62
9
  6
CONTINUOUS
 70
0
 71
3
 72
18
 73
14
 74
0
 42
0.0000001
 43
0.0000001
 44
0.0000000001
 40
0.0
 40
0.0
 40
0.0
 40
0.0
 40
0.039424995
 40
0.0805795011
 40
0.171011078
 40
0.2214375632
 40
0.275618674
 40
0.3952076068
 40
0.5290805854
 40
0.600937919
 40
0.6757919875
 40
0.8334939865
 40
1.0
 40
1.0
 40
1.0
 40
1.0
 10
20.4938868808
 20
8.6191686755
 30
0.0
 10
20.493523431
 20
8.6195052273
 30
0.0
 10
20.4927218363
 20
8.6201318877
 30
0.0
 10
20.4908430883
 20
8.6211881052
 30
0.0
 10
20.4886418696
 20
8.6218871086
 30
0.0
 10
20.4862327662
 20
8.6223347
 30
0.0
 10
20.4834330135
 20
8.6226648163
 30
0.0
 10
20.4795645486
 20
8.6227994162
 30
0.0
 10
20.4754771643
 20
8.6226377829
 30
0.0
 10
20.4719657556
 20
8.6223180054
 30
0.0
 10
20.4681705477
 20
8.6218382275
 30
0.0
 10
20.4632364386
 20
8.6209151813
 30
0.0
 10
20.459306513
 20
8.6198195567
 30
0.0
 10
20.4573183383
 20
8.6191686755
 30
0.0
  0
LINE
  5
29D
100
AcDbEntity
  8
0
100
AcDbLine
 62
9
  6
CONTINUOUS
 10
20.4973183383
 20
8.6154544379
 11
20.4938868808
 21
8.6191686755
  0
LINE
  5
29E
100
AcDbEntity
  8
0
100
AcDbLine
 62
9
  6
CONTINUOUS
 10
2.7973183383
 20
6.1048318604
 11
3.0473183383
 21
6.7298318604
  0
LINE
  5
29F
100
AcDbEntity
  8
0
100
AcDbLine
 62
9
  6
CONTINUOUS
 10
1.6155001382
 20
8.516404503
 11
1.6073183383
 21
8.5153159795
  0
SPLINE
  5
2A0
100
AcDbEntity
  8
0
100
AcDbSpline
 62
9
  6
CONTINUOUS
 70
0
 71
3
 72
9
 73
5
 74
0
 42
0.0000001
 43
0.0000001
 44
0.0000000001
 40
0.0
 40
0.0
 40
0.0
 40
0.0
 40
0.5000031769
 40
1.0
 40
1.0
 40
1.0
 40
1.0
 10
1.6573183664
 20
8.5179864944
 30
0.0
 10
1.6503423008
 20
8.5179864905
 30
0.0
 10
1.6363892941
 20
8.5177358223
 30
0.0
 10
1.6224541237
 20
8.5169579839
 30
0.0
 10
1.6155001382
 20
8.516404503
 30
0.0
  0
SPLINE
  5
2A1
100
AcDbEntity
  8
0
100
AcDbSpline
 62
9
  6
CONTINUOUS
 70
0
 71
3
 72
9
 73
5
 74
0
 42
0.0000001
 43
0.0000001
 44
0.0000000001
 40
0.0
 40
0.0
 40
0.0
 40
0.0
 40
0.4999968512
 40
1.0
 40
1.0
 40
1.0
 40
1.0
 10
4.4791365727
 20
8.5164045003
 30
0.0
 10
4.4721825634
 20
8.51695796
 30
0.0
 10
4.4582473501
 20
8.5177357904
 30
0.0
 10
4.4442943005
 20
8.5179864804
 30
0.0
 10
4.4373182136
 20
8.5179864944
 30
0.0
  0
LINE
  5
2A2
100
AcDbEntity
  8
0
100
AcDbLine
 62
9
  6
CONTINUOUS
 10
4.4873183383
 20
8.5153160233
 11
4.4791365727
 21
8.5164045003
  0
SPLINE
  5
2A3
100
AcDbEntity
  8
0
100
AcDbSpline
 62
9
  6
CONTINUOUS
 70
0
 71
3
 72
11
 73
7
 74
0
 42
0.0000001
 43
0.0000001
 44
0.0000000001
 40
0.0
 40
0.0
 40
0.0
 40
0.0
 40
0.2488721506
 40
0.4982661114
 40
0.7485976016
 40
1.0
 40
1.0
 40
1.0
 40
1.0
 10
1.5473183383
 20
8.5153160233
 30
0.0
 10
1.5473183383
 20
8.5180405937
 30
0.0
 10
1.5480945367
 20
8.5235262672
 30
0.0
 10
1.5514995189
 20
8.5310953702
 30
0.0
 10
1.5568708632
 20
8.5374573909
 30
0.0
 10
1.5614979929
 20
8.5405675893
 30
0.0
 10
1.5639701648
 20
8.5417772836
 30
0.0
  0
SPLINE
  5
2A4
100
AcDbEntity
  8
0
100
AcDbSpline
 62
9
  6
CONTINUOUS
 70
0
 71
3
 72
11
 73
7
 74
0
 42
0.0000001
 43
0.0000001
 44
0.0000000001
 40
0.0
 40
0.0
 40
0.0
 40
0.0
 40
0.2488713744
 40
0.4982651151
 40
0.7485969534
 40
1.0
 40
1.0
 40
1.0
 40
1.0
 10
4.5473183383
 20
8.5153159795
 30
0.0
 10
4.5473183383
 20
8.5180405449
 30
0.0
 10
4.5465421361
 20
8.5235262143
 30
0.0
 10
4.5431371454
 20
8.5310953166
 30
0.0
 10
4.537765794
 20
8.537457354
 30
0.0
 10
4.5331386621
 20
8.5405675787
 30
0.0
 10
4.5306664864
 20
8.5417772894
 30
0.0
  0
LINE
  5
2A5
100
AcDbEntity
  8
0
100
AcDbLine
 62
9
  6
CONTINUOUS
 10
20.4873183383
 20
8.5153160233
 11
20.4791365727
 21
8.5164045003
  0
SPLINE
  5
2A6
100
AcDbEntity
  8
0
100
AcDbSpline
 62
9
  6
CONTINUOUS
 70
0
 71
3
 72
9
 73
5
 74
0
 42
0.0000001
 43
0.0000001
 44
0.0000000001
 40
0.0
 40
0.0
 40
0.0
 40
0.0
 40
0.4999968416
 40
1.0
 40
1.0
 40
1.0
 40
1.0
 10
20.4791365727
 20
8.5164045003
 30
0.0
 10
20.4721825635
 20
8.51695796
 30
0.0
 10
20.4582473502
 20
8.5177357906
 30
0.0
 10
20.4442943006
 20
8.5179864804
 30
0.0
 10
20.4373182136
 20
8.5179864944
 30
0.0
  0
SPLINE
  5
2A7
100
AcDbEntity
  8
0
100
AcDbSpline
 62
9
  6
CONTINUOUS
 70
0
 71
3
 72
9
 73
5
 74
0
 42
0.0000001
 43
0.0000001
 44
0.0000000001
 40
0.0
 40
0.0
 40
0.0
 40
0.0
 40
0.5000031865
 40
1.0
 40
1.0
 40
1.0
 40
1.0
 10
17.6573183664
 20
8.5179864944
 30
0.0
 10
17.6503423006
 20
8.5179864905
 30
0.0
 10
17.6363892939
 20
8.5177358226
 30
0.0
 10
17.6224541236
 20
8.5169579839
 30
0.0
 10
17.6155001382
 20
8.516404503
 30
0.0
  0
LINE
  5
2A8
100
AcDbEntity
  8
0
100
AcDbLine
 62
9
  6
CONTINUOUS
 10
17.6155001382
 20
8.516404503
 11
17.6073183383
 21
8.5153159795
  0
SPLINE
  5
2A9
100
AcDbEntity
  8
0
100
AcDbSpline
 62
9
  6
CONTINUOUS
 70
0
 71
3
 72
11
 73
7
 74
0
 42
0.0000001
 43
0.0000001
 44
0.0000000001
 40
0.0
 40
0.0
 40
0.0
 40
0.0
 40
0.2488713744
 40
0.4982651151
 40
0.7485969534
 40
1.0
 40
1.0
 40
1.0
 40
1.0
 10
20.5473183383
 20
8.5153159795
 30
0.0
 10
20.5473183383
 20
8.5180405449
 30
0.0
 10
20.5465421361
 20
8.5235262143
 30
0.0
 10
20.5431371454
 20
8.5310953166
 30
0.0
 10
20.537765794
 20
8.537457354
 30
0.0
 10
20.5331386621
 20
8.5405675787
 30
0.0
 10
20.5306664864
 20
8.5417772894
 30
0.0
  0
LINE
  5
2AA
100
AcDbEntity
  8
0
100
AcDbLine
 62
9
  6
CONTINUOUS
 10
19.0473183383
 20
6.7298318604
 11
18.3603183368
 21
7.3548318604
  0
ENDSEC
  0
SECTION
  2
OBJECTS
  0
DICTIONARY
  5
C
100
AcDbDictionary
280
0
281
1
  3
ACAD_GROUP
350
D
  3
ACAD_MLINESTYLE
350
17
  3
ACAD_LAYOUT
350
1A
  3
ACAD_PLOTSETTINGS
350
19
  3
ACAD_PLOTSTYLENAME
350
E
  0
DICTIONARY
  5
D
102
{ACAD_REACTORS
330
C
102
}
100
AcDbDictionary
280
0
281
1
  0
ACDBDICTIONARYWDFLT
  5
E
102
{ACAD_REACTORS
330
C
102
}
100
AcDbDictionary
281
1
  3
Normal
350
F
100
AcDbDictionaryWithDefault
340
F
  0
DICTIONARY
  5
17
102
{ACAD_REACTORS
330
C
102
}
100
AcDbDictionary
280
0
281
1
  3
Standard
350
18
  0
DICTIONARY
  5
19
102
{ACAD_REACTORS
330
C
102
}
100
AcDbDictionary
281
1
  0
DICTIONARY
  5
1A
102
{ACAD_REACTORS
330
C
102
}
100
AcDbDictionary
281
1
  3
Model
350
2AB
  3
Layout1
350
2AC
  0
ACDBPLACEHOLDER
  5
F
102
{ACAD_REACTORS
330
E
102
}
  0
MLINESTYLE
  5
18
102
{ACAD_REACTORS
330
17
102
}
100
AcDbMlineStyle
  2
STANDARD
 70
0
  3

 62
256
 51
90.0
 52
90.0
 71
2
 49
0.5
 62
256
  6
BYLAYER
 49
-0.5
 62
256
  6
BYLAYER
  0
LAYOUT
  5
2AB
102
{ACAD_REACTORS
330
1A
102
}
100
AcDbPlotSettings
  1

  2
none_device
  4
ANSI_C_(22.00_x_17.00_Inches)
  6

 40
0.0
 41
0.0
 42
0.0
 43
0.0
 44
558.8
 45
431.8
 46
0.0
 47
0.0
 48
0.0
 49
0.0
140
0.0
141
0.0
142
1.0
143
1.0
 70
1024
 72
0
 73
0
 74
0
  7

 75
0
147
1.0
148
0.0
149
0.0
100
AcDbLayout
  1
Model
 70
0
 71
0
 10
0.0
 20
0.0
 11
22.0
 21
17.0
 12
0.0
 22
0.0
 32
0.0
 14
0.0
 24
0.0
 34
0.0
 15
0.0
 25
0.0
 35
0.0
146
0.0
 13
0.0
 23
0.0
 33
0.0
 16
1.0
 26
0.0
 36
0.0
 17
0.0
 27
1.0
 37
0.0
 76
0
330
205
345
0
346
0
  0
LAYOUT
  5
2AC
102
{ACAD_REACTORS
330
1A
102
}
100
AcDbPlotSettings
  1

  2
none_device
  4
ANSI_C_(22.00_x_17.00_Inches)
  6

 40
0.0
 41
0.0
 42
0.0
 43
0.0
 44
558.8
 45
431.8
 46
0.0
 47
0.0
 48
0.0
 49
0.0
140
0.0
141
0.0
142
1.0
143
1.0
 70
0
 72
0
 73
0
 74
0
  7

 75
0
147
1.0
148
0.0
149
0.0
100
AcDbLayout
  1
Layout1
 70
0
 71
1
 10
0.0
 20
0.0
 11
22.0
 21
17.0
 12
0.0
 22
0.0
 32
0.0
 14
0.0
 24
0.0
 34
0.0
 15
0.0
 25
0.0
 35
0.0
146
0.0
 13
0.0
 23
0.0
 33
0.0
 16
1.0
 26
0.0
 36
0.0
 17
0.0
 27
1.0
 37
0.0
 76
0
330
206
345
0
346
0
  0
ENDSEC
  0
EOF
