999
DXF file: E:\BT Custom\CADOUTPUT\_FRONT.dxf
999
Pro/ENGINEER 2018400 by Parametric Technology Corporation
  0
SECTION
  2
HEADER
  9
$ACADVER
  1
AC1018
  9
$DWGCODEPAGE
  3
ANSI_1252
  9
$EXTMAX
 10
22.0
 20
17.0
 30
0.0
  9
$EXTMIN
 10
0.0
 20
0.0
 30
0.0
  9
$LIMMIN
 10
0.0
 20
0.0
  9
$LIMMAX
 10
22.0
 20
17.0
  9
$VIEWCTR
 10
11.0
 20
8.5
  9
$VIEWSIZE
 40
17.0
  9
$CLAYER
  8
0
  9
$LTSCALE
 40
1.21
  9
$CELTYPE
  6
BYLAYER
  9
$DIMSCALE
 40
1.0
  9
$DIMASZ
 40
0.1
  9
$DIMEXO
 40
0.0625
  9
$DIMDLI
 40
0.836
  9
$DIMEXE
 40
0.125
  9
$DIMCEN
 40
0.198
  9
$DIMLFAC
 40
1.0
  9
$DIMBLK
  1
_FILLED
  9
$DIMALT
 70
1
  9
$DIMALTD
 70
2
  9
$DIMALTTD
 70
2
  9
$DIMALTF
 40
25.4
  9
$DIMTXT
 40
0.08
  9
$DIMTOL
 70
1
  9
$DIMLIM
 70
0
  9
$DIMTFAC
 40
1.0
  9
$DIMTP
 40
0.001
  9
$DIMTM
 40
0.001
  9
$DIMGAP
 40
0.09
  9
$DIMDSEP
 70
46
  9
$AUNITS
 70
0
  9
$PDMODE
 70
3
  9
$PDSIZE
 40
0.06
  9
$HANDSEED
  5
260
  9
$TILEMODE
 70
1
  9
$MEASUREMENT
 70
0
  9
$INSUNITS
 70
1
  0
ENDSEC
  0
SECTION
  2
CLASSES
  0
CLASS
  1
ACDBDICTIONARYWDFLT
  2
AcDbDictionaryWithDefault
  3
AutoCAD 2000
 90
0
 91
1
280
0
281
0
  0
CLASS
  1
ACDBPLACEHOLDER
  2
AcDbPlaceHolder
  3
AutoCAD 2000
 90
0
 91
1
280
0
281
0
  0
CLASS
  1
LAYOUT
  2
AcDbLayout
  3
AutoCAD 2000
 90
0
 91
0
280
0
281
0
  0
ENDSEC
  0
SECTION
  2
TABLES
  0
TABLE
  2
VPORT
  5
8
100
AcDbSymbolTable
 70
2
  0
VPORT
  5
1F4
100
AcDbSymbolTableRecord
100
AcDbViewportTableRecord
  2
*ACTIVE
 70
0
 10
0.0
 20
0.0
 11
1.0
 21
1.0
 12
11.0
 22
8.5
 13
0.0
 23
0.0
 14
1.0
 24
1.0
 15
0.0
 25
0.0
 16
0.0
 26
0.0
 36
1.0
 17
0.0
 27
0.0
 37
0.0
 40
17.0
 41
1.2941176471
 42
50.0
 43
0.0
 44
0.0
 50
0.0
 51
0.0
 71
0
 72
100
 73
1
 74
1
 75
0
 76
0
 77
0
 78
0
  0
ENDTAB
  0
TABLE
  2
LTYPE
  5
5
100
AcDbSymbolTable
 70
6
  0
LTYPE
  5
14
100
AcDbSymbolTableRecord
100
AcDbLinetypeTableRecord
  2
BYBLOCK
 70
0
  3

 72
65
 73
0
 40
0.0
  0
LTYPE
  5
15
100
AcDbSymbolTableRecord
100
AcDbLinetypeTableRecord
  2
BYLAYER
 70
0
  3

 72
65
 73
0
 40
0.0
  0
LTYPE
  5
16
100
AcDbSymbolTableRecord
100
AcDbLinetypeTableRecord
  2
CONTINUOUS
 70
64
  3
Solid line
 72
65
 73
0
 40
0.0
  0
LTYPE
  5
1F5
100
AcDbSymbolTableRecord
100
AcDbLinetypeTableRecord
  2
CENTER
 70
64
  3
____ _ ____ _ ____ _ ____ _ ____ _ ____ _ ____
 72
65
 73
4
 40
0.6
 49
0.375
 74
0
 49
-0.075
 74
0
 49
0.075
 74
0
 49
-0.075
 74
0
  0
LTYPE
  5
1F6
100
AcDbSymbolTableRecord
100
AcDbLinetypeTableRecord
  2
HIDDEN
 70
64
  3
- - - - - - - - - - - - - - - - - - - -
 72
65
 73
2
 40
0.2
 49
0.1
 74
0
 49
-0.1
 74
0
  0
LTYPE
  5
1F7
100
AcDbSymbolTableRecord
100
AcDbLinetypeTableRecord
  2
PHANTOM
 70
64
  3
_____ _ _ _____ _ _ _____ _ _ _____
 72
65
 73
6
 40
0.8
 49
0.45
 74
0
 49
-0.05
 74
0
 49
0.1
 74
0
 49
-0.05
 74
0
 49
0.1
 74
0
 49
-0.05
 74
0
  0
LTYPE
  5
1F8
100
AcDbSymbolTableRecord
100
AcDbLinetypeTableRecord
  2
DOT
 70
64
  3
. . . . . . . . . . . . . . . . . . . .
 72
65
 73
2
 40
0.2
 49
0.1
 74
0
 49
-0.1
 74
0
  0
LTYPE
  5
1F9
100
AcDbSymbolTableRecord
100
AcDbLinetypeTableRecord
  2
DASHED
 70
64
  3
- - - - - - - - - - - - - - - - - - - -
 72
65
 73
2
 40
0.2
 49
0.1
 74
0
 49
-0.1
 74
0
  0
ENDTAB
  0
TABLE
  2
LAYER
  5
2
100
AcDbSymbolTable
 70
36
  0
LAYER
  5
10
100
AcDbSymbolTableRecord
100
AcDbLayerTableRecord
  2
0
 70
0
 62
7
  6
CONTINUOUS
370
-3
390
F
  0
LAYER
  5
1FA
100
AcDbSymbolTableRecord
100
AcDbLayerTableRecord
  2
DEFAULT_1
 70
0
 62
7
  6
CENTER
370
-3
390
F
  0
LAYER
  5
1FB
100
AcDbSymbolTableRecord
100
AcDbLayerTableRecord
  2
DEFAULT_2
 70
0
 62
8
  6
HIDDEN
370
-3
390
F
  0
LAYER
  5
1FC
100
AcDbSymbolTableRecord
100
AcDbLayerTableRecord
  2
DEFAULT_3
 70
0
 62
7
  6
PHANTOM
370
-3
390
F
  0
LAYER
  5
1FD
100
AcDbSymbolTableRecord
100
AcDbLayerTableRecord
  2
ALL_FEATURES
 70
0
 62
7
  6
CONTINUOUS
370
-3
390
F
  0
LAYER
  5
1FE
100
AcDbSymbolTableRecord
100
AcDbLayerTableRecord
  2
AXES_FEATURES
 70
0
 62
7
  6
CONTINUOUS
370
-3
390
F
  0
LAYER
  5
1FF
100
AcDbSymbolTableRecord
100
AcDbLayerTableRecord
  2
DEFAULT_COORDINATE_SYSTEM
 70
0
 62
7
  6
CONTINUOUS
370
-3
390
F
  0
LAYER
  5
200
100
AcDbSymbolTableRecord
100
AcDbLayerTableRecord
  2
DEFAULT_DATUM_AXES
 70
0
 62
7
  6
CONTINUOUS
370
-3
390
F
  0
LAYER
  5
201
100
AcDbSymbolTableRecord
100
AcDbLayerTableRecord
  2
DEFAULT_DATUM_PLANES
 70
0
 62
7
  6
CONTINUOUS
370
-3
390
F
  0
LAYER
  5
202
100
AcDbSymbolTableRecord
100
AcDbLayerTableRecord
  2
DIMENSIONS
 70
0
 62
7
  6
CONTINUOUS
370
-3
390
F
  0
ENDTAB
  0
TABLE
  2
STYLE
  5
3
100
AcDbSymbolTable
 70
1
  0
STYLE
  5
11
100
AcDbSymbolTableRecord
100
AcDbTextStyleTableRecord
  2
STANDARD
 70
0
 40
0.0
 41
0.8
 50
0.0
 71
0
 42
0.2
  3
txt
  4

  0
STYLE
  5
203
100
AcDbSymbolTableRecord
100
AcDbTextStyleTableRecord
  2
TEXTSTYLE_1
 70
0
 40
0.0
 41
0.8
 50
0.0
 71
0
 42
0.2
  3
gdt
  4

  0
ENDTAB
  0
TABLE
  2
VIEW
  5
6
100
AcDbSymbolTable
 70
0
  0
ENDTAB
  0
TABLE
  2
UCS
  5
7
100
AcDbSymbolTable
 70
0
  0
ENDTAB
  0
TABLE
  2
APPID
  5
9
100
AcDbSymbolTable
 70
1
  0
APPID
  5
204
100
AcDbSymbolTableRecord
100
AcDbRegAppTableRecord
  2
ACAD
 70
0
  0
ENDTAB
  0
TABLE
  2
BLOCK_RECORD
  5
1
100
AcDbSymbolTable
 70
0
  0
BLOCK_RECORD
  5
205
100
AcDbSymbolTableRecord
100
AcDbBlockTableRecord
  2
*Model_Space
  0
BLOCK_RECORD
  5
206
100
AcDbSymbolTableRecord
100
AcDbBlockTableRecord
  2
*Paper_Space
  0
BLOCK_RECORD
  5
207
100
AcDbSymbolTableRecord
100
AcDbBlockTableRecord
  2
_FILLED
  0
ENDTAB
  0
TABLE
  2
DIMSTYLE
  5
A
100
AcDbSymbolTable
 70
1
100
AcDbDimStyleTable
 71
0
  0
DIMSTYLE
105
208
100
AcDbSymbolTableRecord
100
AcDbDimStyleTableRecord
  2
STANDARD
 70
0
  3

  4

 40
1.0
 41
0.1
 42
0.0625
 43
0.38
 44
0.125
 45
0.0
 46
0.0
 47
0.001
 48
0.001
140
0.08
141
0.09
142
0.0
143
25.4
144
1.0
145
0.0
146
1.0
147
0.09
 71
1.0
 72
0.0
 73
1
 74
1
 75
0
 76
0
 77
0
 78
4
 79
1
170
1
171
2
172
0
173
0
174
0
175
0
176
0
177
0
178
0
270
2
179
3
271
3
272
3
273
2
274
2
275
0
280
0
281
0
282
0
283
1
284
4
285
0
286
0
287
3
288
0
340
11
278
46
341
207
342
207
343
207
344
207
  0
ENDTAB
  0
ENDSEC
  0
SECTION
  2
BLOCKS
  0
BLOCK
  5
20
100
AcDbEntity
  8
0
100
AcDbBlockBegin
  2
*Model_Space
 70
0
 10
0.0
 20
0.0
 30
0.0
  3
*Model_Space
  1

  0
ENDBLK
  5
21
100
AcDbEntity
  8
0
100
AcDbBlockEnd
  0
BLOCK
  5
1C
100
AcDbEntity
  8
0
100
AcDbBlockBegin
  2
*Paper_Space
 70
0
 10
0.0
 20
0.0
 30
0.0
  3
*Paper_Space
  1

  0
ENDBLK
  5
1D
100
AcDbEntity
  8
0
100
AcDbBlockEnd
  0
BLOCK
  5
209
100
AcDbEntity
  8
0
100
AcDbBlockBegin
  2
_FILLED
 70
64
 10
0.0
 20
0.0
  3
_FILLED
  1

  0
SOLID
  5
20A
100
AcDbEntity
  8
0
  6
BYBLOCK
 62
0
100
AcDbTrace
 10
0.0
 20
0.0
 11
-1.0
 21
0.2
 12
-1.0
 22
-0.2
 13
-1.0
 23
-0.2
  0
ENDBLK
  5
20B
100
AcDbEntity
  8
0
  6
BYBLOCK
 62
0
100
AcDbBlockEnd
  0
ENDSEC
  0
SECTION
  2
ENTITIES
  0
LINE
  5
20C
100
AcDbEntity
  8
0
100
AcDbLine
 62
7
  6
CONTINUOUS
 10
-8.5623076573
 20
10.7076695021
 11
-8.5623076573
 21
7.8276695021
  0
LINE
  5
20D
100
AcDbEntity
  8
0
100
AcDbLine
 62
9
  6
CONTINUOUS
 10
-8.5323076573
 20
10.7076695021
 11
-8.5323076573
 21
7.8276695021
  0
LINE
  5
20E
100
AcDbEntity
  8
0
100
AcDbLine
 62
9
  6
CONTINUOUS
 10
-8.5023076573
 20
7.7976695021
 11
-8.5023076573
 21
7.7676695021
  0
LINE
  5
20F
100
AcDbEntity
  8
0
100
AcDbLine
 62
9
  6
CONTINUOUS
 10
-8.5023076573
 20
10.7376695021
 11
-8.5023076572
 21
10.7676695021
  0
LINE
  5
210
100
AcDbEntity
  8
0
100
AcDbLine
 62
7
  6
CONTINUOUS
 10
-5.9573076573
 20
8.6426695021
 11
-5.9573076573
 21
9.8926695021
  0
LINE
  5
211
100
AcDbEntity
  8
0
100
AcDbLine
 62
7
  6
CONTINUOUS
 10
-5.9373076573
 20
8.6626695021
 11
-5.9373076573
 21
9.8726695021
  0
LINE
  5
212
100
AcDbEntity
  8
0
100
AcDbLine
 62
7
  6
CONTINUOUS
 10
-5.9173076573
 20
8.6426695021
 11
-5.9173076573
 21
9.8926695021
  0
LINE
  5
213
100
AcDbEntity
  8
0
100
AcDbLine
 62
9
  6
CONTINUOUS
 10
-5.6223076573
 20
7.7976695021
 11
-5.6223076573
 21
7.7676695021
  0
LINE
  5
214
100
AcDbEntity
  8
0
100
AcDbLine
 62
9
  6
CONTINUOUS
 10
-5.6223076573
 20
10.7376695021
 11
-5.6223076573
 21
10.7676695021
  0
LINE
  5
215
100
AcDbEntity
  8
0
100
AcDbLine
 62
9
  6
CONTINUOUS
 10
-5.5923076573
 20
7.8276695021
 11
-5.5923076573
 21
8.6426695021
  0
LINE
  5
216
100
AcDbEntity
  8
0
100
AcDbLine
 62
9
  6
CONTINUOUS
 10
-5.5923076573
 20
9.8926695021
 11
-5.5923076573
 21
10.7076695021
  0
LINE
  5
217
100
AcDbEntity
  8
0
100
AcDbLine
 62
7
  6
CONTINUOUS
 10
-5.5623076573
 20
7.8276695021
 11
-5.5623076573
 21
8.6426695021
  0
LINE
  5
218
100
AcDbEntity
  8
0
100
AcDbLine
 62
7
  6
CONTINUOUS
 10
-5.5623076573
 20
9.8926695021
 11
-5.5623076573
 21
10.7076695021
  0
LINE
  5
219
100
AcDbEntity
  8
0
100
AcDbLine
 62
7
  6
CONTINUOUS
 10
-5.9373076573
 20
9.8726695021
 11
-5.9173076573
 21
9.8926695021
  0
LINE
  5
21A
100
AcDbEntity
  8
0
100
AcDbLine
 62
7
  6
CONTINUOUS
 10
-5.9373076573
 20
8.6626695021
 11
-5.9173076573
 21
8.6426695021
  0
LINE
  5
21B
100
AcDbEntity
  8
0
100
AcDbLine
 62
7
  6
CONTINUOUS
 10
-5.9373076573
 20
8.6626695021
 11
-5.9573076573
 21
8.6426695021
  0
LINE
  5
21C
100
AcDbEntity
  8
0
100
AcDbLine
 62
7
  6
CONTINUOUS
 10
-5.9373076573
 20
9.8726695021
 11
-5.9573076573
 21
9.8926695021
  0
LINE
  5
21D
100
AcDbEntity
  8
0
100
AcDbLine
 62
7
  6
CONTINUOUS
 10
-8.5023076573
 20
7.7676695021
 11
-5.6223076573
 21
7.7676695021
  0
LINE
  5
21E
100
AcDbEntity
  8
0
100
AcDbLine
 62
7
  6
CONTINUOUS
 10
27.4976923427
 20
7.7676695021
 11
30.3776923427
 21
7.7676695021
  0
LINE
  5
21F
100
AcDbEntity
  8
0
100
AcDbLine
 62
9
  6
CONTINUOUS
 10
-8.5023076573
 20
7.7976695021
 11
-5.6223076573
 21
7.7976695021
  0
LINE
  5
220
100
AcDbEntity
  8
0
100
AcDbLine
 62
9
  6
CONTINUOUS
 10
27.4976923427
 20
7.7976695021
 11
30.3776923427
 21
7.7976695021
  0
LINE
  5
221
100
AcDbEntity
  8
0
100
AcDbLine
 62
9
  6
CONTINUOUS
 10
27.4676923427
 20
7.8276695021
 11
27.4376923427
 21
7.8276695022
  0
LINE
  5
222
100
AcDbEntity
  8
0
100
AcDbLine
 62
9
  6
CONTINUOUS
 10
-5.5923076573
 20
7.8276695021
 11
-5.5623076573
 21
7.8276695021
  0
LINE
  5
223
100
AcDbEntity
  8
0
100
AcDbLine
 62
9
  6
CONTINUOUS
 10
-8.5323076573
 20
7.8276695021
 11
-8.5623076573
 21
7.8276695022
  0
LINE
  5
224
100
AcDbEntity
  8
0
100
AcDbLine
 62
9
  6
CONTINUOUS
 10
30.4076923427
 20
7.8276695021
 11
30.4376923427
 21
7.8276695021
  0
LINE
  5
225
100
AcDbEntity
  8
0
100
AcDbLine
 62
7
  6
CONTINUOUS
 10
27.7926923427
 20
8.6426695021
 11
-5.9173076573
 21
8.6426695021
  0
LINE
  5
226
100
AcDbEntity
  8
0
100
AcDbLine
 62
7
  6
CONTINUOUS
 10
-5.9573076573
 20
8.6426695021
 11
-7.0622991182
 21
8.6426695021
  0
LINE
  5
227
100
AcDbEntity
  8
0
100
AcDbLine
 62
7
  6
CONTINUOUS
 10
27.8326923427
 20
8.6426695021
 11
28.9376826505
 21
8.6426695021
  0
LINE
  5
228
100
AcDbEntity
  8
0
100
AcDbLine
 62
7
  6
CONTINUOUS
 10
27.7926923427
 20
9.8926695021
 11
-5.9173076573
 21
9.8926695021
  0
LINE
  5
229
100
AcDbEntity
  8
0
100
AcDbLine
 62
7
  6
CONTINUOUS
 10
-5.9573076573
 20
9.8926695021
 11
-7.062297965
 21
9.8926695021
  0
LINE
  5
22A
100
AcDbEntity
  8
0
100
AcDbLine
 62
7
  6
CONTINUOUS
 10
27.8326923427
 20
9.8926695021
 11
28.9376838037
 21
9.8926695021
  0
LINE
  5
22B
100
AcDbEntity
  8
0
100
AcDbLine
 62
9
  6
CONTINUOUS
 10
27.4676923427
 20
10.7076695021
 11
27.4376923427
 21
10.7076695021
  0
LINE
  5
22C
100
AcDbEntity
  8
0
100
AcDbLine
 62
9
  6
CONTINUOUS
 10
-5.5923076573
 20
10.7076695021
 11
-5.5623076573
 21
10.7076695021
  0
LINE
  5
22D
100
AcDbEntity
  8
0
100
AcDbLine
 62
9
  6
CONTINUOUS
 10
-8.5323076573
 20
10.7076695021
 11
-8.5623076573
 21
10.7076695021
  0
LINE
  5
22E
100
AcDbEntity
  8
0
100
AcDbLine
 62
9
  6
CONTINUOUS
 10
30.4076923427
 20
10.7076695021
 11
30.4376923427
 21
10.7076695021
  0
LINE
  5
22F
100
AcDbEntity
  8
0
100
AcDbLine
 62
9
  6
CONTINUOUS
 10
30.3776923427
 20
10.7376695021
 11
27.4976923427
 21
10.7376695021
  0
LINE
  5
230
100
AcDbEntity
  8
0
100
AcDbLine
 62
9
  6
CONTINUOUS
 10
-5.6223076573
 20
10.7376695021
 11
-8.5023076573
 21
10.7376695021
  0
LINE
  5
231
100
AcDbEntity
  8
0
100
AcDbLine
 62
7
  6
CONTINUOUS
 10
30.3776923427
 20
10.7676695021
 11
27.4976923427
 21
10.7676695021
  0
LINE
  5
232
100
AcDbEntity
  8
0
100
AcDbLine
 62
7
  6
CONTINUOUS
 10
-5.6223076573
 20
10.7676695021
 11
-8.5023076573
 21
10.7676695021
  0
LINE
  5
233
100
AcDbEntity
  8
0
100
AcDbLine
 62
7
  6
CONTINUOUS
 10
27.8126923427
 20
9.8726695021
 11
27.8326923427
 21
9.8926695021
  0
LINE
  5
234
100
AcDbEntity
  8
0
100
AcDbLine
 62
7
  6
CONTINUOUS
 10
27.8126923427
 20
8.6626695021
 11
27.8326923427
 21
8.6426695021
  0
LINE
  5
235
100
AcDbEntity
  8
0
100
AcDbLine
 62
7
  6
CONTINUOUS
 10
27.8126923427
 20
8.6626695021
 11
27.7926923427
 21
8.6426695021
  0
LINE
  5
236
100
AcDbEntity
  8
0
100
AcDbLine
 62
7
  6
CONTINUOUS
 10
27.8126923427
 20
9.8726695021
 11
27.7926923427
 21
9.8926695021
  0
LINE
  5
237
100
AcDbEntity
  8
0
100
AcDbLine
 62
7
  6
CONTINUOUS
 10
27.4376923427
 20
10.7076695021
 11
27.4376923427
 21
9.8926695021
  0
LINE
  5
238
100
AcDbEntity
  8
0
100
AcDbLine
 62
7
  6
CONTINUOUS
 10
27.4376923427
 20
8.6426695021
 11
27.4376923427
 21
7.8276695021
  0
LINE
  5
239
100
AcDbEntity
  8
0
100
AcDbLine
 62
9
  6
CONTINUOUS
 10
27.4676923427
 20
10.7076695021
 11
27.4676923427
 21
9.8926695021
  0
LINE
  5
23A
100
AcDbEntity
  8
0
100
AcDbLine
 62
9
  6
CONTINUOUS
 10
27.4676923427
 20
8.6426695021
 11
27.4676923427
 21
7.8276695021
  0
LINE
  5
23B
100
AcDbEntity
  8
0
100
AcDbLine
 62
9
  6
CONTINUOUS
 10
27.4976923427
 20
7.7976695021
 11
27.4976923427
 21
7.7676695021
  0
LINE
  5
23C
100
AcDbEntity
  8
0
100
AcDbLine
 62
9
  6
CONTINUOUS
 10
27.4976923427
 20
10.7376695021
 11
27.4976923428
 21
10.7676695021
  0
LINE
  5
23D
100
AcDbEntity
  8
0
100
AcDbLine
 62
7
  6
CONTINUOUS
 10
27.7926923427
 20
9.8926695021
 11
27.7926923427
 21
8.6426695021
  0
LINE
  5
23E
100
AcDbEntity
  8
0
100
AcDbLine
 62
7
  6
CONTINUOUS
 10
27.8126923427
 20
9.8726695021
 11
27.8126923427
 21
8.6626695021
  0
LINE
  5
23F
100
AcDbEntity
  8
0
100
AcDbLine
 62
7
  6
CONTINUOUS
 10
27.8326923427
 20
9.8926695021
 11
27.8326923427
 21
8.6426695021
  0
LINE
  5
240
100
AcDbEntity
  8
0
100
AcDbLine
 62
9
  6
CONTINUOUS
 10
30.3776923427
 20
7.7976695021
 11
30.3776923427
 21
7.7676695021
  0
LINE
  5
241
100
AcDbEntity
  8
0
100
AcDbLine
 62
9
  6
CONTINUOUS
 10
30.3776923427
 20
10.7376695021
 11
30.3776923427
 21
10.7676695021
  0
LINE
  5
242
100
AcDbEntity
  8
0
100
AcDbLine
 62
9
  6
CONTINUOUS
 10
30.4076923427
 20
7.8276695021
 11
30.4076923427
 21
10.7076695021
  0
LINE
  5
243
100
AcDbEntity
  8
0
100
AcDbLine
 62
7
  6
CONTINUOUS
 10
30.4376923427
 20
7.8276695021
 11
30.4376923427
 21
10.7076695021
  0
ARC
  5
244
100
AcDbEntity
  8
0
100
AcDbCircle
 62
7
  6
CONTINUOUS
 10
-8.5023076573
 20
7.8276695021
 40
0.06
100
AcDbArc
 50
180.0
 51
270.0
  0
ARC
  5
245
100
AcDbEntity
  8
0
100
AcDbCircle
 62
7
  6
CONTINUOUS
 10
-5.6223076573
 20
7.8276695021
 40
0.06
100
AcDbArc
 50
270.0
 51
360.0
  0
ARC
  5
246
100
AcDbEntity
  8
0
100
AcDbCircle
 62
9
  6
CONTINUOUS
 10
-5.6223076573
 20
7.8276695021
 40
0.03
100
AcDbArc
 50
270.0
 51
360.0
  0
ARC
  5
247
100
AcDbEntity
  8
0
100
AcDbCircle
 62
9
  6
CONTINUOUS
 10
-8.5023076573
 20
7.8276695021
 40
0.03
100
AcDbArc
 50
180.0
 51
270.0
  0
ARC
  5
248
100
AcDbEntity
  8
0
100
AcDbCircle
 62
7
  6
CONTINUOUS
 10
-7.0623076573
 20
9.2676695021
 40
0.875
100
AcDbArc
 50
45.6072981456
 51
314.3927018559
  0
ARC
  5
249
100
AcDbEntity
  8
0
100
AcDbCircle
 62
9
  6
CONTINUOUS
 10
-7.0623076573
 20
9.2676695021
 40
0.815
100
AcDbArc
 50
50.1137325787
 51
309.8862674129
  0
ARC
  5
24A
100
AcDbEntity
  8
0
100
AcDbCircle
 62
7
  6
CONTINUOUS
 10
-7.0623076573
 20
9.2676695021
 40
0.625
100
AcDbArc
 50
90.0
 51
270.0
  0
ARC
  5
24B
100
AcDbEntity
  8
0
100
AcDbCircle
 62
7
  6
CONTINUOUS
 10
-5.6223076573
 20
10.7076695021
 40
0.06
100
AcDbArc
 50
0.0
 51
90.0
  0
ARC
  5
24C
100
AcDbEntity
  8
0
100
AcDbCircle
 62
7
  6
CONTINUOUS
 10
-8.5023076573
 20
10.7076695021
 40
0.06
100
AcDbArc
 50
90.0
 51
180.0
  0
ARC
  5
24D
100
AcDbEntity
  8
0
100
AcDbCircle
 62
9
  6
CONTINUOUS
 10
-5.6223076573
 20
10.7076695021
 40
0.03
100
AcDbArc
 50
0.0
 51
90.0
  0
ARC
  5
24E
100
AcDbEntity
  8
0
100
AcDbCircle
 62
9
  6
CONTINUOUS
 10
-8.5023076573
 20
10.7076695021
 40
0.03
100
AcDbArc
 50
90.0
 51
180.0
  0
ARC
  5
24F
100
AcDbEntity
  8
0
100
AcDbCircle
 62
7
  6
CONTINUOUS
 10
30.3776923427
 20
7.8276695021
 40
0.06
100
AcDbArc
 50
270.0
 51
360.0
  0
ARC
  5
250
100
AcDbEntity
  8
0
100
AcDbCircle
 62
7
  6
CONTINUOUS
 10
27.4976923427
 20
7.8276695021
 40
0.06
100
AcDbArc
 50
180.0
 51
270.0
  0
ARC
  5
251
100
AcDbEntity
  8
0
100
AcDbCircle
 62
9
  6
CONTINUOUS
 10
27.4976923427
 20
7.8276695021
 40
0.03
100
AcDbArc
 50
180.0
 51
270.0
  0
ARC
  5
252
100
AcDbEntity
  8
0
100
AcDbCircle
 62
9
  6
CONTINUOUS
 10
30.3776923427
 20
7.8276695021
 40
0.03
100
AcDbArc
 50
270.0
 51
360.0
  0
ARC
  5
253
100
AcDbEntity
  8
0
100
AcDbCircle
 62
7
  6
CONTINUOUS
 10
28.9376923427
 20
9.2676695021
 40
0.875
100
AcDbArc
 50
225.6072981456
 51
134.3927018559
  0
ARC
  5
254
100
AcDbEntity
  8
0
100
AcDbCircle
 62
9
  6
CONTINUOUS
 10
28.9376923427
 20
9.2676695021
 40
0.815
100
AcDbArc
 50
230.1137325787
 51
129.8862674129
  0
ARC
  5
255
100
AcDbEntity
  8
0
100
AcDbCircle
 62
7
  6
CONTINUOUS
 10
28.9376923427
 20
9.2676695021
 40
0.625
100
AcDbArc
 50
270.0
 51
90.0
  0
ARC
  5
256
100
AcDbEntity
  8
0
100
AcDbCircle
 62
7
  6
CONTINUOUS
 10
27.4976923427
 20
10.7076695021
 40
0.06
100
AcDbArc
 50
90.0
 51
180.0
  0
ARC
  5
257
100
AcDbEntity
  8
0
100
AcDbCircle
 62
7
  6
CONTINUOUS
 10
30.3776923427
 20
10.7076695021
 40
0.06
100
AcDbArc
 50
0.0
 51
90.0
  0
ARC
  5
258
100
AcDbEntity
  8
0
100
AcDbCircle
 62
9
  6
CONTINUOUS
 10
30.3776923427
 20
10.7076695021
 40
0.03
100
AcDbArc
 50
0.0
 51
90.0
  0
ARC
  5
259
100
AcDbEntity
  8
0
100
AcDbCircle
 62
9
  6
CONTINUOUS
 10
27.4976923427
 20
10.7076695021
 40
0.03
100
AcDbArc
 50
90.0
 51
180.0
  0
SPLINE
  5
25A
100
AcDbEntity
  8
0
100
AcDbSpline
 62
9
  6
CONTINUOUS
 70
0
 71
3
 72
36
 73
32
 74
0
 42
0.0000001
 43
0.0000001
 44
0.0000000001
 40
0.0
 40
0.0
 40
0.0
 40
0.0
 40
0.016534424
 40
0.0331875952
 40
0.0502346468
 40
0.0678617378
 40
0.105392948
 40
0.1255733888
 40
0.1468170896
 40
0.1692044924
 40
0.192800337
 40
0.2176498715
 40
0.2437800905
 40
0.2712107755
 40
0.2999542042
 40
0.361352966
 40
0.3939884608
 40
0.4278781912
 40
0.4992585132
 40
0.5366606559
 40
0.5751240135
 40
0.6145808629
 40
0.6549573528
 40
0.6961721078
 40
0.7381348235
 40
0.7807522519
 40
0.8239247593
 40
0.8675453649
 40
0.9115058996
 40
0.9556984406
 40
1.0
 40
1.0
 40
1.0
 40
1.0
 10
-7.0623076573
 20
8.6426695021
 30
0.0
 10
-7.0662706742
 20
8.6426711972
 30
0.0
 10
-7.0742332296
 20
8.6431406339
 30
0.0
 10
-7.0861104269
 20
8.6452679554
 30
0.0
 10
-7.0979199491
 20
8.6488069567
 30
0.0
 10
-7.113896469
 20
8.6555300974
 30
0.0
 10
-7.1293867494
 20
8.665047232
 30
0.0
 10
-7.1441741114
 20
8.6768738326
 30
0.0
 10
-7.155364554
 20
8.687322544
 30
0.0
 10
-7.166357913
 20
8.6991180935
 30
0.0
 10
-7.1771415568
 20
8.7122439665
 30
0.0
 10
-7.1876931044
 20
8.726682614
 30
0.0
 10
-7.1979800474
 20
8.7424202095
 30
0.0
 10
-7.2079770413
 20
8.7594345432
 30
0.0
 10
-7.2211885082
 20
8.7843338739
 30
0.0
 10
-7.2333779559
 20
8.8111545798
 30
0.0
 10
-7.2446298755
 20
8.8396801785
 30
0.0
 10
-7.2557589574
 20
8.870809433
 30
0.0
 10
-7.2657726072
 20
8.9035300398
 30
0.0
 10
-7.2747404837
 20
8.9376665807
 30
0.0
 10
-7.2810661584
 20
8.9645772878
 30
0.0
 10
-7.2868522682
 20
8.9923371841
 30
0.0
 10
-7.292093314
 20
9.0208756139
 30
0.0
 10
-7.2967919381
 20
9.0501167538
 30
0.0
 10
-7.3008921986
 20
9.0799902619
 30
0.0
 10
-7.3043663418
 20
9.1104150565
 30
0.0
 10
-7.3072493554
 20
9.1413003956
 30
0.0
 10
-7.3095145022
 20
9.1725602243
 30
0.0
 10
-7.3111173321
 20
9.204105781
 30
0.0
 10
-7.312086543
 20
9.2358400535
 30
0.0
 10
-7.3123084034
 20
9.2570511796
 30
0.0
 10
-7.3123076573
 20
9.2676695021
 30
0.0
  0
SPLINE
  5
25B
100
AcDbEntity
  8
0
100
AcDbSpline
 62
9
  6
CONTINUOUS
 70
0
 71
3
 72
38
 73
34
 74
0
 42
0.0000001
 43
0.0000001
 44
0.0000000001
 40
0.0
 40
0.0
 40
0.0
 40
0.0
 40
0.0165357821
 40
0.0331891649
 40
0.0502328702
 40
0.0678575948
 40
0.0862140335
 40
0.1054280152
 40
0.1256071513
 40
0.1468493791
 40
0.1692371301
 40
0.1928311851
 40
0.2176768168
 40
0.2438059345
 40
0.2712390332
 40
0.2999818188
 40
0.3300321757
 40
0.3613833996
 40
0.4278998752
 40
0.4630040591
 40
0.499282268
 40
0.5366836021
 40
0.5751446942
 40
0.6145993456
 40
0.6549747518
 40
0.6961872273
 40
0.7381476663
 40
0.7807633767
 40
0.8239340346
 40
0.8675519303
 40
0.9115105021
 40
0.9557015494
 40
1.0
 40
1.0
 40
1.0
 40
1.0
 10
28.9376923427
 20
9.8926695021
 30
0.0
 10
28.9416558798
 20
9.8926678069
 30
0.0
 10
28.9496191467
 20
9.8921981589
 30
0.0
 10
28.9614967429
 20
9.8900711789
 30
0.0
 10
28.9733049254
 20
9.8865324
 30
0.0
 10
28.9850400645
 20
9.8815928879
 30
0.0
 10
28.9966805207
 20
9.8752630095
 30
0.0
 10
29.0081974134
 20
9.8675515677
 30
0.0
 10
29.0195603638
 20
9.8584643876
 30
0.0
 10
29.0307485059
 20
9.848016149
 30
0.0
 10
29.0417443858
 20
9.8362220385
 30
0.0
 10
29.0525273971
 20
9.8230962706
 30
0.0
 10
29.0630736145
 20
9.80865461
 30
0.0
 10
29.073360993
 20
9.7929171196
 30
0.0
 10
29.0833668402
 20
9.7759069463
 30
0.0
 10
29.0930606225
 20
9.7576463992
 30
0.0
 10
29.1024072437
 20
9.7381591011
 30
0.0
 10
29.114632302
 20
9.7100346784
 30
0.0
 10
29.125823117
 20
9.6801623001
 30
0.0
 10
29.1359826604
 20
9.6487054778
 30
0.0
 10
29.1432859759
 20
9.6236705374
 30
0.0
 10
29.150128731
 20
9.5976735012
 30
0.0
 10
29.1564524277
 20
9.5707623475
 30
0.0
 10
29.1622267078
 20
9.5429999369
 30
0.0
 10
29.1674802077
 20
9.5144638723
 30
0.0
 10
29.1721866504
 20
9.4852236802
 30
0.0
 10
29.1762690785
 20
9.4553476916
 30
0.0
 10
29.1797402945
 20
9.4249226537
 30
0.0
 10
29.18263825
 20
9.3940386945
 30
0.0
 10
29.1849042508
 20
9.3627788299
 30
0.0
 10
29.186499918
 20
9.331232853
 30
0.0
 10
29.1874697516
 20
9.2994986634
 30
0.0
 10
29.1876930888
 20
9.2782876008
 30
0.0
 10
29.1876923427
 20
9.2676695021
 30
0.0
  0
SPLINE
  5
25C
100
AcDbEntity
  8
0
100
AcDbSpline
 62
9
  6
CONTINUOUS
 70
0
 71
3
 72
36
 73
32
 74
0
 42
0.0000001
 43
0.0000001
 44
0.0000000001
 40
0.0
 40
0.0
 40
0.0
 40
0.0
 40
0.0443014252
 40
0.088493735
 40
0.1324541379
 40
0.1760746324
 40
0.219246878
 40
0.2618641715
 40
0.3038267998
 40
0.3450412993
 40
0.4248687912
 40
0.4633319114
 40
0.5007338977
 40
0.5370146131
 40
0.572121398
 40
0.638637575
 40
0.6699925803
 40
0.7000469532
 40
0.7287899985
 40
0.756220832
 40
0.7823510883
 40
0.807200366
 40
0.8307962649
 40
0.8531839178
 40
0.8744272834
 40
0.8946070674
 40
0.9321386426
 40
0.949766143
 40
0.966813748
 40
0.9834675295
 40
1.0
 40
1.0
 40
1.0
 40
1.0
 10
-7.3123076573
 20
9.2676695021
 30
0.0
 10
-7.312308184
 20
9.2782878316
 30
0.0
 10
-7.3120879255
 20
9.299498956
 30
0.0
 10
-7.3111179733
 20
9.331233243
 30
0.0
 10
-7.3095115512
 20
9.3627785961
 30
0.0
 10
-7.3072499737
 20
9.3940386369
 30
0.0
 10
-7.3043688507
 20
9.4249242114
 30
0.0
 10
-7.3008906447
 20
9.4553484735
 30
0.0
 10
-7.2967910483
 20
9.4852222763
 30
0.0
 10
-7.2905963558
 20
9.5237997053
 30
0.0
 10
-7.2832779751
 20
9.5613412243
 30
0.0
 10
-7.2747414287
 20
9.5976722641
 30
0.0
 10
-7.2679110558
 20
9.6236727674
 30
0.0
 10
-7.2605992574
 20
9.6487056408
 30
0.0
 10
-7.2504250201
 20
9.6801569748
 30
0.0
 10
-7.2392611378
 20
9.7100394585
 30
0.0
 10
-7.2270238646
 20
9.738159441
 30
0.0
 10
-7.2176669079
 20
9.757642649
 30
0.0
 10
-7.2079777389
 20
9.7759049229
 30
0.0
 10
-7.1979801248
 20
9.7929187156
 30
0.0
 10
-7.1876928767
 20
9.8086562078
 30
0.0
 10
-7.1771417172
 20
9.8230951557
 30
0.0
 10
-7.1663578729
 20
9.8362209857
 30
0.0
 10
-7.1553640871
 20
9.8480161982
 30
0.0
 10
-7.144173945
 20
9.8584650209
 30
0.0
 10
-7.1293871207
 20
9.8702921894
 30
0.0
 10
-7.1138964491
 20
9.8798089677
 30
0.0
 10
-7.097919485
 20
9.8865320037
 30
0.0
 10
-7.0861095187
 20
9.8900709945
 30
0.0
 10
-7.0742324831
 20
9.8921983245
 30
0.0
 10
-7.0662702206
 20
9.8926678974
 30
0.0
 10
-7.0623076573
 20
9.8926695021
 30
0.0
  0
SPLINE
  5
25D
100
AcDbEntity
  8
0
100
AcDbSpline
 62
9
  6
CONTINUOUS
 70
0
 71
3
 72
38
 73
34
 74
0
 42
0.0000001
 43
0.0000001
 44
0.0000000001
 40
0.0
 40
0.0
 40
0.0
 40
0.0
 40
0.0442984747
 40
0.0884894713
 40
0.1324480478
 40
0.1760659892
 40
0.2192365879
 40
0.2618522734
 40
0.3038127643
 40
0.34502523
 40
0.3854006044
 40
0.4248552965
 40
0.4633164115
 40
0.5007177062
 40
0.5369959146
 40
0.5721001611
 40
0.6386166634
 40
0.6699678028
 40
0.7000181486
 40
0.7287610787
 40
0.7561941797
 40
0.7823229645
 40
0.8071684589
 40
0.8307629591
 40
0.8531510741
 40
0.8743930096
 40
0.8945716865
 40
0.9137856014
 40
0.9321423573
 40
0.9497676921
 40
0.96681229
 40
0.9834662752
 40
1.0
 40
1.0
 40
1.0
 40
1.0
 10
29.1876923427
 20
9.2676695021
 30
0.0
 10
29.1876928695
 20
9.2570513978
 30
0.0
 10
29.1874707316
 20
9.2358403395
 30
0.0
 10
29.1865010803
 20
9.2041061213
 30
0.0
 10
29.1849025961
 20
9.1725602927
 30
0.0
 10
29.1826377272
 20
9.1413003789
 30
0.0
 10
29.1797421731
 20
9.1104161896
 30
0.0
 10
29.1762697769
 20
9.0799912751
 30
0.0
 10
29.1721860785
 20
9.0501154706
 30
0.0
 10
29.1674804487
 20
9.0208751539
 30
0.0
 10
29.1622272053
 20
8.992339031
 30
0.0
 10
29.1564521056
 20
8.9645767821
 30
0.0
 10
29.1501283784
 20
8.93766564
 30
0.0
 10
29.1432862229
 20
8.9116684496
 30
0.0
 10
29.1359828709
 20
8.8866335073
 30
0.0
 10
29.1258227789
 20
8.8551768384
 30
0.0
 10
29.1146319075
 20
8.8253045032
 30
0.0
 10
29.1024073295
 20
8.7971798909
 30
0.0
 10
29.0930608031
 20
8.7776925261
 30
0.0
 10
29.0833665943
 20
8.7594321645
 30
0.0
 10
29.073360682
 20
8.7424220968
 30
0.0
 10
29.0630740029
 20
8.7266842918
 30
0.0
 10
29.0525280529
 20
8.7122424199
 30
0.0
 10
29.0417443592
 20
8.6991169879
 30
0.0
 10
29.0307480304
 20
8.6873231509
 30
0.0
 10
29.0195602331
 20
8.6768747008
 30
0.0
 10
29.0081976991
 20
8.6677873016
 30
0.0
 10
28.9966808468
 20
8.6600758712
 30
0.0
 10
28.9850401134
 20
8.6537460614
 30
0.0
 10
28.9733044648
 20
8.6488066298
 30
0.0
 10
28.9614957426
 20
8.6452679121
 30
0.0
 10
28.949618306
 20
8.6431408838
 30
0.0
 10
28.9416553867
 20
8.6426711071
 30
0.0
 10
28.9376923427
 20
8.6426695021
 30
0.0
  0
ENDSEC
  0
SECTION
  2
OBJECTS
  0
DICTIONARY
  5
C
100
AcDbDictionary
280
0
281
1
  3
ACAD_GROUP
350
D
  3
ACAD_MLINESTYLE
350
17
  3
ACAD_LAYOUT
350
1A
  3
ACAD_PLOTSETTINGS
350
19
  3
ACAD_PLOTSTYLENAME
350
E
  0
DICTIONARY
  5
D
102
{ACAD_REACTORS
330
C
102
}
100
AcDbDictionary
280
0
281
1
  0
ACDBDICTIONARYWDFLT
  5
E
102
{ACAD_REACTORS
330
C
102
}
100
AcDbDictionary
281
1
  3
Normal
350
F
100
AcDbDictionaryWithDefault
340
F
  0
DICTIONARY
  5
17
102
{ACAD_REACTORS
330
C
102
}
100
AcDbDictionary
280
0
281
1
  3
Standard
350
18
  0
DICTIONARY
  5
19
102
{ACAD_REACTORS
330
C
102
}
100
AcDbDictionary
281
1
  0
DICTIONARY
  5
1A
102
{ACAD_REACTORS
330
C
102
}
100
AcDbDictionary
281
1
  3
Model
350
25E
  3
Layout1
350
25F
  0
ACDBPLACEHOLDER
  5
F
102
{ACAD_REACTORS
330
E
102
}
  0
MLINESTYLE
  5
18
102
{ACAD_REACTORS
330
17
102
}
100
AcDbMlineStyle
  2
STANDARD
 70
0
  3

 62
256
 51
90.0
 52
90.0
 71
2
 49
0.5
 62
256
  6
BYLAYER
 49
-0.5
 62
256
  6
BYLAYER
  0
LAYOUT
  5
25E
102
{ACAD_REACTORS
330
1A
102
}
100
AcDbPlotSettings
  1

  2
none_device
  4
ANSI_C_(22.00_x_17.00_Inches)
  6

 40
0.0
 41
0.0
 42
0.0
 43
0.0
 44
558.8
 45
431.8
 46
0.0
 47
0.0
 48
0.0
 49
0.0
140
0.0
141
0.0
142
1.0
143
1.0
 70
1024
 72
0
 73
0
 74
0
  7

 75
0
147
1.0
148
0.0
149
0.0
100
AcDbLayout
  1
Model
 70
0
 71
0
 10
0.0
 20
0.0
 11
22.0
 21
17.0
 12
0.0
 22
0.0
 32
0.0
 14
0.0
 24
0.0
 34
0.0
 15
0.0
 25
0.0
 35
0.0
146
0.0
 13
0.0
 23
0.0
 33
0.0
 16
1.0
 26
0.0
 36
0.0
 17
0.0
 27
1.0
 37
0.0
 76
0
330
205
345
0
346
0
  0
LAYOUT
  5
25F
102
{ACAD_REACTORS
330
1A
102
}
100
AcDbPlotSettings
  1

  2
none_device
  4
ANSI_C_(22.00_x_17.00_Inches)
  6

 40
0.0
 41
0.0
 42
0.0
 43
0.0
 44
558.8
 45
431.8
 46
0.0
 47
0.0
 48
0.0
 49
0.0
140
0.0
141
0.0
142
1.0
143
1.0
 70
0
 72
0
 73
0
 74
0
  7

 75
0
147
1.0
148
0.0
149
0.0
100
AcDbLayout
  1
Layout1
 70
0
 71
1
 10
0.0
 20
0.0
 11
22.0
 21
17.0
 12
0.0
 22
0.0
 32
0.0
 14
0.0
 24
0.0
 34
0.0
 15
0.0
 25
0.0
 35
0.0
146
0.0
 13
0.0
 23
0.0
 33
0.0
 16
1.0
 26
0.0
 36
0.0
 17
0.0
 27
1.0
 37
0.0
 76
0
330
206
345
0
346
0
  0
ENDSEC
  0
EOF
