999
DXF file: E:\BT Custom\CADOUTPUT\_TOP.dxf
999
Pro/ENGINEER 2018400 by Parametric Technology Corporation
  0
SECTION
  2
HEADER
  9
$ACADVER
  1
AC1018
  9
$DWGCODEPAGE
  3
ANSI_1252
  9
$EXTMAX
 10
22.0
 20
17.0
 30
0.0
  9
$EXTMIN
 10
0.0
 20
0.0
 30
0.0
  9
$LIMMIN
 10
0.0
 20
0.0
  9
$LIMMAX
 10
22.0
 20
17.0
  9
$VIEWCTR
 10
11.0
 20
8.5
  9
$VIEWSIZE
 40
17.0
  9
$CLAYER
  8
0
  9
$LTSCALE
 40
1.21
  9
$CELTYPE
  6
BYLAYER
  9
$DIMSCALE
 40
1.0
  9
$DIMASZ
 40
0.1
  9
$DIMEXO
 40
0.0625
  9
$DIMDLI
 40
0.836
  9
$DIMEXE
 40
0.125
  9
$DIMCEN
 40
0.198
  9
$DIMLFAC
 40
1.0
  9
$DIMBLK
  1
_FILLED
  9
$DIMALT
 70
1
  9
$DIMALTD
 70
2
  9
$DIMALTTD
 70
2
  9
$DIMALTF
 40
25.4
  9
$DIMTXT
 40
0.08
  9
$DIMTOL
 70
1
  9
$DIMLIM
 70
0
  9
$DIMTFAC
 40
1.0
  9
$DIMTP
 40
0.001
  9
$DIMTM
 40
0.001
  9
$DIMGAP
 40
0.09
  9
$DIMDSEP
 70
46
  9
$AUNITS
 70
0
  9
$PDMODE
 70
3
  9
$PDSIZE
 40
0.06
  9
$HANDSEED
  5
2F1
  9
$TILEMODE
 70
1
  9
$MEASUREMENT
 70
0
  9
$INSUNITS
 70
1
  0
ENDSEC
  0
SECTION
  2
CLASSES
  0
CLASS
  1
ACDBDICTIONARYWDFLT
  2
AcDbDictionaryWithDefault
  3
AutoCAD 2000
 90
0
 91
1
280
0
281
0
  0
CLASS
  1
ACDBPLACEHOLDER
  2
AcDbPlaceHolder
  3
AutoCAD 2000
 90
0
 91
1
280
0
281
0
  0
CLASS
  1
LAYOUT
  2
AcDbLayout
  3
AutoCAD 2000
 90
0
 91
0
280
0
281
0
  0
ENDSEC
  0
SECTION
  2
TABLES
  0
TABLE
  2
VPORT
  5
8
100
AcDbSymbolTable
 70
2
  0
VPORT
  5
1F4
100
AcDbSymbolTableRecord
100
AcDbViewportTableRecord
  2
*ACTIVE
 70
0
 10
0.0
 20
0.0
 11
1.0
 21
1.0
 12
11.0
 22
8.5
 13
0.0
 23
0.0
 14
1.0
 24
1.0
 15
0.0
 25
0.0
 16
0.0
 26
0.0
 36
1.0
 17
0.0
 27
0.0
 37
0.0
 40
17.0
 41
1.2941176471
 42
50.0
 43
0.0
 44
0.0
 50
0.0
 51
0.0
 71
0
 72
100
 73
1
 74
1
 75
0
 76
0
 77
0
 78
0
  0
ENDTAB
  0
TABLE
  2
LTYPE
  5
5
100
AcDbSymbolTable
 70
6
  0
LTYPE
  5
14
100
AcDbSymbolTableRecord
100
AcDbLinetypeTableRecord
  2
BYBLOCK
 70
0
  3

 72
65
 73
0
 40
0.0
  0
LTYPE
  5
15
100
AcDbSymbolTableRecord
100
AcDbLinetypeTableRecord
  2
BYLAYER
 70
0
  3

 72
65
 73
0
 40
0.0
  0
LTYPE
  5
16
100
AcDbSymbolTableRecord
100
AcDbLinetypeTableRecord
  2
CONTINUOUS
 70
64
  3
Solid line
 72
65
 73
0
 40
0.0
  0
LTYPE
  5
1F5
100
AcDbSymbolTableRecord
100
AcDbLinetypeTableRecord
  2
CENTER
 70
64
  3
____ _ ____ _ ____ _ ____ _ ____ _ ____ _ ____
 72
65
 73
4
 40
0.6
 49
0.375
 74
0
 49
-0.075
 74
0
 49
0.075
 74
0
 49
-0.075
 74
0
  0
LTYPE
  5
1F6
100
AcDbSymbolTableRecord
100
AcDbLinetypeTableRecord
  2
HIDDEN
 70
64
  3
- - - - - - - - - - - - - - - - - - - -
 72
65
 73
2
 40
0.2
 49
0.1
 74
0
 49
-0.1
 74
0
  0
LTYPE
  5
1F7
100
AcDbSymbolTableRecord
100
AcDbLinetypeTableRecord
  2
PHANTOM
 70
64
  3
_____ _ _ _____ _ _ _____ _ _ _____
 72
65
 73
6
 40
0.8
 49
0.45
 74
0
 49
-0.05
 74
0
 49
0.1
 74
0
 49
-0.05
 74
0
 49
0.1
 74
0
 49
-0.05
 74
0
  0
LTYPE
  5
1F8
100
AcDbSymbolTableRecord
100
AcDbLinetypeTableRecord
  2
DOT
 70
64
  3
. . . . . . . . . . . . . . . . . . . .
 72
65
 73
2
 40
0.2
 49
0.1
 74
0
 49
-0.1
 74
0
  0
LTYPE
  5
1F9
100
AcDbSymbolTableRecord
100
AcDbLinetypeTableRecord
  2
DASHED
 70
64
  3
- - - - - - - - - - - - - - - - - - - -
 72
65
 73
2
 40
0.2
 49
0.1
 74
0
 49
-0.1
 74
0
  0
ENDTAB
  0
TABLE
  2
LAYER
  5
2
100
AcDbSymbolTable
 70
36
  0
LAYER
  5
10
100
AcDbSymbolTableRecord
100
AcDbLayerTableRecord
  2
0
 70
0
 62
7
  6
CONTINUOUS
370
-3
390
F
  0
LAYER
  5
1FA
100
AcDbSymbolTableRecord
100
AcDbLayerTableRecord
  2
DEFAULT_1
 70
0
 62
7
  6
CENTER
370
-3
390
F
  0
LAYER
  5
1FB
100
AcDbSymbolTableRecord
100
AcDbLayerTableRecord
  2
DEFAULT_2
 70
0
 62
8
  6
HIDDEN
370
-3
390
F
  0
LAYER
  5
1FC
100
AcDbSymbolTableRecord
100
AcDbLayerTableRecord
  2
DEFAULT_3
 70
0
 62
7
  6
PHANTOM
370
-3
390
F
  0
LAYER
  5
1FD
100
AcDbSymbolTableRecord
100
AcDbLayerTableRecord
  2
ALL_FEATURES
 70
0
 62
7
  6
CONTINUOUS
370
-3
390
F
  0
LAYER
  5
1FE
100
AcDbSymbolTableRecord
100
AcDbLayerTableRecord
  2
AXES_FEATURES
 70
0
 62
7
  6
CONTINUOUS
370
-3
390
F
  0
LAYER
  5
1FF
100
AcDbSymbolTableRecord
100
AcDbLayerTableRecord
  2
DEFAULT_COORDINATE_SYSTEM
 70
0
 62
7
  6
CONTINUOUS
370
-3
390
F
  0
LAYER
  5
200
100
AcDbSymbolTableRecord
100
AcDbLayerTableRecord
  2
DEFAULT_DATUM_AXES
 70
0
 62
7
  6
CONTINUOUS
370
-3
390
F
  0
LAYER
  5
201
100
AcDbSymbolTableRecord
100
AcDbLayerTableRecord
  2
DEFAULT_DATUM_PLANES
 70
0
 62
7
  6
CONTINUOUS
370
-3
390
F
  0
LAYER
  5
202
100
AcDbSymbolTableRecord
100
AcDbLayerTableRecord
  2
DIMENSIONS
 70
0
 62
7
  6
CONTINUOUS
370
-3
390
F
  0
ENDTAB
  0
TABLE
  2
STYLE
  5
3
100
AcDbSymbolTable
 70
1
  0
STYLE
  5
11
100
AcDbSymbolTableRecord
100
AcDbTextStyleTableRecord
  2
STANDARD
 70
0
 40
0.0
 41
0.8
 50
0.0
 71
0
 42
0.2
  3
txt
  4

  0
STYLE
  5
203
100
AcDbSymbolTableRecord
100
AcDbTextStyleTableRecord
  2
TEXTSTYLE_1
 70
0
 40
0.0
 41
0.8
 50
0.0
 71
0
 42
0.2
  3
gdt
  4

  0
ENDTAB
  0
TABLE
  2
VIEW
  5
6
100
AcDbSymbolTable
 70
0
  0
ENDTAB
  0
TABLE
  2
UCS
  5
7
100
AcDbSymbolTable
 70
0
  0
ENDTAB
  0
TABLE
  2
APPID
  5
9
100
AcDbSymbolTable
 70
1
  0
APPID
  5
204
100
AcDbSymbolTableRecord
100
AcDbRegAppTableRecord
  2
ACAD
 70
0
  0
ENDTAB
  0
TABLE
  2
BLOCK_RECORD
  5
1
100
AcDbSymbolTable
 70
0
  0
BLOCK_RECORD
  5
205
100
AcDbSymbolTableRecord
100
AcDbBlockTableRecord
  2
*Model_Space
  0
BLOCK_RECORD
  5
206
100
AcDbSymbolTableRecord
100
AcDbBlockTableRecord
  2
*Paper_Space
  0
BLOCK_RECORD
  5
207
100
AcDbSymbolTableRecord
100
AcDbBlockTableRecord
  2
_FILLED
  0
ENDTAB
  0
TABLE
  2
DIMSTYLE
  5
A
100
AcDbSymbolTable
 70
1
100
AcDbDimStyleTable
 71
0
  0
DIMSTYLE
105
208
100
AcDbSymbolTableRecord
100
AcDbDimStyleTableRecord
  2
STANDARD
 70
0
  3

  4

 40
1.0
 41
0.1
 42
0.0625
 43
0.38
 44
0.125
 45
0.0
 46
0.0
 47
0.001
 48
0.001
140
0.08
141
0.09
142
0.0
143
25.4
144
1.0
145
0.0
146
1.0
147
0.09
 71
1.0
 72
0.0
 73
1
 74
1
 75
0
 76
0
 77
0
 78
4
 79
1
170
1
171
2
172
0
173
0
174
0
175
0
176
0
177
0
178
0
270
2
179
3
271
3
272
3
273
2
274
2
275
0
280
0
281
0
282
0
283
1
284
4
285
0
286
0
287
3
288
0
340
11
278
46
341
207
342
207
343
207
344
207
  0
ENDTAB
  0
ENDSEC
  0
SECTION
  2
BLOCKS
  0
BLOCK
  5
20
100
AcDbEntity
  8
0
100
AcDbBlockBegin
  2
*Model_Space
 70
0
 10
0.0
 20
0.0
 30
0.0
  3
*Model_Space
  1

  0
ENDBLK
  5
21
100
AcDbEntity
  8
0
100
AcDbBlockEnd
  0
BLOCK
  5
1C
100
AcDbEntity
  8
0
100
AcDbBlockBegin
  2
*Paper_Space
 70
0
 10
0.0
 20
0.0
 30
0.0
  3
*Paper_Space
  1

  0
ENDBLK
  5
1D
100
AcDbEntity
  8
0
100
AcDbBlockEnd
  0
BLOCK
  5
209
100
AcDbEntity
  8
0
100
AcDbBlockBegin
  2
_FILLED
 70
64
 10
0.0
 20
0.0
  3
_FILLED
  1

  0
SOLID
  5
20A
100
AcDbEntity
  8
0
  6
BYBLOCK
 62
0
100
AcDbTrace
 10
0.0
 20
0.0
 11
-1.0
 21
0.2
 12
-1.0
 22
-0.2
 13
-1.0
 23
-0.2
  0
ENDBLK
  5
20B
100
AcDbEntity
  8
0
  6
BYBLOCK
 62
0
100
AcDbBlockEnd
  0
ENDSEC
  0
SECTION
  2
ENTITIES
  0
LINE
  5
20C
100
AcDbEntity
  8
0
100
AcDbLine
 62
7
  6
CONTINUOUS
 10
-11.4526816617
 20
8.3648318604
 11
-11.4526816617
 21
8.5179864944
  0
LINE
  5
20D
100
AcDbEntity
  8
0
100
AcDbLine
 62
7
  6
CONTINUOUS
 10
-11.4026816617
 20
8.6154544379
 11
-11.4026816617
 21
8.8598318604
  0
LINE
  5
20E
100
AcDbEntity
  8
0
100
AcDbLine
 62
9
  6
CONTINUOUS
 10
-11.3926816617
 20
8.3348318604
 11
-11.3926816617
 21
8.5153159795
  0
LINE
  5
20F
100
AcDbEntity
  8
0
100
AcDbLine
 62
9
  6
CONTINUOUS
 10
-11.3426816336
 20
8.5179864944
 11
-11.3426816617
 21
8.8598318604
  0
LINE
  5
210
100
AcDbEntity
  8
0
100
AcDbLine
 62
9
  6
CONTINUOUS
 10
-11.3844998618
 20
8.516404503
 11
-11.3865471852
 21
8.5420959231
  0
LINE
  5
211
100
AcDbEntity
  8
0
100
AcDbLine
 62
7
  6
CONTINUOUS
 10
-10.8276816617
 20
8.3348318604
 11
-10.8276816617
 21
8.3198318604
  0
LINE
  5
212
100
AcDbEntity
  8
0
100
AcDbLine
 62
7
  6
CONTINUOUS
 10
-10.5776816617
 20
6.4798318604
 11
-10.5776816617
 21
8.2598318604
  0
LINE
  5
213
100
AcDbEntity
  8
0
100
AcDbLine
 62
9
  6
CONTINUOUS
 10
-11.3926816613
 20
8.5153159795
 11
-11.3973320398
 21
8.5417772894
  0
LINE
  5
214
100
AcDbEntity
  8
0
100
AcDbLine
 62
7
  6
CONTINUOUS
 10
-9.3276816617
 20
7.4168318604
 11
-9.3276816617
 21
8.2598318604
  0
LINE
  5
215
100
AcDbEntity
  8
0
100
AcDbLine
 62
7
  6
CONTINUOUS
 10
-9.0776816617
 20
8.3198318604
 11
-9.0776816617
 21
8.3348318604
  0
LINE
  5
216
100
AcDbEntity
  8
0
100
AcDbLine
 62
7
  6
CONTINUOUS
 10
-8.8476816617
 20
6.1048318604
 11
-8.8476816617
 21
7.3548318604
  0
LINE
  5
217
100
AcDbEntity
  8
0
100
AcDbLine
 62
7
  6
CONTINUOUS
 10
-8.8276816617
 20
6.1248318604
 11
-8.8276816617
 21
7.3348318604
  0
LINE
  5
218
100
AcDbEntity
  8
0
100
AcDbLine
 62
7
  6
CONTINUOUS
 10
-8.8076816617
 20
6.1048318604
 11
-8.8076816617
 21
7.3548318604
  0
LINE
  5
219
100
AcDbEntity
  8
0
100
AcDbLine
 62
9
  6
CONTINUOUS
 10
-8.5626817864
 20
8.5179864944
 11
-8.5626816617
 21
8.8598318604
  0
LINE
  5
21A
100
AcDbEntity
  8
0
100
AcDbLine
 62
9
  6
CONTINUOUS
 10
-8.5126816617
 20
8.3348318604
 11
-8.5126816617
 21
8.5153160233
  0
LINE
  5
21B
100
AcDbEntity
  8
0
100
AcDbLine
 62
7
  6
CONTINUOUS
 10
-8.5026816617
 20
8.6154544379
 11
-8.5026816617
 21
8.8598318604
  0
LINE
  5
21C
100
AcDbEntity
  8
0
100
AcDbLine
 62
7
  6
CONTINUOUS
 10
-8.4526816617
 20
8.3648318604
 11
-8.4526816617
 21
8.5179864944
  0
LINE
  5
21D
100
AcDbEntity
  8
0
100
AcDbLine
 62
9
  6
CONTINUOUS
 10
-8.5208634273
 20
8.5164045003
 11
-8.5188171582
 21
8.5420954853
  0
LINE
  5
21E
100
AcDbEntity
  8
0
100
AcDbLine
 62
9
  6
CONTINUOUS
 10
-8.5126816617
 20
8.5153160233
 11
-8.508031074
 21
8.5417772836
  0
LINE
  5
21F
100
AcDbEntity
  8
0
100
AcDbLine
 62
7
  6
CONTINUOUS
 10
-8.8276816617
 20
6.1248318604
 11
-8.8076816624
 21
6.1048318611
  0
LINE
  5
220
100
AcDbEntity
  8
0
100
AcDbLine
 62
7
  6
CONTINUOUS
 10
-8.8276816617
 20
7.3348318604
 11
-8.8076816642
 21
7.3548318579
  0
LINE
  5
221
100
AcDbEntity
  8
0
100
AcDbLine
 62
7
  6
CONTINUOUS
 10
-8.8476816617
 20
7.3548318604
 11
-8.8276816617
 21
7.3348318604
  0
LINE
  5
222
100
AcDbEntity
  8
0
100
AcDbLine
 62
7
  6
CONTINUOUS
 10
-8.8476816617
 20
6.1048318604
 11
-8.8276816617
 21
6.1248318604
  0
LINE
  5
223
100
AcDbEntity
  8
0
100
AcDbLine
 62
9
  6
CONTINUOUS
 10
9.6155001382
 20
8.516404503
 11
9.6134528148
 21
8.5420959231
  0
LINE
  5
224
100
AcDbEntity
  8
0
100
AcDbLine
 62
7
  6
CONTINUOUS
 10
9.5473183383
 20
8.3648318604
 11
9.5473183383
 21
8.5179864944
  0
LINE
  5
225
100
AcDbEntity
  8
0
100
AcDbLine
 62
7
  6
CONTINUOUS
 10
9.5973183383
 20
8.6154544379
 11
9.5973183383
 21
8.8598318604
  0
LINE
  5
226
100
AcDbEntity
  8
0
100
AcDbLine
 62
9
  6
CONTINUOUS
 10
9.6073183383
 20
8.3348318604
 11
9.6073183383
 21
8.5153159795
  0
LINE
  5
227
100
AcDbEntity
  8
0
100
AcDbLine
 62
9
  6
CONTINUOUS
 10
9.6573183664
 20
8.5179864944
 11
9.6573183383
 21
8.8598318604
  0
LINE
  5
228
100
AcDbEntity
  8
0
100
AcDbLine
 62
7
  6
CONTINUOUS
 10
-8.8076816617
 20
6.1048318604
 11
30.9023183383
 21
6.1048318604
  0
LINE
  5
229
100
AcDbEntity
  8
0
100
AcDbLine
 62
7
  6
CONTINUOUS
 10
-8.8476816617
 20
6.1048318604
 11
-10.2026816617
 21
6.1048318604
  0
LINE
  5
22A
100
AcDbEntity
  8
0
100
AcDbLine
 62
7
  6
CONTINUOUS
 10
30.9423183383
 20
6.1048318604
 11
32.2973183383
 21
6.1048318604
  0
LINE
  5
22B
100
AcDbEntity
  8
0
100
AcDbLine
 62
7
  6
CONTINUOUS
 10
10.1723183383
 20
8.3348318604
 11
10.1723183383
 21
8.3198318604
  0
LINE
  5
22C
100
AcDbEntity
  8
0
100
AcDbLine
 62
7
  6
CONTINUOUS
 10
10.6223183383
 20
8.1288318604
 11
10.6223183383
 21
7.3548318604
  0
LINE
  5
22D
100
AcDbEntity
  8
0
100
AcDbLine
 62
7
  6
CONTINUOUS
 10
11.6723183383
 20
8.2598318604
 11
11.4723183383
 21
8.1288318604
  0
LINE
  5
22E
100
AcDbEntity
  8
0
100
AcDbLine
 62
7
  6
CONTINUOUS
 10
-8.8076816617
 20
7.3548318604
 11
10.6223183383
 21
7.3548318604
  0
LINE
  5
22F
100
AcDbEntity
  8
0
100
AcDbLine
 62
7
  6
CONTINUOUS
 10
-8.8476816617
 20
7.3548318604
 11
-9.2656816617
 21
7.3548318604
  0
LINE
  5
230
100
AcDbEntity
  8
0
100
AcDbLine
 62
7
  6
CONTINUOUS
 10
11.4723183383
 20
7.3548318604
 11
30.9023183383
 21
7.3548318604
  0
LINE
  5
231
100
AcDbEntity
  8
0
100
AcDbLine
 62
7
  6
CONTINUOUS
 10
30.9423183383
 20
7.3548318604
 11
31.3603183383
 21
7.3548318604
  0
LINE
  5
232
100
AcDbEntity
  8
0
100
AcDbLine
 62
9
  6
CONTINUOUS
 10
9.6073183387
 20
8.5153159795
 11
9.6026679602
 21
8.5417772894
  0
LINE
  5
233
100
AcDbEntity
  8
0
100
AcDbLine
 62
7
  6
CONTINUOUS
 10
11.4723183383
 20
8.1288318604
 11
11.4723183383
 21
7.3548318604
  0
LINE
  5
234
100
AcDbEntity
  8
0
100
AcDbLine
 62
7
  6
CONTINUOUS
 10
11.9223183383
 20
8.3198318604
 11
11.9223183383
 21
8.3348318604
  0
LINE
  5
235
100
AcDbEntity
  8
0
100
AcDbLine
 62
9
  6
CONTINUOUS
 10
12.4373182136
 20
8.5179864944
 11
12.4373183383
 21
8.8598318604
  0
LINE
  5
236
100
AcDbEntity
  8
0
100
AcDbLine
 62
9
  6
CONTINUOUS
 10
12.4873183383
 20
8.3348318604
 11
12.4873183383
 21
8.5153160233
  0
LINE
  5
237
100
AcDbEntity
  8
0
100
AcDbLine
 62
7
  6
CONTINUOUS
 10
12.4973183383
 20
8.6154544379
 11
12.4973183383
 21
8.8598318604
  0
LINE
  5
238
100
AcDbEntity
  8
0
100
AcDbLine
 62
7
  6
CONTINUOUS
 10
12.5473183383
 20
8.3648318604
 11
12.5473183383
 21
8.5179864944
  0
LINE
  5
239
100
AcDbEntity
  8
0
100
AcDbLine
 62
9
  6
CONTINUOUS
 10
12.4791365727
 20
8.5164045003
 11
12.4811828418
 21
8.5420954853
  0
LINE
  5
23A
100
AcDbEntity
  8
0
100
AcDbLine
 62
9
  6
CONTINUOUS
 10
12.4873183383
 20
8.5153160233
 11
12.491968926
 21
8.5417772836
  0
LINE
  5
23B
100
AcDbEntity
  8
0
100
AcDbLine
 62
7
  6
CONTINUOUS
 10
10.6223183383
 20
8.1288318604
 11
11.4723183383
 21
8.1288318604
  0
LINE
  5
23C
100
AcDbEntity
  8
0
100
AcDbLine
 62
7
  6
CONTINUOUS
 10
32.8623183383
 20
8.2598318604
 11
31.2323183383
 21
8.2598318604
  0
LINE
  5
23D
100
AcDbEntity
  8
0
100
AcDbLine
 62
7
  6
CONTINUOUS
 10
11.8623183383
 20
8.2598318604
 11
10.2323183383
 21
8.2598318604
  0
LINE
  5
23E
100
AcDbEntity
  8
0
100
AcDbLine
 62
7
  6
CONTINUOUS
 10
-9.1376816617
 20
8.2598318604
 11
-10.7676816617
 21
8.2598318604
  0
LINE
  5
23F
100
AcDbEntity
  8
0
100
AcDbLine
 62
9
  6
CONTINUOUS
 10
32.9223183383
 20
8.3198318604
 11
31.1723183383
 21
8.3198318604
  0
LINE
  5
240
100
AcDbEntity
  8
0
100
AcDbLine
 62
9
  6
CONTINUOUS
 10
11.9223183383
 20
8.3198318604
 11
10.1723183383
 21
8.3198318604
  0
LINE
  5
241
100
AcDbEntity
  8
0
100
AcDbLine
 62
9
  6
CONTINUOUS
 10
-9.0776816617
 20
8.3198318604
 11
-10.8276816617
 21
8.3198318604
  0
LINE
  5
242
100
AcDbEntity
  8
0
100
AcDbLine
 62
7
  6
CONTINUOUS
 10
33.5173183383
 20
8.3348318604
 11
30.5773183383
 21
8.3348318604
  0
LINE
  5
243
100
AcDbEntity
  8
0
100
AcDbLine
 62
7
  6
CONTINUOUS
 10
12.5173183383
 20
8.3348318604
 11
9.5773183383
 21
8.3348318604
  0
LINE
  5
244
100
AcDbEntity
  8
0
100
AcDbLine
 62
7
  6
CONTINUOUS
 10
-8.4826816617
 20
8.3348318604
 11
-11.4226816617
 21
8.3348318604
  0
LINE
  5
245
100
AcDbEntity
  8
0
100
AcDbLine
 62
9
  6
CONTINUOUS
 10
33.5473183383
 20
8.3648318604
 11
30.5473183383
 21
8.3648318604
  0
LINE
  5
246
100
AcDbEntity
  8
0
100
AcDbLine
 62
9
  6
CONTINUOUS
 10
12.5473183383
 20
8.3648318604
 11
9.5473183383
 21
8.3648318604
  0
LINE
  5
247
100
AcDbEntity
  8
0
100
AcDbLine
 62
9
  6
CONTINUOUS
 10
-8.4526816617
 20
8.3648318604
 11
-11.4526816617
 21
8.3648318604
  0
LINE
  5
248
100
AcDbEntity
  8
0
100
AcDbLine
 62
9
  6
CONTINUOUS
 10
33.4373182136
 20
8.5179864944
 11
30.6573183664
 21
8.5179864944
  0
LINE
  5
249
100
AcDbEntity
  8
0
100
AcDbLine
 62
9
  6
CONTINUOUS
 10
12.4373182136
 20
8.5179864944
 11
9.6573183664
 21
8.5179864944
  0
LINE
  5
24A
100
AcDbEntity
  8
0
100
AcDbLine
 62
9
  6
CONTINUOUS
 10
-8.5626817864
 20
8.5179864944
 11
-11.3426816336
 21
8.5179864944
  0
LINE
  5
24B
100
AcDbEntity
  8
0
100
AcDbLine
 62
9
  6
CONTINUOUS
 10
33.4373183383
 20
8.5423534803
 11
30.6573182093
 21
8.5423534803
  0
LINE
  5
24C
100
AcDbEntity
  8
0
100
AcDbLine
 62
9
  6
CONTINUOUS
 10
12.4373183383
 20
8.5423534803
 11
9.6573182093
 21
8.5423534803
  0
LINE
  5
24D
100
AcDbEntity
  8
0
100
AcDbLine
 62
9
  6
CONTINUOUS
 10
-8.5626816617
 20
8.5423534803
 11
-11.3426817907
 21
8.5423534803
  0
LINE
  5
24E
100
AcDbEntity
  8
0
100
AcDbLine
 62
9
  6
CONTINUOUS
 10
33.4373183383
 20
8.6154544379
 11
30.6573183383
 21
8.6154544379
  0
LINE
  5
24F
100
AcDbEntity
  8
0
100
AcDbLine
 62
9
  6
CONTINUOUS
 10
12.4373183383
 20
8.6154544379
 11
9.6573183383
 21
8.6154544379
  0
LINE
  5
250
100
AcDbEntity
  8
0
100
AcDbLine
 62
9
  6
CONTINUOUS
 10
-8.5626816617
 20
8.6154544379
 11
-11.3426816617
 21
8.6154544379
  0
LINE
  5
251
100
AcDbEntity
  8
0
100
AcDbLine
 62
7
  6
CONTINUOUS
 10
-8.5026816617
 20
8.8598318604
 11
-11.4026816617
 21
8.8598318604
  0
LINE
  5
252
100
AcDbEntity
  8
0
100
AcDbLine
 62
7
  6
CONTINUOUS
 10
9.5973183383
 20
8.8598318604
 11
12.4973183383
 21
8.8598318604
  0
LINE
  5
253
100
AcDbEntity
  8
0
100
AcDbLine
 62
7
  6
CONTINUOUS
 10
30.5973183383
 20
8.8598318604
 11
33.4973183383
 21
8.8598318604
  0
LINE
  5
254
100
AcDbEntity
  8
0
100
AcDbLine
 62
7
  6
CONTINUOUS
 10
10.4223183383
 20
8.2598318604
 11
10.6223183383
 21
8.1288318604
  0
LINE
  5
255
100
AcDbEntity
  8
0
100
AcDbLine
 62
7
  6
CONTINUOUS
 10
30.9423183383
 20
6.1048318604
 11
30.9223183383
 21
6.1248318604
  0
LINE
  5
256
100
AcDbEntity
  8
0
100
AcDbLine
 62
7
  6
CONTINUOUS
 10
30.9423183383
 20
7.3548318604
 11
30.9223183383
 21
7.3348318604
  0
LINE
  5
257
100
AcDbEntity
  8
0
100
AcDbLine
 62
7
  6
CONTINUOUS
 10
30.9223183383
 20
6.1248318604
 11
30.9023183477
 21
6.1048318698
  0
LINE
  5
258
100
AcDbEntity
  8
0
100
AcDbLine
 62
7
  6
CONTINUOUS
 10
30.9223183383
 20
7.3348318604
 11
30.9023183389
 21
7.3548318598
  0
LINE
  5
259
100
AcDbEntity
  8
0
100
AcDbLine
 62
9
  6
CONTINUOUS
 10
30.6155001382
 20
8.516404503
 11
30.6134528148
 21
8.5420959231
  0
LINE
  5
25A
100
AcDbEntity
  8
0
100
AcDbLine
 62
7
  6
CONTINUOUS
 10
30.5473183383
 20
8.3648318604
 11
30.5473183383
 21
8.5179864944
  0
LINE
  5
25B
100
AcDbEntity
  8
0
100
AcDbLine
 62
7
  6
CONTINUOUS
 10
30.5973183383
 20
8.6154544379
 11
30.5973183383
 21
8.8598318604
  0
LINE
  5
25C
100
AcDbEntity
  8
0
100
AcDbLine
 62
9
  6
CONTINUOUS
 10
30.6073183383
 20
8.3348318604
 11
30.6073183383
 21
8.5153159795
  0
LINE
  5
25D
100
AcDbEntity
  8
0
100
AcDbLine
 62
9
  6
CONTINUOUS
 10
30.6573183664
 20
8.5179864944
 11
30.6573183383
 21
8.8598318604
  0
LINE
  5
25E
100
AcDbEntity
  8
0
100
AcDbLine
 62
9
  6
CONTINUOUS
 10
30.6073183387
 20
8.5153159795
 11
30.6026679602
 21
8.5417772894
  0
LINE
  5
25F
100
AcDbEntity
  8
0
100
AcDbLine
 62
7
  6
CONTINUOUS
 10
30.9023183383
 20
7.3548318604
 11
30.9023183383
 21
6.1048318604
  0
LINE
  5
260
100
AcDbEntity
  8
0
100
AcDbLine
 62
7
  6
CONTINUOUS
 10
30.9223183383
 20
7.3348318604
 11
30.9223183383
 21
6.1248318604
  0
LINE
  5
261
100
AcDbEntity
  8
0
100
AcDbLine
 62
7
  6
CONTINUOUS
 10
30.9423183383
 20
7.3548318604
 11
30.9423183383
 21
6.1048318604
  0
LINE
  5
262
100
AcDbEntity
  8
0
100
AcDbLine
 62
7
  6
CONTINUOUS
 10
31.1723183383
 20
8.3348318604
 11
31.1723183383
 21
8.3198318604
  0
LINE
  5
263
100
AcDbEntity
  8
0
100
AcDbLine
 62
7
  6
CONTINUOUS
 10
31.4223183383
 20
7.4168318604
 11
31.4223183383
 21
8.2598318604
  0
LINE
  5
264
100
AcDbEntity
  8
0
100
AcDbLine
 62
7
  6
CONTINUOUS
 10
32.6723183383
 20
6.4798318604
 11
32.6723183383
 21
8.2598318604
  0
LINE
  5
265
100
AcDbEntity
  8
0
100
AcDbLine
 62
7
  6
CONTINUOUS
 10
32.9223183383
 20
8.3198318604
 11
32.9223183383
 21
8.3348318604
  0
LINE
  5
266
100
AcDbEntity
  8
0
100
AcDbLine
 62
9
  6
CONTINUOUS
 10
33.4373182136
 20
8.5179864944
 11
33.4373183383
 21
8.8598318604
  0
LINE
  5
267
100
AcDbEntity
  8
0
100
AcDbLine
 62
9
  6
CONTINUOUS
 10
33.4873183383
 20
8.3348318604
 11
33.4873183383
 21
8.5153160233
  0
LINE
  5
268
100
AcDbEntity
  8
0
100
AcDbLine
 62
7
  6
CONTINUOUS
 10
33.4973183383
 20
8.6154544379
 11
33.4973183383
 21
8.8598318604
  0
LINE
  5
269
100
AcDbEntity
  8
0
100
AcDbLine
 62
7
  6
CONTINUOUS
 10
33.5473183383
 20
8.3648318604
 11
33.5473183383
 21
8.5179864944
  0
LINE
  5
26A
100
AcDbEntity
  8
0
100
AcDbLine
 62
9
  6
CONTINUOUS
 10
33.4791365727
 20
8.5164045003
 11
33.4811828418
 21
8.5420954853
  0
LINE
  5
26B
100
AcDbEntity
  8
0
100
AcDbLine
 62
9
  6
CONTINUOUS
 10
33.4873183383
 20
8.5153160233
 11
33.491968926
 21
8.5417772836
  0
ARC
  5
26C
100
AcDbEntity
  8
0
100
AcDbCircle
 62
7
  6
CONTINUOUS
 10
-10.2026815538
 20
6.4798319683
 40
0.3749998382
100
AcDbArc
 50
180.0000164854
 51
269.9999835146
  0
ARC
  5
26D
100
AcDbEntity
  8
0
100
AcDbCircle
 62
7
  6
CONTINUOUS
 10
-9.2656819578
 20
7.4168315643
 40
0.0619999733
100
AcDbArc
 50
179.9997263728
 51
270.0002736272
  0
ARC
  5
26E
100
AcDbEntity
  8
0
100
AcDbCircle
 62
7
  6
CONTINUOUS
 10
-11.4926816617
 20
8.6154544379
 40
0.09
100
AcDbArc
 50
305.6853347128
 51
360.0
  0
ARC
  5
26F
100
AcDbEntity
  8
0
100
AcDbCircle
 62
7
  6
CONTINUOUS
 10
-8.4126816617
 20
8.6154544379
 40
0.09
100
AcDbArc
 50
179.9999999998
 51
234.3146652883
  0
ARC
  5
270
100
AcDbEntity
  8
0
100
AcDbCircle
 62
7
  6
CONTINUOUS
 10
9.5073183383
 20
8.6154544379
 40
0.09
100
AcDbArc
 50
305.6853347128
 51
360.0
  0
ARC
  5
271
100
AcDbEntity
  8
0
100
AcDbCircle
 62
7
  6
CONTINUOUS
 10
10.2323183383
 20
8.3198318604
 40
0.06
100
AcDbArc
 50
180.0
 51
270.0
  0
ARC
  5
272
100
AcDbEntity
  8
0
100
AcDbCircle
 62
7
  6
CONTINUOUS
 10
-10.7676816617
 20
8.3198318604
 40
0.06
100
AcDbArc
 50
180.0
 51
270.0
  0
ARC
  5
273
100
AcDbEntity
  8
0
100
AcDbCircle
 62
7
  6
CONTINUOUS
 10
-9.1376816617
 20
8.3198318604
 40
0.06
100
AcDbArc
 50
270.0
 51
360.0
  0
ARC
  5
274
100
AcDbEntity
  8
0
100
AcDbCircle
 62
7
  6
CONTINUOUS
 10
-11.4226816617
 20
8.5179864944
 40
0.03
100
AcDbArc
 50
125.6853347285
 51
180.0
  0
ARC
  5
275
100
AcDbEntity
  8
0
100
AcDbCircle
 62
7
  6
CONTINUOUS
 10
-8.4826816617
 20
8.5179864944
 40
0.03
100
AcDbArc
 50
0.0000000008
 51
54.3146652878
  0
ARC
  5
276
100
AcDbEntity
  8
0
100
AcDbCircle
 62
7
  6
CONTINUOUS
 10
-11.4226816617
 20
8.3648318604
 40
0.03
100
AcDbArc
 50
180.0
 51
270.0
  0
ARC
  5
277
100
AcDbEntity
  8
0
100
AcDbCircle
 62
7
  6
CONTINUOUS
 10
-8.4826816617
 20
8.3648318604
 40
0.03
100
AcDbArc
 50
270.0
 51
360.0
  0
ARC
  5
278
100
AcDbEntity
  8
0
100
AcDbCircle
 62
7
  6
CONTINUOUS
 10
9.5773183383
 20
8.5179864944
 40
0.03
100
AcDbArc
 50
125.6853347285
 51
180.0
  0
ARC
  5
279
100
AcDbEntity
  8
0
100
AcDbCircle
 62
7
  6
CONTINUOUS
 10
9.5773183383
 20
8.3648318604
 40
0.03
100
AcDbArc
 50
180.0
 51
270.0
  0
ARC
  5
27A
100
AcDbEntity
  8
0
100
AcDbCircle
 62
9
  6
CONTINUOUS
 10
9.5772035847
 20
8.5163851382
 40
0.0298865751
100
AcDbArc
 50
120.658604481
 51
179.962879193
  0
ARC
  5
27B
100
AcDbEntity
  8
0
100
AcDbCircle
 62
9
  6
CONTINUOUS
 10
-11.4227964153
 20
8.5163851382
 40
0.0298865751
100
AcDbArc
 50
120.658604481
 51
179.962879193
  0
ARC
  5
27C
100
AcDbEntity
  8
0
100
AcDbCircle
 62
9
  6
CONTINUOUS
 10
-8.482566881
 20
8.5163850653
 40
0.0298865521
100
AcDbArc
 50
0.0372659284
 51
59.3433717221
  0
ARC
  5
27D
100
AcDbEntity
  8
0
100
AcDbCircle
 62
7
  6
CONTINUOUS
 10
32.2973182304
 20
6.4798319683
 40
0.3749998382
100
AcDbArc
 50
270.0000164854
 51
359.9999835146
  0
ARC
  5
27E
100
AcDbEntity
  8
0
100
AcDbCircle
 62
7
  6
CONTINUOUS
 10
31.3603186344
 20
7.4168315643
 40
0.0619999733
100
AcDbArc
 50
269.9997263728
 51
0.0002736272
  0
ARC
  5
27F
100
AcDbEntity
  8
0
100
AcDbCircle
 62
7
  6
CONTINUOUS
 10
33.5873183383
 20
8.6154544379
 40
0.09
100
AcDbArc
 50
179.9999999998
 51
234.3146652883
  0
ARC
  5
280
100
AcDbEntity
  8
0
100
AcDbCircle
 62
7
  6
CONTINUOUS
 10
30.5073183383
 20
8.6154544379
 40
0.09
100
AcDbArc
 50
305.6853347128
 51
360.0
  0
ARC
  5
281
100
AcDbEntity
  8
0
100
AcDbCircle
 62
7
  6
CONTINUOUS
 10
12.5873183383
 20
8.6154544379
 40
0.09
100
AcDbArc
 50
179.9999999998
 51
234.3146652883
  0
ARC
  5
282
100
AcDbEntity
  8
0
100
AcDbCircle
 62
7
  6
CONTINUOUS
 10
31.2323183383
 20
8.3198318604
 40
0.06
100
AcDbArc
 50
180.0
 51
270.0
  0
ARC
  5
283
100
AcDbEntity
  8
0
100
AcDbCircle
 62
7
  6
CONTINUOUS
 10
32.8623183383
 20
8.3198318604
 40
0.06
100
AcDbArc
 50
270.0
 51
360.0
  0
ARC
  5
284
100
AcDbEntity
  8
0
100
AcDbCircle
 62
7
  6
CONTINUOUS
 10
11.8623183383
 20
8.3198318604
 40
0.06
100
AcDbArc
 50
270.0
 51
360.0
  0
ARC
  5
285
100
AcDbEntity
  8
0
100
AcDbCircle
 62
7
  6
CONTINUOUS
 10
33.5173183383
 20
8.3648318604
 40
0.03
100
AcDbArc
 50
270.0
 51
360.0
  0
ARC
  5
286
100
AcDbEntity
  8
0
100
AcDbCircle
 62
7
  6
CONTINUOUS
 10
30.5773183383
 20
8.3648318604
 40
0.03
100
AcDbArc
 50
180.0
 51
270.0
  0
ARC
  5
287
100
AcDbEntity
  8
0
100
AcDbCircle
 62
7
  6
CONTINUOUS
 10
30.5773183383
 20
8.5179864944
 40
0.03
100
AcDbArc
 50
125.6853347122
 51
179.9999999992
  0
ARC
  5
288
100
AcDbEntity
  8
0
100
AcDbCircle
 62
7
  6
CONTINUOUS
 10
33.5173183383
 20
8.5179864944
 40
0.03
100
AcDbArc
 50
0.0
 51
54.3146652715
  0
ARC
  5
289
100
AcDbEntity
  8
0
100
AcDbCircle
 62
7
  6
CONTINUOUS
 10
12.5173183383
 20
8.5179864944
 40
0.03
100
AcDbArc
 50
0.0000000008
 51
54.3146652878
  0
ARC
  5
28A
100
AcDbEntity
  8
0
100
AcDbCircle
 62
7
  6
CONTINUOUS
 10
12.5173183383
 20
8.3648318604
 40
0.03
100
AcDbArc
 50
270.0
 51
360.0
  0
ARC
  5
28B
100
AcDbEntity
  8
0
100
AcDbCircle
 62
9
  6
CONTINUOUS
 10
30.5772035847
 20
8.5163851382
 40
0.0298865751
100
AcDbArc
 50
120.658604481
 51
179.962879193
  0
ARC
  5
28C
100
AcDbEntity
  8
0
100
AcDbCircle
 62
9
  6
CONTINUOUS
 10
12.517433119
 20
8.5163850653
 40
0.0298865521
100
AcDbArc
 50
0.0372659284
 51
59.3433717221
  0
ARC
  5
28D
100
AcDbEntity
  8
0
100
AcDbCircle
 62
9
  6
CONTINUOUS
 10
33.517433119
 20
8.5163850653
 40
0.0298865521
100
AcDbArc
 50
0.0372659285
 51
59.343371722
  0
SPLINE
  5
28E
100
AcDbEntity
  8
0
100
AcDbSpline
 62
9
  6
CONTINUOUS
 70
0
 71
3
 72
11
 73
7
 74
0
 42
0.0000001
 43
0.0000001
 44
0.0000000001
 40
0.0
 40
0.0
 40
0.0
 40
0.0
 40
0.2442394388
 40
0.4932935986
 40
0.745737584
 40
1.0
 40
1.0
 40
1.0
 40
1.0
 10
33.4573183383
 20
8.6191686755
 30
0.0
 10
33.4557388912
 20
8.6186480069
 30
0.0
 10
33.4525293955
 20
8.6176528976
 30
0.0
 10
33.4475931479
 20
8.616443217
 30
0.0
 10
33.4425025083
 20
8.6156424312
 30
0.0
 10
33.43904964
 20
8.6154544376
 30
0.0
 10
33.4373183383
 20
8.6154544379
 30
0.0
  0
SPLINE
  5
28F
100
AcDbEntity
  8
0
100
AcDbSpline
 62
9
  6
CONTINUOUS
 70
0
 71
3
 72
11
 73
7
 74
0
 42
0.0000001
 43
0.0000001
 44
0.0000000001
 40
0.0
 40
0.0
 40
0.0
 40
0.0
 40
0.2542652341
 40
0.5067091052
 40
0.7557613197
 40
1.0
 40
1.0
 40
1.0
 40
1.0
 10
30.6573183383
 20
8.6154544379
 30
0.0
 10
30.6555870137
 20
8.6154544348
 30
0.0
 10
30.6521341185
 20
8.615642323
 30
0.0
 10
30.6470434303
 20
8.6164429128
 30
0.0
 10
30.6421071829
 20
8.6176526428
 30
0.0
 10
30.6388978566
 20
8.6186482281
 30
0.0
 10
30.6373183383
 20
8.6191686755
 30
0.0
  0
SPLINE
  5
290
100
AcDbEntity
  8
0
100
AcDbSpline
 62
9
  6
CONTINUOUS
 70
0
 71
3
 72
19
 73
15
 74
0
 42
0.0000001
 43
0.0000001
 44
0.0000000001
 40
0.0
 40
0.0
 40
0.0
 40
0.0
 40
0.166501283
 40
0.32415825
 40
0.470828666
 40
0.6046797225
 40
0.6663344594
 40
0.7242834035
 40
0.7784565148
 40
0.8288859259
 40
0.8757396795
 40
0.9194134736
 40
0.9605585462
 40
1.0
 40
1.0
 40
1.0
 40
1.0
 10
30.6373183383
 20
8.6191686755
 30
0.0
 10
30.6353299355
 20
8.6198196736
 30
0.0
 10
30.6314005268
 20
8.6209180396
 30
0.0
 10
30.6255775047
 20
8.6220007871
 30
0.0
 10
30.6200996851
 20
8.6226004897
 30
0.0
 10
30.6157992087
 20
8.6227712932
 30
0.0
 10
30.6126140298
 20
8.6227128185
 30
0.0
 10
30.6104338546
 20
8.622574447
 30
0.0
 10
30.6084040262
 20
8.6223356025
 30
0.0
 10
30.6065314335
 20
8.6219856396
 30
0.0
 10
30.6048217004
 20
8.6215128822
 30
0.0
 10
30.603279858
 20
8.6209011454
 30
0.0
 10
30.601914501
 20
8.6201330511
 30
0.0
 10
30.6011134644
 20
8.6195054043
 30
0.0
 10
30.6007497958
 20
8.6191686755
 30
0.0
  0
LINE
  5
291
100
AcDbEntity
  8
0
100
AcDbLine
 62
9
  6
CONTINUOUS
 10
30.6007497958
 20
8.6191686755
 11
30.5973183383
 21
8.6154544379
  0
SPLINE
  5
292
100
AcDbEntity
  8
0
100
AcDbSpline
 62
9
  6
CONTINUOUS
 70
0
 71
3
 72
11
 73
7
 74
0
 42
0.0000001
 43
0.0000001
 44
0.0000000001
 40
0.0
 40
0.0
 40
0.0
 40
0.0
 40
0.2442394669
 40
0.4932936488
 40
0.7457376107
 40
1.0
 40
1.0
 40
1.0
 40
1.0
 10
-8.5426816617
 20
8.6191686755
 30
0.0
 10
-8.544261109
 20
8.6186480069
 30
0.0
 10
-8.5474706049
 20
8.617652897
 30
0.0
 10
-8.5524068528
 20
8.616443217
 30
0.0
 10
-8.5574974923
 20
8.6156424312
 30
0.0
 10
-8.5609503602
 20
8.6154544376
 30
0.0
 10
-8.5626816617
 20
8.6154544379
 30
0.0
  0
SPLINE
  5
293
100
AcDbEntity
  8
0
100
AcDbSpline
 62
9
  6
CONTINUOUS
 70
0
 71
3
 72
19
 73
15
 74
0
 42
0.0000001
 43
0.0000001
 44
0.0000000001
 40
0.0
 40
0.0
 40
0.0
 40
0.0
 40
0.0394420612
 40
0.0805870128
 40
0.1242600976
 40
0.1711136452
 40
0.2215433613
 40
0.2757166322
 40
0.3336655613
 40
0.3953202796
 40
0.5291713548
 40
0.6758416155
 40
0.8334987175
 40
1.0
 40
1.0
 40
1.0
 40
1.0
 10
-8.5061131192
 20
8.6191686755
 30
0.0
 10
-8.5064767807
 20
8.6195054233
 30
0.0
 10
-8.5072778022
 20
8.6201331016
 30
0.0
 10
-8.5086431662
 20
8.6209011874
 30
0.0
 10
-8.5101850391
 20
8.6215128161
 30
0.0
 10
-8.5118947738
 20
8.6219855205
 30
0.0
 10
-8.5137673463
 20
8.6223355961
 30
0.0
 10
-8.5157971703
 20
8.6225745475
 30
0.0
 10
-8.5179773503
 20
8.6227128953
 30
0.0
 10
-8.5211625323
 20
8.6227712611
 30
0.0
 10
-8.5254629925
 20
8.6226003297
 30
0.0
 10
-8.5309408565
 20
8.6220009969
 30
0.0
 10
-8.5367638289
 20
8.6209179366
 30
0.0
 10
-8.5406932463
 20
8.6198196355
 30
0.0
 10
-8.5426816617
 20
8.6191686755
 30
0.0
  0
LINE
  5
294
100
AcDbEntity
  8
0
100
AcDbLine
 62
9
  6
CONTINUOUS
 10
-8.5026816617
 20
8.6154544379
 11
-8.5061131192
 21
8.6191686755
  0
LINE
  5
295
100
AcDbEntity
  8
0
100
AcDbLine
 62
9
  6
CONTINUOUS
 10
32.0473183383
 20
6.7298318604
 11
32.6723183383
 21
6.4798318604
  0
SPLINE
  5
296
100
AcDbEntity
  8
0
100
AcDbSpline
 62
9
  6
CONTINUOUS
 70
0
 71
3
 72
14
 73
10
 74
0
 42
0.0000001
 43
0.0000001
 44
0.0000000001
 40
0.0
 40
0.0
 40
0.0
 40
0.0
 40
0.0693523892
 40
0.1451339962
 40
0.2348813199
 40
0.3432327206
 40
0.472803644
 40
0.6250062176
 40
1.0
 40
1.0
 40
1.0
 40
1.0
 10
33.5473183383
 20
8.5153159795
 30
0.0
 10
33.5473183219
 20
8.5152592168
 30
0.0
 10
33.5472946316
 20
8.5151393044
 30
0.0
 10
33.5471897348
 20
8.5149744266
 30
0.0
 10
33.5470225599
 20
8.5148224895
 30
0.0
 10
33.5467942177
 20
8.514680045
 30
0.0
 10
33.5465040367
 20
8.5145454646
 30
0.0
 10
33.5459978931
 20
8.5143630768
 30
0.0
 10
33.5455781706
 20
8.5142583766
 30
0.0
 10
33.5452782018
 20
8.5141934237
 30
0.0
  0
SPLINE
  5
297
100
AcDbEntity
  8
0
100
AcDbSpline
 62
9
  6
CONTINUOUS
 70
0
 71
3
 72
18
 73
14
 74
0
 42
0.0000001
 43
0.0000001
 44
0.0000000001
 40
0.0
 40
0.0
 40
0.0
 40
0.0
 40
0.025539195
 40
0.0574290014
 40
0.0955379567
 40
0.1396543605
 40
0.1895062592
 40
0.2447760887
 40
0.3700765726
 40
0.512227318
 40
0.6674157585
 40
0.8314653378
 40
1.0
 40
1.0
 40
1.0
 40
1.0
 10
33.5452782018
 20
8.5141934237
 30
0.0
 10
33.5447951202
 20
8.514088821
 30
0.0
 10
33.5436967472
 20
8.5139105745
 30
0.0
 10
33.5418581201
 20
8.5137120406
 30
0.0
 10
33.5396548176
 20
8.5135539872
 30
0.0
 10
33.5371011084
 20
8.5134376223
 30
0.0
 10
33.5342136491
 20
8.5133620014
 30
0.0
 10
33.5297542802
 20
8.5133125993
 30
0.0
 10
33.5235080943
 20
8.5133654428
 30
0.0
 10
33.5153311157
 20
8.5135863839
 30
0.0
 10
33.506409482
 20
8.5139721604
 30
0.0
 10
33.4969856865
 20
8.514535182
 30
0.0
 10
33.4905677014
 20
8.5150318881
 30
0.0
 10
33.4873183383
 20
8.5153160233
 30
0.0
  0
SPLINE
  5
298
100
AcDbEntity
  8
0
100
AcDbSpline
 62
9
  6
CONTINUOUS
 70
0
 71
3
 72
29
 73
25
 74
0
 42
0.0000001
 43
0.0000001
 44
0.0000000001
 40
0.0
 40
0.0
 40
0.0
 40
0.0
 40
0.1936645028
 40
0.288170887
 40
0.3799151539
 40
0.4680017912
 40
0.5515778246
 40
0.6298354871
 40
0.7020183923
 40
0.7674332873
 40
0.8254607027
 40
0.8755643416
 40
0.8975035628
 40
0.9173069895
 40
0.9349372571
 40
0.9503729312
 40
0.9636049266
 40
0.9746469277
 40
0.9835540852
 40
0.9904563656
 40
0.9932511185
 40
0.9956941808
 40
0.9978946116
 40
1.0
 40
1.0
 40
1.0
 40
1.0
 10
30.6073183383
 20
8.5153159795
 30
0.0
 10
30.6034264936
 20
8.5149756216
 30
0.0
 10
30.5976291944
 20
8.5145383292
 30
0.0
 10
30.5899789365
 20
8.5140809509
 30
0.0
 10
30.5844515213
 20
8.5138075563
 30
0.0
 10
30.5791421131
 20
8.5135950779
 30
0.0
 10
30.5741027513
 20
8.5134444498
 30
0.0
 10
30.5693828276
 20
8.5133536316
 30
0.0
 10
30.5650284906
 20
8.5133207234
 30
0.0
 10
30.5610821535
 20
8.5133471224
 30
0.0
 10
30.5575821376
 20
8.5134320992
 30
0.0
 10
30.5549608137
 20
8.5135558832
 30
0.0
 10
30.5531128785
 20
8.5136910437
 30
0.0
 10
30.5519203236
 20
8.5138031028
 30
0.0
 10
30.5508612909
 20
8.5139303665
 30
0.0
 10
30.5499380647
 20
8.5140731429
 30
0.0
 10
30.5491525534
 20
8.514231702
 30
0.0
 10
30.5485054987
 20
8.5144062344
 30
0.0
 10
30.5479976138
 20
8.5145964421
 30
0.0
 10
30.5476665957
 20
8.5147801524
 30
0.0
 10
30.5474816384
 20
8.5149421964
 30
0.0
 10
30.5473881191
 20
8.5150609594
 30
0.0
 10
30.5473309036
 20
8.515186168
 30
0.0
 10
30.5473183445
 20
8.5152735523
 30
0.0
 10
30.5473183383
 20
8.5153160233
 30
0.0
  0
LINE
  5
299
100
AcDbEntity
  8
0
100
AcDbLine
 62
9
  6
CONTINUOUS
 10
33.4811838263
 20
8.5420954886
 11
33.4373183383
 21
8.5423534828
  0
SPLINE
  5
29A
100
AcDbEntity
  8
0
100
AcDbSpline
 62
9
  6
CONTINUOUS
 70
0
 71
3
 72
16
 73
12
 74
0
 42
0.0000001
 43
0.0000001
 44
0.0000000001
 40
0.0
 40
0.0
 40
0.0
 40
0.0
 40
0.1438527573
 40
0.2862608063
 40
0.4250997735
 40
0.5583146398
 40
0.6839915335
 40
0.8004084028
 40
0.9061016276
 40
0.9545862761
 40
1.0
 40
1.0
 40
1.0
 40
1.0
 10
33.4573183383
 20
8.6191686755
 30
0.0
 10
33.4577719412
 20
8.6152946211
 30
0.0
 10
33.458840332
 20
8.6076037845
 30
0.0
 10
33.4609170153
 20
8.5962624248
 30
0.0
 10
33.4634325965
 20
8.5853054891
 30
0.0
 10
33.4663443564
 20
8.5749171237
 30
0.0
 10
33.4696025459
 20
8.5652707087
 30
0.0
 10
33.4731518158
 20
8.5565275161
 30
0.0
 10
33.4763889677
 20
8.5499332692
 30
0.0
 10
33.4790992978
 20
8.5452470113
 30
0.0
 10
33.4804839934
 20
8.5431086646
 30
0.0
 10
33.4811838263
 20
8.5420954886
 30
0.0
  0
SPLINE
  5
29B
100
AcDbEntity
  8
0
100
AcDbSpline
 62
9
  6
CONTINUOUS
 70
0
 71
3
 72
9
 73
5
 74
0
 42
0.0000001
 43
0.0000001
 44
0.0000000001
 40
0.0
 40
0.0
 40
0.0
 40
0.0
 40
0.469439352
 40
1.0
 40
1.0
 40
1.0
 40
1.0
 10
33.5326729186
 20
8.5420959117
 30
0.0
 10
33.5323550816
 20
8.5421336021
 30
0.0
 10
33.5316637072
 20
8.5420951863
 30
0.0
 10
33.531005449
 20
8.541903813
 30
0.0
 10
33.530666576
 20
8.5417772491
 30
0.0
  0
SPLINE
  5
29C
100
AcDbEntity
  8
0
100
AcDbSpline
 62
9
  6
CONTINUOUS
 70
0
 71
3
 72
18
 73
14
 74
0
 42
0.0000001
 43
0.0000001
 44
0.0000000001
 40
0.0
 40
0.0
 40
0.0
 40
0.0
 40
0.0224903802
 40
0.0510227825
 40
0.0857080287
 40
0.1265244237
 40
0.1733718531
 40
0.2260801394
 40
0.3480375514
 40
0.4898428486
 40
0.6482742133
 40
0.819624954
 40
1.0
 40
1.0
 40
1.0
 40
1.0
 10
33.530666576
 20
8.5417772491
 30
0.0
 10
33.5303938916
 20
8.541675679
 30
0.0
 10
33.5297571891
 20
8.5414946914
 30
0.0
 10
33.5286684357
 20
8.5412815491
 30
0.0
 10
33.5273342585
 20
8.5410987634
 30
0.0
 10
33.525758252
 20
8.5409474323
 30
0.0
 10
33.5239457234
 20
8.5408288517
 30
0.0
 10
33.5210819855
 20
8.5407101114
 30
0.0
 10
33.5169868778
 20
8.5406608462
 30
0.0
 10
33.5115245641
 20
8.5407383971
 30
0.0
 10
33.5054263665
 20
8.540951216
 30
0.0
 10
33.4988345259
 20
8.5412955805
 30
0.0
 10
33.4942940549
 20
8.5416037602
 30
0.0
 10
33.4919667838
 20
8.5417774285
 30
0.0
  0
SPLINE
  5
29D
100
AcDbEntity
  8
0
100
AcDbSpline
 62
9
  6
CONTINUOUS
 70
0
 71
3
 72
9
 73
5
 74
0
 42
0.0000001
 43
0.0000001
 44
0.0000000001
 40
0.0
 40
0.0
 40
0.0
 40
0.0
 40
0.2495166714
 40
1.0
 40
1.0
 40
1.0
 40
1.0
 10
33.4919667838
 20
8.5417774285
 30
0.0
 10
33.4910718387
 20
8.541844287
 30
0.0
 10
33.4874826295
 20
8.5420761108
 30
0.0
 10
33.483882257
 20
8.5421491187
 30
0.0
 10
33.48118351
 20
8.5420959465
 30
0.0
  0
SPLINE
  5
29E
100
AcDbEntity
  8
0
100
AcDbSpline
 62
9
  6
CONTINUOUS
 70
0
 71
3
 72
15
 73
11
 74
0
 42
0.0000001
 43
0.0000001
 44
0.0000000001
 40
0.0
 40
0.0
 40
0.0
 40
0.0
 40
0.128379468
 40
0.2559033052
 40
0.3824371934
 40
0.5078996794
 40
0.6322856578
 40
0.75566318
 40
0.8781657835
 40
1.0
 40
1.0
 40
1.0
 40
1.0
 10
33.4938868808
 20
8.6191686755
 30
0.0
 10
33.4937270722
 20
8.6153078115
 30
0.0
 10
33.4938824047
 20
8.6075834296
 30
0.0
 10
33.4955496968
 20
8.5961643562
 30
0.0
 10
33.4986227953
 20
8.5851294269
 30
0.0
 10
33.5030513873
 20
8.5746673264
 30
0.0
 10
33.5087613992
 20
8.5649548174
 30
0.0
 10
33.5156581044
 20
8.5561569032
 30
0.0
 10
33.5236230272
 20
8.5484247649
 30
0.0
 10
33.5295736405
 20
8.5440561518
 30
0.0
 10
33.5326729186
 20
8.5420959117
 30
0.0
  0
LINE
  5
29F
100
AcDbEntity
  8
0
100
AcDbLine
 62
9
  6
CONTINUOUS
 10
33.5348183357
 20
8.5423534822
 11
33.5326736604
 21
8.5420954424
  0
LINE
  5
2A0
100
AcDbEntity
  8
0
100
AcDbLine
 62
9
  6
CONTINUOUS
 10
32.0473183383
 20
6.7298318604
 11
31.4223183381
 21
7.416831862
  0
SPLINE
  5
2A1
100
AcDbEntity
  8
0
100
AcDbSpline
 62
7
  6
CONTINUOUS
 70
0
 71
3
 72
22
 73
18
 74
0
 42
0.0000001
 43
0.0000001
 44
0.0000000001
 40
0.0
 40
0.0
 40
0.0
 40
0.0
 40
0.0466795146
 40
0.0932415589
 40
0.1395657757
 40
0.1855475589
 40
0.276078908
 40
0.3641850269
 40
0.4493046106
 40
0.5309222523
 40
0.6085058395
 40
0.6814621241
 40
0.7491092483
 40
0.8106619618
 40
0.9118473623
 40
0.9772506193
 40
1.0
 40
1.0
 40
1.0
 40
1.0
 10
11.0473183383
 20
7.1880894299
 30
0.0
 10
11.0545290752
 20
7.1880894299
 30
0.0
 10
11.0689347166
 20
7.1884299994
 30
0.0
 10
11.0904476048
 20
7.1899495756
 30
0.0
 10
11.1117615781
 20
7.1924400445
 30
0.0
 10
11.1396501353
 20
7.1969510396
 30
0.0
 10
11.1735284613
 20
7.2046293668
 30
0.0
 10
11.2125280431
 20
7.2165233741
 30
0.0
 10
11.2494204513
 20
7.2303194937
 30
0.0
 10
11.2840575758
 20
7.2453419511
 30
0.0
 10
11.3163346112
 20
7.2609914975
 30
0.0
 10
11.3461410539
 20
7.2767364435
 30
0.0
 10
11.3733351363
 20
7.2920942749
 30
0.0
 10
11.4039184393
 20
7.3102973454
 30
0.0
 10
11.4337357664
 20
7.3290938669
 30
0.0
 10
11.4581322979
 20
7.3452275466
 30
0.0
 10
11.4694123692
 20
7.3528558197
 30
0.0
 10
11.4723183383
 20
7.3548318604
 30
0.0
  0
LINE
  5
2A2
100
AcDbEntity
  8
0
100
AcDbLine
 62
9
  6
CONTINUOUS
 10
-10.2026816617
 20
6.1048318604
 11
-9.9526816617
 21
6.7298318604
  0
LINE
  5
2A3
100
AcDbEntity
  8
0
100
AcDbLine
 62
9
  6
CONTINUOUS
 10
-8.5126816617
 20
8.5153160233
 11
-8.5208634273
 21
8.5164045003
  0
SPLINE
  5
2A4
100
AcDbEntity
  8
0
100
AcDbSpline
 62
9
  6
CONTINUOUS
 70
0
 71
3
 72
10
 73
6
 74
0
 42
0.0000001
 43
0.0000001
 44
0.0000000001
 40
0.0
 40
0.0
 40
0.0
 40
0.0
 40
0.2500042026
 40
0.5000103492
 40
1.0
 40
1.0
 40
1.0
 40
1.0
 10
-8.5208634273
 20
8.5164045003
 30
0.0
 10
-8.5243406093
 20
8.5166812443
 30
0.0
 10
-8.5313019036
 20
8.5171510247
 30
0.0
 10
-8.5452398972
 20
8.5177992865
 30
0.0
 10
-8.5557056932
 20
8.5179864804
 30
0.0
 10
-8.5626817864
 20
8.5179864944
 30
0.0
  0
SPLINE
  5
2A5
100
AcDbEntity
  8
0
100
AcDbSpline
 62
9
  6
CONTINUOUS
 70
0
 71
3
 72
10
 73
6
 74
0
 42
0.0000001
 43
0.0000001
 44
0.0000000001
 40
0.0
 40
0.0
 40
0.0
 40
0.0
 40
0.4999896689
 40
0.7499957936
 40
1.0
 40
1.0
 40
1.0
 40
1.0
 10
-11.3426816336
 20
8.5179864944
 30
0.0
 10
-11.3496577056
 20
8.5179864905
 30
0.0
 10
-11.3601234677
 20
8.5177992748
 30
0.0
 10
-11.3740614239
 20
8.5171511183
 30
0.0
 10
-11.3810226913
 20
8.5166812576
 30
0.0
 10
-11.3844998618
 20
8.516404503
 30
0.0
  0
LINE
  5
2A6
100
AcDbEntity
  8
0
100
AcDbLine
 62
9
  6
CONTINUOUS
 10
-11.3844998618
 20
8.516404503
 11
-11.3926816617
 21
8.5153159795
  0
SPLINE
  5
2A7
100
AcDbEntity
  8
0
100
AcDbSpline
 62
7
  6
CONTINUOUS
 70
0
 71
3
 72
22
 73
18
 74
0
 42
0.0000001
 43
0.0000001
 44
0.0000000001
 40
0.0
 40
0.0
 40
0.0
 40
0.0
 40
0.0227493734
 40
0.088152631
 40
0.1893380226
 40
0.2508907288
 40
0.3185378506
 40
0.3914941342
 40
0.4690777065
 40
0.5506953517
 40
0.6358149467
 40
0.7239210772
 40
0.8144524321
 40
0.8604342183
 40
0.9067584428
 40
0.9533204905
 40
1.0
 40
1.0
 40
1.0
 40
1.0
 10
10.6223183383
 20
7.3548318604
 30
0.0
 10
10.6252243064
 20
7.3528558203
 30
0.0
 10
10.6365043769
 20
7.3452275478
 30
0.0
 10
10.6609009063
 20
7.3290938694
 30
0.0
 10
10.6907182313
 20
7.310297349
 30
0.0
 10
10.7213015318
 20
7.2920942801
 30
0.0
 10
10.7484956127
 20
7.2767364491
 30
0.0
 10
10.7783020525
 20
7.2609915039
 30
0.0
 10
10.8105790859
 20
7.2453419575
 30
0.0
 10
10.8452162101
 20
7.2303194998
 30
0.0
 10
10.8821086219
 20
7.216523378
 30
0.0
 10
10.9211082078
 20
7.2046293687
 30
0.0
 10
10.9549865367
 20
7.1969510405
 30
0.0
 10
10.9828750964
 20
7.1924400445
 30
0.0
 10
11.0041890719
 20
7.1899495762
 30
0.0
 10
11.025701961
 20
7.1884299987
 30
0.0
 10
11.0401076022
 20
7.1880894299
 30
0.0
 10
11.0473183383
 20
7.1880894299
 30
0.0
  0
LINE
  5
2A8
100
AcDbEntity
  8
0
100
AcDbLine
 62
9
  6
CONTINUOUS
 10
-11.3426817907
 20
8.5423534822
 11
-11.3865467405
 21
8.5420954424
  0
SPLINE
  5
2A9
100
AcDbEntity
  8
0
100
AcDbSpline
 62
9
  6
CONTINUOUS
 70
0
 71
3
 72
16
 73
12
 74
0
 42
0.0000001
 43
0.0000001
 44
0.0000000001
 40
0.0
 40
0.0
 40
0.0
 40
0.0
 40
0.143852273
 40
0.2862598032
 40
0.4250982795
 40
0.55831276
 40
0.6839894742
 40
0.8004064851
 40
0.9061003237
 40
0.9545855171
 40
1.0
 40
1.0
 40
1.0
 40
1.0
 10
-11.3626816617
 20
8.6191686755
 30
0.0
 10
-11.3631352089
 20
8.6152946546
 30
0.0
 10
-11.3642034907
 20
8.6076038838
 30
0.0
 10
-11.3662800026
 20
8.5962626139
 30
0.0
 10
-11.3687954194
 20
8.5853057579
 30
0.0
 10
-11.3717070323
 20
8.5749174571
 30
0.0
 10
-11.3749651119
 20
8.5652710898
 30
0.0
 10
-11.3785143194
 20
8.5565279236
 30
0.0
 10
-11.3817514673
 20
8.5499336896
 30
0.0
 10
-11.3844618334
 20
8.5452474348
 30
0.0
 10
-11.3858465624
 20
8.5431090879
 30
0.0
 10
-11.3865464164
 20
8.5420959117
 30
0.0
  0
LINE
  5
2AA
100
AcDbEntity
  8
0
100
AcDbLine
 62
9
  6
CONTINUOUS
 10
30.5619631478
 20
8.5420954886
 11
30.5598183418
 21
8.5423534828
  0
SPLINE
  5
2AB
100
AcDbEntity
  8
0
100
AcDbSpline
 62
9
  6
CONTINUOUS
 70
0
 71
3
 72
15
 73
11
 74
0
 42
0.0000001
 43
0.0000001
 44
0.0000000001
 40
0.0
 40
0.0
 40
0.0
 40
0.0
 40
0.1283793492
 40
0.2559029974
 40
0.3824366549
 40
0.5078989182
 40
0.6322847569
 40
0.755662297
 40
0.8781651621
 40
1.0
 40
1.0
 40
1.0
 40
1.0
 10
30.6007497958
 20
8.6191686755
 30
0.0
 10
30.6009096239
 20
8.6153077802
 30
0.0
 10
30.6007543196
 20
8.607583335
 30
0.0
 10
30.5990870403
 20
8.5961641677
 30
0.0
 10
30.596013921
 20
8.5851291534
 30
0.0
 10
30.5915852729
 20
8.5746669808
 30
0.0
 10
30.5858751669
 20
8.564954417
 30
0.0
 10
30.5789783299
 20
8.5561564679
 30
0.0
 10
30.5710132374
 20
8.5484243166
 30
0.0
 10
30.565062495
 20
8.544055718
 30
0.0
 10
30.5619631478
 20
8.5420954886
 30
0.0
  0
SPLINE
  5
2AC
100
AcDbEntity
  8
0
100
AcDbSpline
 62
9
  6
CONTINUOUS
 70
0
 71
3
 72
9
 73
5
 74
0
 42
0.0000001
 43
0.0000001
 44
0.0000000001
 40
0.0
 40
0.0
 40
0.0
 40
0.0
 40
0.2506296872
 40
1.0
 40
1.0
 40
1.0
 40
1.0
 10
30.6134535836
 20
8.5420959117
 30
0.0
 10
30.6125521047
 20
8.5421136999
 30
0.0
 10
30.6089543432
 20
8.5421370379
 30
0.0
 10
30.6053563863
 20
8.5419782428
 30
0.0
 10
30.6026679877
 20
8.5417772491
 30
0.0
  0
SPLINE
  5
2AD
100
AcDbEntity
  8
0
100
AcDbSpline
 62
9
  6
CONTINUOUS
 70
0
 71
3
 72
18
 73
14
 74
0
 42
0.0000001
 43
0.0000001
 44
0.0000000001
 40
0.0
 40
0.0
 40
0.0
 40
0.0
 40
0.180379013
 40
0.3517346912
 40
0.5101658356
 40
0.6519745552
 40
0.7739314314
 40
0.826633892
 40
0.8734834964
 40
0.914301433
 40
0.9489838758
 40
0.977510721
 40
1.0
 40
1.0
 40
1.0
 40
1.0
 10
30.6026679877
 20
8.5417772491
 30
0.0
 10
30.6003407599
 20
8.541603506
 30
0.0
 10
30.5958003236
 20
8.5412956675
 30
0.0
 10
30.5892086357
 20
8.5409510834
 30
0.0
 10
30.5831105565
 20
8.5407384332
 30
0.0
 10
30.5776484218
 20
8.5406608974
 30
0.0
 10
30.5735534989
 20
8.5407099572
 30
0.0
 10
30.5706899385
 20
8.5408290232
 30
0.0
 10
30.5688775023
 20
8.5409475064
 30
0.0
 10
30.5673015354
 20
8.541098754
 30
0.0
 10
30.5659674974
 20
8.5412815357
 30
0.0
 10
30.5648789365
 20
8.5414948497
 30
0.0
 10
30.564242389
 20
8.5416759278
 30
0.0
 10
30.5639697058
 20
8.5417774285
 30
0.0
  0
SPLINE
  5
2AE
100
AcDbEntity
  8
0
100
AcDbSpline
 62
9
  6
CONTINUOUS
 70
0
 71
3
 72
9
 73
5
 74
0
 42
0.0000001
 43
0.0000001
 44
0.0000000001
 40
0.0
 40
0.0
 40
0.0
 40
0.0
 40
0.5305569674
 40
1.0
 40
1.0
 40
1.0
 40
1.0
 10
30.5639697058
 20
8.5417774285
 30
0.0
 10
30.5636308692
 20
8.5419038118
 30
0.0
 10
30.5629728346
 20
8.54209528
 30
0.0
 10
30.5622816336
 20
8.5421335813
 30
0.0
 10
30.5619638719
 20
8.5420959465
 30
0.0
  0
SPLINE
  5
2AF
100
AcDbEntity
  8
0
100
AcDbSpline
 62
9
  6
CONTINUOUS
 70
0
 71
3
 72
16
 73
12
 74
0
 42
0.0000001
 43
0.0000001
 44
0.0000000001
 40
0.0
 40
0.0
 40
0.0
 40
0.0
 40
0.143852273
 40
0.2862598032
 40
0.4250982795
 40
0.55831276
 40
0.6839894742
 40
0.8004064851
 40
0.9061003237
 40
0.9545855171
 40
1.0
 40
1.0
 40
1.0
 40
1.0
 10
30.6373183383
 20
8.6191686755
 30
0.0
 10
30.6368647911
 20
8.6152946546
 30
0.0
 10
30.6357965093
 20
8.6076038838
 30
0.0
 10
30.6337199974
 20
8.5962626139
 30
0.0
 10
30.6312045806
 20
8.5853057579
 30
0.0
 10
30.6282929677
 20
8.5749174571
 30
0.0
 10
30.6250348881
 20
8.5652710898
 30
0.0
 10
30.6214856806
 20
8.5565279236
 30
0.0
 10
30.6182485327
 20
8.5499336896
 30
0.0
 10
30.6155381666
 20
8.5452474348
 30
0.0
 10
30.6141534376
 20
8.5431090879
 30
0.0
 10
30.6134535836
 20
8.5420959117
 30
0.0
  0
LINE
  5
2B0
100
AcDbEntity
  8
0
100
AcDbLine
 62
9
  6
CONTINUOUS
 10
30.6573182093
 20
8.5423534822
 11
30.6134532595
 21
8.5420954424
  0
SPLINE
  5
2B1
100
AcDbEntity
  8
0
100
AcDbSpline
 62
9
  6
CONTINUOUS
 70
0
 71
3
 72
9
 73
5
 74
0
 42
0.0000001
 43
0.0000001
 44
0.0000000001
 40
0.0
 40
0.0
 40
0.0
 40
0.0
 40
0.5305569659
 40
1.0
 40
1.0
 40
1.0
 40
1.0
 10
-11.4360302942
 20
8.5417774285
 30
0.0
 10
-11.4363691308
 20
8.5419038118
 30
0.0
 10
-11.4370271654
 20
8.54209528
 30
0.0
 10
-11.4377183664
 20
8.5421335813
 30
0.0
 10
-11.4380361281
 20
8.5420959465
 30
0.0
  0
SPLINE
  5
2B2
100
AcDbEntity
  8
0
100
AcDbSpline
 62
9
  6
CONTINUOUS
 70
0
 71
3
 72
18
 73
14
 74
0
 42
0.0000001
 43
0.0000001
 44
0.0000000001
 40
0.0
 40
0.0
 40
0.0
 40
0.0
 40
0.180379013
 40
0.3517346912
 40
0.5101658356
 40
0.6519745552
 40
0.7739314314
 40
0.826633892
 40
0.8734834964
 40
0.914301433
 40
0.9489838758
 40
0.977510721
 40
1.0
 40
1.0
 40
1.0
 40
1.0
 10
-11.3973320123
 20
8.5417772491
 30
0.0
 10
-11.3996592401
 20
8.541603506
 30
0.0
 10
-11.4041996764
 20
8.5412956675
 30
0.0
 10
-11.4107913643
 20
8.5409510834
 30
0.0
 10
-11.4168894435
 20
8.5407384332
 30
0.0
 10
-11.4223515782
 20
8.5406608974
 30
0.0
 10
-11.4264465011
 20
8.5407099572
 30
0.0
 10
-11.4293100615
 20
8.5408290232
 30
0.0
 10
-11.4311224977
 20
8.5409475064
 30
0.0
 10
-11.4326984646
 20
8.541098754
 30
0.0
 10
-11.4340325026
 20
8.5412815357
 30
0.0
 10
-11.4351210635
 20
8.5414948497
 30
0.0
 10
-11.435757611
 20
8.5416759278
 30
0.0
 10
-11.4360302942
 20
8.5417774285
 30
0.0
  0
SPLINE
  5
2B3
100
AcDbEntity
  8
0
100
AcDbSpline
 62
9
  6
CONTINUOUS
 70
0
 71
3
 72
9
 73
5
 74
0
 42
0.0000001
 43
0.0000001
 44
0.0000000001
 40
0.0
 40
0.0
 40
0.0
 40
0.0
 40
0.2506296866
 40
1.0
 40
1.0
 40
1.0
 40
1.0
 10
-11.3865464164
 20
8.5420959117
 30
0.0
 10
-11.3874478953
 20
8.5421136999
 30
0.0
 10
-11.3910456568
 20
8.542137038
 30
0.0
 10
-11.3946436137
 20
8.5419782428
 30
0.0
 10
-11.3973320123
 20
8.5417772491
 30
0.0
  0
LINE
  5
2B4
100
AcDbEntity
  8
0
100
AcDbLine
 62
9
  6
CONTINUOUS
 10
-9.3276816617
 20
7.4168318604
 11
-9.9526816617
 21
6.7298318604
  0
SPLINE
  5
2B5
100
AcDbEntity
  8
0
100
AcDbSpline
 62
9
  6
CONTINUOUS
 70
0
 71
3
 72
15
 73
11
 74
0
 42
0.0000001
 43
0.0000001
 44
0.0000000001
 40
0.0
 40
0.0
 40
0.0
 40
0.0
 40
0.1283793492
 40
0.2559029974
 40
0.3824366549
 40
0.5078989182
 40
0.6322847569
 40
0.755662297
 40
0.8781651621
 40
1.0
 40
1.0
 40
1.0
 40
1.0
 10
-11.3992502042
 20
8.6191686755
 30
0.0
 10
-11.3990903761
 20
8.6153077802
 30
0.0
 10
-11.3992456804
 20
8.607583335
 30
0.0
 10
-11.4009129597
 20
8.5961641677
 30
0.0
 10
-11.403986079
 20
8.5851291534
 30
0.0
 10
-11.4084147271
 20
8.5746669808
 30
0.0
 10
-11.4141248331
 20
8.564954417
 30
0.0
 10
-11.4210216701
 20
8.5561564679
 30
0.0
 10
-11.4289867626
 20
8.5484243166
 30
0.0
 10
-11.434937505
 20
8.544055718
 30
0.0
 10
-11.4380368522
 20
8.5420954886
 30
0.0
  0
LINE
  5
2B6
100
AcDbEntity
  8
0
100
AcDbLine
 62
9
  6
CONTINUOUS
 10
-10.5776816617
 20
6.4798318604
 11
-9.9526816617
 21
6.7298318604
  0
LINE
  5
2B7
100
AcDbEntity
  8
0
100
AcDbLine
 62
9
  6
CONTINUOUS
 10
-11.4380368522
 20
8.5420954886
 11
-11.4401816582
 21
8.5423534828
  0
LINE
  5
2B8
100
AcDbEntity
  8
0
100
AcDbLine
 62
9
  6
CONTINUOUS
 10
-8.4651816643
 20
8.5423534822
 11
-8.4673263396
 21
8.5420954424
  0
SPLINE
  5
2B9
100
AcDbEntity
  8
0
100
AcDbSpline
 62
9
  6
CONTINUOUS
 70
0
 71
3
 72
15
 73
11
 74
0
 42
0.0000001
 43
0.0000001
 44
0.0000000001
 40
0.0
 40
0.0
 40
0.0
 40
0.0
 40
0.1243969454
 40
0.2488666767
 40
0.3734762467
 40
0.498281808
 40
0.6233242982
 40
0.7486263559
 40
0.8741906904
 40
1.0
 40
1.0
 40
1.0
 40
1.0
 10
12.5473183383
 20
8.5153159795
 30
0.0
 10
12.5473183383
 20
8.5166811589
 30
0.0
 10
12.5471254881
 20
8.5194162141
 30
0.0
 10
12.5462633325
 20
8.5234363701
 30
0.0
 10
12.5448449205
 20
8.5273011167
 30
0.0
 10
12.5428976068
 20
8.5309350895
 30
0.0
 10
12.5404590051
 20
8.5342687216
 30
0.0
 10
12.5375758486
 20
8.5372380638
 30
0.0
 10
12.5343045383
 20
8.5397857416
 30
0.0
 10
12.5319066508
 20
8.5411704391
 30
0.0
 10
12.5306664864
 20
8.5417772894
 30
0.0
  0
SPLINE
  5
2BA
100
AcDbEntity
  8
0
100
AcDbSpline
 62
9
  6
CONTINUOUS
 70
0
 71
3
 72
15
 73
11
 74
0
 42
0.0000001
 43
0.0000001
 44
0.0000000001
 40
0.0
 40
0.0
 40
0.0
 40
0.0
 40
0.128379468
 40
0.2559033052
 40
0.3824371934
 40
0.5078996794
 40
0.6322856578
 40
0.75566318
 40
0.8781657835
 40
1.0
 40
1.0
 40
1.0
 40
1.0
 10
-8.5061131192
 20
8.6191686755
 30
0.0
 10
-8.5062729278
 20
8.6153078115
 30
0.0
 10
-8.5061175953
 20
8.6075834296
 30
0.0
 10
-8.5044503032
 20
8.5961643562
 30
0.0
 10
-8.5013772047
 20
8.5851294269
 30
0.0
 10
-8.4969486127
 20
8.5746673264
 30
0.0
 10
-8.4912386008
 20
8.5649548174
 30
0.0
 10
-8.4843418956
 20
8.5561569032
 30
0.0
 10
-8.4763769728
 20
8.5484247649
 30
0.0
 10
-8.4704263595
 20
8.5440561518
 30
0.0
 10
-8.4673270814
 20
8.5420959117
 30
0.0
  0
SPLINE
  5
2BB
100
AcDbEntity
  8
0
100
AcDbSpline
 62
9
  6
CONTINUOUS
 70
0
 71
3
 72
9
 73
5
 74
0
 42
0.0000001
 43
0.0000001
 44
0.0000000001
 40
0.0
 40
0.0
 40
0.0
 40
0.0
 40
0.2495166713
 40
1.0
 40
1.0
 40
1.0
 40
1.0
 10
-8.5080332162
 20
8.5417774285
 30
0.0
 10
-8.5089281613
 20
8.541844287
 30
0.0
 10
-8.5125173705
 20
8.5420761108
 30
0.0
 10
-8.516117743
 20
8.5421491187
 30
0.0
 10
-8.51881649
 20
8.5420959465
 30
0.0
  0
SPLINE
  5
2BC
100
AcDbEntity
  8
0
100
AcDbSpline
 62
9
  6
CONTINUOUS
 70
0
 71
3
 72
15
 73
11
 74
0
 42
0.0000001
 43
0.0000001
 44
0.0000000001
 40
0.0
 40
0.0
 40
0.0
 40
0.0
 40
0.1243973848
 40
0.2488674438
 40
0.3734771989
 40
0.4982827906
 40
0.623325165
 40
0.7486269896
 40
0.8741910182
 40
1.0
 40
1.0
 40
1.0
 40
1.0
 10
30.5473183383
 20
8.5153160233
 30
0.0
 10
30.5473183383
 20
8.5166812058
 30
0.0
 10
30.5475111879
 20
8.519416266
 30
0.0
 10
30.5483733416
 20
8.5234364278
 30
0.0
 10
30.5497917508
 20
8.5273011763
 30
0.0
 10
30.5517390612
 20
8.5309351464
 30
0.0
 10
30.554177659
 20
8.5342687709
 30
0.0
 10
30.5570608115
 20
8.5372381
 30
0.0
 10
30.5603321176
 20
8.5397857596
 30
0.0
 10
30.5627300022
 20
8.5411704416
 30
0.0
 10
30.5639701648
 20
8.5417772836
 30
0.0
  0
SPLINE
  5
2BD
100
AcDbEntity
  8
0
100
AcDbSpline
 62
9
  6
CONTINUOUS
 70
0
 71
3
 72
15
 73
11
 74
0
 42
0.0000001
 43
0.0000001
 44
0.0000000001
 40
0.0
 40
0.0
 40
0.0
 40
0.0
 40
0.1243969454
 40
0.2488666767
 40
0.3734762467
 40
0.498281808
 40
0.6233242982
 40
0.7486263559
 40
0.8741906904
 40
1.0
 40
1.0
 40
1.0
 40
1.0
 10
33.5473183383
 20
8.5153159795
 30
0.0
 10
33.5473183383
 20
8.5166811589
 30
0.0
 10
33.5471254881
 20
8.5194162141
 30
0.0
 10
33.5462633325
 20
8.5234363701
 30
0.0
 10
33.5448449205
 20
8.5273011167
 30
0.0
 10
33.5428976068
 20
8.5309350895
 30
0.0
 10
33.5404590051
 20
8.5342687216
 30
0.0
 10
33.5375758486
 20
8.5372380638
 30
0.0
 10
33.5343045383
 20
8.5397857416
 30
0.0
 10
33.5319066508
 20
8.5411704391
 30
0.0
 10
33.5306664864
 20
8.5417772894
 30
0.0
  0
SPLINE
  5
2BE
100
AcDbEntity
  8
0
100
AcDbSpline
 62
9
  6
CONTINUOUS
 70
0
 71
3
 72
18
 73
14
 74
0
 42
0.0000001
 43
0.0000001
 44
0.0000000001
 40
0.0
 40
0.0
 40
0.0
 40
0.0
 40
0.0224903802
 40
0.0510227825
 40
0.0857080287
 40
0.1265244237
 40
0.1733718531
 40
0.2260801394
 40
0.3480375514
 40
0.4898428486
 40
0.6482742133
 40
0.819624954
 40
1.0
 40
1.0
 40
1.0
 40
1.0
 10
-8.469333424
 20
8.5417772491
 30
0.0
 10
-8.4696061084
 20
8.541675679
 30
0.0
 10
-8.4702428109
 20
8.5414946914
 30
0.0
 10
-8.4713315643
 20
8.5412815491
 30
0.0
 10
-8.4726657415
 20
8.5410987634
 30
0.0
 10
-8.474241748
 20
8.5409474323
 30
0.0
 10
-8.4760542766
 20
8.5408288517
 30
0.0
 10
-8.4789180145
 20
8.5407101114
 30
0.0
 10
-8.4830131222
 20
8.5406608462
 30
0.0
 10
-8.4884754359
 20
8.5407383971
 30
0.0
 10
-8.4945736335
 20
8.540951216
 30
0.0
 10
-8.5011654741
 20
8.5412955805
 30
0.0
 10
-8.5057059451
 20
8.5416037602
 30
0.0
 10
-8.5080332162
 20
8.5417774285
 30
0.0
  0
SPLINE
  5
2BF
100
AcDbEntity
  8
0
100
AcDbSpline
 62
9
  6
CONTINUOUS
 70
0
 71
3
 72
15
 73
11
 74
0
 42
0.0000001
 43
0.0000001
 44
0.0000000001
 40
0.0
 40
0.0
 40
0.0
 40
0.0
 40
0.1243973848
 40
0.2488674438
 40
0.3734771989
 40
0.4982827906
 40
0.623325165
 40
0.7486269896
 40
0.8741910182
 40
1.0
 40
1.0
 40
1.0
 40
1.0
 10
9.5473183383
 20
8.5153160233
 30
0.0
 10
9.5473183383
 20
8.5166812058
 30
0.0
 10
9.5475111879
 20
8.519416266
 30
0.0
 10
9.5483733416
 20
8.5234364278
 30
0.0
 10
9.5497917508
 20
8.5273011763
 30
0.0
 10
9.5517390612
 20
8.5309351464
 30
0.0
 10
9.554177659
 20
8.5342687709
 30
0.0
 10
9.5570608115
 20
8.5372381
 30
0.0
 10
9.5603321176
 20
8.5397857596
 30
0.0
 10
9.5627300022
 20
8.5411704416
 30
0.0
 10
9.5639701648
 20
8.5417772836
 30
0.0
  0
SPLINE
  5
2C0
100
AcDbEntity
  8
0
100
AcDbSpline
 62
9
  6
CONTINUOUS
 70
0
 71
3
 72
9
 73
5
 74
0
 42
0.0000001
 43
0.0000001
 44
0.0000000001
 40
0.0
 40
0.0
 40
0.0
 40
0.0
 40
0.4694393536
 40
1.0
 40
1.0
 40
1.0
 40
1.0
 10
-8.4673270814
 20
8.5420959117
 30
0.0
 10
-8.4676449184
 20
8.5421336021
 30
0.0
 10
-8.4683362928
 20
8.5420951863
 30
0.0
 10
-8.468994551
 20
8.541903813
 30
0.0
 10
-8.469333424
 20
8.5417772491
 30
0.0
  0
SPLINE
  5
2C1
100
AcDbEntity
  8
0
100
AcDbSpline
 62
9
  6
CONTINUOUS
 70
0
 71
3
 72
16
 73
12
 74
0
 42
0.0000001
 43
0.0000001
 44
0.0000000001
 40
0.0
 40
0.0
 40
0.0
 40
0.0
 40
0.1438527573
 40
0.2862608063
 40
0.4250997735
 40
0.5583146398
 40
0.6839915335
 40
0.8004084028
 40
0.9061016276
 40
0.9545862761
 40
1.0
 40
1.0
 40
1.0
 40
1.0
 10
-8.5426816617
 20
8.6191686755
 30
0.0
 10
-8.5422280588
 20
8.6152946211
 30
0.0
 10
-8.541159668
 20
8.6076037845
 30
0.0
 10
-8.5390829847
 20
8.5962624248
 30
0.0
 10
-8.5365674035
 20
8.5853054891
 30
0.0
 10
-8.5336556436
 20
8.5749171237
 30
0.0
 10
-8.5303974541
 20
8.5652707087
 30
0.0
 10
-8.5268481842
 20
8.5565275161
 30
0.0
 10
-8.5236110323
 20
8.5499332692
 30
0.0
 10
-8.5209007022
 20
8.5452470113
 30
0.0
 10
-8.5195160066
 20
8.5431086646
 30
0.0
 10
-8.5188161737
 20
8.5420954886
 30
0.0
  0
LINE
  5
2C2
100
AcDbEntity
  8
0
100
AcDbLine
 62
9
  6
CONTINUOUS
 10
-8.5188161737
 20
8.5420954886
 11
-8.5626816617
 21
8.5423534828
  0
SPLINE
  5
2C3
100
AcDbEntity
  8
0
100
AcDbSpline
 62
9
  6
CONTINUOUS
 70
0
 71
3
 72
15
 73
11
 74
0
 42
0.0000001
 43
0.0000001
 44
0.0000000001
 40
0.0
 40
0.0
 40
0.0
 40
0.0
 40
0.1243969454
 40
0.2488666767
 40
0.3734762467
 40
0.498281808
 40
0.6233242982
 40
0.7486263559
 40
0.8741906904
 40
1.0
 40
1.0
 40
1.0
 40
1.0
 10
-8.4526816617
 20
8.5153159795
 30
0.0
 10
-8.4526816617
 20
8.5166811589
 30
0.0
 10
-8.4528745119
 20
8.5194162141
 30
0.0
 10
-8.4537366675
 20
8.5234363701
 30
0.0
 10
-8.4551550795
 20
8.5273011167
 30
0.0
 10
-8.4571023932
 20
8.5309350895
 30
0.0
 10
-8.4595409949
 20
8.5342687216
 30
0.0
 10
-8.4624241514
 20
8.5372380638
 30
0.0
 10
-8.4656954617
 20
8.5397857416
 30
0.0
 10
-8.4680933492
 20
8.5411704391
 30
0.0
 10
-8.4693335136
 20
8.5417772894
 30
0.0
  0
LINE
  5
2C4
100
AcDbEntity
  8
0
100
AcDbLine
 62
9
  6
CONTINUOUS
 10
32.0473183383
 20
6.7298318604
 11
31.3603183368
 21
7.3548318604
  0
LINE
  5
2C5
100
AcDbEntity
  8
0
100
AcDbLine
 62
9
  6
CONTINUOUS
 10
30.6155001382
 20
8.516404503
 11
30.6073183383
 21
8.5153159795
  0
SPLINE
  5
2C6
100
AcDbEntity
  8
0
100
AcDbSpline
 62
9
  6
CONTINUOUS
 70
0
 71
3
 72
10
 73
6
 74
0
 42
0.0000001
 43
0.0000001
 44
0.0000000001
 40
0.0
 40
0.0
 40
0.0
 40
0.0
 40
0.4999896674
 40
0.7499957931
 40
1.0
 40
1.0
 40
1.0
 40
1.0
 10
30.6573183664
 20
8.5179864944
 30
0.0
 10
30.6503422944
 20
8.5179864905
 30
0.0
 10
30.6398765324
 20
8.5177992748
 30
0.0
 10
30.6259385761
 20
8.5171511183
 30
0.0
 10
30.6189773087
 20
8.5166812576
 30
0.0
 10
30.6155001382
 20
8.516404503
 30
0.0
  0
SPLINE
  5
2C7
100
AcDbEntity
  8
0
100
AcDbSpline
 62
9
  6
CONTINUOUS
 70
0
 71
3
 72
10
 73
6
 74
0
 42
0.0000001
 43
0.0000001
 44
0.0000000001
 40
0.0
 40
0.0
 40
0.0
 40
0.0
 40
0.2500042031
 40
0.5000103507
 40
1.0
 40
1.0
 40
1.0
 40
1.0
 10
33.4791365727
 20
8.5164045003
 30
0.0
 10
33.4756593907
 20
8.5166812443
 30
0.0
 10
33.4686980964
 20
8.5171510247
 30
0.0
 10
33.4547601028
 20
8.5177992865
 30
0.0
 10
33.4442943068
 20
8.5179864804
 30
0.0
 10
33.4373182136
 20
8.5179864944
 30
0.0
  0
LINE
  5
2C8
100
AcDbEntity
  8
0
100
AcDbLine
 62
9
  6
CONTINUOUS
 10
33.4873183383
 20
8.5153160233
 11
33.4791365727
 21
8.5164045003
  0
LINE
  5
2C9
100
AcDbEntity
  8
0
100
AcDbLine
 62
9
  6
CONTINUOUS
 10
32.0473183383
 20
6.7298318604
 11
32.2973183383
 21
6.1048318604
  0
LINE
  5
2CA
100
AcDbEntity
  8
0
100
AcDbLine
 62
9
  6
CONTINUOUS
 10
9.6155001382
 20
8.516404503
 11
9.6073183383
 21
8.5153159795
  0
SPLINE
  5
2CB
100
AcDbEntity
  8
0
100
AcDbSpline
 62
9
  6
CONTINUOUS
 70
0
 71
3
 72
10
 73
6
 74
0
 42
0.0000001
 43
0.0000001
 44
0.0000000001
 40
0.0
 40
0.0
 40
0.0
 40
0.0
 40
0.4999896674
 40
0.7499957931
 40
1.0
 40
1.0
 40
1.0
 40
1.0
 10
9.6573183664
 20
8.5179864944
 30
0.0
 10
9.6503422944
 20
8.5179864905
 30
0.0
 10
9.6398765324
 20
8.5177992748
 30
0.0
 10
9.6259385761
 20
8.5171511183
 30
0.0
 10
9.6189773087
 20
8.5166812576
 30
0.0
 10
9.6155001382
 20
8.516404503
 30
0.0
  0
SPLINE
  5
2CC
100
AcDbEntity
  8
0
100
AcDbSpline
 62
9
  6
CONTINUOUS
 70
0
 71
3
 72
10
 73
6
 74
0
 42
0.0000001
 43
0.0000001
 44
0.0000000001
 40
0.0
 40
0.0
 40
0.0
 40
0.0
 40
0.2500042031
 40
0.5000103507
 40
1.0
 40
1.0
 40
1.0
 40
1.0
 10
12.4791365727
 20
8.5164045003
 30
0.0
 10
12.4756593907
 20
8.5166812443
 30
0.0
 10
12.4686980964
 20
8.5171510247
 30
0.0
 10
12.4547601028
 20
8.5177992865
 30
0.0
 10
12.4442943068
 20
8.5179864804
 30
0.0
 10
12.4373182136
 20
8.5179864944
 30
0.0
  0
LINE
  5
2CD
100
AcDbEntity
  8
0
100
AcDbLine
 62
9
  6
CONTINUOUS
 10
12.4873183383
 20
8.5153160233
 11
12.4791365727
 21
8.5164045003
  0
SPLINE
  5
2CE
100
AcDbEntity
  8
0
100
AcDbSpline
 62
9
  6
CONTINUOUS
 70
0
 71
3
 72
15
 73
11
 74
0
 42
0.0000001
 43
0.0000001
 44
0.0000000001
 40
0.0
 40
0.0
 40
0.0
 40
0.0
 40
0.1243973848
 40
0.2488674438
 40
0.3734771989
 40
0.4982827906
 40
0.623325165
 40
0.7486269896
 40
0.8741910182
 40
1.0
 40
1.0
 40
1.0
 40
1.0
 10
-11.4526816617
 20
8.5153160233
 30
0.0
 10
-11.4526816617
 20
8.5166812058
 30
0.0
 10
-11.4524888121
 20
8.519416266
 30
0.0
 10
-11.4516266584
 20
8.5234364278
 30
0.0
 10
-11.4502082492
 20
8.5273011763
 30
0.0
 10
-11.4482609388
 20
8.5309351464
 30
0.0
 10
-11.445822341
 20
8.5342687709
 30
0.0
 10
-11.4429391885
 20
8.5372381
 30
0.0
 10
-11.4396678824
 20
8.5397857596
 30
0.0
 10
-11.4372699978
 20
8.5411704416
 30
0.0
 10
-11.4360298352
 20
8.5417772836
 30
0.0
  0
SPLINE
  5
2CF
100
AcDbEntity
  8
0
100
AcDbSpline
 62
9
  6
CONTINUOUS
 70
0
 71
3
 72
28
 73
24
 74
0
 42
0.0000001
 43
0.0000001
 44
0.0000000001
 40
0.0
 40
0.0
 40
0.0
 40
0.0
 40
0.1936636084
 40
0.3799137726
 40
0.4680004305
 40
0.5515771755
 40
0.6298345296
 40
0.7020171406
 40
0.7674325159
 40
0.8254606675
 40
0.8755641054
 40
0.8975031802
 40
0.9173063486
 40
0.9349376349
 40
0.9503725258
 40
0.9636043463
 40
0.9746463943
 40
0.9835536956
 40
0.9904567953
 40
0.9932515156
 40
0.9956943484
 40
0.9978945683
 40
1.0
 40
1.0
 40
1.0
 40
1.0
 10
-11.3926816617
 20
8.5153159795
 30
0.0
 10
-11.3965734802
 20
8.5149756239
 30
0.0
 10
-11.4042162751
 20
8.5143985102
 30
0.0
 10
-11.41364357
 20
8.5138835977
 30
0.0
 10
-11.420857903
 20
8.513595106
 30
0.0
 10
-11.4258972648
 20
8.5134445309
 30
0.0
 10
-11.430617179
 20
8.513353577
 30
0.0
 10
-11.4349715034
 20
8.5133208257
 30
0.0
 10
-11.4389178563
 20
8.5133468982
 30
0.0
 10
-11.4424178713
 20
8.5134323459
 30
0.0
 10
-11.4450392147
 20
8.5135557333
 30
0.0
 10
-11.4468871337
 20
8.5136909234
 30
0.0
 10
-11.4480796845
 20
8.5138031376
 30
0.0
 10
-11.4491386985
 20
8.5139305254
 30
0.0
 10
-11.4500619313
 20
8.5140732355
 30
0.0
 10
-11.4508474601
 20
8.5142316032
 30
0.0
 10
-11.4514945316
 20
8.5144060912
 30
0.0
 10
-11.4520023945
 20
8.5145964198
 30
0.0
 10
-11.4523334044
 20
8.5147801713
 30
0.0
 10
-11.4525183754
 20
8.514942215
 30
0.0
 10
-11.4526118926
 20
8.5150609673
 30
0.0
 10
-11.4526691022
 20
8.5151861703
 30
0.0
 10
-11.4526816555
 20
8.5152735515
 30
0.0
 10
-11.4526816617
 20
8.5153160233
 30
0.0
  0
SPLINE
  5
2D0
100
AcDbEntity
  8
0
100
AcDbSpline
 62
9
  6
CONTINUOUS
 70
0
 71
3
 72
14
 73
10
 74
0
 42
0.0000001
 43
0.0000001
 44
0.0000000001
 40
0.0
 40
0.0
 40
0.0
 40
0.0
 40
0.0731351876
 40
0.1518610886
 40
0.2432811595
 40
0.3520221781
 40
0.4808237657
 40
0.631234188
 40
1.0
 40
1.0
 40
1.0
 40
1.0
 10
-8.4526816617
 20
8.5153159795
 30
0.0
 10
-8.4526816768
 20
8.5152636268
 30
0.0
 10
-8.4527014562
 20
8.5151539939
 30
0.0
 10
-8.4527900608
 20
8.5150010419
 30
0.0
 10
-8.4529324611
 20
8.5148588871
 30
0.0
 10
-8.4531272862
 20
8.5147250683
 30
0.0
 10
-8.4533748854
 20
8.5145981128
 30
0.0
 10
-8.4538059165
 20
8.5144255568
 30
0.0
 10
-8.4541648152
 20
8.5143250259
 30
0.0
 10
-8.4544212679
 20
8.5142624566
 30
0.0
  0
SPLINE
  5
2D1
100
AcDbEntity
  8
0
100
AcDbSpline
 62
9
  6
CONTINUOUS
 70
0
 71
3
 72
18
 73
14
 74
0
 42
0.0000001
 43
0.0000001
 44
0.0000000001
 40
0.0
 40
0.0
 40
0.0
 40
0.0
 40
0.0242573987
 40
0.05504403
 40
0.0922452075
 40
0.1356559236
 40
0.1850048734
 40
0.2399674791
 40
0.3652111079
 40
0.5079595855
 40
0.6642669946
 40
0.829799522
 40
1.0
 40
1.0
 40
1.0
 40
1.0
 10
-8.4544212679
 20
8.5142624566
 30
0.0
 10
-8.4548797796
 20
8.5141505888
 30
0.0
 10
-8.4559355499
 20
8.5139612416
 30
0.0
 10
-8.457718212
 20
8.5137505432
 30
0.0
 10
-8.459879557
 20
8.5135817878
 30
0.0
 10
-8.4624051708
 20
8.513455684
 30
0.0
 10
-8.4652782484
 20
8.5133715771
 30
0.0
 10
-8.4697443112
 20
8.5133124871
 30
0.0
 10
-8.4760283044
 20
8.5133564683
 30
0.0
 10
-8.4842811851
 20
8.5135719468
 30
0.0
 10
-8.493312589
 20
8.5139575699
 30
0.0
 10
-8.5028695585
 20
8.5145242128
 30
0.0
 10
-8.509382765
 20
8.5150275567
 30
0.0
 10
-8.5126816617
 20
8.5153160233
 30
0.0
  0
LINE
  5
2D2
100
AcDbEntity
  8
0
100
AcDbLine
 62
9
  6
CONTINUOUS
 10
-11.3992502042
 20
8.6191686755
 11
-11.4026816617
 21
8.6154544379
  0
LINE
  5
2D3
100
AcDbEntity
  8
0
100
AcDbLine
 62
9
  6
CONTINUOUS
 10
9.6573182093
 20
8.5423534822
 11
9.6134532595
 21
8.5420954424
  0
SPLINE
  5
2D4
100
AcDbEntity
  8
0
100
AcDbSpline
 62
9
  6
CONTINUOUS
 70
0
 71
3
 72
16
 73
12
 74
0
 42
0.0000001
 43
0.0000001
 44
0.0000000001
 40
0.0
 40
0.0
 40
0.0
 40
0.0
 40
0.143852273
 40
0.2862598032
 40
0.4250982795
 40
0.55831276
 40
0.6839894742
 40
0.8004064851
 40
0.9061003237
 40
0.9545855171
 40
1.0
 40
1.0
 40
1.0
 40
1.0
 10
9.6373183383
 20
8.6191686755
 30
0.0
 10
9.6368647911
 20
8.6152946546
 30
0.0
 10
9.6357965093
 20
8.6076038838
 30
0.0
 10
9.6337199974
 20
8.5962626139
 30
0.0
 10
9.6312045806
 20
8.5853057579
 30
0.0
 10
9.6282929677
 20
8.5749174571
 30
0.0
 10
9.6250348881
 20
8.5652710898
 30
0.0
 10
9.6214856806
 20
8.5565279236
 30
0.0
 10
9.6182485327
 20
8.5499336896
 30
0.0
 10
9.6155381666
 20
8.5452474348
 30
0.0
 10
9.6141534376
 20
8.5431090879
 30
0.0
 10
9.6134535836
 20
8.5420959117
 30
0.0
  0
SPLINE
  5
2D5
100
AcDbEntity
  8
0
100
AcDbSpline
 62
9
  6
CONTINUOUS
 70
0
 71
3
 72
9
 73
5
 74
0
 42
0.0000001
 43
0.0000001
 44
0.0000000001
 40
0.0
 40
0.0
 40
0.0
 40
0.0
 40
0.5305569674
 40
1.0
 40
1.0
 40
1.0
 40
1.0
 10
9.5639697058
 20
8.5417774285
 30
0.0
 10
9.5636308692
 20
8.5419038118
 30
0.0
 10
9.5629728346
 20
8.54209528
 30
0.0
 10
9.5622816336
 20
8.5421335813
 30
0.0
 10
9.5619638719
 20
8.5420959465
 30
0.0
  0
SPLINE
  5
2D6
100
AcDbEntity
  8
0
100
AcDbSpline
 62
9
  6
CONTINUOUS
 70
0
 71
3
 72
18
 73
14
 74
0
 42
0.0000001
 43
0.0000001
 44
0.0000000001
 40
0.0
 40
0.0
 40
0.0
 40
0.0
 40
0.180379013
 40
0.3517346912
 40
0.5101658356
 40
0.6519745552
 40
0.7739314314
 40
0.826633892
 40
0.8734834964
 40
0.914301433
 40
0.9489838758
 40
0.977510721
 40
1.0
 40
1.0
 40
1.0
 40
1.0
 10
9.6026679877
 20
8.5417772491
 30
0.0
 10
9.6003407599
 20
8.541603506
 30
0.0
 10
9.5958003236
 20
8.5412956675
 30
0.0
 10
9.5892086357
 20
8.5409510834
 30
0.0
 10
9.5831105565
 20
8.5407384332
 30
0.0
 10
9.5776484218
 20
8.5406608974
 30
0.0
 10
9.5735534989
 20
8.5407099572
 30
0.0
 10
9.5706899385
 20
8.5408290232
 30
0.0
 10
9.5688775023
 20
8.5409475064
 30
0.0
 10
9.5673015354
 20
8.541098754
 30
0.0
 10
9.5659674974
 20
8.5412815357
 30
0.0
 10
9.5648789365
 20
8.5414948497
 30
0.0
 10
9.564242389
 20
8.5416759278
 30
0.0
 10
9.5639697058
 20
8.5417774285
 30
0.0
  0
SPLINE
  5
2D7
100
AcDbEntity
  8
0
100
AcDbSpline
 62
9
  6
CONTINUOUS
 70
0
 71
3
 72
9
 73
5
 74
0
 42
0.0000001
 43
0.0000001
 44
0.0000000001
 40
0.0
 40
0.0
 40
0.0
 40
0.0
 40
0.2506296872
 40
1.0
 40
1.0
 40
1.0
 40
1.0
 10
9.6134535836
 20
8.5420959117
 30
0.0
 10
9.6125521047
 20
8.5421136999
 30
0.0
 10
9.6089543432
 20
8.5421370379
 30
0.0
 10
9.6053563863
 20
8.5419782428
 30
0.0
 10
9.6026679877
 20
8.5417772491
 30
0.0
  0
SPLINE
  5
2D8
100
AcDbEntity
  8
0
100
AcDbSpline
 62
9
  6
CONTINUOUS
 70
0
 71
3
 72
15
 73
11
 74
0
 42
0.0000001
 43
0.0000001
 44
0.0000000001
 40
0.0
 40
0.0
 40
0.0
 40
0.0
 40
0.1283793492
 40
0.2559029974
 40
0.3824366549
 40
0.5078989182
 40
0.6322847569
 40
0.755662297
 40
0.8781651621
 40
1.0
 40
1.0
 40
1.0
 40
1.0
 10
9.6007497958
 20
8.6191686755
 30
0.0
 10
9.6009096239
 20
8.6153077802
 30
0.0
 10
9.6007543196
 20
8.607583335
 30
0.0
 10
9.5990870403
 20
8.5961641677
 30
0.0
 10
9.596013921
 20
8.5851291534
 30
0.0
 10
9.5915852729
 20
8.5746669808
 30
0.0
 10
9.5858751669
 20
8.564954417
 30
0.0
 10
9.5789783299
 20
8.5561564679
 30
0.0
 10
9.5710132374
 20
8.5484243166
 30
0.0
 10
9.565062495
 20
8.544055718
 30
0.0
 10
9.5619631478
 20
8.5420954886
 30
0.0
  0
SPLINE
  5
2D9
100
AcDbEntity
  8
0
100
AcDbSpline
 62
9
  6
CONTINUOUS
 70
0
 71
3
 72
19
 73
15
 74
0
 42
0.0000001
 43
0.0000001
 44
0.0000000001
 40
0.0
 40
0.0
 40
0.0
 40
0.0
 40
0.166501283
 40
0.32415825
 40
0.470828666
 40
0.6046797225
 40
0.6663344594
 40
0.7242834035
 40
0.7784565148
 40
0.8288859259
 40
0.8757396795
 40
0.9194134736
 40
0.9605585462
 40
1.0
 40
1.0
 40
1.0
 40
1.0
 10
-11.3626816617
 20
8.6191686755
 30
0.0
 10
-11.3646700645
 20
8.6198196736
 30
0.0
 10
-11.3685994732
 20
8.6209180396
 30
0.0
 10
-11.3744224953
 20
8.6220007871
 30
0.0
 10
-11.3799003149
 20
8.6226004897
 30
0.0
 10
-11.3842007913
 20
8.6227712932
 30
0.0
 10
-11.3873859702
 20
8.6227128185
 30
0.0
 10
-11.3895661454
 20
8.622574447
 30
0.0
 10
-11.3915959738
 20
8.6223356025
 30
0.0
 10
-11.3934685665
 20
8.6219856396
 30
0.0
 10
-11.3951782996
 20
8.6215128822
 30
0.0
 10
-11.396720142
 20
8.6209011454
 30
0.0
 10
-11.398085499
 20
8.6201330511
 30
0.0
 10
-11.3988865356
 20
8.6195054043
 30
0.0
 10
-11.3992502042
 20
8.6191686755
 30
0.0
  0
LINE
  5
2DA
100
AcDbEntity
  8
0
100
AcDbLine
 62
9
  6
CONTINUOUS
 10
12.4973183383
 20
8.6154544379
 11
12.4938868808
 21
8.6191686755
  0
SPLINE
  5
2DB
100
AcDbEntity
  8
0
100
AcDbSpline
 62
9
  6
CONTINUOUS
 70
0
 71
3
 72
19
 73
15
 74
0
 42
0.0000001
 43
0.0000001
 44
0.0000000001
 40
0.0
 40
0.0
 40
0.0
 40
0.0
 40
0.0394420612
 40
0.0805870128
 40
0.1242600976
 40
0.1711136452
 40
0.2215433613
 40
0.2757166322
 40
0.3336655613
 40
0.3953202796
 40
0.5291713548
 40
0.6758416155
 40
0.8334987175
 40
1.0
 40
1.0
 40
1.0
 40
1.0
 10
12.4938868808
 20
8.6191686755
 30
0.0
 10
12.4935232193
 20
8.6195054233
 30
0.0
 10
12.4927221978
 20
8.6201331016
 30
0.0
 10
12.4913568338
 20
8.6209011874
 30
0.0
 10
12.4898149609
 20
8.6215128161
 30
0.0
 10
12.4881052262
 20
8.6219855205
 30
0.0
 10
12.4862326537
 20
8.6223355961
 30
0.0
 10
12.4842028297
 20
8.6225745475
 30
0.0
 10
12.4820226497
 20
8.6227128953
 30
0.0
 10
12.4788374677
 20
8.6227712611
 30
0.0
 10
12.4745370075
 20
8.6226003297
 30
0.0
 10
12.4690591435
 20
8.6220009969
 30
0.0
 10
12.4632361711
 20
8.6209179366
 30
0.0
 10
12.4593067537
 20
8.6198196355
 30
0.0
 10
12.4573183383
 20
8.6191686755
 30
0.0
  0
SPLINE
  5
2DC
100
AcDbEntity
  8
0
100
AcDbSpline
 62
9
  6
CONTINUOUS
 70
0
 71
3
 72
11
 73
7
 74
0
 42
0.0000001
 43
0.0000001
 44
0.0000000001
 40
0.0
 40
0.0
 40
0.0
 40
0.0
 40
0.2442394388
 40
0.4932935986
 40
0.745737584
 40
1.0
 40
1.0
 40
1.0
 40
1.0
 10
12.4573183383
 20
8.6191686755
 30
0.0
 10
12.4557388912
 20
8.6186480069
 30
0.0
 10
12.4525293955
 20
8.6176528976
 30
0.0
 10
12.4475931479
 20
8.616443217
 30
0.0
 10
12.4425025083
 20
8.6156424312
 30
0.0
 10
12.43904964
 20
8.6154544376
 30
0.0
 10
12.4373183383
 20
8.6154544379
 30
0.0
  0
SPLINE
  5
2DD
100
AcDbEntity
  8
0
100
AcDbSpline
 62
9
  6
CONTINUOUS
 70
0
 71
3
 72
11
 73
7
 74
0
 42
0.0000001
 43
0.0000001
 44
0.0000000001
 40
0.0
 40
0.0
 40
0.0
 40
0.0
 40
0.2542652242
 40
0.5067090797
 40
0.7557613013
 40
1.0
 40
1.0
 40
1.0
 40
1.0
 10
-11.3426816617
 20
8.6154544379
 30
0.0
 10
-11.3444129863
 20
8.6154544348
 30
0.0
 10
-11.3478658813
 20
8.615642323
 30
0.0
 10
-11.3529565693
 20
8.6164429128
 30
0.0
 10
-11.3578928168
 20
8.6176526427
 30
0.0
 10
-11.3611021432
 20
8.6186482281
 30
0.0
 10
-11.3626816617
 20
8.6191686755
 30
0.0
  0
SPLINE
  5
2DE
100
AcDbEntity
  8
0
100
AcDbSpline
 62
9
  6
CONTINUOUS
 70
0
 71
3
 72
11
 73
7
 74
0
 42
0.0000001
 43
0.0000001
 44
0.0000000001
 40
0.0
 40
0.0
 40
0.0
 40
0.0
 40
0.2542652341
 40
0.5067091052
 40
0.7557613197
 40
1.0
 40
1.0
 40
1.0
 40
1.0
 10
9.6573183383
 20
8.6154544379
 30
0.0
 10
9.6555870137
 20
8.6154544348
 30
0.0
 10
9.6521341185
 20
8.615642323
 30
0.0
 10
9.6470434303
 20
8.6164429128
 30
0.0
 10
9.6421071829
 20
8.6176526428
 30
0.0
 10
9.6388978566
 20
8.6186482281
 30
0.0
 10
9.6373183383
 20
8.6191686755
 30
0.0
  0
SPLINE
  5
2DF
100
AcDbEntity
  8
0
100
AcDbSpline
 62
9
  6
CONTINUOUS
 70
0
 71
3
 72
19
 73
15
 74
0
 42
0.0000001
 43
0.0000001
 44
0.0000000001
 40
0.0
 40
0.0
 40
0.0
 40
0.0
 40
0.166501283
 40
0.32415825
 40
0.470828666
 40
0.6046797225
 40
0.6663344594
 40
0.7242834035
 40
0.7784565148
 40
0.8288859259
 40
0.8757396795
 40
0.9194134736
 40
0.9605585462
 40
1.0
 40
1.0
 40
1.0
 40
1.0
 10
9.6373183383
 20
8.6191686755
 30
0.0
 10
9.6353299355
 20
8.6198196736
 30
0.0
 10
9.6314005268
 20
8.6209180396
 30
0.0
 10
9.6255775047
 20
8.6220007871
 30
0.0
 10
9.6200996851
 20
8.6226004897
 30
0.0
 10
9.6157992087
 20
8.6227712932
 30
0.0
 10
9.6126140298
 20
8.6227128185
 30
0.0
 10
9.6104338546
 20
8.622574447
 30
0.0
 10
9.6084040262
 20
8.6223356025
 30
0.0
 10
9.6065314335
 20
8.6219856396
 30
0.0
 10
9.6048217004
 20
8.6215128822
 30
0.0
 10
9.603279858
 20
8.6209011454
 30
0.0
 10
9.601914501
 20
8.6201330511
 30
0.0
 10
9.6011134644
 20
8.6195054043
 30
0.0
 10
9.6007497958
 20
8.6191686755
 30
0.0
  0
LINE
  5
2E0
100
AcDbEntity
  8
0
100
AcDbLine
 62
9
  6
CONTINUOUS
 10
9.6007497958
 20
8.6191686755
 11
9.5973183383
 21
8.6154544379
  0
LINE
  5
2E1
100
AcDbEntity
  8
0
100
AcDbLine
 62
9
  6
CONTINUOUS
 10
9.5619631478
 20
8.5420954886
 11
9.5598183418
 21
8.5423534828
  0
LINE
  5
2E2
100
AcDbEntity
  8
0
100
AcDbLine
 62
9
  6
CONTINUOUS
 10
-9.2656816617
 20
7.3548318604
 11
-9.9526816617
 21
6.7298318604
  0
LINE
  5
2E3
100
AcDbEntity
  8
0
100
AcDbLine
 62
9
  6
CONTINUOUS
 10
33.4973183383
 20
8.6154544379
 11
33.4938868808
 21
8.6191686755
  0
SPLINE
  5
2E4
100
AcDbEntity
  8
0
100
AcDbSpline
 62
9
  6
CONTINUOUS
 70
0
 71
3
 72
14
 73
10
 74
0
 42
0.0000001
 43
0.0000001
 44
0.0000000001
 40
0.0
 40
0.0
 40
0.0
 40
0.0
 40
0.0693523892
 40
0.1451339962
 40
0.2348813199
 40
0.3432327206
 40
0.472803644
 40
0.6250062176
 40
1.0
 40
1.0
 40
1.0
 40
1.0
 10
12.5473183383
 20
8.5153159795
 30
0.0
 10
12.5473183219
 20
8.5152592168
 30
0.0
 10
12.5472946316
 20
8.5151393044
 30
0.0
 10
12.5471897348
 20
8.5149744266
 30
0.0
 10
12.5470225599
 20
8.5148224895
 30
0.0
 10
12.5467942177
 20
8.514680045
 30
0.0
 10
12.5465040367
 20
8.5145454646
 30
0.0
 10
12.5459978931
 20
8.5143630768
 30
0.0
 10
12.5455781706
 20
8.5142583766
 30
0.0
 10
12.5452782018
 20
8.5141934237
 30
0.0
  0
SPLINE
  5
2E5
100
AcDbEntity
  8
0
100
AcDbSpline
 62
9
  6
CONTINUOUS
 70
0
 71
3
 72
18
 73
14
 74
0
 42
0.0000001
 43
0.0000001
 44
0.0000000001
 40
0.0
 40
0.0
 40
0.0
 40
0.0
 40
0.025539195
 40
0.0574290014
 40
0.0955379567
 40
0.1396543605
 40
0.1895062592
 40
0.2447760887
 40
0.3700765726
 40
0.512227318
 40
0.6674157585
 40
0.8314653378
 40
1.0
 40
1.0
 40
1.0
 40
1.0
 10
12.5452782018
 20
8.5141934237
 30
0.0
 10
12.5447951202
 20
8.514088821
 30
0.0
 10
12.5436967472
 20
8.5139105745
 30
0.0
 10
12.5418581201
 20
8.5137120406
 30
0.0
 10
12.5396548176
 20
8.5135539872
 30
0.0
 10
12.5371011084
 20
8.5134376223
 30
0.0
 10
12.5342136491
 20
8.5133620014
 30
0.0
 10
12.5297542802
 20
8.5133125993
 30
0.0
 10
12.5235080943
 20
8.5133654428
 30
0.0
 10
12.5153311157
 20
8.5135863839
 30
0.0
 10
12.506409482
 20
8.5139721604
 30
0.0
 10
12.4969856865
 20
8.514535182
 30
0.0
 10
12.4905677014
 20
8.5150318881
 30
0.0
 10
12.4873183383
 20
8.5153160233
 30
0.0
  0
SPLINE
  5
2E6
100
AcDbEntity
  8
0
100
AcDbSpline
 62
9
  6
CONTINUOUS
 70
0
 71
3
 72
29
 73
25
 74
0
 42
0.0000001
 43
0.0000001
 44
0.0000000001
 40
0.0
 40
0.0
 40
0.0
 40
0.0
 40
0.1936645028
 40
0.288170887
 40
0.3799151539
 40
0.4680017912
 40
0.5515778246
 40
0.6298354871
 40
0.7020183923
 40
0.7674332873
 40
0.8254607027
 40
0.8755643416
 40
0.8975035628
 40
0.9173069895
 40
0.9349372571
 40
0.9503729312
 40
0.9636049266
 40
0.9746469277
 40
0.9835540852
 40
0.9904563656
 40
0.9932511185
 40
0.9956941808
 40
0.9978946116
 40
1.0
 40
1.0
 40
1.0
 40
1.0
 10
9.6073183383
 20
8.5153159795
 30
0.0
 10
9.6034264936
 20
8.5149756216
 30
0.0
 10
9.5976291944
 20
8.5145383292
 30
0.0
 10
9.5899789365
 20
8.5140809509
 30
0.0
 10
9.5844515213
 20
8.5138075563
 30
0.0
 10
9.5791421131
 20
8.5135950779
 30
0.0
 10
9.5741027513
 20
8.5134444498
 30
0.0
 10
9.5693828276
 20
8.5133536316
 30
0.0
 10
9.5650284906
 20
8.5133207234
 30
0.0
 10
9.5610821535
 20
8.5133471224
 30
0.0
 10
9.5575821376
 20
8.5134320992
 30
0.0
 10
9.5549608137
 20
8.5135558832
 30
0.0
 10
9.5531128785
 20
8.5136910437
 30
0.0
 10
9.5519203236
 20
8.5138031028
 30
0.0
 10
9.5508612909
 20
8.5139303665
 30
0.0
 10
9.5499380647
 20
8.5140731429
 30
0.0
 10
9.5491525534
 20
8.514231702
 30
0.0
 10
9.5485054987
 20
8.5144062344
 30
0.0
 10
9.5479976138
 20
8.5145964421
 30
0.0
 10
9.5476665957
 20
8.5147801524
 30
0.0
 10
9.5474816384
 20
8.5149421964
 30
0.0
 10
9.5473881191
 20
8.5150609594
 30
0.0
 10
9.5473309036
 20
8.515186168
 30
0.0
 10
9.5473183445
 20
8.5152735523
 30
0.0
 10
9.5473183383
 20
8.5153160233
 30
0.0
  0
LINE
  5
2E7
100
AcDbEntity
  8
0
100
AcDbLine
 62
9
  6
CONTINUOUS
 10
12.4811838263
 20
8.5420954886
 11
12.4373183383
 21
8.5423534828
  0
SPLINE
  5
2E8
100
AcDbEntity
  8
0
100
AcDbSpline
 62
9
  6
CONTINUOUS
 70
0
 71
3
 72
16
 73
12
 74
0
 42
0.0000001
 43
0.0000001
 44
0.0000000001
 40
0.0
 40
0.0
 40
0.0
 40
0.0
 40
0.1438527573
 40
0.2862608063
 40
0.4250997735
 40
0.5583146398
 40
0.6839915335
 40
0.8004084028
 40
0.9061016276
 40
0.9545862761
 40
1.0
 40
1.0
 40
1.0
 40
1.0
 10
12.4573183383
 20
8.6191686755
 30
0.0
 10
12.4577719412
 20
8.6152946211
 30
0.0
 10
12.458840332
 20
8.6076037845
 30
0.0
 10
12.4609170153
 20
8.5962624248
 30
0.0
 10
12.4634325965
 20
8.5853054891
 30
0.0
 10
12.4663443564
 20
8.5749171237
 30
0.0
 10
12.4696025459
 20
8.5652707087
 30
0.0
 10
12.4731518158
 20
8.5565275161
 30
0.0
 10
12.4763889677
 20
8.5499332692
 30
0.0
 10
12.4790992978
 20
8.5452470113
 30
0.0
 10
12.4804839934
 20
8.5431086646
 30
0.0
 10
12.4811838263
 20
8.5420954886
 30
0.0
  0
SPLINE
  5
2E9
100
AcDbEntity
  8
0
100
AcDbSpline
 62
9
  6
CONTINUOUS
 70
0
 71
3
 72
9
 73
5
 74
0
 42
0.0000001
 43
0.0000001
 44
0.0000000001
 40
0.0
 40
0.0
 40
0.0
 40
0.0
 40
0.469439352
 40
1.0
 40
1.0
 40
1.0
 40
1.0
 10
12.5326729186
 20
8.5420959117
 30
0.0
 10
12.5323550816
 20
8.5421336021
 30
0.0
 10
12.5316637072
 20
8.5420951863
 30
0.0
 10
12.531005449
 20
8.541903813
 30
0.0
 10
12.530666576
 20
8.5417772491
 30
0.0
  0
SPLINE
  5
2EA
100
AcDbEntity
  8
0
100
AcDbSpline
 62
9
  6
CONTINUOUS
 70
0
 71
3
 72
18
 73
14
 74
0
 42
0.0000001
 43
0.0000001
 44
0.0000000001
 40
0.0
 40
0.0
 40
0.0
 40
0.0
 40
0.0224903802
 40
0.0510227825
 40
0.0857080287
 40
0.1265244237
 40
0.1733718531
 40
0.2260801394
 40
0.3480375514
 40
0.4898428486
 40
0.6482742133
 40
0.819624954
 40
1.0
 40
1.0
 40
1.0
 40
1.0
 10
12.530666576
 20
8.5417772491
 30
0.0
 10
12.5303938916
 20
8.541675679
 30
0.0
 10
12.5297571891
 20
8.5414946914
 30
0.0
 10
12.5286684357
 20
8.5412815491
 30
0.0
 10
12.5273342585
 20
8.5410987634
 30
0.0
 10
12.525758252
 20
8.5409474323
 30
0.0
 10
12.5239457234
 20
8.5408288517
 30
0.0
 10
12.5210819855
 20
8.5407101114
 30
0.0
 10
12.5169868778
 20
8.5406608462
 30
0.0
 10
12.5115245641
 20
8.5407383971
 30
0.0
 10
12.5054263665
 20
8.540951216
 30
0.0
 10
12.4988345259
 20
8.5412955805
 30
0.0
 10
12.4942940549
 20
8.5416037602
 30
0.0
 10
12.4919667838
 20
8.5417774285
 30
0.0
  0
SPLINE
  5
2EB
100
AcDbEntity
  8
0
100
AcDbSpline
 62
9
  6
CONTINUOUS
 70
0
 71
3
 72
9
 73
5
 74
0
 42
0.0000001
 43
0.0000001
 44
0.0000000001
 40
0.0
 40
0.0
 40
0.0
 40
0.0
 40
0.2495166714
 40
1.0
 40
1.0
 40
1.0
 40
1.0
 10
12.4919667838
 20
8.5417774285
 30
0.0
 10
12.4910718387
 20
8.541844287
 30
0.0
 10
12.4874826295
 20
8.5420761108
 30
0.0
 10
12.483882257
 20
8.5421491187
 30
0.0
 10
12.48118351
 20
8.5420959465
 30
0.0
  0
SPLINE
  5
2EC
100
AcDbEntity
  8
0
100
AcDbSpline
 62
9
  6
CONTINUOUS
 70
0
 71
3
 72
15
 73
11
 74
0
 42
0.0000001
 43
0.0000001
 44
0.0000000001
 40
0.0
 40
0.0
 40
0.0
 40
0.0
 40
0.128379468
 40
0.2559033052
 40
0.3824371934
 40
0.5078996794
 40
0.6322856578
 40
0.75566318
 40
0.8781657835
 40
1.0
 40
1.0
 40
1.0
 40
1.0
 10
12.4938868808
 20
8.6191686755
 30
0.0
 10
12.4937270722
 20
8.6153078115
 30
0.0
 10
12.4938824047
 20
8.6075834296
 30
0.0
 10
12.4955496968
 20
8.5961643562
 30
0.0
 10
12.4986227953
 20
8.5851294269
 30
0.0
 10
12.5030513873
 20
8.5746673264
 30
0.0
 10
12.5087613992
 20
8.5649548174
 30
0.0
 10
12.5156581044
 20
8.5561569032
 30
0.0
 10
12.5236230272
 20
8.5484247649
 30
0.0
 10
12.5295736405
 20
8.5440561518
 30
0.0
 10
12.5326729186
 20
8.5420959117
 30
0.0
  0
LINE
  5
2ED
100
AcDbEntity
  8
0
100
AcDbLine
 62
9
  6
CONTINUOUS
 10
12.5348183357
 20
8.5423534822
 11
12.5326736604
 21
8.5420954424
  0
SPLINE
  5
2EE
100
AcDbEntity
  8
0
100
AcDbSpline
 62
9
  6
CONTINUOUS
 70
0
 71
3
 72
19
 73
15
 74
0
 42
0.0000001
 43
0.0000001
 44
0.0000000001
 40
0.0
 40
0.0
 40
0.0
 40
0.0
 40
0.0394420612
 40
0.0805870128
 40
0.1242600976
 40
0.1711136452
 40
0.2215433613
 40
0.2757166322
 40
0.3336655613
 40
0.3953202796
 40
0.5291713548
 40
0.6758416155
 40
0.8334987175
 40
1.0
 40
1.0
 40
1.0
 40
1.0
 10
33.4938868808
 20
8.6191686755
 30
0.0
 10
33.4935232193
 20
8.6195054233
 30
0.0
 10
33.4927221978
 20
8.6201331016
 30
0.0
 10
33.4913568338
 20
8.6209011874
 30
0.0
 10
33.4898149609
 20
8.6215128161
 30
0.0
 10
33.4881052262
 20
8.6219855205
 30
0.0
 10
33.4862326537
 20
8.6223355961
 30
0.0
 10
33.4842028297
 20
8.6225745475
 30
0.0
 10
33.4820226497
 20
8.6227128953
 30
0.0
 10
33.4788374677
 20
8.6227712611
 30
0.0
 10
33.4745370075
 20
8.6226003297
 30
0.0
 10
33.4690591435
 20
8.6220009969
 30
0.0
 10
33.4632361711
 20
8.6209179366
 30
0.0
 10
33.4593067537
 20
8.6198196355
 30
0.0
 10
33.4573183383
 20
8.6191686755
 30
0.0
  0
ENDSEC
  0
SECTION
  2
OBJECTS
  0
DICTIONARY
  5
C
100
AcDbDictionary
280
0
281
1
  3
ACAD_GROUP
350
D
  3
ACAD_MLINESTYLE
350
17
  3
ACAD_LAYOUT
350
1A
  3
ACAD_PLOTSETTINGS
350
19
  3
ACAD_PLOTSTYLENAME
350
E
  0
DICTIONARY
  5
D
102
{ACAD_REACTORS
330
C
102
}
100
AcDbDictionary
280
0
281
1
  0
ACDBDICTIONARYWDFLT
  5
E
102
{ACAD_REACTORS
330
C
102
}
100
AcDbDictionary
281
1
  3
Normal
350
F
100
AcDbDictionaryWithDefault
340
F
  0
DICTIONARY
  5
17
102
{ACAD_REACTORS
330
C
102
}
100
AcDbDictionary
280
0
281
1
  3
Standard
350
18
  0
DICTIONARY
  5
19
102
{ACAD_REACTORS
330
C
102
}
100
AcDbDictionary
281
1
  0
DICTIONARY
  5
1A
102
{ACAD_REACTORS
330
C
102
}
100
AcDbDictionary
281
1
  3
Model
350
2EF
  3
Layout1
350
2F0
  0
ACDBPLACEHOLDER
  5
F
102
{ACAD_REACTORS
330
E
102
}
  0
MLINESTYLE
  5
18
102
{ACAD_REACTORS
330
17
102
}
100
AcDbMlineStyle
  2
STANDARD
 70
0
  3

 62
256
 51
90.0
 52
90.0
 71
2
 49
0.5
 62
256
  6
BYLAYER
 49
-0.5
 62
256
  6
BYLAYER
  0
LAYOUT
  5
2EF
102
{ACAD_REACTORS
330
1A
102
}
100
AcDbPlotSettings
  1

  2
none_device
  4
ANSI_C_(22.00_x_17.00_Inches)
  6

 40
0.0
 41
0.0
 42
0.0
 43
0.0
 44
558.8
 45
431.8
 46
0.0
 47
0.0
 48
0.0
 49
0.0
140
0.0
141
0.0
142
1.0
143
1.0
 70
1024
 72
0
 73
0
 74
0
  7

 75
0
147
1.0
148
0.0
149
0.0
100
AcDbLayout
  1
Model
 70
0
 71
0
 10
0.0
 20
0.0
 11
22.0
 21
17.0
 12
0.0
 22
0.0
 32
0.0
 14
0.0
 24
0.0
 34
0.0
 15
0.0
 25
0.0
 35
0.0
146
0.0
 13
0.0
 23
0.0
 33
0.0
 16
1.0
 26
0.0
 36
0.0
 17
0.0
 27
1.0
 37
0.0
 76
0
330
205
345
0
346
0
  0
LAYOUT
  5
2F0
102
{ACAD_REACTORS
330
1A
102
}
100
AcDbPlotSettings
  1

  2
none_device
  4
ANSI_C_(22.00_x_17.00_Inches)
  6

 40
0.0
 41
0.0
 42
0.0
 43
0.0
 44
558.8
 45
431.8
 46
0.0
 47
0.0
 48
0.0
 49
0.0
140
0.0
141
0.0
142
1.0
143
1.0
 70
0
 72
0
 73
0
 74
0
  7

 75
0
147
1.0
148
0.0
149
0.0
100
AcDbLayout
  1
Layout1
 70
0
 71
1
 10
0.0
 20
0.0
 11
22.0
 21
17.0
 12
0.0
 22
0.0
 32
0.0
 14
0.0
 24
0.0
 34
0.0
 15
0.0
 25
0.0
 35
0.0
146
0.0
 13
0.0
 23
0.0
 33
0.0
 16
1.0
 26
0.0
 36
0.0
 17
0.0
 27
1.0
 37
0.0
 76
0
330
206
345
0
346
0
  0
ENDSEC
  0
EOF
