999
DXF file: E:\BT Custom\CADOUTPUT\_TOP.dxf
999
Pro/ENGINEER 2018400 by Parametric Technology Corporation
  0
SECTION
  2
HEADER
  9
$ACADVER
  1
AC1018
  9
$DWGCODEPAGE
  3
ANSI_1252
  9
$EXTMAX
 10
22.0
 20
17.0
 30
0.0
  9
$EXTMIN
 10
0.0
 20
0.0
 30
0.0
  9
$LIMMIN
 10
0.0
 20
0.0
  9
$LIMMAX
 10
22.0
 20
17.0
  9
$VIEWCTR
 10
11.0
 20
8.5
  9
$VIEWSIZE
 40
17.0
  9
$CLAYER
  8
0
  9
$LTSCALE
 40
1.21
  9
$CELTYPE
  6
BYLAYER
  9
$DIMSCALE
 40
1.0
  9
$DIMASZ
 40
0.1
  9
$DIMEXO
 40
0.0625
  9
$DIMDLI
 40
0.836
  9
$DIMEXE
 40
0.125
  9
$DIMCEN
 40
0.198
  9
$DIMLFAC
 40
1.0
  9
$DIMBLK
  1
_FILLED
  9
$DIMALT
 70
1
  9
$DIMALTD
 70
2
  9
$DIMALTTD
 70
2
  9
$DIMALTF
 40
25.4
  9
$DIMTXT
 40
0.08
  9
$DIMTOL
 70
1
  9
$DIMLIM
 70
0
  9
$DIMTFAC
 40
1.0
  9
$DIMTP
 40
0.001
  9
$DIMTM
 40
0.001
  9
$DIMGAP
 40
0.09
  9
$DIMDSEP
 70
46
  9
$AUNITS
 70
0
  9
$PDMODE
 70
3
  9
$PDSIZE
 40
0.06
  9
$HANDSEED
  5
41C
  9
$TILEMODE
 70
1
  9
$MEASUREMENT
 70
0
  9
$INSUNITS
 70
1
  0
ENDSEC
  0
SECTION
  2
CLASSES
  0
CLASS
  1
ACDBDICTIONARYWDFLT
  2
AcDbDictionaryWithDefault
  3
AutoCAD 2000
 90
0
 91
1
280
0
281
0
  0
CLASS
  1
ACDBPLACEHOLDER
  2
AcDbPlaceHolder
  3
AutoCAD 2000
 90
0
 91
1
280
0
281
0
  0
CLASS
  1
LAYOUT
  2
AcDbLayout
  3
AutoCAD 2000
 90
0
 91
0
280
0
281
0
  0
ENDSEC
  0
SECTION
  2
TABLES
  0
TABLE
  2
VPORT
  5
8
100
AcDbSymbolTable
 70
2
  0
VPORT
  5
1F4
100
AcDbSymbolTableRecord
100
AcDbViewportTableRecord
  2
*ACTIVE
 70
0
 10
0.0
 20
0.0
 11
1.0
 21
1.0
 12
11.0
 22
8.5
 13
0.0
 23
0.0
 14
1.0
 24
1.0
 15
0.0
 25
0.0
 16
0.0
 26
0.0
 36
1.0
 17
0.0
 27
0.0
 37
0.0
 40
17.0
 41
1.2941176471
 42
50.0
 43
0.0
 44
0.0
 50
0.0
 51
0.0
 71
0
 72
100
 73
1
 74
1
 75
0
 76
0
 77
0
 78
0
  0
ENDTAB
  0
TABLE
  2
LTYPE
  5
5
100
AcDbSymbolTable
 70
6
  0
LTYPE
  5
14
100
AcDbSymbolTableRecord
100
AcDbLinetypeTableRecord
  2
BYBLOCK
 70
0
  3

 72
65
 73
0
 40
0.0
  0
LTYPE
  5
15
100
AcDbSymbolTableRecord
100
AcDbLinetypeTableRecord
  2
BYLAYER
 70
0
  3

 72
65
 73
0
 40
0.0
  0
LTYPE
  5
16
100
AcDbSymbolTableRecord
100
AcDbLinetypeTableRecord
  2
CONTINUOUS
 70
64
  3
Solid line
 72
65
 73
0
 40
0.0
  0
LTYPE
  5
1F5
100
AcDbSymbolTableRecord
100
AcDbLinetypeTableRecord
  2
CENTER
 70
64
  3
____ _ ____ _ ____ _ ____ _ ____ _ ____ _ ____
 72
65
 73
4
 40
0.6
 49
0.375
 74
0
 49
-0.075
 74
0
 49
0.075
 74
0
 49
-0.075
 74
0
  0
LTYPE
  5
1F6
100
AcDbSymbolTableRecord
100
AcDbLinetypeTableRecord
  2
HIDDEN
 70
64
  3
- - - - - - - - - - - - - - - - - - - -
 72
65
 73
2
 40
0.2
 49
0.1
 74
0
 49
-0.1
 74
0
  0
LTYPE
  5
1F7
100
AcDbSymbolTableRecord
100
AcDbLinetypeTableRecord
  2
PHANTOM
 70
64
  3
_____ _ _ _____ _ _ _____ _ _ _____
 72
65
 73
6
 40
0.8
 49
0.45
 74
0
 49
-0.05
 74
0
 49
0.1
 74
0
 49
-0.05
 74
0
 49
0.1
 74
0
 49
-0.05
 74
0
  0
LTYPE
  5
1F8
100
AcDbSymbolTableRecord
100
AcDbLinetypeTableRecord
  2
DOT
 70
64
  3
. . . . . . . . . . . . . . . . . . . .
 72
65
 73
2
 40
0.2
 49
0.1
 74
0
 49
-0.1
 74
0
  0
LTYPE
  5
1F9
100
AcDbSymbolTableRecord
100
AcDbLinetypeTableRecord
  2
DASHED
 70
64
  3
- - - - - - - - - - - - - - - - - - - -
 72
65
 73
2
 40
0.2
 49
0.1
 74
0
 49
-0.1
 74
0
  0
ENDTAB
  0
TABLE
  2
LAYER
  5
2
100
AcDbSymbolTable
 70
36
  0
LAYER
  5
10
100
AcDbSymbolTableRecord
100
AcDbLayerTableRecord
  2
0
 70
0
 62
7
  6
CONTINUOUS
370
-3
390
F
  0
LAYER
  5
1FA
100
AcDbSymbolTableRecord
100
AcDbLayerTableRecord
  2
DEFAULT_1
 70
0
 62
7
  6
CENTER
370
-3
390
F
  0
LAYER
  5
1FB
100
AcDbSymbolTableRecord
100
AcDbLayerTableRecord
  2
DEFAULT_2
 70
0
 62
8
  6
HIDDEN
370
-3
390
F
  0
LAYER
  5
1FC
100
AcDbSymbolTableRecord
100
AcDbLayerTableRecord
  2
DEFAULT_3
 70
0
 62
7
  6
PHANTOM
370
-3
390
F
  0
LAYER
  5
1FD
100
AcDbSymbolTableRecord
100
AcDbLayerTableRecord
  2
ALL_FEATURES
 70
0
 62
7
  6
CONTINUOUS
370
-3
390
F
  0
LAYER
  5
1FE
100
AcDbSymbolTableRecord
100
AcDbLayerTableRecord
  2
AXES_FEATURES
 70
0
 62
7
  6
CONTINUOUS
370
-3
390
F
  0
LAYER
  5
1FF
100
AcDbSymbolTableRecord
100
AcDbLayerTableRecord
  2
DIMENSIONS
 70
0
 62
7
  6
CONTINUOUS
370
-3
390
F
  0
ENDTAB
  0
TABLE
  2
STYLE
  5
3
100
AcDbSymbolTable
 70
1
  0
STYLE
  5
11
100
AcDbSymbolTableRecord
100
AcDbTextStyleTableRecord
  2
STANDARD
 70
0
 40
0.0
 41
0.8
 50
0.0
 71
0
 42
0.2
  3
txt
  4

  0
STYLE
  5
200
100
AcDbSymbolTableRecord
100
AcDbTextStyleTableRecord
  2
TEXTSTYLE_1
 70
0
 40
0.0
 41
0.8
 50
0.0
 71
0
 42
0.2
  3
gdt
  4

  0
ENDTAB
  0
TABLE
  2
VIEW
  5
6
100
AcDbSymbolTable
 70
0
  0
ENDTAB
  0
TABLE
  2
UCS
  5
7
100
AcDbSymbolTable
 70
0
  0
ENDTAB
  0
TABLE
  2
APPID
  5
9
100
AcDbSymbolTable
 70
1
  0
APPID
  5
201
100
AcDbSymbolTableRecord
100
AcDbRegAppTableRecord
  2
ACAD
 70
0
  0
ENDTAB
  0
TABLE
  2
BLOCK_RECORD
  5
1
100
AcDbSymbolTable
 70
0
  0
BLOCK_RECORD
  5
202
100
AcDbSymbolTableRecord
100
AcDbBlockTableRecord
  2
*Model_Space
  0
BLOCK_RECORD
  5
203
100
AcDbSymbolTableRecord
100
AcDbBlockTableRecord
  2
*Paper_Space
  0
BLOCK_RECORD
  5
204
100
AcDbSymbolTableRecord
100
AcDbBlockTableRecord
  2
_FILLED
  0
ENDTAB
  0
TABLE
  2
DIMSTYLE
  5
A
100
AcDbSymbolTable
 70
1
100
AcDbDimStyleTable
 71
0
  0
DIMSTYLE
105
205
100
AcDbSymbolTableRecord
100
AcDbDimStyleTableRecord
  2
STANDARD
 70
0
  3

  4

 40
1.0
 41
0.1
 42
0.0625
 43
0.38
 44
0.125
 45
0.0
 46
0.0
 47
0.001
 48
0.001
140
0.08
141
0.09
142
0.0
143
25.4
144
1.0
145
0.0
146
1.0
147
0.09
 71
1.0
 72
0.0
 73
1
 74
1
 75
0
 76
0
 77
0
 78
4
 79
1
170
1
171
2
172
0
173
0
174
0
175
0
176
0
177
0
178
0
270
2
179
3
271
3
272
3
273
2
274
2
275
0
280
0
281
0
282
0
283
1
284
4
285
0
286
0
287
3
288
0
340
11
278
46
341
204
342
204
343
204
344
204
  0
ENDTAB
  0
ENDSEC
  0
SECTION
  2
BLOCKS
  0
BLOCK
  5
20
100
AcDbEntity
  8
0
100
AcDbBlockBegin
  2
*Model_Space
 70
0
 10
0.0
 20
0.0
 30
0.0
  3
*Model_Space
  1

  0
ENDBLK
  5
21
100
AcDbEntity
  8
0
100
AcDbBlockEnd
  0
BLOCK
  5
1C
100
AcDbEntity
  8
0
100
AcDbBlockBegin
  2
*Paper_Space
 70
0
 10
0.0
 20
0.0
 30
0.0
  3
*Paper_Space
  1

  0
ENDBLK
  5
1D
100
AcDbEntity
  8
0
100
AcDbBlockEnd
  0
BLOCK
  5
206
100
AcDbEntity
  8
0
100
AcDbBlockBegin
  2
_FILLED
 70
64
 10
0.0
 20
0.0
  3
_FILLED
  1

  0
SOLID
  5
207
100
AcDbEntity
  8
0
  6
BYBLOCK
 62
0
100
AcDbTrace
 10
0.0
 20
0.0
 11
-1.0
 21
0.2
 12
-1.0
 22
-0.2
 13
-1.0
 23
-0.2
  0
ENDBLK
  5
208
100
AcDbEntity
  8
0
  6
BYBLOCK
 62
0
100
AcDbBlockEnd
  0
ENDSEC
  0
SECTION
  2
ENTITIES
  0
LINE
  5
209
100
AcDbEntity
  8
0
100
AcDbLine
 62
7
  6
CONTINUOUS
 10
4.0158183383
 20
9.5913318604
 11
4.0158183383
 21
10.0313318604
  0
LINE
  5
20A
100
AcDbEntity
  8
0
100
AcDbLine
 62
9
  6
CONTINUOUS
 10
4.0458183383
 20
10.0613318604
 11
4.0458183383
 21
9.5613318604
  0
LINE
  5
20B
100
AcDbEntity
  8
0
100
AcDbLine
 62
7
  6
CONTINUOUS
 10
5.8523183383
 20
8.6763318604
 11
5.8523183383
 21
9.5613318604
  0
LINE
  5
20C
100
AcDbEntity
  8
0
100
AcDbLine
 62
7
  6
CONTINUOUS
 10
5.8523183383
 20
10.0613318604
 11
5.8523183383
 21
10.9463318604
  0
LINE
  5
20D
100
AcDbEntity
  8
0
100
AcDbLine
 62
9
  6
CONTINUOUS
 10
5.8823183383
 20
10.9463318604
 11
5.8823183383
 21
10.0613318604
  0
LINE
  5
20E
100
AcDbEntity
  8
0
100
AcDbLine
 62
9
  6
CONTINUOUS
 10
5.8823183383
 20
9.5613318604
 11
5.8823183383
 21
8.6763318604
  0
LINE
  5
20F
100
AcDbEntity
  8
0
100
AcDbLine
 62
9
  6
CONTINUOUS
 10
5.9123183383
 20
11.0063318604
 11
5.9123183383
 21
10.9763318604
  0
LINE
  5
210
100
AcDbEntity
  8
0
100
AcDbLine
 62
9
  6
CONTINUOUS
 10
5.9123183383
 20
8.6463318604
 11
5.9123183383
 21
8.6163318604
  0
LINE
  5
211
100
AcDbEntity
  8
0
100
AcDbLine
 62
7
  6
CONTINUOUS
 10
6.1748183383
 20
8.9988318604
 11
6.1748183383
 21
9.5613318604
  0
LINE
  5
212
100
AcDbEntity
  8
0
100
AcDbLine
 62
7
  6
CONTINUOUS
 10
6.1748183383
 20
10.0613318604
 11
6.1748183383
 21
10.6238318604
  0
LINE
  5
213
100
AcDbEntity
  8
0
100
AcDbLine
 62
9
  6
CONTINUOUS
 10
6.2048183383
 20
10.6238318604
 11
6.2048183383
 21
10.0613318604
  0
LINE
  5
214
100
AcDbEntity
  8
0
100
AcDbLine
 62
9
  6
CONTINUOUS
 10
6.2048183383
 20
9.5613318604
 11
6.2048183383
 21
8.9988318604
  0
LINE
  5
215
100
AcDbEntity
  8
0
100
AcDbLine
 62
9
  6
CONTINUOUS
 10
6.2348183383
 20
10.6838318604
 11
6.2348183383
 21
10.6538318604
  0
LINE
  5
216
100
AcDbEntity
  8
0
100
AcDbLine
 62
9
  6
CONTINUOUS
 10
6.2348183383
 20
8.9688318604
 11
6.2348183383
 21
8.9388318604
  0
LINE
  5
217
100
AcDbEntity
  8
0
100
AcDbLine
 62
9
  6
CONTINUOUS
 10
6.2747066582
 20
9.1273528782
 11
6.2747066582
 21
9.5613318604
  0
LINE
  5
218
100
AcDbEntity
  8
0
100
AcDbLine
 62
9
  6
CONTINUOUS
 10
6.2747066582
 20
10.0613318604
 11
6.2747066582
 21
10.4953108427
  0
LINE
  5
219
100
AcDbEntity
  8
0
100
AcDbLine
 62
9
  6
CONTINUOUS
 10
6.3042508908
 20
10.4953108427
 11
6.3042508908
 21
10.0613318604
  0
LINE
  5
21A
100
AcDbEntity
  8
0
100
AcDbLine
 62
9
  6
CONTINUOUS
 10
6.3042508908
 20
9.5613318604
 11
6.3042508908
 21
9.1273528782
  0
LINE
  5
21B
100
AcDbEntity
  8
0
100
AcDbLine
 62
9
  6
CONTINUOUS
 10
6.3633393512
 20
10.5839435405
 11
6.3633393512
 21
10.5543993079
  0
LINE
  5
21C
100
AcDbEntity
  8
0
100
AcDbLine
 62
9
  6
CONTINUOUS
 10
6.363339356
 20
9.0682644129
 11
6.363339356
 21
9.0387201804
  0
LINE
  5
21D
100
AcDbEntity
  8
0
100
AcDbLine
 62
7
  6
CONTINUOUS
 10
6.5083183383
 20
9.3323318604
 11
6.5083183383
 21
9.5613318604
  0
LINE
  5
21E
100
AcDbEntity
  8
0
100
AcDbLine
 62
7
  6
CONTINUOUS
 10
6.5083183383
 20
10.0613318604
 11
6.5083183383
 21
10.2903318604
  0
LINE
  5
21F
100
AcDbEntity
  8
0
100
AcDbLine
 62
9
  6
CONTINUOUS
 10
6.5383183383
 20
10.2903318604
 11
6.5383183383
 21
10.0613318604
  0
LINE
  5
220
100
AcDbEntity
  8
0
100
AcDbLine
 62
9
  6
CONTINUOUS
 10
6.5383183383
 20
9.5613318604
 11
6.5383183383
 21
9.3323318604
  0
LINE
  5
221
100
AcDbEntity
  8
0
100
AcDbLine
 62
9
  6
CONTINUOUS
 10
6.5683183383
 20
10.3503318604
 11
6.5683183383
 21
10.3203318604
  0
LINE
  5
222
100
AcDbEntity
  8
0
100
AcDbLine
 62
9
  6
CONTINUOUS
 10
6.5683183383
 20
9.3023318604
 11
6.5683183383
 21
9.2723318604
  0
LINE
  5
223
100
AcDbEntity
  8
0
100
AcDbLine
 62
9
  6
CONTINUOUS
 10
6.6438183383
 20
9.5613318604
 11
6.6438183383
 21
10.0613318604
  0
LINE
  5
224
100
AcDbEntity
  8
0
100
AcDbLine
 62
7
  6
CONTINUOUS
 10
6.7038183383
 20
9.4978318604
 11
6.7038183383
 21
10.1248318604
  0
LINE
  5
225
100
AcDbEntity
  8
0
100
AcDbLine
 62
9
  6
CONTINUOUS
 10
6.7338183383
 20
10.1548318604
 11
6.7338183383
 21
9.4678318604
  0
LINE
  5
226
100
AcDbEntity
  8
0
100
AcDbLine
 62
9
  6
CONTINUOUS
 10
6.5084240578
 20
9.3315271641
 11
6.3042508908
 21
9.1273528782
  0
LINE
  5
227
100
AcDbEntity
  8
0
100
AcDbLine
 62
9
  6
CONTINUOUS
 10
7.7312973206
 20
10.5543993079
 11
7.5271254803
 21
10.3502258468
  0
LINE
  5
228
100
AcDbEntity
  8
0
100
AcDbLine
 62
9
  6
CONTINUOUS
 10
7.5862089013
 20
10.2911336877
 11
7.7903857857
 21
10.4953108427
  0
LINE
  5
229
100
AcDbEntity
  8
0
100
AcDbLine
 62
9
  6
CONTINUOUS
 10
6.363339356
 20
9.0682644129
 11
6.5675116922
 21
9.2724348693
  0
LINE
  5
22A
100
AcDbEntity
  8
0
100
AcDbLine
 62
9
  6
CONTINUOUS
 10
7.3608183383
 20
9.4678318604
 11
7.3608183383
 21
10.1548318604
  0
LINE
  5
22B
100
AcDbEntity
  8
0
100
AcDbLine
 62
7
  6
CONTINUOUS
 10
7.3908183383
 20
10.1248318604
 11
7.3908183383
 21
9.4978318604
  0
LINE
  5
22C
100
AcDbEntity
  8
0
100
AcDbLine
 62
7
  6
CONTINUOUS
 10
11.5798183392
 20
3.8433318604
 11
10.5148183383
 21
3.8433318604
  0
LINE
  5
22D
100
AcDbEntity
  8
0
100
AcDbLine
 62
9
  6
CONTINUOUS
 10
7.4441516716
 20
9.5609603398
 11
7.4441516716
 21
10.061703381
  0
LINE
  5
22E
100
AcDbEntity
  8
0
100
AcDbLine
 62
7
  6
CONTINUOUS
 10
7.4708183383
 20
9.5907745795
 11
7.4708183383
 21
10.0318891413
  0
LINE
  5
22F
100
AcDbEntity
  8
0
100
AcDbLine
 62
9
  6
CONTINUOUS
 10
7.5263183383
 20
9.2723318604
 11
7.5263183383
 21
9.3023318604
  0
LINE
  5
230
100
AcDbEntity
  8
0
100
AcDbLine
 62
9
  6
CONTINUOUS
 10
7.5263183383
 20
10.3203318604
 11
7.5263183383
 21
10.3503318604
  0
LINE
  5
231
100
AcDbEntity
  8
0
100
AcDbLine
 62
9
  6
CONTINUOUS
 10
7.5563183383
 20
9.3323318604
 11
7.5563183383
 21
10.2903318604
  0
LINE
  5
232
100
AcDbEntity
  8
0
100
AcDbLine
 62
7
  6
CONTINUOUS
 10
7.5863183383
 20
10.2903318604
 11
7.5863183383
 21
9.3323318605
  0
LINE
  5
233
100
AcDbEntity
  8
0
100
AcDbLine
 62
9
  6
CONTINUOUS
 10
7.7312973253
 20
9.0387201804
 11
7.7312973253
 21
9.0682644129
  0
LINE
  5
234
100
AcDbEntity
  8
0
100
AcDbLine
 62
9
  6
CONTINUOUS
 10
7.7312973206
 20
10.5543993079
 11
7.7312973206
 21
10.5839435405
  0
LINE
  5
235
100
AcDbEntity
  8
0
100
AcDbLine
 62
9
  6
CONTINUOUS
 10
7.7903857857
 20
9.1273528781
 11
7.7903857857
 21
10.4953108427
  0
LINE
  5
236
100
AcDbEntity
  8
0
100
AcDbLine
 62
9
  6
CONTINUOUS
 10
7.8199300183
 20
10.4953108427
 11
7.8199300183
 21
9.1273528781
  0
LINE
  5
237
100
AcDbEntity
  8
0
100
AcDbLine
 62
9
  6
CONTINUOUS
 10
7.8598183383
 20
8.9388318604
 11
7.8598183383
 21
8.9688318604
  0
LINE
  5
238
100
AcDbEntity
  8
0
100
AcDbLine
 62
9
  6
CONTINUOUS
 10
7.8598183383
 20
10.6538318604
 11
7.8598183383
 21
10.6838318604
  0
LINE
  5
239
100
AcDbEntity
  8
0
100
AcDbLine
 62
9
  6
CONTINUOUS
 10
7.8898183383
 20
8.9988318604
 11
7.8898183383
 21
10.6238318604
  0
LINE
  5
23A
100
AcDbEntity
  8
0
100
AcDbLine
 62
7
  6
CONTINUOUS
 10
7.9198183383
 20
10.6238318604
 11
7.9198183383
 21
8.9988318605
  0
LINE
  5
23B
100
AcDbEntity
  8
0
100
AcDbLine
 62
9
  6
CONTINUOUS
 10
10.5207342258
 20
4.0378218533
 11
10.5806940026
 21
4.0399943978
  0
LINE
  5
23C
100
AcDbEntity
  8
0
100
AcDbLine
 62
9
  6
CONTINUOUS
 10
10.6426973088
 20
4.2195527002
 11
10.5825970175
 21
4.2194333348
  0
LINE
  5
23D
100
AcDbEntity
  8
0
100
AcDbLine
 62
9
  6
CONTINUOUS
 10
10.4548183383
 20
3.9033318604
 11
11.6398183383
 21
3.9033318604
  0
LINE
  5
23E
100
AcDbEntity
  8
0
100
AcDbLine
 62
9
  6
CONTINUOUS
 10
11.4540249584
 20
3.9204928915
 11
10.6406117181
 21
3.9204928915
  0
LINE
  5
23F
100
AcDbEntity
  8
0
100
AcDbLine
 62
9
  6
CONTINUOUS
 10
10.6406117183
 20
3.9795813575
 11
11.4540249583
 21
3.9795813579
  0
LINE
  5
240
100
AcDbEntity
  8
0
100
AcDbLine
 62
9
  6
CONTINUOUS
 10
11.4519393676
 20
4.1604642354
 11
10.6426973089
 21
4.1604642354
  0
LINE
  5
241
100
AcDbEntity
  8
0
100
AcDbLine
 62
9
  6
CONTINUOUS
 10
11.6398183383
 20
4.2010718928
 11
11.5798183383
 21
4.2010718928
  0
LINE
  5
242
100
AcDbEntity
  8
0
100
AcDbLine
 62
9
  6
CONTINUOUS
 10
10.5148183383
 20
4.2010718769
 11
10.4548183383
 21
4.2010718769
  0
LINE
  5
243
100
AcDbEntity
  8
0
100
AcDbLine
 62
9
  6
CONTINUOUS
 10
10.6426973089
 20
4.2195527002
 11
11.4519393676
 21
4.2195527004
  0
LINE
  5
244
100
AcDbEntity
  8
0
100
AcDbLine
 62
9
  6
CONTINUOUS
 10
11.4519393678
 20
4.2195527004
 11
11.5120401537
 21
4.2194329442
  0
LINE
  5
245
100
AcDbEntity
  8
0
100
AcDbLine
 62
9
  6
CONTINUOUS
 10
11.5739026539
 20
4.0378218458
 11
11.5139426711
 21
4.0399943489
  0
LINE
  5
246
100
AcDbEntity
  8
0
100
AcDbLine
 62
9
  6
CONTINUOUS
 10
8.1823183383
 20
8.6163318604
 11
8.1823183383
 21
8.6463318604
  0
LINE
  5
247
100
AcDbEntity
  8
0
100
AcDbLine
 62
9
  6
CONTINUOUS
 10
8.1823183383
 20
10.9763318604
 11
8.1823183383
 21
11.0063318604
  0
LINE
  5
248
100
AcDbEntity
  8
0
100
AcDbLine
 62
9
  6
CONTINUOUS
 10
8.2123183383
 20
8.6763318604
 11
8.2123183383
 21
10.9463318604
  0
LINE
  5
249
100
AcDbEntity
  8
0
100
AcDbLine
 62
7
  6
CONTINUOUS
 10
8.2423183383
 20
10.9463318604
 11
8.2423183383
 21
8.6763318605
  0
LINE
  5
24A
100
AcDbEntity
  8
0
100
AcDbLine
 62
9
  6
CONTINUOUS
 10
10.5032219774
 20
4.8410002119
 11
10.5515496013
 21
4.8427537916
  0
LINE
  5
24B
100
AcDbEntity
  8
0
100
AcDbLine
 62
9
  6
CONTINUOUS
 10
11.5914145514
 20
4.8410002167
 11
11.5430870352
 21
4.8427540801
  0
LINE
  5
24C
100
AcDbEntity
  8
0
100
AcDbLine
 62
9
  6
CONTINUOUS
 10
10.5541499717
 20
5.2749439337
 11
10.554086866
 21
5.2749424639
  0
LINE
  5
24D
100
AcDbEntity
  8
0
100
AcDbLine
 62
9
  6
CONTINUOUS
 10
10.4548183383
 20
4.916845052
 11
10.5148183383
 21
4.916845052
  0
LINE
  5
24E
100
AcDbEntity
  8
0
100
AcDbLine
 62
9
  6
CONTINUOUS
 10
11.6398183383
 20
4.9168453053
 11
11.5798183383
 21
4.9168453053
  0
LINE
  5
24F
100
AcDbEntity
  8
0
100
AcDbLine
 62
9
  6
CONTINUOUS
 10
10.4548183383
 20
4.9413318604
 11
10.5383088717
 21
4.9413319066
  0
LINE
  5
250
100
AcDbEntity
  8
0
100
AcDbLine
 62
9
  6
CONTINUOUS
 10
11.5563278173
 20
4.9413319076
 11
11.6398183383
 21
4.9413318604
  0
LINE
  5
251
100
AcDbEntity
  8
0
100
AcDbLine
 62
7
  6
CONTINUOUS
 10
10.5148183373
 20
5.0013318604
 11
10.5568571302
 21
5.0013318604
  0
LINE
  5
252
100
AcDbEntity
  8
0
100
AcDbLine
 62
7
  6
CONTINUOUS
 10
11.5377705363
 20
5.0013318604
 11
11.5798183383
 21
5.0013318604
  0
LINE
  5
253
100
AcDbEntity
  8
0
100
AcDbLine
 62
9
  6
CONTINUOUS
 10
11.5404867056
 20
5.2749439266
 11
11.5405498114
 21
5.2749424569
  0
LINE
  5
254
100
AcDbEntity
  8
0
100
AcDbLine
 62
9
  6
CONTINUOUS
 10
11.9157973206
 20
10.7388993079
 11
11.4612037352
 21
10.2843057225
  0
LINE
  5
255
100
AcDbEntity
  8
0
100
AcDbLine
 62
9
  6
CONTINUOUS
 10
10.2956322525
 20
9.1187342398
 11
10.1197508908
 21
8.942852878
  0
LINE
  5
256
100
AcDbEntity
  8
0
100
AcDbLine
 62
9
  6
CONTINUOUS
 10
10.1788393559
 20
8.8837644129
 11
10.3547208135
 21
9.0596458704
  0
LINE
  5
257
100
AcDbEntity
  8
0
100
AcDbLine
 62
9
  6
CONTINUOUS
 10
11.5202922004
 20
10.2252172573
 11
11.9748857857
 21
10.6798108428
  0
LINE
  5
258
100
AcDbEntity
  8
0
100
AcDbLine
 62
9
  6
CONTINUOUS
 10
10.5743444762
 20
9.3391835475
 11
10.3374142303
 21
9.1252947119
  0
LINE
  5
259
100
AcDbEntity
  8
0
100
AcDbLine
 62
7
  6
CONTINUOUS
 10
9.7373183383
 20
8.5613318605
 11
9.7373183383
 21
11.0613318604
  0
LINE
  5
25A
100
AcDbEntity
  8
0
100
AcDbLine
 62
9
  6
CONTINUOUS
 10
9.7673183383
 20
11.0613318604
 11
9.7673183383
 21
8.5613318604
  0
LINE
  5
25B
100
AcDbEntity
  8
0
100
AcDbLine
 62
9
  6
CONTINUOUS
 10
9.7973183383
 20
11.1213318604
 11
9.7973183383
 21
11.0913318604
  0
LINE
  5
25C
100
AcDbEntity
  8
0
100
AcDbLine
 62
9
  6
CONTINUOUS
 10
9.7973183383
 20
8.5313318604
 11
9.7973183383
 21
8.5013318604
  0
LINE
  5
25D
100
AcDbEntity
  8
0
100
AcDbLine
 62
7
  6
CONTINUOUS
 10
10.0253183383
 20
8.8493318592
 11
10.0253183383
 21
10.7733318604
  0
LINE
  5
25E
100
AcDbEntity
  8
0
100
AcDbLine
 62
9
  6
CONTINUOUS
 10
10.0553183383
 20
10.7733318604
 11
10.0553183383
 21
8.8493318604
  0
LINE
  5
25F
100
AcDbEntity
  8
0
100
AcDbLine
 62
9
  6
CONTINUOUS
 10
6.3042508908
 20
10.4953108427
 11
6.5084239632
 21
10.2911360428
  0
LINE
  5
260
100
AcDbEntity
  8
0
100
AcDbLine
 62
9
  6
CONTINUOUS
 10
7.5271245023
 20
9.2724377655
 11
7.7312973205
 21
9.0682644129
  0
LINE
  5
261
100
AcDbEntity
  8
0
100
AcDbLine
 62
9
  6
CONTINUOUS
 10
7.7903857857
 20
9.1273528781
 11
7.5862149323
 21
9.3315220712
  0
LINE
  5
262
100
AcDbEntity
  8
0
100
AcDbLine
 62
9
  6
CONTINUOUS
 10
6.5675176128
 20
10.3502225737
 11
6.363339356
 21
10.5543993079
  0
LINE
  5
263
100
AcDbEntity
  8
0
100
AcDbLine
 62
9
  6
CONTINUOUS
 10
10.5148183383
 20
4.2010718769
 11
10.5207342257
 21
4.0378218532
  0
LINE
  5
264
100
AcDbEntity
  8
0
100
AcDbLine
 62
7
  6
CONTINUOUS
 10
10.554086866
 20
5.2749424639
 11
10.4833071165
 21
8.3196514152
  0
LWPOLYLINE
  5
265
100
AcDbEntity
  8
0
100
AcDbPolyline
 62
7
  6
CONTINUOUS
 90
16
 70
0
 10
10.5541047979
 20
5.274942877
 10
10.5549139107
 20
5.2371265346
 10
10.5557517521
 20
5.1882718949
 10
10.5563433134
 20
5.1418233178
 10
10.5567195767
 20
5.0982225893
 10
10.5569078074
 20
5.0578110621
 10
10.5569302182
 20
5.0208791361
 10
10.55680584
 20
4.9876143633
 10
10.5565503362
 20
4.9581150013
 10
10.5561774434
 20
4.9324178586
 10
10.5556998365
 20
4.9105075092
 10
10.5551317397
 20
4.8923426291
 10
10.5544925316
 20
4.8778731142
 10
10.5538162683
 20
4.8670790409
 10
10.5531852859
 20
4.86012306
 10
10.5531246701
 20
4.8595986818
  0
LINE
  5
266
100
AcDbEntity
  8
0
100
AcDbLine
 62
7
  6
CONTINUOUS
 10
10.5743458148
 20
9.3375352669
 11
10.5743444665
 21
9.3391835475
  0
LINE
  5
267
100
AcDbEntity
  8
0
100
AcDbLine
 62
9
  6
CONTINUOUS
 10
10.0853183383
 20
10.8333318604
 11
10.0853183383
 21
10.8033318604
  0
LINE
  5
268
100
AcDbEntity
  8
0
100
AcDbLine
 62
9
  6
CONTINUOUS
 10
10.0853183383
 20
8.8193318604
 11
10.0853183383
 21
8.7893318604
  0
LINE
  5
269
100
AcDbEntity
  8
0
100
AcDbLine
 62
9
  6
CONTINUOUS
 10
10.0902066582
 20
8.9428528781
 11
10.0902066582
 21
10.6798108428
  0
LINE
  5
26A
100
AcDbEntity
  8
0
100
AcDbLine
 62
9
  6
CONTINUOUS
 10
10.1197508908
 20
10.6798108428
 11
10.1197508908
 21
8.942852878
  0
LINE
  5
26B
100
AcDbEntity
  8
0
100
AcDbLine
 62
9
  6
CONTINUOUS
 10
10.178839356
 20
10.7684435405
 11
10.178839356
 21
10.7388993079
  0
LINE
  5
26C
100
AcDbEntity
  8
0
100
AcDbLine
 62
9
  6
CONTINUOUS
 10
10.1788393549
 20
8.8837644129
 11
10.1788393549
 21
8.8542201804
  0
LINE
  5
26D
100
AcDbEntity
  8
0
100
AcDbLine
 62
7
  6
CONTINUOUS
 10
10.4548183383
 20
3.9033318595
 11
10.4548183383
 21
4.9413318604
  0
LINE
  5
26E
100
AcDbEntity
  8
0
100
AcDbLine
 62
9
  6
CONTINUOUS
 10
10.5148183383
 20
4.2010718769
 11
10.5148183383
 21
3.8433318604
  0
LINE
  5
26F
100
AcDbEntity
  8
0
100
AcDbLine
 62
9
  6
CONTINUOUS
 10
10.514817998
 20
4.9168448183
 11
10.5148183383
 21
5.0013318604
  0
LINE
  5
270
100
AcDbEntity
  8
0
100
AcDbLine
 62
9
  6
CONTINUOUS
 10
10.5383088625
 20
5.0013318604
 11
10.5383088625
 21
4.9413318604
  0
LINE
  5
271
100
AcDbEntity
  8
0
100
AcDbLine
 62
9
  6
CONTINUOUS
 10
10.5743444762
 20
9.3391835475
 11
10.5743444762
 21
10.2252172573
  0
LINE
  5
272
100
AcDbEntity
  8
0
100
AcDbLine
 62
7
  6
CONTINUOUS
 10
10.6426973089
 20
4.2195527002
 11
10.6334342105
 21
9.3376319378
  0
LINE
  5
273
100
AcDbEntity
  8
0
100
AcDbLine
 62
9
  6
CONTINUOUS
 10
10.6334329414
 20
10.2843057225
 11
10.6334342105
 21
9.3376319378
  0
LINE
  5
274
100
AcDbEntity
  8
0
100
AcDbLine
 62
9
  6
CONTINUOUS
 10
10.6406117142
 20
3.9795813567
 11
10.6406117142
 21
3.9204928915
  0
LINE
  5
275
100
AcDbEntity
  8
0
100
AcDbLine
 62
9
  6
CONTINUOUS
 10
10.6426973089
 20
4.2195527003
 11
10.6426973089
 21
4.1604642354
  0
LINE
  5
276
100
AcDbEntity
  8
0
100
AcDbLine
 62
7
  6
CONTINUOUS
 10
10.7348183383
 20
9.5588318604
 11
10.7348183383
 21
10.0638318604
  0
LINE
  5
277
100
AcDbEntity
  8
0
100
AcDbLine
 62
9
  6
CONTINUOUS
 10
10.7648183383
 20
10.0638318604
 11
10.7648183383
 21
9.5588318604
  0
LINE
  5
278
100
AcDbEntity
  8
0
100
AcDbLine
 62
9
  6
CONTINUOUS
 10
10.7948183383
 20
10.1238318604
 11
10.7948183383
 21
10.0938318604
  0
LINE
  5
279
100
AcDbEntity
  8
0
100
AcDbLine
 62
9
  6
CONTINUOUS
 10
10.7948183383
 20
9.5288318604
 11
10.7948183383
 21
9.4988318604
  0
LINE
  5
27A
100
AcDbEntity
  8
0
100
AcDbLine
 62
9
  6
CONTINUOUS
 10
10.6406117183
 20
3.9795813575
 11
10.6426973089
 21
4.1604642354
  0
LINE
  5
27B
100
AcDbEntity
  8
0
100
AcDbLine
 62
9
  6
CONTINUOUS
 10
10.5515486648
 20
4.8427537376
 11
10.5529636201
 21
4.8582073701
  0
LWPOLYLINE
  5
27C
100
AcDbEntity
  8
0
100
AcDbPolyline
 62
7
  6
CONTINUOUS
 90
3
 70
0
 10
10.5531246701
 20
4.8595986818
 10
10.5528814825
 20
4.8577917759
 10
10.5530645525
 20
4.858664846
  0
LINE
  5
27D
100
AcDbEntity
  8
0
100
AcDbLine
 62
7
  6
CONTINUOUS
 10
11.725530987
 20
9.0677316755
 11
11.725455732
 21
9.0676269938
  0
LWPOLYLINE
  5
27E
100
AcDbEntity
  8
0
100
AcDbPolyline
 62
7
  6
CONTINUOUS
 90
3
 70
0
 10
11.7255309516
 20
9.0677316261
 10
11.7299201208
 20
9.0734058559
 10
11.7316582748
 20
9.0753311769
  0
LINE
  5
27F
100
AcDbEntity
  8
0
100
AcDbLine
 62
7
  6
CONTINUOUS
 10
11.5415564143
 20
4.8587346748
 11
11.5416754747
 21
4.8581961926
  0
LINE
  5
280
100
AcDbEntity
  8
0
100
AcDbLine
 62
9
  6
CONTINUOUS
 10
11.5416754747
 20
4.8581961926
 11
11.5430879419
 21
4.8427540473
  0
LWPOLYLINE
  5
281
100
AcDbEntity
  8
0
100
AcDbPolyline
 62
7
  6
CONTINUOUS
 90
14
 70
0
 10
11.5413747747
 20
4.860822675
 10
11.5407013275
 20
4.8687085749
 10
11.5399938891
 20
4.8808423665
 10
11.5393380375
 20
4.8970439737
 10
11.5387646667
 20
4.917485277
 10
11.538295068
 20
4.9423532475
 10
11.5379487947
 20
4.9717420835
 10
11.537744502
 20
5.0056533875
 10
11.5377026666
 20
5.0439785018
 10
11.5378460005
 20
5.0864919808
 10
11.5382012555
 20
5.1328008793
 10
11.5387994529
 20
5.1824142851
 10
11.539676356
 20
5.2347306235
 10
11.5405318785
 20
5.2749428692
  0
LINE
  5
282
100
AcDbEntity
  8
0
100
AcDbLine
 62
9
  6
CONTINUOUS
 10
11.4519393676
 20
4.1604642354
 11
11.4540249583
 21
3.9795813579
  0
LINE
  5
283
100
AcDbEntity
  8
0
100
AcDbLine
 62
9
  6
CONTINUOUS
 10
11.2998183383
 20
9.4988318604
 11
11.2998183383
 21
9.5288318604
  0
LINE
  5
284
100
AcDbEntity
  8
0
100
AcDbLine
 62
9
  6
CONTINUOUS
 10
11.2998183383
 20
10.0938318604
 11
11.2998183383
 21
10.1238318604
  0
LINE
  5
285
100
AcDbEntity
  8
0
100
AcDbLine
 62
9
  6
CONTINUOUS
 10
11.3298183383
 20
9.5588318604
 11
11.3298183383
 21
10.0638318604
  0
LINE
  5
286
100
AcDbEntity
  8
0
100
AcDbLine
 62
7
  6
CONTINUOUS
 10
11.3598183383
 20
10.0638318604
 11
11.3598183383
 21
9.5588318604
  0
LINE
  5
287
100
AcDbEntity
  8
0
100
AcDbLine
 62
9
  6
CONTINUOUS
 10
11.4519393676
 20
4.1604642354
 11
11.4519393676
 21
4.2195527003
  0
LINE
  5
288
100
AcDbEntity
  8
0
100
AcDbLine
 62
9
  6
CONTINUOUS
 10
11.4540249582
 20
3.9204928915
 11
11.4540249582
 21
3.9795813567
  0
LINE
  5
289
100
AcDbEntity
  8
0
100
AcDbLine
 62
9
  6
CONTINUOUS
 10
11.5202922004
 20
10.2252172573
 11
11.5202922004
 21
9.3391835459
  0
LINE
  5
28A
100
AcDbEntity
  8
0
100
AcDbLine
 62
9
  6
CONTINUOUS
 10
11.5563277059
 20
5.0013318604
 11
11.5563273525
 21
4.9413318604
  0
LINE
  5
28B
100
AcDbEntity
  8
0
100
AcDbLine
 62
9
  6
CONTINUOUS
 10
11.5798183383
 20
3.8433318604
 11
11.5798183383
 21
4.2010718929
  0
LINE
  5
28C
100
AcDbEntity
  8
0
100
AcDbLine
 62
9
  6
CONTINUOUS
 10
11.5798183383
 20
5.0013318604
 11
11.5798180911
 21
4.9168455228
  0
LINE
  5
28D
100
AcDbEntity
  8
0
100
AcDbLine
 62
7
  6
CONTINUOUS
 10
11.6398183383
 20
3.9033318604
 11
11.6398183383
 21
4.9413318614
  0
LINE
  5
28E
100
AcDbEntity
  8
0
100
AcDbLine
 62
9
  6
CONTINUOUS
 10
11.4612037352
 20
10.2843057225
 11
11.461202466
 21
9.3376319363
  0
LINE
  5
28F
100
AcDbEntity
  8
0
100
AcDbLine
 62
7
  6
CONTINUOUS
 10
11.461202466
 20
9.3376319363
 11
11.4519393676
 21
4.2195527004
  0
LINE
  5
290
100
AcDbEntity
  8
0
100
AcDbLine
 62
7
  6
CONTINUOUS
 10
11.5202922101
 20
9.3391835459
 11
11.5202882314
 21
9.3375352697
  0
LINE
  5
291
100
AcDbEntity
  8
0
100
AcDbLine
 62
7
  6
CONTINUOUS
 10
11.6113295591
 20
8.3196514162
 11
11.5405498114
 21
5.2749424569
  0
LWPOLYLINE
  5
292
100
AcDbEntity
  8
0
100
AcDbPolyline
 62
7
  6
CONTINUOUS
 90
9
 70
0
 10
11.6113118448
 20
8.3196518353
 10
11.6157930111
 20
8.446282705
 10
11.6243631858
 20
8.5814746587
 10
11.6367595527
 20
8.7080578215
 10
11.6526869337
 20
8.8213639298
 10
11.6715052005
 20
8.9174287549
 10
11.6920545182
 20
8.9927870577
 10
11.7118863562
 20
9.0437999828
 10
11.725455732
 20
9.0676269938
  0
LINE
  5
293
100
AcDbEntity
  8
0
100
AcDbLine
 62
7
  6
CONTINUOUS
 10
10.5529636201
 20
4.8582073701
 11
10.5530645525
 21
4.858664846
  0
LINE
  5
294
100
AcDbEntity
  8
0
100
AcDbLine
 62
7
  6
CONTINUOUS
 10
10.3648124418
 20
9.0732929554
 11
10.369104994
 21
9.0677326456
  0
LINE
  5
295
100
AcDbEntity
  8
0
100
AcDbLine
 62
7
  6
CONTINUOUS
 10
10.369104994
 20
9.0677326456
 11
10.3691768492
 21
9.0676326769
  0
LWPOLYLINE
  5
296
100
AcDbEntity
  8
0
100
AcDbPolyline
 62
7
  6
CONTINUOUS
 90
9
 70
0
 10
10.3691768225
 20
9.0676327139
 10
10.3829217314
 20
9.0434404725
 10
10.4027647179
 20
8.9922256394
 10
10.4233017156
 20
8.9166910191
 10
10.4420953855
 20
8.8204868069
 10
10.4579925944
 20
8.707077454
 10
10.4703571858
 20
8.5804232765
 10
10.4788962835
 20
8.4451871327
 10
10.4833248318
 20
8.3196518341
  0
LINE
  5
297
100
AcDbEntity
  8
0
100
AcDbLine
 62
7
  6
CONTINUOUS
 10
11.541748211
 20
4.8578310226
 11
11.5413747747
 21
4.860822675
  0
LINE
  5
298
100
AcDbEntity
  8
0
100
AcDbLine
 62
9
  6
CONTINUOUS
 10
11.9157973206
 20
8.8542201804
 11
11.9157973206
 21
8.8837644129
  0
LINE
  5
299
100
AcDbEntity
  8
0
100
AcDbLine
 62
9
  6
CONTINUOUS
 10
11.9157973217
 20
10.7388993079
 11
11.9157973217
 21
10.7684435405
  0
LINE
  5
29A
100
AcDbEntity
  8
0
100
AcDbLine
 62
9
  6
CONTINUOUS
 10
11.9748857857
 20
8.942852878
 11
11.9748857857
 21
10.6798108428
  0
LINE
  5
29B
100
AcDbEntity
  8
0
100
AcDbLine
 62
9
  6
CONTINUOUS
 10
12.0044300183
 20
10.6798108428
 11
12.0044300183
 21
8.942852878
  0
LINE
  5
29C
100
AcDbEntity
  8
0
100
AcDbLine
 62
9
  6
CONTINUOUS
 10
12.0093183383
 20
8.7893318604
 11
12.0093183383
 21
8.8193318604
  0
LINE
  5
29D
100
AcDbEntity
  8
0
100
AcDbLine
 62
9
  6
CONTINUOUS
 10
12.0093183383
 20
10.8033318604
 11
12.0093183383
 21
10.8333318604
  0
LINE
  5
29E
100
AcDbEntity
  8
0
100
AcDbLine
 62
9
  6
CONTINUOUS
 10
12.0393183383
 20
8.8493318604
 11
12.0393183383
 21
10.7733318604
  0
LINE
  5
29F
100
AcDbEntity
  8
0
100
AcDbLine
 62
7
  6
CONTINUOUS
 10
12.0693183383
 20
10.7733318616
 11
12.0693183383
 21
8.8493318604
  0
LINE
  5
2A0
100
AcDbEntity
  8
0
100
AcDbLine
 62
9
  6
CONTINUOUS
 10
11.5739024508
 20
4.0378218531
 11
11.5798183383
 21
4.2010718929
  0
LINE
  5
2A1
100
AcDbEntity
  8
0
100
AcDbLine
 62
9
  6
CONTINUOUS
 10
10.4839667267
 20
8.3196666879
 11
10.4833071165
 21
8.3196514152
  0
LINE
  5
2A2
100
AcDbEntity
  8
0
100
AcDbLine
 62
7
  6
CONTINUOUS
 10
12.2973183382
 20
8.5013318604
 11
11.6192827223
 21
8.5013318604
  0
LINE
  5
2A3
100
AcDbEntity
  8
0
100
AcDbLine
 62
7
  6
CONTINUOUS
 10
10.475351186
 20
8.5013318604
 11
9.7973183383
 21
8.5013318604
  0
LINE
  5
2A4
100
AcDbEntity
  8
0
100
AcDbLine
 62
9
  6
CONTINUOUS
 10
9.7973183383
 20
8.5313318604
 11
10.4734569222
 21
8.5313318604
  0
LINE
  5
2A5
100
AcDbEntity
  8
0
100
AcDbLine
 62
9
  6
CONTINUOUS
 10
11.6211845015
 20
8.5313318604
 11
12.2973183383
 21
8.5313318604
  0
LINE
  5
2A6
100
AcDbEntity
  8
0
100
AcDbLine
 62
9
  6
CONTINUOUS
 10
9.7373183383
 20
8.5613318604
 11
9.7673183383
 21
8.5613318604
  0
LINE
  5
2A7
100
AcDbEntity
  8
0
100
AcDbLine
 62
9
  6
CONTINUOUS
 10
12.3273183383
 20
8.5613318604
 11
12.3573183383
 21
8.5613318604
  0
LINE
  5
2A8
100
AcDbEntity
  8
0
100
AcDbLine
 62
9
  6
CONTINUOUS
 10
11.610669949
 20
8.3196666888
 11
11.6113295591
 21
8.3196514162
  0
LWPOLYLINE
  5
2A9
100
AcDbEntity
  8
0
100
AcDbPolyline
 62
7
  6
CONTINUOUS
 90
3
 70
0
 10
10.3621695974
 20
9.0761144075
 10
10.3622005539
 20
9.0760864234
 10
10.3648124418
 20
9.0732929554
  0
LINE
  5
2AA
100
AcDbEntity
  8
0
100
AcDbLine
 62
9
  6
CONTINUOUS
 10
12.2973183383
 20
8.5013318604
 11
12.2973183383
 21
8.5313318604
  0
LINE
  5
2AB
100
AcDbEntity
  8
0
100
AcDbLine
 62
9
  6
CONTINUOUS
 10
12.2973183383
 20
11.0913318604
 11
12.2973183383
 21
11.1213318604
  0
LINE
  5
2AC
100
AcDbEntity
  8
0
100
AcDbLine
 62
9
  6
CONTINUOUS
 10
12.3273183383
 20
8.5613318604
 11
12.3273183383
 21
11.0613318604
  0
LINE
  5
2AD
100
AcDbEntity
  8
0
100
AcDbLine
 62
7
  6
CONTINUOUS
 10
12.3573183383
 20
11.0613318603
 11
12.3573183383
 21
8.5613318604
  0
LINE
  5
2AE
100
AcDbEntity
  8
0
100
AcDbLine
 62
9
  6
CONTINUOUS
 10
15.7312973206
 20
10.5543993079
 11
15.5271249844
 21
10.3502288515
  0
LINE
  5
2AF
100
AcDbEntity
  8
0
100
AcDbLine
 62
9
  6
CONTINUOUS
 10
14.5084277753
 20
9.3315300331
 11
14.3042508908
 21
9.1273528782
  0
LINE
  5
2B0
100
AcDbEntity
  8
0
100
AcDbLine
 62
9
  6
CONTINUOUS
 10
14.363339356
 20
9.0682644129
 11
14.5675111962
 21
9.2724378741
  0
LINE
  5
2B1
100
AcDbEntity
  8
0
100
AcDbLine
 62
9
  6
CONTINUOUS
 10
15.5862126187
 20
10.2911365567
 11
15.7903857857
 21
10.4953108427
  0
LINE
  5
2B2
100
AcDbEntity
  8
0
100
AcDbLine
 62
7
  6
CONTINUOUS
 10
16.1823183383
 20
8.6163318604
 11
13.9123183383
 21
8.6163318604
  0
LINE
  5
2B3
100
AcDbEntity
  8
0
100
AcDbLine
 62
7
  6
CONTINUOUS
 10
8.1823183383
 20
8.6163318604
 11
5.9123183383
 21
8.6163318604
  0
LINE
  5
2B4
100
AcDbEntity
  8
0
100
AcDbLine
 62
9
  6
CONTINUOUS
 10
5.9123183383
 20
8.6463318604
 11
8.1823183383
 21
8.6463318604
  0
LINE
  5
2B5
100
AcDbEntity
  8
0
100
AcDbLine
 62
9
  6
CONTINUOUS
 10
13.9123183383
 20
8.6463318604
 11
16.1823183383
 21
8.6463318604
  0
LINE
  5
2B6
100
AcDbEntity
  8
0
100
AcDbLine
 62
9
  6
CONTINUOUS
 10
5.8523183383
 20
8.6763318604
 11
5.8823183383
 21
8.6763318604
  0
LINE
  5
2B7
100
AcDbEntity
  8
0
100
AcDbLine
 62
9
  6
CONTINUOUS
 10
8.2123183383
 20
8.6763318604
 11
8.2423183383
 21
8.6763318604
  0
LINE
  5
2B8
100
AcDbEntity
  8
0
100
AcDbLine
 62
9
  6
CONTINUOUS
 10
13.8523183383
 20
8.6763318604
 11
13.8823183383
 21
8.6763318604
  0
LINE
  5
2B9
100
AcDbEntity
  8
0
100
AcDbLine
 62
9
  6
CONTINUOUS
 10
16.2123183383
 20
8.6763318604
 11
16.2423183383
 21
8.6763318604
  0
LINE
  5
2BA
100
AcDbEntity
  8
0
100
AcDbLine
 62
7
  6
CONTINUOUS
 10
12.0093183395
 20
8.7893318604
 11
11.6481842023
 21
8.7893318604
  0
LINE
  5
2BB
100
AcDbEntity
  8
0
100
AcDbLine
 62
7
  6
CONTINUOUS
 10
10.4464625446
 20
8.7893318604
 11
10.0853183382
 21
8.7893318604
  0
LINE
  5
2BC
100
AcDbEntity
  8
0
100
AcDbLine
 62
9
  6
CONTINUOUS
 10
10.0853183383
 20
8.8193318604
 11
10.4422572806
 21
8.8193318604
  0
LINE
  5
2BD
100
AcDbEntity
  8
0
100
AcDbLine
 62
9
  6
CONTINUOUS
 10
11.6524012867
 20
8.8193318604
 11
12.0093183383
 21
8.8193318604
  0
LINE
  5
2BE
100
AcDbEntity
  8
0
100
AcDbLine
 62
9
  6
CONTINUOUS
 10
10.0253183383
 20
8.8493318604
 11
10.0553183383
 21
8.8493318604
  0
LINE
  5
2BF
100
AcDbEntity
  8
0
100
AcDbLine
 62
9
  6
CONTINUOUS
 10
12.0393183383
 20
8.8493318604
 11
12.0693183383
 21
8.8493318604
  0
LINE
  5
2C0
100
AcDbEntity
  8
0
100
AcDbLine
 62
9
  6
CONTINUOUS
 10
11.9157973206
 20
8.8542201804
 11
11.6591231885
 21
8.8542201804
  0
LINE
  5
2C1
100
AcDbEntity
  8
0
100
AcDbLine
 62
9
  6
CONTINUOUS
 10
10.4355055089
 20
8.8542201804
 11
10.178839356
 21
8.8542201804
  0
LINE
  5
2C2
100
AcDbEntity
  8
0
100
AcDbLine
 62
9
  6
CONTINUOUS
 10
10.1788393559
 20
8.8837644129
 11
10.4297339887
 21
8.8837644129
  0
LINE
  5
2C3
100
AcDbEntity
  8
0
100
AcDbLine
 62
9
  6
CONTINUOUS
 10
11.6649106476
 20
8.8837644129
 11
11.9157973206
 21
8.8837644129
  0
LINE
  5
2C4
100
AcDbEntity
  8
0
100
AcDbLine
 62
7
  6
CONTINUOUS
 10
15.8598183382
 20
8.9388318604
 11
14.2348183383
 21
8.9388318604
  0
LINE
  5
2C5
100
AcDbEntity
  8
0
100
AcDbLine
 62
7
  6
CONTINUOUS
 10
7.8598183382
 20
8.9388318604
 11
6.2348183383
 21
8.9388318604
  0
LINE
  5
2C6
100
AcDbEntity
  8
0
100
AcDbLine
 62
9
  6
CONTINUOUS
 10
10.0902066582
 20
8.9428528781
 11
10.1197508908
 21
8.9428528781
  0
LINE
  5
2C7
100
AcDbEntity
  8
0
100
AcDbLine
 62
9
  6
CONTINUOUS
 10
11.9748857857
 20
8.9428528745
 11
12.0044300183
 21
8.9428528745
  0
LINE
  5
2C8
100
AcDbEntity
  8
0
100
AcDbLine
 62
9
  6
CONTINUOUS
 10
6.2348183383
 20
8.9688318604
 11
7.8598183383
 21
8.9688318604
  0
LINE
  5
2C9
100
AcDbEntity
  8
0
100
AcDbLine
 62
9
  6
CONTINUOUS
 10
14.2348183383
 20
8.9688318604
 11
15.8598183383
 21
8.9688318604
  0
LINE
  5
2CA
100
AcDbEntity
  8
0
100
AcDbLine
 62
9
  6
CONTINUOUS
 10
6.1748183383
 20
8.9988318604
 11
6.2048183383
 21
8.9988318604
  0
LINE
  5
2CB
100
AcDbEntity
  8
0
100
AcDbLine
 62
9
  6
CONTINUOUS
 10
7.8898183383
 20
8.9988318604
 11
7.9198183383
 21
8.9988318604
  0
LINE
  5
2CC
100
AcDbEntity
  8
0
100
AcDbLine
 62
9
  6
CONTINUOUS
 10
14.1748183383
 20
8.9988318604
 11
14.2048183383
 21
8.9988318604
  0
LINE
  5
2CD
100
AcDbEntity
  8
0
100
AcDbLine
 62
9
  6
CONTINUOUS
 10
15.8898183383
 20
8.9988318604
 11
15.9198183383
 21
8.9988318604
  0
LINE
  5
2CE
100
AcDbEntity
  8
0
100
AcDbLine
 62
9
  6
CONTINUOUS
 10
15.7312973205
 20
9.0387201804
 11
14.363339356
 21
9.0387201804
  0
LINE
  5
2CF
100
AcDbEntity
  8
0
100
AcDbLine
 62
9
  6
CONTINUOUS
 10
7.7312973205
 20
9.0387201804
 11
6.363339356
 21
9.0387201804
  0
LINE
  5
2D0
100
AcDbEntity
  8
0
100
AcDbLine
 62
9
  6
CONTINUOUS
 10
11.7399158631
 20
9.0596458704
 11
11.7209105181
 21
9.0596458704
  0
LINE
  5
2D1
100
AcDbEntity
  8
0
100
AcDbLine
 62
9
  6
CONTINUOUS
 10
10.3737145764
 20
9.0596458704
 11
10.3547208135
 21
9.0596458704
  0
LINE
  5
2D2
100
AcDbEntity
  8
0
100
AcDbLine
 62
9
  6
CONTINUOUS
 10
6.363339356
 20
9.0682644129
 11
7.7312973205
 21
9.0682644129
  0
LINE
  5
2D3
100
AcDbEntity
  8
0
100
AcDbLine
 62
9
  6
CONTINUOUS
 10
14.363339356
 20
9.0682644129
 11
15.7312973205
 21
9.0682644129
  0
LINE
  5
2D4
100
AcDbEntity
  8
0
100
AcDbLine
 62
9
  6
CONTINUOUS
 10
6.2747066582
 20
9.1273528734
 11
6.3042508908
 21
9.1273528734
  0
LINE
  5
2D5
100
AcDbEntity
  8
0
100
AcDbLine
 62
9
  6
CONTINUOUS
 10
7.7903857857
 20
9.1273528781
 11
7.8199300183
 21
9.1273528781
  0
LINE
  5
2D6
100
AcDbEntity
  8
0
100
AcDbLine
 62
9
  6
CONTINUOUS
 10
14.2747066582
 20
9.1273528734
 11
14.3042508908
 21
9.1273528734
  0
LINE
  5
2D7
100
AcDbEntity
  8
0
100
AcDbLine
 62
9
  6
CONTINUOUS
 10
15.7903857857
 20
9.1273528781
 11
15.8199300183
 21
9.1273528781
  0
LINE
  5
2D8
100
AcDbEntity
  8
0
100
AcDbLine
 62
9
  6
CONTINUOUS
 10
10.1197508908
 20
10.6798108428
 11
10.5743444762
 21
10.2252172573
  0
LINE
  5
2D9
100
AcDbEntity
  8
0
100
AcDbLine
 62
9
  6
CONTINUOUS
 10
11.7399158631
 20
9.0596458704
 11
11.9157973206
 21
8.8837644129
  0
LINE
  5
2DA
100
AcDbEntity
  8
0
100
AcDbLine
 62
7
  6
CONTINUOUS
 10
15.5263183382
 20
9.2723318604
 11
14.5683183383
 21
9.2723318604
  0
LINE
  5
2DB
100
AcDbEntity
  8
0
100
AcDbLine
 62
7
  6
CONTINUOUS
 10
7.5263183382
 20
9.2723318604
 11
6.5683183383
 21
9.2723318604
  0
LINE
  5
2DC
100
AcDbEntity
  8
0
100
AcDbLine
 62
9
  6
CONTINUOUS
 10
6.5683183383
 20
9.3023318604
 11
7.5263183383
 21
9.3023318604
  0
LINE
  5
2DD
100
AcDbEntity
  8
0
100
AcDbLine
 62
9
  6
CONTINUOUS
 10
14.5683183383
 20
9.3023318604
 11
15.5263183383
 21
9.3023318604
  0
LINE
  5
2DE
100
AcDbEntity
  8
0
100
AcDbLine
 62
9
  6
CONTINUOUS
 10
6.5083183383
 20
9.3323318604
 11
6.5383183383
 21
9.3323318604
  0
LINE
  5
2DF
100
AcDbEntity
  8
0
100
AcDbLine
 62
9
  6
CONTINUOUS
 10
7.5563183383
 20
9.3323318604
 11
7.5863183383
 21
9.3323318604
  0
LINE
  5
2E0
100
AcDbEntity
  8
0
100
AcDbLine
 62
9
  6
CONTINUOUS
 10
14.5083183383
 20
9.3323318604
 11
14.5383183383
 21
9.3323318604
  0
LINE
  5
2E1
100
AcDbEntity
  8
0
100
AcDbLine
 62
9
  6
CONTINUOUS
 10
15.5563183383
 20
9.3323318604
 11
15.5863183383
 21
9.3323318604
  0
LINE
  5
2E2
100
AcDbEntity
  8
0
100
AcDbLine
 62
7
  6
CONTINUOUS
 10
15.3608183383
 20
9.4678318604
 11
14.7338183383
 21
9.4678318604
  0
LINE
  5
2E3
100
AcDbEntity
  8
0
100
AcDbLine
 62
7
  6
CONTINUOUS
 10
7.3608183383
 20
9.4678318604
 11
6.7338183383
 21
9.4678318604
  0
LINE
  5
2E4
100
AcDbEntity
  8
0
100
AcDbLine
 62
9
  6
CONTINUOUS
 10
6.7038183383
 20
9.4978318604
 11
7.3908183383
 21
9.4978318604
  0
LINE
  5
2E5
100
AcDbEntity
  8
0
100
AcDbLine
 62
9
  6
CONTINUOUS
 10
14.7038183383
 20
9.4978318604
 11
15.3908183383
 21
9.4978318604
  0
LINE
  5
2E6
100
AcDbEntity
  8
0
100
AcDbLine
 62
7
  6
CONTINUOUS
 10
11.2998183383
 20
9.4988318604
 11
10.7948183383
 21
9.4988318604
  0
LINE
  5
2E7
100
AcDbEntity
  8
0
100
AcDbLine
 62
9
  6
CONTINUOUS
 10
10.7948183383
 20
9.5288318604
 11
11.2998183383
 21
9.5288318604
  0
LINE
  5
2E8
100
AcDbEntity
  8
0
100
AcDbLine
 62
9
  6
CONTINUOUS
 10
10.7348183383
 20
9.5588318604
 11
10.7648183383
 21
9.5588318604
  0
LINE
  5
2E9
100
AcDbEntity
  8
0
100
AcDbLine
 62
9
  6
CONTINUOUS
 10
11.3298183383
 20
9.5588318604
 11
11.3598183383
 21
9.5588318604
  0
LINE
  5
2EA
100
AcDbEntity
  8
0
100
AcDbLine
 62
7
  6
CONTINUOUS
 10
18.0488183383
 20
9.5613318604
 11
15.4508183383
 21
9.5613318604
  0
LINE
  5
2EB
100
AcDbEntity
  8
0
100
AcDbLine
 62
7
  6
CONTINUOUS
 10
6.6438183383
 20
9.5613318604
 11
4.0458183383
 21
9.5613318604
  0
LINE
  5
2EC
100
AcDbEntity
  8
0
100
AcDbLine
 62
9
  6
CONTINUOUS
 10
4.0158183383
 20
9.5913318604
 11
6.7038183383
 21
9.5913318604
  0
LINE
  5
2ED
100
AcDbEntity
  8
0
100
AcDbLine
 62
9
  6
CONTINUOUS
 10
7.3908183383
 20
9.5913318604
 11
7.4708183383
 21
9.5913318604
  0
LINE
  5
2EE
100
AcDbEntity
  8
0
100
AcDbLine
 62
9
  6
CONTINUOUS
 10
14.6238183383
 20
9.5913318604
 11
14.7038183383
 21
9.5913318604
  0
LINE
  5
2EF
100
AcDbEntity
  8
0
100
AcDbLine
 62
9
  6
CONTINUOUS
 10
15.3908183383
 20
9.5913318604
 11
18.0788183383
 21
9.5913318604
  0
LINE
  5
2F0
100
AcDbEntity
  8
0
100
AcDbLine
 62
7
  6
CONTINUOUS
 10
11.5202882314
 20
9.3375352697
 11
11.461202184
 21
9.3376319367
  0
LINE
  5
2F1
100
AcDbEntity
  8
0
100
AcDbLine
 62
9
  6
CONTINUOUS
 10
11.7572222379
 20
9.1252949
 11
11.5202922004
 21
9.3391835459
  0
LINE
  5
2F2
100
AcDbEntity
  8
0
100
AcDbLine
 62
9
  6
CONTINUOUS
 10
11.9748857857
 20
8.942852878
 11
11.7990033987
 21
9.1187352652
  0
LINE
  5
2F3
100
AcDbEntity
  8
0
100
AcDbLine
 62
9
  6
CONTINUOUS
 10
10.6334329414
 20
10.2843057225
 11
10.1788393559
 21
10.7388993079
  0
LINE
  5
2F4
100
AcDbEntity
  8
0
100
AcDbLine
 62
9
  6
CONTINUOUS
 10
18.0788183383
 20
10.0313318604
 11
15.3908183383
 21
10.0313318604
  0
LINE
  5
2F5
100
AcDbEntity
  8
0
100
AcDbLine
 62
9
  6
CONTINUOUS
 10
14.7038183383
 20
10.0313318604
 11
14.6238183383
 21
10.0313318604
  0
LINE
  5
2F6
100
AcDbEntity
  8
0
100
AcDbLine
 62
9
  6
CONTINUOUS
 10
7.4708183383
 20
10.0313318604
 11
7.3908183383
 21
10.0313318604
  0
LINE
  5
2F7
100
AcDbEntity
  8
0
100
AcDbLine
 62
9
  6
CONTINUOUS
 10
6.7038183383
 20
10.0313318604
 11
4.0158183383
 21
10.0313318604
  0
LINE
  5
2F8
100
AcDbEntity
  8
0
100
AcDbLine
 62
7
  6
CONTINUOUS
 10
4.0458183383
 20
10.0613318604
 11
6.6438183383
 21
10.0613318604
  0
LINE
  5
2F9
100
AcDbEntity
  8
0
100
AcDbLine
 62
7
  6
CONTINUOUS
 10
15.4508183383
 20
10.0613318604
 11
18.0488183383
 21
10.0613318604
  0
LINE
  5
2FA
100
AcDbEntity
  8
0
100
AcDbLine
 62
9
  6
CONTINUOUS
 10
11.3598183383
 20
10.0638318604
 11
11.3298183383
 21
10.0638318604
  0
LINE
  5
2FB
100
AcDbEntity
  8
0
100
AcDbLine
 62
9
  6
CONTINUOUS
 10
10.7648183383
 20
10.0638318604
 11
10.7348183383
 21
10.0638318604
  0
LINE
  5
2FC
100
AcDbEntity
  8
0
100
AcDbLine
 62
9
  6
CONTINUOUS
 10
11.2998183383
 20
10.0938318604
 11
10.7948183383
 21
10.0938318604
  0
LINE
  5
2FD
100
AcDbEntity
  8
0
100
AcDbLine
 62
7
  6
CONTINUOUS
 10
10.7948183383
 20
10.1238318604
 11
11.2998183383
 21
10.1238318604
  0
LINE
  5
2FE
100
AcDbEntity
  8
0
100
AcDbLine
 62
9
  6
CONTINUOUS
 10
15.3908183383
 20
10.1248318604
 11
14.7038183383
 21
10.1248318604
  0
LINE
  5
2FF
100
AcDbEntity
  8
0
100
AcDbLine
 62
9
  6
CONTINUOUS
 10
7.3908183383
 20
10.1248318604
 11
6.7038183383
 21
10.1248318604
  0
LINE
  5
300
100
AcDbEntity
  8
0
100
AcDbLine
 62
7
  6
CONTINUOUS
 10
6.7338183383
 20
10.1548318604
 11
7.3608183383
 21
10.1548318604
  0
LINE
  5
301
100
AcDbEntity
  8
0
100
AcDbLine
 62
7
  6
CONTINUOUS
 10
14.7338183383
 20
10.1548318604
 11
15.3608183383
 21
10.1548318604
  0
LINE
  5
302
100
AcDbEntity
  8
0
100
AcDbLine
 62
7
  6
CONTINUOUS
 10
13.8523183383
 20
8.6763318604
 11
13.8523183383
 21
10.9463318604
  0
LINE
  5
303
100
AcDbEntity
  8
0
100
AcDbLine
 62
9
  6
CONTINUOUS
 10
13.8823183383
 20
10.9463318604
 11
13.8823183383
 21
8.6763318604
  0
LINE
  5
304
100
AcDbEntity
  8
0
100
AcDbLine
 62
9
  6
CONTINUOUS
 10
13.9123183383
 20
11.0063318604
 11
13.9123183383
 21
10.9763318604
  0
LINE
  5
305
100
AcDbEntity
  8
0
100
AcDbLine
 62
9
  6
CONTINUOUS
 10
13.9123183383
 20
8.6463318604
 11
13.9123183383
 21
8.6163318604
  0
LINE
  5
306
100
AcDbEntity
  8
0
100
AcDbLine
 62
7
  6
CONTINUOUS
 10
14.1748183383
 20
8.9988318604
 11
14.1748183383
 21
10.6238318604
  0
LINE
  5
307
100
AcDbEntity
  8
0
100
AcDbLine
 62
9
  6
CONTINUOUS
 10
14.2048183383
 20
10.6238318604
 11
14.2048183383
 21
8.9988318604
  0
LINE
  5
308
100
AcDbEntity
  8
0
100
AcDbLine
 62
9
  6
CONTINUOUS
 10
14.2348183383
 20
10.6838318604
 11
14.2348183383
 21
10.6538318604
  0
LINE
  5
309
100
AcDbEntity
  8
0
100
AcDbLine
 62
9
  6
CONTINUOUS
 10
14.2348183383
 20
8.9688318604
 11
14.2348183383
 21
8.9388318604
  0
LINE
  5
30A
100
AcDbEntity
  8
0
100
AcDbLine
 62
9
  6
CONTINUOUS
 10
14.2747066582
 20
9.1273528782
 11
14.2747066582
 21
10.4953108427
  0
LINE
  5
30B
100
AcDbEntity
  8
0
100
AcDbLine
 62
9
  6
CONTINUOUS
 10
11.5202922004
 20
10.2252172573
 11
10.5743444762
 21
10.2252172573
  0
LINE
  5
30C
100
AcDbEntity
  8
0
100
AcDbLine
 62
9
  6
CONTINUOUS
 10
10.6334329414
 20
10.2843057225
 11
11.4612037352
 21
10.2843057225
  0
LINE
  5
30D
100
AcDbEntity
  8
0
100
AcDbLine
 62
9
  6
CONTINUOUS
 10
15.5863183383
 20
10.2903318604
 11
15.5563183383
 21
10.2903318604
  0
LINE
  5
30E
100
AcDbEntity
  8
0
100
AcDbLine
 62
9
  6
CONTINUOUS
 10
14.5383183383
 20
10.2903318604
 11
14.5083183383
 21
10.2903318604
  0
LINE
  5
30F
100
AcDbEntity
  8
0
100
AcDbLine
 62
9
  6
CONTINUOUS
 10
7.5863183383
 20
10.2903318604
 11
7.5563183383
 21
10.2903318604
  0
LINE
  5
310
100
AcDbEntity
  8
0
100
AcDbLine
 62
9
  6
CONTINUOUS
 10
6.5383183383
 20
10.2903318604
 11
6.5083183383
 21
10.2903318604
  0
LINE
  5
311
100
AcDbEntity
  8
0
100
AcDbLine
 62
9
  6
CONTINUOUS
 10
15.5263183383
 20
10.3203318604
 11
14.5683183383
 21
10.3203318604
  0
LINE
  5
312
100
AcDbEntity
  8
0
100
AcDbLine
 62
9
  6
CONTINUOUS
 10
7.5263183383
 20
10.3203318604
 11
6.5683183383
 21
10.3203318604
  0
LINE
  5
313
100
AcDbEntity
  8
0
100
AcDbLine
 62
7
  6
CONTINUOUS
 10
6.5683183383
 20
10.3503318604
 11
7.5263183382
 21
10.3503318604
  0
LINE
  5
314
100
AcDbEntity
  8
0
100
AcDbLine
 62
7
  6
CONTINUOUS
 10
14.5683183383
 20
10.3503318604
 11
15.5263183382
 21
10.3503318604
  0
LINE
  5
315
100
AcDbEntity
  8
0
100
AcDbLine
 62
9
  6
CONTINUOUS
 10
15.8199300183
 20
10.4953108474
 11
15.7903857857
 21
10.4953108474
  0
LINE
  5
316
100
AcDbEntity
  8
0
100
AcDbLine
 62
9
  6
CONTINUOUS
 10
14.3042508908
 20
10.4953108427
 11
14.2747066582
 21
10.4953108427
  0
LINE
  5
317
100
AcDbEntity
  8
0
100
AcDbLine
 62
9
  6
CONTINUOUS
 10
7.8199300183
 20
10.4953108474
 11
7.7903857857
 21
10.4953108474
  0
LINE
  5
318
100
AcDbEntity
  8
0
100
AcDbLine
 62
9
  6
CONTINUOUS
 10
6.3042508908
 20
10.4953108427
 11
6.2747066582
 21
10.4953108427
  0
LINE
  5
319
100
AcDbEntity
  8
0
100
AcDbLine
 62
9
  6
CONTINUOUS
 10
15.7312973206
 20
10.5543993079
 11
14.363339356
 21
10.5543993079
  0
LINE
  5
31A
100
AcDbEntity
  8
0
100
AcDbLine
 62
9
  6
CONTINUOUS
 10
7.7312973206
 20
10.5543993079
 11
6.363339356
 21
10.5543993079
  0
LINE
  5
31B
100
AcDbEntity
  8
0
100
AcDbLine
 62
9
  6
CONTINUOUS
 10
6.363339356
 20
10.5839435405
 11
7.7312973206
 21
10.5839435405
  0
LINE
  5
31C
100
AcDbEntity
  8
0
100
AcDbLine
 62
9
  6
CONTINUOUS
 10
14.363339356
 20
10.5839435405
 11
15.7312973206
 21
10.5839435405
  0
LINE
  5
31D
100
AcDbEntity
  8
0
100
AcDbLine
 62
9
  6
CONTINUOUS
 10
15.9198183383
 20
10.6238318604
 11
15.8898183383
 21
10.6238318604
  0
LINE
  5
31E
100
AcDbEntity
  8
0
100
AcDbLine
 62
9
  6
CONTINUOUS
 10
14.2048183383
 20
10.6238318604
 11
14.1748183383
 21
10.6238318604
  0
LINE
  5
31F
100
AcDbEntity
  8
0
100
AcDbLine
 62
9
  6
CONTINUOUS
 10
7.9198183383
 20
10.6238318604
 11
7.8898183383
 21
10.6238318604
  0
LINE
  5
320
100
AcDbEntity
  8
0
100
AcDbLine
 62
9
  6
CONTINUOUS
 10
6.2048183383
 20
10.6238318604
 11
6.1748183383
 21
10.6238318604
  0
LINE
  5
321
100
AcDbEntity
  8
0
100
AcDbLine
 62
9
  6
CONTINUOUS
 10
15.8598183383
 20
10.6538318604
 11
14.2348183383
 21
10.6538318604
  0
LINE
  5
322
100
AcDbEntity
  8
0
100
AcDbLine
 62
9
  6
CONTINUOUS
 10
7.8598183383
 20
10.6538318604
 11
6.2348183383
 21
10.6538318604
  0
LINE
  5
323
100
AcDbEntity
  8
0
100
AcDbLine
 62
9
  6
CONTINUOUS
 10
12.0044300183
 20
10.6798108427
 11
11.9748857857
 21
10.6798108427
  0
LINE
  5
324
100
AcDbEntity
  8
0
100
AcDbLine
 62
9
  6
CONTINUOUS
 10
10.1197508908
 20
10.6798108463
 11
10.0902066582
 21
10.6798108463
  0
LINE
  5
325
100
AcDbEntity
  8
0
100
AcDbLine
 62
7
  6
CONTINUOUS
 10
6.2348183383
 20
10.6838318604
 11
7.8598183382
 21
10.6838318604
  0
LINE
  5
326
100
AcDbEntity
  8
0
100
AcDbLine
 62
7
  6
CONTINUOUS
 10
14.2348183383
 20
10.6838318604
 11
15.8598183382
 21
10.6838318604
  0
LINE
  5
327
100
AcDbEntity
  8
0
100
AcDbLine
 62
9
  6
CONTINUOUS
 10
14.3042508908
 20
10.4953108427
 11
14.3042508908
 21
9.1273528782
  0
LINE
  5
328
100
AcDbEntity
  8
0
100
AcDbLine
 62
9
  6
CONTINUOUS
 10
14.3633393512
 20
10.5839435405
 11
14.3633393512
 21
10.5543993079
  0
LINE
  5
329
100
AcDbEntity
  8
0
100
AcDbLine
 62
9
  6
CONTINUOUS
 10
14.363339356
 20
9.0682644129
 11
14.363339356
 21
9.0387201804
  0
LINE
  5
32A
100
AcDbEntity
  8
0
100
AcDbLine
 62
7
  6
CONTINUOUS
 10
14.5083183383
 20
9.3323318604
 11
14.5083183383
 21
10.2903318604
  0
LINE
  5
32B
100
AcDbEntity
  8
0
100
AcDbLine
 62
9
  6
CONTINUOUS
 10
14.5383183383
 20
10.2903318604
 11
14.5383183383
 21
9.3323318604
  0
LINE
  5
32C
100
AcDbEntity
  8
0
100
AcDbLine
 62
9
  6
CONTINUOUS
 10
14.5683183383
 20
10.3503318604
 11
14.5683183383
 21
10.3203318604
  0
LINE
  5
32D
100
AcDbEntity
  8
0
100
AcDbLine
 62
9
  6
CONTINUOUS
 10
14.5683183383
 20
9.3023318604
 11
14.5683183383
 21
9.2723318604
  0
LINE
  5
32E
100
AcDbEntity
  8
0
100
AcDbLine
 62
7
  6
CONTINUOUS
 10
14.6238183383
 20
9.5907745795
 11
14.6238183383
 21
10.0318891413
  0
LINE
  5
32F
100
AcDbEntity
  8
0
100
AcDbLine
 62
9
  6
CONTINUOUS
 10
14.6504850049
 20
10.061703381
 11
14.6504850049
 21
9.5609603398
  0
LINE
  5
330
100
AcDbEntity
  8
0
100
AcDbLine
 62
7
  6
CONTINUOUS
 10
14.7038183383
 20
9.4978318604
 11
14.7038183383
 21
10.1248318604
  0
LINE
  5
331
100
AcDbEntity
  8
0
100
AcDbLine
 62
9
  6
CONTINUOUS
 10
14.7338183383
 20
10.1548318604
 11
14.7338183383
 21
9.4678318604
  0
LINE
  5
332
100
AcDbEntity
  8
0
100
AcDbLine
 62
9
  6
CONTINUOUS
 10
11.9157973206
 20
10.7388993079
 11
10.1788393559
 21
10.7388993079
  0
LINE
  5
333
100
AcDbEntity
  8
0
100
AcDbLine
 62
9
  6
CONTINUOUS
 10
10.178839356
 20
10.7684435405
 11
11.9157973206
 21
10.7684435405
  0
LINE
  5
334
100
AcDbEntity
  8
0
100
AcDbLine
 62
9
  6
CONTINUOUS
 10
12.0693183383
 20
10.7733318604
 11
12.0393183383
 21
10.7733318604
  0
LINE
  5
335
100
AcDbEntity
  8
0
100
AcDbLine
 62
9
  6
CONTINUOUS
 10
10.0553183383
 20
10.7733318604
 11
10.0253183383
 21
10.7733318604
  0
LINE
  5
336
100
AcDbEntity
  8
0
100
AcDbLine
 62
9
  6
CONTINUOUS
 10
12.0093183383
 20
10.8033318604
 11
10.0853183383
 21
10.8033318604
  0
LINE
  5
337
100
AcDbEntity
  8
0
100
AcDbLine
 62
7
  6
CONTINUOUS
 10
10.0853183371
 20
10.8333318604
 11
12.0093183383
 21
10.8333318604
  0
LINE
  5
338
100
AcDbEntity
  8
0
100
AcDbLine
 62
9
  6
CONTINUOUS
 10
16.2423183383
 20
10.9463318604
 11
16.2123183383
 21
10.9463318604
  0
LINE
  5
339
100
AcDbEntity
  8
0
100
AcDbLine
 62
9
  6
CONTINUOUS
 10
13.8823183383
 20
10.9463318604
 11
13.8523183383
 21
10.9463318604
  0
LINE
  5
33A
100
AcDbEntity
  8
0
100
AcDbLine
 62
9
  6
CONTINUOUS
 10
8.2423183383
 20
10.9463318604
 11
8.2123183383
 21
10.9463318604
  0
LINE
  5
33B
100
AcDbEntity
  8
0
100
AcDbLine
 62
9
  6
CONTINUOUS
 10
5.8823183383
 20
10.9463318604
 11
5.8523183383
 21
10.9463318604
  0
LINE
  5
33C
100
AcDbEntity
  8
0
100
AcDbLine
 62
9
  6
CONTINUOUS
 10
16.1823183383
 20
10.9763318604
 11
13.9123183383
 21
10.9763318604
  0
LINE
  5
33D
100
AcDbEntity
  8
0
100
AcDbLine
 62
9
  6
CONTINUOUS
 10
8.1823183383
 20
10.9763318604
 11
5.9123183383
 21
10.9763318604
  0
LINE
  5
33E
100
AcDbEntity
  8
0
100
AcDbLine
 62
7
  6
CONTINUOUS
 10
5.9123183383
 20
11.0063318604
 11
8.1823183382
 21
11.0063318604
  0
LINE
  5
33F
100
AcDbEntity
  8
0
100
AcDbLine
 62
7
  6
CONTINUOUS
 10
13.9123183383
 20
11.0063318604
 11
16.1823183382
 21
11.0063318604
  0
LINE
  5
340
100
AcDbEntity
  8
0
100
AcDbLine
 62
9
  6
CONTINUOUS
 10
12.3573183383
 20
11.0613318604
 11
12.3273183383
 21
11.0613318604
  0
LINE
  5
341
100
AcDbEntity
  8
0
100
AcDbLine
 62
9
  6
CONTINUOUS
 10
9.7673183383
 20
11.0613318604
 11
9.7373183383
 21
11.0613318604
  0
LINE
  5
342
100
AcDbEntity
  8
0
100
AcDbLine
 62
9
  6
CONTINUOUS
 10
12.2973183383
 20
11.0913318604
 11
9.7973183383
 21
11.0913318604
  0
LINE
  5
343
100
AcDbEntity
  8
0
100
AcDbLine
 62
7
  6
CONTINUOUS
 10
9.7973183384
 20
11.1213318604
 11
12.2973183383
 21
11.1213318604
  0
LINE
  5
344
100
AcDbEntity
  8
0
100
AcDbLine
 62
9
  6
CONTINUOUS
 10
15.3608183383
 20
9.4678318604
 11
15.3608183383
 21
10.1548318604
  0
LINE
  5
345
100
AcDbEntity
  8
0
100
AcDbLine
 62
7
  6
CONTINUOUS
 10
15.3908183383
 20
10.1248318604
 11
15.3908183383
 21
9.4978318604
  0
LINE
  5
346
100
AcDbEntity
  8
0
100
AcDbLine
 62
9
  6
CONTINUOUS
 10
15.4508183383
 20
10.0613318604
 11
15.4508183383
 21
9.5613318604
  0
LINE
  5
347
100
AcDbEntity
  8
0
100
AcDbLine
 62
9
  6
CONTINUOUS
 10
15.5263183383
 20
9.2723318604
 11
15.5263183383
 21
9.3023318604
  0
LINE
  5
348
100
AcDbEntity
  8
0
100
AcDbLine
 62
9
  6
CONTINUOUS
 10
15.5263183383
 20
10.3203318604
 11
15.5263183383
 21
10.3503318604
  0
LINE
  5
349
100
AcDbEntity
  8
0
100
AcDbLine
 62
9
  6
CONTINUOUS
 10
15.5563183383
 20
9.3323318604
 11
15.5563183383
 21
9.5613318604
  0
LINE
  5
34A
100
AcDbEntity
  8
0
100
AcDbLine
 62
9
  6
CONTINUOUS
 10
15.5563183383
 20
10.0613318604
 11
15.5563183383
 21
10.2903318604
  0
LINE
  5
34B
100
AcDbEntity
  8
0
100
AcDbLine
 62
7
  6
CONTINUOUS
 10
15.5863183383
 20
10.2903318604
 11
15.5863183383
 21
10.0613318604
  0
LINE
  5
34C
100
AcDbEntity
  8
0
100
AcDbLine
 62
7
  6
CONTINUOUS
 10
15.5863183383
 20
9.5613318604
 11
15.5863183383
 21
9.3323318605
  0
LINE
  5
34D
100
AcDbEntity
  8
0
100
AcDbLine
 62
9
  6
CONTINUOUS
 10
15.7312973253
 20
9.0387201804
 11
15.7312973253
 21
9.0682644129
  0
LINE
  5
34E
100
AcDbEntity
  8
0
100
AcDbLine
 62
9
  6
CONTINUOUS
 10
15.7312973206
 20
10.5543993079
 11
15.7312973206
 21
10.5839435405
  0
LINE
  5
34F
100
AcDbEntity
  8
0
100
AcDbLine
 62
9
  6
CONTINUOUS
 10
15.7903857857
 20
9.1273528781
 11
15.7903857857
 21
9.5613318604
  0
LINE
  5
350
100
AcDbEntity
  8
0
100
AcDbLine
 62
9
  6
CONTINUOUS
 10
15.7903857857
 20
10.0613318604
 11
15.7903857857
 21
10.4953108427
  0
LINE
  5
351
100
AcDbEntity
  8
0
100
AcDbLine
 62
9
  6
CONTINUOUS
 10
15.8199300183
 20
10.4953108427
 11
15.8199300183
 21
10.0613318604
  0
LINE
  5
352
100
AcDbEntity
  8
0
100
AcDbLine
 62
9
  6
CONTINUOUS
 10
15.8199300183
 20
9.5613318604
 11
15.8199300183
 21
9.1273528781
  0
LINE
  5
353
100
AcDbEntity
  8
0
100
AcDbLine
 62
9
  6
CONTINUOUS
 10
15.8598183383
 20
8.9388318604
 11
15.8598183383
 21
8.9688318604
  0
LINE
  5
354
100
AcDbEntity
  8
0
100
AcDbLine
 62
9
  6
CONTINUOUS
 10
15.8598183383
 20
10.6538318604
 11
15.8598183383
 21
10.6838318604
  0
LINE
  5
355
100
AcDbEntity
  8
0
100
AcDbLine
 62
9
  6
CONTINUOUS
 10
15.5271190638
 20
9.2724411471
 11
15.7312973205
 21
9.0682644129
  0
LINE
  5
356
100
AcDbEntity
  8
0
100
AcDbLine
 62
9
  6
CONTINUOUS
 10
14.3042508908
 20
10.4953108427
 11
14.5084217442
 21
10.2911416496
  0
LINE
  5
357
100
AcDbEntity
  8
0
100
AcDbLine
 62
9
  6
CONTINUOUS
 10
14.5675121743
 20
10.3502259553
 11
14.363339356
 21
10.5543993079
  0
LINE
  5
358
100
AcDbEntity
  8
0
100
AcDbLine
 62
9
  6
CONTINUOUS
 10
15.7903857857
 20
9.1273528781
 11
15.5862127134
 21
9.331527678
  0
LINE
  5
359
100
AcDbEntity
  8
0
100
AcDbLine
 62
9
  6
CONTINUOUS
 10
15.8898183383
 20
8.9988318604
 11
15.8898183383
 21
9.5613318604
  0
LINE
  5
35A
100
AcDbEntity
  8
0
100
AcDbLine
 62
9
  6
CONTINUOUS
 10
15.8898183383
 20
10.0613318604
 11
15.8898183383
 21
10.6238318604
  0
LINE
  5
35B
100
AcDbEntity
  8
0
100
AcDbLine
 62
7
  6
CONTINUOUS
 10
15.9198183383
 20
10.6238318604
 11
15.9198183383
 21
10.0613318604
  0
LINE
  5
35C
100
AcDbEntity
  8
0
100
AcDbLine
 62
7
  6
CONTINUOUS
 10
15.9198183383
 20
9.5613318604
 11
15.9198183383
 21
8.9988318605
  0
LINE
  5
35D
100
AcDbEntity
  8
0
100
AcDbLine
 62
9
  6
CONTINUOUS
 10
16.1823183383
 20
8.6163318604
 11
16.1823183383
 21
8.6463318604
  0
LINE
  5
35E
100
AcDbEntity
  8
0
100
AcDbLine
 62
9
  6
CONTINUOUS
 10
16.1823183383
 20
10.9763318604
 11
16.1823183383
 21
11.0063318604
  0
LINE
  5
35F
100
AcDbEntity
  8
0
100
AcDbLine
 62
9
  6
CONTINUOUS
 10
16.2123183383
 20
8.6763318604
 11
16.2123183383
 21
9.5613318604
  0
LINE
  5
360
100
AcDbEntity
  8
0
100
AcDbLine
 62
9
  6
CONTINUOUS
 10
16.2123183383
 20
10.0613318604
 11
16.2123183383
 21
10.9463318604
  0
LINE
  5
361
100
AcDbEntity
  8
0
100
AcDbLine
 62
7
  6
CONTINUOUS
 10
16.2423183383
 20
10.9463318604
 11
16.2423183383
 21
10.0613318604
  0
LINE
  5
362
100
AcDbEntity
  8
0
100
AcDbLine
 62
7
  6
CONTINUOUS
 10
16.2423183383
 20
9.5613318604
 11
16.2423183383
 21
8.6763318605
  0
LINE
  5
363
100
AcDbEntity
  8
0
100
AcDbLine
 62
9
  6
CONTINUOUS
 10
18.0488183383
 20
9.5613318604
 11
18.0488183383
 21
10.0613318604
  0
LINE
  5
364
100
AcDbEntity
  8
0
100
AcDbLine
 62
7
  6
CONTINUOUS
 10
18.0788183383
 20
10.0313318604
 11
18.0788183383
 21
9.5913318604
  0
ARC
  5
365
100
AcDbEntity
  8
0
100
AcDbCircle
 62
9
  6
CONTINUOUS
 10
-49.5391844393
 20
-46.2930783029
 40
82.6016003451
100
AcDbArc
 50
42.1139351064
 51
42.3363067872
  0
ARC
  5
366
100
AcDbEntity
  8
0
100
AcDbCircle
 62
9
  6
CONTINUOUS
 10
-1.326987192
 20
5.0051134615
 40
11.8842186861
100
AcDbArc
 50
1.1639205168
 51
1.301011038
  0
ARC
  5
367
100
AcDbEntity
  8
0
100
AcDbCircle
 62
7
  6
CONTINUOUS
 10
4.0458183383
 20
10.0313318604
 40
0.03
100
AcDbArc
 50
90.0
 51
180.0
  0
ARC
  5
368
100
AcDbEntity
  8
0
100
AcDbCircle
 62
7
  6
CONTINUOUS
 10
4.0458183383
 20
9.5913318604
 40
0.03
100
AcDbArc
 50
180.0
 51
270.0
  0
ARC
  5
369
100
AcDbEntity
  8
0
100
AcDbCircle
 62
9
  6
CONTINUOUS
 10
10.6422207244
 20
4.6089105037
 40
0.3482838817
100
AcDbArc
 50
104.2742695465
 51
107.3587610506
  0
ARC
  5
36A
100
AcDbEntity
  8
0
100
AcDbCircle
 62
9
  6
CONTINUOUS
 10
10.6138985591
 20
4.845306316
 40
0.1222076712
100
AcDbArc
 50
128.209210596
 51
144.169827265
  0
ARC
  5
36B
100
AcDbEntity
  8
0
100
AcDbCircle
 62
9
  6
CONTINUOUS
 10
11.4807472872
 20
4.8453154735
 40
0.1221948122
100
AcDbArc
 50
35.8296374631
 51
51.7915076719
  0
ARC
  5
36C
100
AcDbEntity
  8
0
100
AcDbCircle
 62
7
  6
CONTINUOUS
 10
10.5148183383
 20
3.9033318604
 40
0.06
100
AcDbArc
 50
180.0
 51
269.9999999847
  0
ARC
  5
36D
100
AcDbEntity
  8
0
100
AcDbCircle
 62
7
  6
CONTINUOUS
 10
10.5148183383
 20
4.9413318604
 40
0.06
100
AcDbArc
 50
90.0
 51
179.9999999847
  0
ARC
  5
36E
100
AcDbEntity
  8
0
100
AcDbCircle
 62
7
  6
CONTINUOUS
 10
5.9123183383
 20
8.6763318604
 40
0.06
100
AcDbArc
 50
179.9999998864
 51
270.0
  0
ARC
  5
36F
100
AcDbEntity
  8
0
100
AcDbCircle
 62
7
  6
CONTINUOUS
 10
8.1823183383
 20
8.6763318604
 40
0.06
100
AcDbArc
 50
269.9999998864
 51
360.0
  0
ARC
  5
370
100
AcDbEntity
  8
0
100
AcDbCircle
 62
7
  6
CONTINUOUS
 10
7.4508183383
 20
9.5013318604
 40
0.06
100
AcDbArc
 50
96.3793702043
 51
179.9999999933
  0
ARC
  5
371
100
AcDbEntity
  8
0
100
AcDbCircle
 62
7
  6
CONTINUOUS
 10
6.6438183383
 20
9.5013318604
 40
0.06
100
AcDbArc
 50
0.0000000067
 51
90.0
  0
ARC
  5
372
100
AcDbEntity
  8
0
100
AcDbCircle
 62
7
  6
CONTINUOUS
 10
6.2348183383
 20
8.9988318604
 40
0.06
100
AcDbArc
 50
179.9999999799
 51
270.0
  0
ARC
  5
373
100
AcDbEntity
  8
0
100
AcDbCircle
 62
7
  6
CONTINUOUS
 10
7.8598183383
 20
8.9988318604
 40
0.06
100
AcDbArc
 50
269.9999999799
 51
360.0
  0
ARC
  5
374
100
AcDbEntity
  8
0
100
AcDbCircle
 62
7
  6
CONTINUOUS
 10
7.5263183383
 20
9.3323318604
 40
0.06
100
AcDbArc
 50
269.9999999772
 51
360.0
  0
ARC
  5
375
100
AcDbEntity
  8
0
100
AcDbCircle
 62
7
  6
CONTINUOUS
 10
6.5683183383
 20
9.3323318604
 40
0.06
100
AcDbArc
 50
179.9999999765
 51
270.0
  0
ARC
  5
376
100
AcDbEntity
  8
0
100
AcDbCircle
 62
9
  6
CONTINUOUS
 10
8.1823183383
 20
8.6763318604
 40
0.03
100
AcDbArc
 50
270.0
 51
360.0
  0
ARC
  5
377
100
AcDbEntity
  8
0
100
AcDbCircle
 62
9
  6
CONTINUOUS
 10
5.9123183383
 20
8.6763318604
 40
0.03
100
AcDbArc
 50
180.0
 51
270.0
  0
ARC
  5
378
100
AcDbEntity
  8
0
100
AcDbCircle
 62
7
  6
CONTINUOUS
 10
7.4408183383
 20
9.5907745795
 40
0.03
100
AcDbArc
 50
276.3793702168
 51
360.0
  0
ARC
  5
379
100
AcDbEntity
  8
0
100
AcDbCircle
 62
7
  6
CONTINUOUS
 10
7.3608183383
 20
9.4978318604
 40
0.03
100
AcDbArc
 50
270.0
 51
360.0
  0
ARC
  5
37A
100
AcDbEntity
  8
0
100
AcDbCircle
 62
7
  6
CONTINUOUS
 10
6.7338183383
 20
9.4978318604
 40
0.03
100
AcDbArc
 50
180.0
 51
270.0
  0
ARC
  5
37B
100
AcDbEntity
  8
0
100
AcDbCircle
 62
9
  6
CONTINUOUS
 10
7.8598183383
 20
8.9988318604
 40
0.03
100
AcDbArc
 50
270.0
 51
360.0
  0
ARC
  5
37C
100
AcDbEntity
  8
0
100
AcDbCircle
 62
9
  6
CONTINUOUS
 10
6.2348183383
 20
8.9988318604
 40
0.03
100
AcDbArc
 50
180.0
 51
270.0
  0
ARC
  5
37D
100
AcDbEntity
  8
0
100
AcDbCircle
 62
9
  6
CONTINUOUS
 10
7.5263183383
 20
9.3323318604
 40
0.03
100
AcDbArc
 50
270.0
 51
360.0
  0
ARC
  5
37E
100
AcDbEntity
  8
0
100
AcDbCircle
 62
9
  6
CONTINUOUS
 10
6.5683183383
 20
9.3323318604
 40
0.03
100
AcDbArc
 50
180.0
 51
270.0
  0
ARC
  5
37F
100
AcDbEntity
  8
0
100
AcDbCircle
 62
7
  6
CONTINUOUS
 10
8.1823183383
 20
10.9463318604
 40
0.06
100
AcDbArc
 50
359.9999998864
 51
90.0
  0
ARC
  5
380
100
AcDbEntity
  8
0
100
AcDbCircle
 62
7
  6
CONTINUOUS
 10
5.9123183383
 20
10.9463318604
 40
0.06
100
AcDbArc
 50
89.9999998864
 51
180.0
  0
ARC
  5
381
100
AcDbEntity
  8
0
100
AcDbCircle
 62
7
  6
CONTINUOUS
 10
7.4508183383
 20
10.1213318604
 40
0.06
100
AcDbArc
 50
180.0000000067
 51
263.6206297957
  0
ARC
  5
382
100
AcDbEntity
  8
0
100
AcDbCircle
 62
7
  6
CONTINUOUS
 10
6.6438183383
 20
10.1213318604
 40
0.06
100
AcDbArc
 50
270.0
 51
359.9999999933
  0
ARC
  5
383
100
AcDbEntity
  8
0
100
AcDbCircle
 62
7
  6
CONTINUOUS
 10
6.2348183383
 20
10.6238318604
 40
0.06
100
AcDbArc
 50
89.9999999799
 51
180.0
  0
ARC
  5
384
100
AcDbEntity
  8
0
100
AcDbCircle
 62
7
  6
CONTINUOUS
 10
7.8598183383
 20
10.6238318604
 40
0.06
100
AcDbArc
 50
0.0
 51
90.0
  0
ARC
  5
385
100
AcDbEntity
  8
0
100
AcDbCircle
 62
7
  6
CONTINUOUS
 10
6.5683183383
 20
10.2903318604
 40
0.06
100
AcDbArc
 50
89.99999998
 51
180.0
  0
ARC
  5
386
100
AcDbEntity
  8
0
100
AcDbCircle
 62
7
  6
CONTINUOUS
 10
7.5263183383
 20
10.2903318604
 40
0.06
100
AcDbArc
 50
0.0
 51
90.0
  0
ARC
  5
387
100
AcDbEntity
  8
0
100
AcDbCircle
 62
9
  6
CONTINUOUS
 10
5.9123183383
 20
10.9463318604
 40
0.03
100
AcDbArc
 50
90.0
 51
180.0
  0
ARC
  5
388
100
AcDbEntity
  8
0
100
AcDbCircle
 62
9
  6
CONTINUOUS
 10
8.1823183383
 20
10.9463318604
 40
0.03
100
AcDbArc
 50
0.0
 51
90.0
  0
ARC
  5
389
100
AcDbEntity
  8
0
100
AcDbCircle
 62
7
  6
CONTINUOUS
 10
7.4408183383
 20
10.0318891413
 40
0.03
100
AcDbArc
 50
0.0
 51
83.6206297832
  0
ARC
  5
38A
100
AcDbEntity
  8
0
100
AcDbCircle
 62
7
  6
CONTINUOUS
 10
6.7338183383
 20
10.1248318604
 40
0.03
100
AcDbArc
 50
90.0
 51
180.0
  0
ARC
  5
38B
100
AcDbEntity
  8
0
100
AcDbCircle
 62
7
  6
CONTINUOUS
 10
7.3608183383
 20
10.1248318604
 40
0.03
100
AcDbArc
 50
0.0
 51
90.0
  0
ARC
  5
38C
100
AcDbEntity
  8
0
100
AcDbCircle
 62
9
  6
CONTINUOUS
 10
6.2348183383
 20
10.6238318604
 40
0.03
100
AcDbArc
 50
90.0
 51
180.0
  0
ARC
  5
38D
100
AcDbEntity
  8
0
100
AcDbCircle
 62
9
  6
CONTINUOUS
 10
7.8598183383
 20
10.6238318604
 40
0.03
100
AcDbArc
 50
0.0
 51
90.0
  0
ARC
  5
38E
100
AcDbEntity
  8
0
100
AcDbCircle
 62
9
  6
CONTINUOUS
 10
6.5683183383
 20
10.2903318604
 40
0.03
100
AcDbArc
 50
90.0
 51
180.0
  0
ARC
  5
38F
100
AcDbEntity
  8
0
100
AcDbCircle
 62
9
  6
CONTINUOUS
 10
7.5263183383
 20
10.2903318604
 40
0.03
100
AcDbArc
 50
0.0
 51
90.0
  0
ARC
  5
390
100
AcDbEntity
  8
0
100
AcDbCircle
 62
9
  6
CONTINUOUS
 10
10.1503897203
 20
8.9596437012
 40
0.2516698533
100
AcDbArc
 50
26.7863513492
 51
29.295486863
  0
ARC
  5
391
100
AcDbEntity
  8
0
100
AcDbCircle
 62
7
  6
CONTINUOUS
 10
11.2998183383
 20
9.5588318604
 40
0.06
100
AcDbArc
 50
269.9999999903
 51
360.0
  0
ARC
  5
392
100
AcDbEntity
  8
0
100
AcDbCircle
 62
7
  6
CONTINUOUS
 10
10.7948183383
 20
9.5588318604
 40
0.06
100
AcDbArc
 50
179.9999999903
 51
270.0
  0
ARC
  5
393
100
AcDbEntity
  8
0
100
AcDbCircle
 62
7
  6
CONTINUOUS
 10
9.7973183383
 20
8.5613318604
 40
0.06
100
AcDbArc
 50
180.0
 51
270.000000067
  0
ARC
  5
394
100
AcDbEntity
  8
0
100
AcDbCircle
 62
7
  6
CONTINUOUS
 10
10.0853183383
 20
8.8493318604
 40
0.06
100
AcDbArc
 50
180.0
 51
269.9999999805
  0
ARC
  5
395
100
AcDbEntity
  8
0
100
AcDbCircle
 62
9
  6
CONTINUOUS
 10
11.2998183383
 20
9.5588318604
 40
0.03
100
AcDbArc
 50
270.0000000001
 51
359.9999999999
  0
ARC
  5
396
100
AcDbEntity
  8
0
100
AcDbCircle
 62
9
  6
CONTINUOUS
 10
10.7948183383
 20
9.5588318604
 40
0.03
100
AcDbArc
 50
180.0000000001
 51
269.9999999999
  0
ARC
  5
397
100
AcDbEntity
  8
0
100
AcDbCircle
 62
9
  6
CONTINUOUS
 10
9.7973183383
 20
8.5613318604
 40
0.03
100
AcDbArc
 50
180.0
 51
270.0
  0
ARC
  5
398
100
AcDbEntity
  8
0
100
AcDbCircle
 62
9
  6
CONTINUOUS
 10
10.0853183383
 20
8.8493318604
 40
0.03
100
AcDbArc
 50
180.0
 51
270.0
  0
ARC
  5
399
100
AcDbEntity
  8
0
100
AcDbCircle
 62
7
  6
CONTINUOUS
 10
10.7948183383
 20
10.0638318604
 40
0.06
100
AcDbArc
 50
89.9999999903
 51
180.0
  0
ARC
  5
39A
100
AcDbEntity
  8
0
100
AcDbCircle
 62
7
  6
CONTINUOUS
 10
11.2998183383
 20
10.0638318604
 40
0.06
100
AcDbArc
 50
0.0
 51
90.0
  0
ARC
  5
39B
100
AcDbEntity
  8
0
100
AcDbCircle
 62
7
  6
CONTINUOUS
 10
9.7973183383
 20
11.0613318604
 40
0.06
100
AcDbArc
 50
90.0
 51
180.000000067
  0
ARC
  5
39C
100
AcDbEntity
  8
0
100
AcDbCircle
 62
7
  6
CONTINUOUS
 10
10.0853183383
 20
10.7733318604
 40
0.06
100
AcDbArc
 50
90.0
 51
179.9999999805
  0
ARC
  5
39D
100
AcDbEntity
  8
0
100
AcDbCircle
 62
9
  6
CONTINUOUS
 10
10.7948183383
 20
10.0638318604
 40
0.03
100
AcDbArc
 50
90.0000000001
 51
179.9999999999
  0
ARC
  5
39E
100
AcDbEntity
  8
0
100
AcDbCircle
 62
9
  6
CONTINUOUS
 10
11.2998183383
 20
10.0638318604
 40
0.03
100
AcDbArc
 50
0.0000000001
 51
89.9999999999
  0
ARC
  5
39F
100
AcDbEntity
  8
0
100
AcDbCircle
 62
9
  6
CONTINUOUS
 10
9.7973183383
 20
11.0613318604
 40
0.03
100
AcDbArc
 50
90.0
 51
180.0
  0
ARC
  5
3A0
100
AcDbEntity
  8
0
100
AcDbCircle
 62
9
  6
CONTINUOUS
 10
10.0853183383
 20
10.7733318604
 40
0.03
100
AcDbArc
 50
90.0
 51
180.0
  0
ARC
  5
3A1
100
AcDbEntity
  8
0
100
AcDbCircle
 62
9
  6
CONTINUOUS
 10
72.6801288646
 20
-47.242645572
 40
84.0145513401
100
AcDbArc
 50
137.6655646058
 51
137.8841964465
  0
ARC
  5
3A2
100
AcDbEntity
  8
0
100
AcDbCircle
 62
7
  6
CONTINUOUS
 10
11.5798183383
 20
4.9413318604
 40
0.06
100
AcDbArc
 50
0.0
 51
89.9999999847
  0
ARC
  5
3A3
100
AcDbEntity
  8
0
100
AcDbCircle
 62
7
  6
CONTINUOUS
 10
11.5798183383
 20
3.9033318604
 40
0.06
100
AcDbArc
 50
270.0
 51
359.9999999847
  0
ARC
  5
3A4
100
AcDbEntity
  8
0
100
AcDbCircle
 62
9
  6
CONTINUOUS
 10
11.9546743629
 20
8.9541214751
 40
0.2634689453
100
AcDbArc
 50
151.0326588921
 51
153.1937929005
  0
ARC
  5
3A5
100
AcDbEntity
  8
0
100
AcDbCircle
 62
7
  6
CONTINUOUS
 10
13.9123183383
 20
8.6763318604
 40
0.06
100
AcDbArc
 50
179.9999998864
 51
270.0
  0
ARC
  5
3A6
100
AcDbEntity
  8
0
100
AcDbCircle
 62
7
  6
CONTINUOUS
 10
14.6438183383
 20
9.5013318604
 40
0.06
100
AcDbArc
 50
0.0000000067
 51
83.6206297957
  0
ARC
  5
3A7
100
AcDbEntity
  8
0
100
AcDbCircle
 62
7
  6
CONTINUOUS
 10
14.2348183383
 20
8.9988318604
 40
0.06
100
AcDbArc
 50
179.9999999799
 51
270.0
  0
ARC
  5
3A8
100
AcDbEntity
  8
0
100
AcDbCircle
 62
7
  6
CONTINUOUS
 10
14.5683183383
 20
9.3323318604
 40
0.06
100
AcDbArc
 50
179.9999999775
 51
270.0
  0
ARC
  5
3A9
100
AcDbEntity
  8
0
100
AcDbCircle
 62
7
  6
CONTINUOUS
 10
12.2973183383
 20
8.5613318604
 40
0.06
100
AcDbArc
 50
270.0
 51
0.000000067
  0
ARC
  5
3AA
100
AcDbEntity
  8
0
100
AcDbCircle
 62
7
  6
CONTINUOUS
 10
12.0093183383
 20
8.8493318604
 40
0.06
100
AcDbArc
 50
270.0
 51
359.9999999805
  0
ARC
  5
3AB
100
AcDbEntity
  8
0
100
AcDbCircle
 62
9
  6
CONTINUOUS
 10
11.7131591423
 20
9.0368024732
 40
0.0345211699
100
AcDbArc
 50
66.4470084099
 51
67.8058472923
  0
ARC
  5
3AC
100
AcDbEntity
  8
0
100
AcDbCircle
 62
9
  6
CONTINUOUS
 10
13.9123183383
 20
8.6763318604
 40
0.03
100
AcDbArc
 50
180.0
 51
270.0
  0
ARC
  5
3AD
100
AcDbEntity
  8
0
100
AcDbCircle
 62
7
  6
CONTINUOUS
 10
14.6538183383
 20
9.5907745795
 40
0.03
100
AcDbArc
 50
180.0
 51
263.6206297832
  0
ARC
  5
3AE
100
AcDbEntity
  8
0
100
AcDbCircle
 62
7
  6
CONTINUOUS
 10
14.7338183383
 20
9.4978318604
 40
0.03
100
AcDbArc
 50
180.0
 51
270.0
  0
ARC
  5
3AF
100
AcDbEntity
  8
0
100
AcDbCircle
 62
9
  6
CONTINUOUS
 10
14.2348183383
 20
8.9988318604
 40
0.03
100
AcDbArc
 50
180.0
 51
270.0
  0
ARC
  5
3B0
100
AcDbEntity
  8
0
100
AcDbCircle
 62
9
  6
CONTINUOUS
 10
14.5683183383
 20
9.3323318604
 40
0.03
100
AcDbArc
 50
180.0
 51
270.0
  0
ARC
  5
3B1
100
AcDbEntity
  8
0
100
AcDbCircle
 62
9
  6
CONTINUOUS
 10
12.2973183383
 20
8.5613318604
 40
0.03
100
AcDbArc
 50
270.0
 51
360.0
  0
ARC
  5
3B2
100
AcDbEntity
  8
0
100
AcDbCircle
 62
9
  6
CONTINUOUS
 10
12.0093183383
 20
8.8493318604
 40
0.03
100
AcDbArc
 50
270.0
 51
360.0
  0
ARC
  5
3B3
100
AcDbEntity
  8
0
100
AcDbCircle
 62
7
  6
CONTINUOUS
 10
13.9123183383
 20
10.9463318604
 40
0.06
100
AcDbArc
 50
89.9999998864
 51
180.0
  0
ARC
  5
3B4
100
AcDbEntity
  8
0
100
AcDbCircle
 62
7
  6
CONTINUOUS
 10
14.6438183383
 20
10.1213318604
 40
0.06
100
AcDbArc
 50
276.3793702043
 51
359.9999999933
  0
ARC
  5
3B5
100
AcDbEntity
  8
0
100
AcDbCircle
 62
7
  6
CONTINUOUS
 10
14.2348183383
 20
10.6238318604
 40
0.06
100
AcDbArc
 50
89.9999999799
 51
180.0
  0
ARC
  5
3B6
100
AcDbEntity
  8
0
100
AcDbCircle
 62
7
  6
CONTINUOUS
 10
14.5683183383
 20
10.2903318604
 40
0.06
100
AcDbArc
 50
89.9999999772
 51
180.0
  0
ARC
  5
3B7
100
AcDbEntity
  8
0
100
AcDbCircle
 62
7
  6
CONTINUOUS
 10
12.2973183383
 20
11.0613318604
 40
0.06
100
AcDbArc
 50
0.0
 51
90.000000067
  0
ARC
  5
3B8
100
AcDbEntity
  8
0
100
AcDbCircle
 62
7
  6
CONTINUOUS
 10
12.0093183383
 20
10.7733318604
 40
0.06
100
AcDbArc
 50
0.0
 51
89.9999999805
  0
ARC
  5
3B9
100
AcDbEntity
  8
0
100
AcDbCircle
 62
9
  6
CONTINUOUS
 10
13.9123183383
 20
10.9463318604
 40
0.03
100
AcDbArc
 50
90.0
 51
180.0
  0
ARC
  5
3BA
100
AcDbEntity
  8
0
100
AcDbCircle
 62
7
  6
CONTINUOUS
 10
14.6538183383
 20
10.0318891413
 40
0.03
100
AcDbArc
 50
96.3793702168
 51
180.0
  0
ARC
  5
3BB
100
AcDbEntity
  8
0
100
AcDbCircle
 62
7
  6
CONTINUOUS
 10
14.7338183383
 20
10.1248318604
 40
0.03
100
AcDbArc
 50
90.0
 51
180.0
  0
ARC
  5
3BC
100
AcDbEntity
  8
0
100
AcDbCircle
 62
9
  6
CONTINUOUS
 10
14.2348183383
 20
10.6238318604
 40
0.03
100
AcDbArc
 50
90.0
 51
180.0
  0
ARC
  5
3BD
100
AcDbEntity
  8
0
100
AcDbCircle
 62
9
  6
CONTINUOUS
 10
14.5683183383
 20
10.2903318604
 40
0.03
100
AcDbArc
 50
90.0
 51
180.0
  0
ARC
  5
3BE
100
AcDbEntity
  8
0
100
AcDbCircle
 62
9
  6
CONTINUOUS
 10
12.2973183383
 20
11.0613318604
 40
0.03
100
AcDbArc
 50
0.0
 51
90.0
  0
ARC
  5
3BF
100
AcDbEntity
  8
0
100
AcDbCircle
 62
9
  6
CONTINUOUS
 10
12.0093183383
 20
10.7733318604
 40
0.03
100
AcDbArc
 50
0.0
 51
90.0
  0
ARC
  5
3C0
100
AcDbEntity
  8
0
100
AcDbCircle
 62
7
  6
CONTINUOUS
 10
16.1823183383
 20
8.6763318604
 40
0.06
100
AcDbArc
 50
269.9999998864
 51
360.0
  0
ARC
  5
3C1
100
AcDbEntity
  8
0
100
AcDbCircle
 62
7
  6
CONTINUOUS
 10
15.4508183383
 20
9.5013318604
 40
0.06
100
AcDbArc
 50
90.0
 51
179.9999999933
  0
ARC
  5
3C2
100
AcDbEntity
  8
0
100
AcDbCircle
 62
7
  6
CONTINUOUS
 10
15.8598183383
 20
8.9988318604
 40
0.06
100
AcDbArc
 50
269.9999999799
 51
360.0
  0
ARC
  5
3C3
100
AcDbEntity
  8
0
100
AcDbCircle
 62
7
  6
CONTINUOUS
 10
15.5263183383
 20
9.3323318604
 40
0.06
100
AcDbArc
 50
269.99999998
 51
360.0
  0
ARC
  5
3C4
100
AcDbEntity
  8
0
100
AcDbCircle
 62
9
  6
CONTINUOUS
 10
16.1823183383
 20
8.6763318604
 40
0.03
100
AcDbArc
 50
270.0
 51
360.0
  0
ARC
  5
3C5
100
AcDbEntity
  8
0
100
AcDbCircle
 62
7
  6
CONTINUOUS
 10
15.3608183383
 20
9.4978318604
 40
0.03
100
AcDbArc
 50
270.0
 51
360.0
  0
ARC
  5
3C6
100
AcDbEntity
  8
0
100
AcDbCircle
 62
7
  6
CONTINUOUS
 10
18.0488183383
 20
9.5913318604
 40
0.03
100
AcDbArc
 50
270.0
 51
360.0
  0
ARC
  5
3C7
100
AcDbEntity
  8
0
100
AcDbCircle
 62
9
  6
CONTINUOUS
 10
15.8598183383
 20
8.9988318604
 40
0.03
100
AcDbArc
 50
270.0
 51
360.0
  0
ARC
  5
3C8
100
AcDbEntity
  8
0
100
AcDbCircle
 62
9
  6
CONTINUOUS
 10
15.5263183383
 20
9.3323318604
 40
0.03
100
AcDbArc
 50
270.0
 51
360.0
  0
ARC
  5
3C9
100
AcDbEntity
  8
0
100
AcDbCircle
 62
7
  6
CONTINUOUS
 10
16.1823183383
 20
10.9463318604
 40
0.06
100
AcDbArc
 50
359.9999998864
 51
90.0
  0
ARC
  5
3CA
100
AcDbEntity
  8
0
100
AcDbCircle
 62
7
  6
CONTINUOUS
 10
15.4508183383
 20
10.1213318604
 40
0.06
100
AcDbArc
 50
180.0000000067
 51
270.0
  0
ARC
  5
3CB
100
AcDbEntity
  8
0
100
AcDbCircle
 62
7
  6
CONTINUOUS
 10
15.8598183383
 20
10.6238318604
 40
0.06
100
AcDbArc
 50
0.0
 51
90.0
  0
ARC
  5
3CC
100
AcDbEntity
  8
0
100
AcDbCircle
 62
7
  6
CONTINUOUS
 10
15.5263183383
 20
10.2903318604
 40
0.06
100
AcDbArc
 50
0.0
 51
90.0
  0
ARC
  5
3CD
100
AcDbEntity
  8
0
100
AcDbCircle
 62
9
  6
CONTINUOUS
 10
16.1823183383
 20
10.9463318604
 40
0.03
100
AcDbArc
 50
0.0
 51
90.0
  0
ARC
  5
3CE
100
AcDbEntity
  8
0
100
AcDbCircle
 62
7
  6
CONTINUOUS
 10
15.3608183383
 20
10.1248318604
 40
0.03
100
AcDbArc
 50
0.0
 51
90.0
  0
ARC
  5
3CF
100
AcDbEntity
  8
0
100
AcDbCircle
 62
7
  6
CONTINUOUS
 10
18.0488183383
 20
10.0313318604
 40
0.03
100
AcDbArc
 50
0.0
 51
90.0
  0
ARC
  5
3D0
100
AcDbEntity
  8
0
100
AcDbCircle
 62
9
  6
CONTINUOUS
 10
15.8598183383
 20
10.6238318604
 40
0.03
100
AcDbArc
 50
0.0
 51
90.0
  0
ARC
  5
3D1
100
AcDbEntity
  8
0
100
AcDbCircle
 62
9
  6
CONTINUOUS
 10
15.5263183383
 20
10.2903318604
 40
0.03
100
AcDbArc
 50
0.0
 51
90.0
  0
ARC
  5
3D2
100
AcDbEntity
  8
0
100
AcDbCircle
 62
9
  6
CONTINUOUS
 10
24.5292611923
 20
4.9829201871
 40
12.992074706
100
AcDbArc
 50
178.7120485696
 51
178.8352948311
  0
ARC
  5
3D3
100
AcDbEntity
  8
0
100
AcDbCircle
 62
9
  6
CONTINUOUS
 10
23.5380051215
 20
5.0030825172
 40
12.0006136037
100
AcDbArc
 50
178.8353395111
 51
178.9545924056
  0
SPLINE
  5
3D4
100
AcDbEntity
  8
0
100
AcDbSpline
 62
9
  6
CONTINUOUS
 70
0
 71
3
 72
19
 73
15
 74
0
 42
0.0000001
 43
0.0000001
 44
0.0000000001
 40
0.0
 40
0.0
 40
0.0
 40
0.0
 40
0.1248821343
 40
0.187466047
 40
0.2500150186
 40
0.3125420486
 40
0.3750741966
 40
0.5000126058
 40
0.6249413076
 40
0.6874677259
 40
0.7499884584
 40
0.8125311244
 40
0.8751128254
 40
1.0
 40
1.0
 40
1.0
 40
1.0
 10
6.363339356
 20
9.0387201804
 30
0.0
 10
6.3575419199
 20
9.0387205969
 30
0.0
 10
6.3488088112
 20
9.0395626821
 30
0.0
 10
6.3375249755
 20
9.0423336039
 30
0.0
 10
6.3292943497
 20
9.0452340943
 30
0.0
 10
6.3213898659
 20
9.048925386
 30
0.0
 10
6.3114001648
 20
9.0548641766
 30
0.0
 10
6.3000902448
 20
9.0641059292
 30
0.0
 10
6.2908512805
 20
9.0754174673
 30
0.0
 10
6.2849124995
 20
9.0854058893
 30
0.0
 10
6.2812193167
 20
9.0933085096
 30
0.0
 10
6.2783171171
 20
9.1015378639
 30
0.0
 10
6.2755468438
 20
9.1128218242
 30
0.0
 10
6.2747070478
 20
9.121555208
 30
0.0
 10
6.2747066582
 20
9.1273528782
 30
0.0
  0
SPLINE
  5
3D5
100
AcDbEntity
  8
0
100
AcDbSpline
 62
9
  6
CONTINUOUS
 70
0
 71
3
 72
19
 73
15
 74
0
 42
0.0000001
 43
0.0000001
 44
0.0000000001
 40
0.0
 40
0.0
 40
0.0
 40
0.0
 40
0.1248821343
 40
0.187466047
 40
0.2500150186
 40
0.3125420486
 40
0.3750741966
 40
0.5000126058
 40
0.6249413076
 40
0.6874677259
 40
0.7499884584
 40
0.8125311244
 40
0.8751128254
 40
1.0
 40
1.0
 40
1.0
 40
1.0
 10
6.2747066582
 20
10.4953108427
 30
0.0
 10
6.2747070748
 20
10.5011082788
 30
0.0
 10
6.27554916
 20
10.5098413874
 30
0.0
 10
6.2783200818
 20
10.5211252232
 30
0.0
 10
6.2812205722
 20
10.529355849
 30
0.0
 10
6.2849118639
 20
10.5372603327
 30
0.0
 10
6.2908506544
 20
10.5472500339
 30
0.0
 10
6.3000924071
 20
10.5585599538
 30
0.0
 10
6.3114039452
 20
10.5677989182
 30
0.0
 10
6.3213923672
 20
10.5737376992
 30
0.0
 10
6.3292949875
 20
10.577430882
 30
0.0
 10
6.3375243417
 20
10.5803330816
 30
0.0
 10
6.3488083021
 20
10.5831033549
 30
0.0
 10
6.3575416859
 20
10.5839431509
 30
0.0
 10
6.363339356
 20
10.5839435405
 30
0.0
  0
SPLINE
  5
3D6
100
AcDbEntity
  8
0
100
AcDbSpline
 62
9
  6
CONTINUOUS
 70
0
 71
3
 72
17
 73
13
 74
0
 42
0.0000001
 43
0.0000001
 44
0.0000000001
 40
0.0
 40
0.0
 40
0.0
 40
0.0
 40
0.12556276
 40
0.1882705433
 40
0.2508532044
 40
0.3755699224
 40
0.5000153209
 40
0.6244541778
 40
0.7491593075
 40
0.8117373171
 40
0.8744415184
 40
1.0
 40
1.0
 40
1.0
 40
1.0
 10
6.3042508939
 20
10.4953096163
 30
0.0
 10
6.3041947822
 20
10.4992148805
 30
0.0
 10
6.3046763008
 20
10.5050993046
 30
0.0
 10
6.3064365557
 20
10.5127103294
 30
0.0
 10
6.3089324155
 20
10.5200880448
 30
0.0
 10
6.3134340493
 20
10.5287574376
 30
0.0
 10
6.3208037941
 20
10.5378473154
 30
0.0
 10
6.3298934305
 20
10.5452168075
 30
0.0
 10
6.338562306
 20
10.5497178809
 30
0.0
 10
6.3459394368
 20
10.5522135243
 30
0.0
 10
6.3535500624
 20
10.5539737666
 30
0.0
 10
6.3594342309
 20
10.5544553721
 30
0.0
 10
6.3633393629
 20
10.5543993223
 30
0.0
  0
SPLINE
  5
3D7
100
AcDbEntity
  8
0
100
AcDbSpline
 62
9
  6
CONTINUOUS
 70
0
 71
3
 72
17
 73
13
 74
0
 42
0.0000001
 43
0.0000001
 44
0.0000000001
 40
0.0
 40
0.0
 40
0.0
 40
0.0
 40
0.1255627251
 40
0.1882704725
 40
0.2508531018
 40
0.3755697948
 40
0.500015191
 40
0.6244540837
 40
0.7491592536
 40
0.8117372798
 40
0.8744414949
 40
1.0
 40
1.0
 40
1.0
 40
1.0
 10
7.7312984579
 20
10.5543993387
 30
0.0
 10
7.7352036246
 20
10.5544552973
 30
0.0
 10
7.7410878783
 20
10.5539735784
 30
0.0
 10
7.7486986492
 20
10.5522131158
 30
0.0
 10
7.756076096
 20
10.5497170853
 30
0.0
 10
7.764745139
 20
10.5452153245
 30
0.0
 10
7.773834613
 20
10.5378455561
 30
0.0
 10
7.7812037531
 20
10.5287560169
 30
0.0
 10
7.7857046026
 20
10.5200873038
 30
0.0
 10
7.788200118
 20
10.5127103355
 30
0.0
 10
7.7899602694
 20
10.5050998899
 30
0.0
 10
7.7904418486
 20
10.49921587
 30
0.0
 10
7.7903858002
 20
10.4953108358
 30
0.0
  0
SPLINE
  5
3D8
100
AcDbEntity
  8
0
100
AcDbSpline
 62
9
  6
CONTINUOUS
 70
0
 71
3
 72
17
 73
13
 74
0
 42
0.0000001
 43
0.0000001
 44
0.0000000001
 40
0.0
 40
0.0
 40
0.0
 40
0.0
 40
0.1255627247
 40
0.1882704717
 40
0.2508531006
 40
0.3755697933
 40
0.5000151895
 40
0.6244540826
 40
0.749159253
 40
0.8117372794
 40
0.8744414946
 40
1.0
 40
1.0
 40
1.0
 40
1.0
 10
7.790385817
 20
9.127351713
 30
0.0
 10
7.7904417737
 20
9.1234465474
 30
0.0
 10
7.7899600525
 20
9.1175622957
 30
0.0
 10
7.7881995875
 20
9.1099515277
 30
0.0
 10
7.785703555
 20
9.1025740842
 30
0.0
 10
7.7812017927
 20
9.0939050453
 30
0.0
 10
7.773832024
 20
9.0848155761
 30
0.0
 10
7.764742486
 20
9.0774464401
 30
0.0
 10
7.7560737747
 20
9.0729455932
 30
0.0
 10
7.7486968083
 20
9.0704500793
 30
0.0
 10
7.7410863649
 20
9.068689929
 30
0.0
 10
7.7352023467
 20
9.0682083501
 30
0.0
 10
7.7312973137
 20
9.0682643985
 30
0.0
  0
SPLINE
  5
3D9
100
AcDbEntity
  8
0
100
AcDbSpline
 62
9
  6
CONTINUOUS
 70
0
 71
3
 72
17
 73
13
 74
0
 42
0.0000001
 43
0.0000001
 44
0.0000000001
 40
0.0
 40
0.0
 40
0.0
 40
0.0
 40
0.1255627616
 40
0.1882705465
 40
0.250853209
 40
0.3755699282
 40
0.5000153268
 40
0.6244541821
 40
0.74915931
 40
0.8117373188
 40
0.8744415195
 40
1.0
 40
1.0
 40
1.0
 40
1.0
 10
6.3633406899
 20
9.0682644176
 30
0.0
 10
6.3594354213
 20
9.0682082989
 30
0.0
 10
6.3535509894
 20
9.0686898084
 30
0.0
 10
6.3459399532
 20
9.0704500539
 30
0.0
 10
6.3385622254
 20
9.0729459059
 30
0.0
 10
6.3298928168
 20
9.0774475338
 30
0.0
 10
6.3208029206
 20
9.0848172777
 30
0.0
 10
6.3134334124
 20
9.0939069184
 30
0.0
 10
6.3089323289
 20
9.1025758014
 30
0.0
 10
6.3064366797
 20
9.1099529395
 30
0.0
 10
6.3046764332
 20
9.1175635733
 30
0.0
 10
6.3041948265
 20
9.1234477486
 30
0.0
 10
6.3042508764
 20
9.127352885
 30
0.0
  0
SPLINE
  5
3DA
100
AcDbEntity
  8
0
100
AcDbSpline
 62
9
  6
CONTINUOUS
 70
0
 71
3
 72
19
 73
15
 74
0
 42
0.0000001
 43
0.0000001
 44
0.0000000001
 40
0.0
 40
0.0
 40
0.0
 40
0.0
 40
0.1248821343
 40
0.187466047
 40
0.2500150186
 40
0.3125420486
 40
0.3750741966
 40
0.5000126058
 40
0.6249413076
 40
0.6874677259
 40
0.7499884584
 40
0.8125311244
 40
0.8751128254
 40
1.0
 40
1.0
 40
1.0
 40
1.0
 10
7.7312973206
 20
10.5839435405
 30
0.0
 10
7.7370947567
 20
10.5839431239
 30
0.0
 10
7.7458278653
 20
10.5831010387
 30
0.0
 10
7.757111701
 20
10.5803301169
 30
0.0
 10
7.7653423269
 20
10.5774296265
 30
0.0
 10
7.7732468106
 20
10.5737383348
 30
0.0
 10
7.7832365118
 20
10.5677995443
 30
0.0
 10
7.7945464317
 20
10.5585577916
 30
0.0
 10
7.8037853961
 20
10.5472462535
 30
0.0
 10
7.8097241771
 20
10.5372578315
 30
0.0
 10
7.8134173599
 20
10.5293552112
 30
0.0
 10
7.8163195595
 20
10.5211258569
 30
0.0
 10
7.8190898327
 20
10.5098418966
 30
0.0
 10
7.8199296287
 20
10.5011085128
 30
0.0
 10
7.8199300183
 20
10.4953108427
 30
0.0
  0
SPLINE
  5
3DB
100
AcDbEntity
  8
0
100
AcDbSpline
 62
9
  6
CONTINUOUS
 70
0
 71
3
 72
19
 73
15
 74
0
 42
0.0000001
 43
0.0000001
 44
0.0000000001
 40
0.0
 40
0.0
 40
0.0
 40
0.0
 40
0.1248821343
 40
0.187466047
 40
0.2500150186
 40
0.3125420486
 40
0.3750741966
 40
0.5000126058
 40
0.6249413076
 40
0.6874677259
 40
0.7499884584
 40
0.8125311244
 40
0.8751128254
 40
1.0
 40
1.0
 40
1.0
 40
1.0
 10
7.8199300183
 20
9.1273528781
 30
0.0
 10
7.8199296018
 20
9.121555442
 30
0.0
 10
7.8190875166
 20
9.1128223334
 30
0.0
 10
7.8163165948
 20
9.1015384976
 30
0.0
 10
7.8134161043
 20
9.0933078718
 30
0.0
 10
7.8097248127
 20
9.0854033881
 30
0.0
 10
7.8037860221
 20
9.0754136869
 30
0.0
 10
7.7945442695
 20
9.064103767
 30
0.0
 10
7.7832327314
 20
9.0548648026
 30
0.0
 10
7.7732443094
 20
9.0489260216
 30
0.0
 10
7.7653416891
 20
9.0452328388
 30
0.0
 10
7.7571123348
 20
9.0423306392
 30
0.0
 10
7.7458283745
 20
9.039560366
 30
0.0
 10
7.7370949907
 20
9.03872057
 30
0.0
 10
7.7312973205
 20
9.0387201804
 30
0.0
  0
SPLINE
  5
3DC
100
AcDbEntity
  8
0
100
AcDbSpline
 62
9
  6
CONTINUOUS
 70
0
 71
3
 72
19
 73
15
 74
0
 42
0.0000001
 43
0.0000001
 44
0.0000000001
 40
0.0
 40
0.0
 40
0.0
 40
0.0
 40
0.1248821343
 40
0.187466047
 40
0.2500150186
 40
0.3125420486
 40
0.3750741966
 40
0.5000126058
 40
0.6249413076
 40
0.6874677259
 40
0.7499884584
 40
0.8125311244
 40
0.8751128254
 40
1.0
 40
1.0
 40
1.0
 40
1.0
 10
15.7312973206
 20
10.5839435405
 30
0.0
 10
15.7370947567
 20
10.5839431239
 30
0.0
 10
15.7458278653
 20
10.5831010387
 30
0.0
 10
15.757111701
 20
10.5803301169
 30
0.0
 10
15.7653423269
 20
10.5774296265
 30
0.0
 10
15.7732468106
 20
10.5737383348
 30
0.0
 10
15.7832365118
 20
10.5677995443
 30
0.0
 10
15.7945464317
 20
10.5585577916
 30
0.0
 10
15.8037853961
 20
10.5472462535
 30
0.0
 10
15.8097241771
 20
10.5372578315
 30
0.0
 10
15.8134173599
 20
10.5293552112
 30
0.0
 10
15.8163195595
 20
10.5211258569
 30
0.0
 10
15.8190898327
 20
10.5098418966
 30
0.0
 10
15.8199296287
 20
10.5011085128
 30
0.0
 10
15.8199300183
 20
10.4953108427
 30
0.0
  0
SPLINE
  5
3DD
100
AcDbEntity
  8
0
100
AcDbSpline
 62
9
  6
CONTINUOUS
 70
0
 71
3
 72
19
 73
15
 74
0
 42
0.0000001
 43
0.0000001
 44
0.0000000001
 40
0.0
 40
0.0
 40
0.0
 40
0.0
 40
0.1248821343
 40
0.187466047
 40
0.2500150186
 40
0.3125420486
 40
0.3750741966
 40
0.5000126058
 40
0.6249413076
 40
0.6874677259
 40
0.7499884584
 40
0.8125311244
 40
0.8751128254
 40
1.0
 40
1.0
 40
1.0
 40
1.0
 10
15.8199300183
 20
9.1273528781
 30
0.0
 10
15.8199296018
 20
9.121555442
 30
0.0
 10
15.8190875166
 20
9.1128223334
 30
0.0
 10
15.8163165948
 20
9.1015384976
 30
0.0
 10
15.8134161043
 20
9.0933078718
 30
0.0
 10
15.8097248127
 20
9.0854033881
 30
0.0
 10
15.8037860221
 20
9.0754136869
 30
0.0
 10
15.7945442695
 20
9.064103767
 30
0.0
 10
15.7832327314
 20
9.0548648026
 30
0.0
 10
15.7732443094
 20
9.0489260216
 30
0.0
 10
15.7653416891
 20
9.0452328388
 30
0.0
 10
15.7571123348
 20
9.0423306392
 30
0.0
 10
15.7458283745
 20
9.039560366
 30
0.0
 10
15.7370949907
 20
9.03872057
 30
0.0
 10
15.7312973205
 20
9.0387201804
 30
0.0
  0
SPLINE
  5
3DE
100
AcDbEntity
  8
0
100
AcDbSpline
 62
9
  6
CONTINUOUS
 70
0
 71
3
 72
17
 73
13
 74
0
 42
0.0000001
 43
0.0000001
 44
0.0000000001
 40
0.0
 40
0.0
 40
0.0
 40
0.0
 40
0.12556276
 40
0.1882705433
 40
0.2508532044
 40
0.3755699224
 40
0.5000153209
 40
0.6244541778
 40
0.7491593075
 40
0.8117373171
 40
0.8744415184
 40
1.0
 40
1.0
 40
1.0
 40
1.0
 10
15.7903857827
 20
9.1273541045
 30
0.0
 10
15.7904418944
 20
9.1234488403
 30
0.0
 10
15.7899603758
 20
9.1175644162
 30
0.0
 10
15.7882001208
 20
9.1099533915
 30
0.0
 10
15.7857042611
 20
9.102575676
 30
0.0
 10
15.7812026273
 20
9.0939062832
 30
0.0
 10
15.7738328824
 20
9.0848164055
 30
0.0
 10
15.7647432461
 20
9.0774469133
 30
0.0
 10
15.7560743705
 20
9.0729458399
 30
0.0
 10
15.7486972398
 20
9.0704501965
 30
0.0
 10
15.7410866142
 20
9.0686899542
 30
0.0
 10
15.7352024456
 20
9.0682083487
 30
0.0
 10
15.7312973137
 20
9.0682643985
 30
0.0
  0
SPLINE
  5
3DF
100
AcDbEntity
  8
0
100
AcDbSpline
 62
9
  6
CONTINUOUS
 70
0
 71
3
 72
17
 73
13
 74
0
 42
0.0000001
 43
0.0000001
 44
0.0000000001
 40
0.0
 40
0.0
 40
0.0
 40
0.0
 40
0.1255627251
 40
0.1882704725
 40
0.2508531018
 40
0.3755697948
 40
0.500015191
 40
0.6244540837
 40
0.7491592536
 40
0.8117372798
 40
0.8744414949
 40
1.0
 40
1.0
 40
1.0
 40
1.0
 10
14.3633382187
 20
9.0682643821
 30
0.0
 10
14.359433052
 20
9.0682084236
 30
0.0
 10
14.3535487982
 20
9.0686901424
 30
0.0
 10
14.3459380273
 20
9.070450605
 30
0.0
 10
14.3385605806
 20
9.0729466355
 30
0.0
 10
14.3298915376
 20
9.0774483963
 30
0.0
 10
14.3208020636
 20
9.0848181647
 30
0.0
 10
14.3134329235
 20
9.0939077039
 30
0.0
 10
14.3089320739
 20
9.102576417
 30
0.0
 10
14.3064365586
 20
9.1099533854
 30
0.0
 10
14.3046764071
 20
9.1175638309
 30
0.0
 10
14.304194828
 20
9.1234478508
 30
0.0
 10
14.3042508764
 20
9.127352885
 30
0.0
  0
SPLINE
  5
3E0
100
AcDbEntity
  8
0
100
AcDbSpline
 62
9
  6
CONTINUOUS
 70
0
 71
3
 72
17
 73
13
 74
0
 42
0.0000001
 43
0.0000001
 44
0.0000000001
 40
0.0
 40
0.0
 40
0.0
 40
0.0
 40
0.1255627247
 40
0.1882704717
 40
0.2508531006
 40
0.3755697933
 40
0.5000151895
 40
0.6244540826
 40
0.749159253
 40
0.8117372794
 40
0.8744414946
 40
1.0
 40
1.0
 40
1.0
 40
1.0
 10
14.3042508596
 20
10.4953120078
 30
0.0
 10
14.3041949028
 20
10.4992171734
 30
0.0
 10
14.304676624
 20
10.5051014251
 30
0.0
 10
14.3064370891
 20
10.5127121931
 30
0.0
 10
14.3089331216
 20
10.5200896366
 30
0.0
 10
14.3134348839
 20
10.5287586755
 30
0.0
 10
14.3208046526
 20
10.5378481448
 30
0.0
 10
14.3298941906
 20
10.5452172807
 30
0.0
 10
14.3385629018
 20
10.5497181276
 30
0.0
 10
14.3459398683
 20
10.5522136415
 30
0.0
 10
14.3535503116
 20
10.5539737918
 30
0.0
 10
14.3594343299
 20
10.5544553707
 30
0.0
 10
14.3633393629
 20
10.5543993223
 30
0.0
  0
SPLINE
  5
3E1
100
AcDbEntity
  8
0
100
AcDbSpline
 62
9
  6
CONTINUOUS
 70
0
 71
3
 72
17
 73
13
 74
0
 42
0.0000001
 43
0.0000001
 44
0.0000000001
 40
0.0
 40
0.0
 40
0.0
 40
0.0
 40
0.1255627616
 40
0.1882705465
 40
0.250853209
 40
0.3755699282
 40
0.5000153268
 40
0.6244541821
 40
0.74915931
 40
0.8117373188
 40
0.8744415195
 40
1.0
 40
1.0
 40
1.0
 40
1.0
 10
15.7312959867
 20
10.5543993032
 30
0.0
 10
15.7352012553
 20
10.5544554219
 30
0.0
 10
15.7410856871
 20
10.5539739125
 30
0.0
 10
15.7486967234
 20
10.552213667
 30
0.0
 10
15.7560744511
 20
10.5497178149
 30
0.0
 10
15.7647438598
 20
10.545216187
 30
0.0
 10
15.7738337559
 20
10.5378464432
 30
0.0
 10
15.7812032641
 20
10.5287568024
 30
0.0
 10
15.7857043477
 20
10.5200879194
 30
0.0
 10
15.7881999969
 20
10.5127107813
 30
0.0
 10
15.7899602433
 20
10.5051001475
 30
0.0
 10
15.79044185
 20
10.4992159722
 30
0.0
 10
15.7903858002
 20
10.4953108358
 30
0.0
  0
SPLINE
  5
3E2
100
AcDbEntity
  8
0
100
AcDbSpline
 62
9
  6
CONTINUOUS
 70
0
 71
3
 72
19
 73
15
 74
0
 42
0.0000001
 43
0.0000001
 44
0.0000000001
 40
0.0
 40
0.0
 40
0.0
 40
0.0
 40
0.1248821343
 40
0.187466047
 40
0.2500150186
 40
0.3125420486
 40
0.3750741966
 40
0.5000126058
 40
0.6249413076
 40
0.6874677259
 40
0.7499884584
 40
0.8125311244
 40
0.8751128254
 40
1.0
 40
1.0
 40
1.0
 40
1.0
 10
14.363339356
 20
9.0387201804
 30
0.0
 10
14.3575419199
 20
9.0387205969
 30
0.0
 10
14.3488088112
 20
9.0395626821
 30
0.0
 10
14.3375249755
 20
9.0423336039
 30
0.0
 10
14.3292943497
 20
9.0452340943
 30
0.0
 10
14.3213898659
 20
9.048925386
 30
0.0
 10
14.3114001648
 20
9.0548641766
 30
0.0
 10
14.3000902448
 20
9.0641059292
 30
0.0
 10
14.2908512805
 20
9.0754174673
 30
0.0
 10
14.2849124995
 20
9.0854058893
 30
0.0
 10
14.2812193167
 20
9.0933085096
 30
0.0
 10
14.2783171171
 20
9.1015378639
 30
0.0
 10
14.2755468438
 20
9.1128218242
 30
0.0
 10
14.2747070478
 20
9.121555208
 30
0.0
 10
14.2747066582
 20
9.1273528782
 30
0.0
  0
SPLINE
  5
3E3
100
AcDbEntity
  8
0
100
AcDbSpline
 62
9
  6
CONTINUOUS
 70
0
 71
3
 72
19
 73
15
 74
0
 42
0.0000001
 43
0.0000001
 44
0.0000000001
 40
0.0
 40
0.0
 40
0.0
 40
0.0
 40
0.1248821343
 40
0.187466047
 40
0.2500150186
 40
0.3125420486
 40
0.3750741966
 40
0.5000126058
 40
0.6249413076
 40
0.6874677259
 40
0.7499884584
 40
0.8125311244
 40
0.8751128254
 40
1.0
 40
1.0
 40
1.0
 40
1.0
 10
14.2747066582
 20
10.4953108427
 30
0.0
 10
14.2747070748
 20
10.5011082788
 30
0.0
 10
14.27554916
 20
10.5098413874
 30
0.0
 10
14.2783200818
 20
10.5211252232
 30
0.0
 10
14.2812205722
 20
10.529355849
 30
0.0
 10
14.2849118639
 20
10.5372603327
 30
0.0
 10
14.2908506544
 20
10.5472500339
 30
0.0
 10
14.3000924071
 20
10.5585599538
 30
0.0
 10
14.3114039452
 20
10.5677989182
 30
0.0
 10
14.3213923672
 20
10.5737376992
 30
0.0
 10
14.3292949875
 20
10.577430882
 30
0.0
 10
14.3375243417
 20
10.5803330816
 30
0.0
 10
14.3488083021
 20
10.5831033549
 30
0.0
 10
14.3575416859
 20
10.5839431509
 30
0.0
 10
14.363339356
 20
10.5839435405
 30
0.0
  0
SPLINE
  5
3E4
100
AcDbEntity
  8
0
100
AcDbSpline
 62
9
  6
CONTINUOUS
 70
0
 71
3
 72
11
 73
7
 74
0
 42
0.0000001
 43
0.0000001
 44
0.0000000001
 40
0.0
 40
0.0
 40
0.0
 40
0.0
 40
0.2102205547
 40
0.4456844182
 40
0.7085143874
 40
1.0
 40
1.0
 40
1.0
 40
1.0
 10
10.3374142848
 20
9.1252948575
 30
0.0
 10
10.3392530208
 20
9.1238679757
 30
0.0
 10
10.342944133
 20
9.1205730483
 30
0.0
 10
10.3482444414
 20
9.1147783527
 30
0.0
 10
10.3536335535
 20
9.1078839465
 30
0.0
 10
10.3571228115
 20
9.102831706
 30
0.0
 10
10.3588998032
 20
9.1001378627
 30
0.0
  0
SPLINE
  5
3E5
100
AcDbEntity
  8
0
100
AcDbSpline
 62
9
  6
CONTINUOUS
 70
0
 71
3
 72
12
 73
8
 74
0
 42
0.0000001
 43
0.0000001
 44
0.0000000001
 40
0.0
 40
0.0
 40
0.0
 40
0.0
 40
0.2369745339
 40
0.4836631929
 40
0.6101897127
 40
0.7386791358
 40
1.0
 40
1.0
 40
1.0
 40
1.0
 10
10.3588998565
 20
9.1001378577
 30
0.0
 10
10.3588831129
 20
9.0974119367
 30
0.0
 10
10.3592572084
 20
9.0918385815
 30
0.0
 10
10.3607578804
 20
9.0849524936
 30
0.0
 10
10.3626455204
 20
9.0794921628
 30
0.0
 10
10.3650501707
 20
9.0740557339
 30
0.0
 10
10.3673697243
 20
9.0701873147
 30
0.0
 10
10.3691192289
 20
9.0677428365
 30
0.0
  0
SPLINE
  5
3E6
100
AcDbEntity
  8
0
100
AcDbSpline
 62
9
  6
CONTINUOUS
 70
0
 71
3
 72
9
 73
5
 74
0
 42
0.0000001
 43
0.0000001
 44
0.0000000001
 40
0.0
 40
0.0
 40
0.0
 40
0.0
 40
0.2723547537
 40
1.0
 40
1.0
 40
1.0
 40
1.0
 10
10.3547208217
 20
9.0596458704
 30
0.0
 10
10.3558160221
 20
9.0606599187
 30
0.0
 10
10.3599583162
 20
9.0642418972
 30
0.0
 10
10.3646755705
 20
9.0672212974
 30
0.0
 10
10.3683643733
 20
9.0687359628
 30
0.0
  0
SPLINE
  5
3E7
100
AcDbEntity
  8
0
100
AcDbSpline
 62
9
  6
CONTINUOUS
 70
0
 71
3
 72
9
 73
5
 74
0
 42
0.0000001
 43
0.0000001
 44
0.0000000001
 40
0.0
 40
0.0
 40
0.0
 40
0.0
 40
0.4792709015
 40
1.0
 40
1.0
 40
1.0
 40
1.0
 10
10.3588998565
 20
9.1001378583
 30
0.0
 10
10.3608210742
 20
9.0974784893
 30
0.0
 10
10.3646374149
 20
9.0917896557
 30
0.0
 10
10.3681275636
 20
9.0858972028
 30
0.0
 10
10.3698729669
 20
9.0827892229
 30
0.0
  0
SPLINE
  5
3E8
100
AcDbEntity
  8
0
100
AcDbSpline
 62
9
  6
CONTINUOUS
 70
0
 71
3
 72
9
 73
5
 74
0
 42
0.0000001
 43
0.0000001
 44
0.0000000001
 40
0.0
 40
0.0
 40
0.0
 40
0.0
 40
0.2399901994
 40
1.0
 40
1.0
 40
1.0
 40
1.0
 10
10.3750536865
 20
9.0730624708
 30
0.0
 10
10.3757609827
 20
9.0716653222
 30
0.0
 10
10.3786599735
 20
9.065819273
 30
0.0
 10
10.3813740072
 20
9.0598822112
 30
0.0
 10
10.3833496199
 20
9.0553335149
 30
0.0
  0
SPLINE
  5
3E9
100
AcDbEntity
  8
0
100
AcDbSpline
 62
9
  6
CONTINUOUS
 70
0
 71
3
 72
19
 73
15
 74
0
 42
0.0000001
 43
0.0000001
 44
0.0000000001
 40
0.0
 40
0.0
 40
0.0
 40
0.0
 40
0.0369041728
 40
0.0781766991
 40
0.1237298286
 40
0.1734259383
 40
0.2270938573
 40
0.2845204841
 40
0.3454599937
 40
0.4096457075
 40
0.5465215682
 40
0.6925008354
 40
0.8446867103
 40
1.0
 40
1.0
 40
1.0
 40
1.0
 10
10.3833496199
 20
9.0553335149
 30
0.0
 10
10.3870043232
 20
9.0469188417
 30
0.0
 10
10.3941248807
 20
9.0288215081
 30
0.0
 10
10.4038873064
 20
8.9996432307
 30
0.0
 10
10.4132710171
 20
8.9670187692
 30
0.0
 10
10.4222262708
 20
8.9310919292
 30
0.0
 10
10.4307014741
 20
8.892023983
 30
0.0
 10
10.4386550381
 20
8.8499994069
 30
0.0
 10
10.4460498397
 20
8.8052212652
 30
0.0
 10
10.4553132712
 20
8.7407481484
 30
0.0
 10
10.4651434825
 20
8.6550195447
 30
0.0
 10
10.474144156
 20
8.5472333521
 30
0.0
 10
10.4805468679
 20
8.4346729571
 30
0.0
 10
10.4831034979
 20
8.3582666431
 30
0.0
 10
10.4839838651
 20
8.3196670862
 30
0.0
  0
LINE
  5
3EA
100
AcDbEntity
  8
0
100
AcDbLine
 62
9
  6
CONTINUOUS
 10
10.4839667267
 20
8.3196666879
 11
10.5541499717
 21
5.2749439337
  0
LINE
  5
3EB
100
AcDbEntity
  8
0
100
AcDbLine
 62
9
  6
CONTINUOUS
 10
11.5404867056
 20
5.2749439266
 11
11.610669949
 21
8.3196666888
  0
SPLINE
  5
3EC
100
AcDbEntity
  8
0
100
AcDbSpline
 62
9
  6
CONTINUOUS
 70
0
 71
3
 72
19
 73
15
 74
0
 42
0.0000001
 43
0.0000001
 44
0.0000000001
 40
0.0
 40
0.0
 40
0.0
 40
0.0
 40
0.1558388893
 40
0.3084867113
 40
0.454779827
 40
0.5918235509
 40
0.6560292398
 40
0.7169362215
 40
0.7742715956
 40
0.8277879024
 40
0.8772680181
 40
0.9225453068
 40
0.9634845345
 40
1.0
 40
1.0
 40
1.0
 40
1.0
 10
11.6106528115
 20
8.3196670875
 30
0.0
 10
11.6115404803
 20
8.3585550669
 30
0.0
 10
11.6141211125
 20
8.4355190089
 30
0.0
 10
11.6205978206
 20
8.5488609399
 30
0.0
 10
11.6297118092
 20
8.6573165831
 30
0.0
 10
11.639670858
 20
8.7435108303
 30
0.0
 10
11.6490575769
 20
8.8082735871
 30
0.0
 10
11.6565472168
 20
8.8531973078
 30
0.0
 10
11.6646022897
 20
8.8953101453
 30
0.0
 10
11.6731819585
 20
8.9344050037
 30
0.0
 10
11.6822456177
 20
8.9702948777
 30
0.0
 10
11.6917376456
 20
9.0028179515
 30
0.0
 10
11.7016069054
 20
9.0318301216
 30
0.0
 10
11.708810287
 20
9.0497867994
 30
0.0
 10
11.7125077905
 20
9.0581175432
 30
0.0
  0
SPLINE
  5
3ED
100
AcDbEntity
  8
0
100
AcDbSpline
 62
9
  6
CONTINUOUS
 70
0
 71
3
 72
9
 73
5
 74
0
 42
0.0000001
 43
0.0000001
 44
0.0000000001
 40
0.0
 40
0.0
 40
0.0
 40
0.0
 40
0.2585386891
 40
1.0
 40
1.0
 40
1.0
 40
1.0
 10
11.7125077905
 20
9.0581175432
 30
0.0
 10
11.7130810475
 20
9.0594091328
 30
0.0
 10
11.7153269279
 20
9.0643920779
 30
0.0
 10
11.7176899249
 20
9.0693226207
 30
0.0
 10
11.7195185893
 20
9.0729391814
 30
0.0
  0
SPLINE
  5
3EE
100
AcDbEntity
  8
0
100
AcDbSpline
 62
9
  6
CONTINUOUS
 70
0
 71
3
 72
9
 73
5
 74
0
 42
0.0000001
 43
0.0000001
 44
0.0000000001
 40
0.0
 40
0.0
 40
0.0
 40
0.0
 40
0.521783853
 40
1.0
 40
1.0
 40
1.0
 40
1.0
 10
11.7241664604
 20
9.0817223845
 30
0.0
 10
11.726002286
 20
9.085031629
 30
0.0
 10
11.72967286
 20
9.0912912105
 30
0.0
 10
11.7337054421
 20
9.0973266244
 30
0.0
 10
11.735736826
 20
9.1001378666
 30
0.0
  0
SPLINE
  5
3EF
100
AcDbEntity
  8
0
100
AcDbSpline
 62
9
  6
CONTINUOUS
 70
0
 71
3
 72
12
 73
8
 74
0
 42
0.0000001
 43
0.0000001
 44
0.0000000001
 40
0.0
 40
0.0
 40
0.0
 40
0.0
 40
0.2388466377
 40
0.4862856869
 40
0.612685643
 40
0.7406705474
 40
1.0
 40
1.0
 40
1.0
 40
1.0
 10
11.735736826
 20
9.1001378666
 30
0.0
 10
11.7357537023
 20
9.097390343
 30
0.0
 10
11.7353725588
 20
9.0917865199
 30
0.0
 10
11.73385586
 20
9.0848743004
 30
0.0
 10
11.7319608319
 20
9.0794149581
 30
0.0
 10
11.729561686
 20
9.0740088857
 30
0.0
 10
11.7272523192
 20
9.0701682478
 30
0.0
 10
11.7255152082
 20
9.0677429797
 30
0.0
  0
SPLINE
  5
3F0
100
AcDbEntity
  8
0
100
AcDbSpline
 62
9
  6
CONTINUOUS
 70
0
 71
3
 72
11
 73
7
 74
0
 42
0.0000001
 43
0.0000001
 44
0.0000000001
 40
0.0
 40
0.0
 40
0.0
 40
0.0
 40
0.2915372345
 40
0.5544348833
 40
0.7899016886
 40
1.0
 40
1.0
 40
1.0
 40
1.0
 10
11.7357368778
 20
9.1001378625
 30
0.0
 10
11.7375138029
 20
9.1028316066
 30
0.0
 10
11.7410033419
 20
9.1078836515
 30
0.0
 10
11.7463913536
 20
9.1147782241
 30
0.0
 10
11.7516904135
 20
9.1205711609
 30
0.0
 10
11.7553828764
 20
9.1238613116
 30
0.0
 10
11.7572221047
 20
9.1252845355
 30
0.0
  0
SPLINE
  5
3F1
100
AcDbEntity
  8
0
100
AcDbSpline
 62
9
  6
CONTINUOUS
 70
0
 71
3
 72
15
 73
11
 74
0
 42
0.0000001
 43
0.0000001
 44
0.0000000001
 40
0.0
 40
0.0
 40
0.0
 40
0.0
 40
0.1147601676
 40
0.2338916212
 40
0.3566585389
 40
0.4826775103
 40
0.6111019003
 40
0.7407318147
 40
0.8705958526
 40
1.0
 40
1.0
 40
1.0
 40
1.0
 10
11.7572222848
 20
9.1252948574
 30
0.0
 10
11.7572677223
 20
9.1230759069
 30
0.0
 10
11.7571044267
 20
9.1185444484
 30
0.0
 10
11.7560829284
 20
9.1117084826
 30
0.0
 10
11.7542089611
 20
9.1048255151
 30
0.0
 10
11.7514095405
 20
9.0980674779
 30
0.0
 10
11.7477217005
 20
9.091597997
 30
0.0
 10
11.7432104281
 20
9.0855773706
 30
0.0
 10
11.7379245604
 20
9.080195716
 30
0.0
 10
11.7339494992
 20
9.07711194
 30
0.0
 10
11.7318792659
 20
9.0757057884
 30
0.0
  0
SPLINE
  5
3F2
100
AcDbEntity
  8
0
100
AcDbSpline
 62
9
  6
CONTINUOUS
 70
0
 71
3
 72
15
 73
11
 74
0
 42
0.0000001
 43
0.0000001
 44
0.0000000001
 40
0.0
 40
0.0
 40
0.0
 40
0.0
 40
0.1241042495
 40
0.2490756278
 40
0.3744001968
 40
0.500000019
 40
0.6255998415
 40
0.7509244014
 40
0.8758957598
 40
1.0
 40
1.0
 40
1.0
 40
1.0
 10
11.4612037352
 20
10.2843057225
 30
0.0
 10
11.4650005561
 20
10.2841912343
 30
0.0
 10
11.4726170291
 20
10.2832177964
 30
0.0
 10
11.4835705998
 20
10.279635651
 30
0.0
 10
11.4937003348
 20
10.2740356929
 30
0.0
 10
11.5026213157
 20
10.2666348354
 30
0.0
 10
11.5100221726
 20
10.2577138542
 30
0.0
 10
11.5156221295
 20
10.2475841197
 30
0.0
 10
11.5192042749
 20
10.2366305502
 30
0.0
 10
11.5201777122
 20
10.229014078
 30
0.0
 10
11.5202922004
 20
10.2252172574
 30
0.0
  0
SPLINE
  5
3F3
100
AcDbEntity
  8
0
100
AcDbSpline
 62
9
  6
CONTINUOUS
 70
0
 71
3
 72
15
 73
11
 74
0
 42
0.0000001
 43
0.0000001
 44
0.0000000001
 40
0.0
 40
0.0
 40
0.0
 40
0.0
 40
0.1241042495
 40
0.2490756278
 40
0.3744001968
 40
0.500000019
 40
0.6255998415
 40
0.7509244014
 40
0.8758957598
 40
1.0
 40
1.0
 40
1.0
 40
1.0
 10
10.5743444762
 20
10.2252172574
 30
0.0
 10
10.5744589643
 20
10.2290140783
 30
0.0
 10
10.5754324023
 20
10.2366305513
 30
0.0
 10
10.5790145478
 20
10.247584122
 30
0.0
 10
10.5846145058
 20
10.257713857
 30
0.0
 10
10.5920153634
 20
10.2666348379
 30
0.0
 10
10.6009363445
 20
10.2740356948
 30
0.0
 10
10.6110660791
 20
10.2796356516
 30
0.0
 10
10.6220196486
 20
10.283217797
 30
0.0
 10
10.6296361208
 20
10.2841912344
 30
0.0
 10
10.6334329414
 20
10.2843057225
 30
0.0
  0
SPLINE
  5
3F4
100
AcDbEntity
  8
0
100
AcDbSpline
 62
9
  6
CONTINUOUS
 70
0
 71
3
 72
15
 73
11
 74
0
 42
0.0000001
 43
0.0000001
 44
0.0000000001
 40
0.0
 40
0.0
 40
0.0
 40
0.0
 40
0.1255621776
 40
0.250730074
 40
0.3754573618
 40
0.4999077968
 40
0.624371787
 40
0.7491438152
 40
0.8743872784
 40
1.0
 40
1.0
 40
1.0
 40
1.0
 10
10.1788393922
 20
8.8837643372
 30
0.0
 10
10.1749354035
 20
8.8837084664
 30
0.0
 10
10.1671086533
 20
8.8843487453
 30
0.0
 10
10.1558020491
 20
8.8875428864
 30
0.0
 10
10.1453988023
 20
8.8929434252
 30
0.0
 10
10.1363090552
 20
8.9003107794
 30
0.0
 10
10.1289378494
 20
8.9093992619
 30
0.0
 10
10.123533097
 20
8.9198051932
 30
0.0
 10
10.1203367032
 20
8.9311167446
 30
0.0
 10
10.1196950647
 20
8.938947352
 30
0.0
 10
10.119750815
 20
8.9428529143
 30
0.0
  0
SPLINE
  5
3F5
100
AcDbEntity
  8
0
100
AcDbSpline
 62
9
  6
CONTINUOUS
 70
0
 71
3
 72
15
 73
11
 74
0
 42
0.0000001
 43
0.0000001
 44
0.0000000001
 40
0.0
 40
0.0
 40
0.0
 40
0.0
 40
0.1147603454
 40
0.2338916998
 40
0.356658305
 40
0.4826768028
 40
0.6111008794
 40
0.7407307899
 40
0.8705951375
 40
1.0
 40
1.0
 40
1.0
 40
1.0
 10
10.3374143873
 20
9.1252946493
 30
0.0
 10
10.337368961
 20
9.1230758695
 30
0.0
 10
10.33753224
 20
9.1185447667
 30
0.0
 10
10.3385535923
 20
9.1117093346
 30
0.0
 10
10.3404272727
 20
9.1048268906
 30
0.0
 10
10.3432262575
 20
9.0980693208
 30
0.0
 10
10.346913548
 20
9.0916002202
 30
0.0
 10
10.3514241655
 20
9.0855798472
 30
0.0
 10
10.3567092814
 20
9.0801982615
 30
0.0
 10
10.3606838293
 20
9.0771144379
 30
0.0
 10
10.3627538074
 20
9.0757082356
 30
0.0
  0
SPLINE
  5
3F6
100
AcDbEntity
  8
0
100
AcDbSpline
 62
9
  6
CONTINUOUS
 70
0
 71
3
 72
15
 73
11
 74
0
 42
0.0000001
 43
0.0000001
 44
0.0000000001
 40
0.0
 40
0.0
 40
0.0
 40
0.0
 40
0.1151137058
 40
0.2375154804
 40
0.3658380363
 40
0.497285417
 40
0.6291456011
 40
0.7585891768
 40
0.8827274747
 40
1.0
 40
1.0
 40
1.0
 40
1.0
 10
10.3547208135
 20
9.0596458704
 30
0.0
 10
10.351199299
 20
9.0597520571
 30
0.0
 10
10.3439391938
 20
9.0606300429
 30
0.0
 10
10.3331804008
 20
9.0639538287
 30
0.0
 10
10.3228136797
 20
9.0695227875
 30
0.0
 10
10.3134341471
 20
9.0771090172
 30
0.0
 10
10.3057542837
 20
9.0864569714
 30
0.0
 10
10.3000648957
 20
9.0968745747
 30
0.0
 10
10.2966474098
 20
9.1077677306
 30
0.0
 10
10.2957405263
 20
9.1151467793
 30
0.0
 10
10.2956323483
 20
9.1187343355
 30
0.0
  0
SPLINE
  5
3F7
100
AcDbEntity
  8
0
100
AcDbSpline
 62
9
  6
CONTINUOUS
 70
0
 71
3
 72
15
 73
11
 74
0
 42
0.0000001
 43
0.0000001
 44
0.0000000001
 40
0.0
 40
0.0
 40
0.0
 40
0.0
 40
0.1491225146
 40
0.2843846085
 40
0.4084011593
 40
0.5246420021
 40
0.6373754275
 40
0.7512805196
 40
0.8708672924
 40
1.0
 40
1.0
 40
1.0
 40
1.0
 10
10.2956322525
 20
9.1187342398
 30
0.0
 10
10.2972690399
 20
9.120370985
 30
0.0
 10
10.3005530576
 20
9.1233384623
 30
0.0
 10
10.3057863537
 20
9.1269533143
 30
0.0
 10
10.3110696629
 20
9.1294832167
 30
0.0
 10
10.3163983964
 20
9.1309039317
 30
0.0
 10
10.3217524443
 20
9.1311933795
 30
0.0
 10
10.3270980937
 20
9.1303439631
 30
0.0
 10
10.3324045986
 20
9.1283746105
 30
0.0
 10
10.3357560062
 20
9.1264208129
 30
0.0
 10
10.3374142303
 20
9.1252947119
 30
0.0
  0
SPLINE
  5
3F8
100
AcDbEntity
  8
0
100
AcDbSpline
 62
9
  6
CONTINUOUS
 70
0
 71
3
 72
15
 73
11
 74
0
 42
0.0000001
 43
0.0000001
 44
0.0000000001
 40
0.0
 40
0.0
 40
0.0
 40
0.0
 40
0.1255629521
 40
0.2507321887
 40
0.3754606522
 40
0.4999108789
 40
0.6243722165
 40
0.7491420054
 40
0.8743863102
 40
1.0
 40
1.0
 40
1.0
 40
1.0
 10
11.974885864
 20
8.9428529155
 30
0.0
 10
11.9749417374
 20
8.9389489016
 30
0.0
 10
11.9743014579
 20
8.9311220834
 30
0.0
 10
11.9711072793
 20
8.9198153739
 30
0.0
 10
11.965706615
 20
8.9094121042
 30
0.0
 10
11.9583392679
 20
8.9003224253
 30
0.0
 10
11.9492509354
 20
8.8929512809
 30
0.0
 10
11.9388450822
 20
8.8875466361
 30
0.0
 10
11.9275335391
 20
8.8843502756
 30
0.0
 10
11.9197028766
 20
8.8837085841
 30
0.0
 10
11.9157972831
 20
8.8837643346
 30
0.0
  0
SPLINE
  5
3F9
100
AcDbEntity
  8
0
100
AcDbSpline
 62
9
  6
CONTINUOUS
 70
0
 71
3
 72
15
 73
11
 74
0
 42
0.0000001
 43
0.0000001
 44
0.0000000001
 40
0.0
 40
0.0
 40
0.0
 40
0.0
 40
0.1291329058
 40
0.2487202928
 40
0.3626265385
 40
0.4753612874
 40
0.591602662
 40
0.715617628
 40
0.8508769895
 40
1.0
 40
1.0
 40
1.0
 40
1.0
 10
11.7572222379
 20
9.1252949
 30
0.0
 10
11.7588804289
 20
9.1264209395
 30
0.0
 10
11.7622317788
 20
9.1283746143
 30
0.0
 10
11.7675381838
 20
9.1303437957
 30
0.0
 10
11.7728837165
 20
9.1311931072
 30
0.0
 10
11.7782376303
 20
9.1309036823
 30
0.0
 10
11.7835662263
 20
9.1294831784
 30
0.0
 10
11.7888494702
 20
9.1269537298
 30
0.0
 10
11.7940827603
 20
9.1233393203
 30
0.0
 10
11.7973666849
 20
9.1203719889
 30
0.0
 10
11.7990033987
 20
9.1187352652
 30
0.0
  0
SPLINE
  5
3FA
100
AcDbEntity
  8
0
100
AcDbSpline
 62
9
  6
CONTINUOUS
 70
0
 71
3
 72
15
 73
11
 74
0
 42
0.0000001
 43
0.0000001
 44
0.0000000001
 40
0.0
 40
0.0
 40
0.0
 40
0.0
 40
0.1172725287
 40
0.241410823
 40
0.3708544045
 40
0.5027145823
 40
0.6341619656
 40
0.7624845203
 40
0.8848862934
 40
1.0
 40
1.0
 40
1.0
 40
1.0
 10
11.7990043283
 20
9.1187343355
 30
0.0
 10
11.7988961498
 20
9.1151467792
 30
0.0
 10
11.7979892673
 20
9.1077677305
 30
0.0
 10
11.7945717803
 20
9.0968745746
 30
0.0
 10
11.7888823927
 20
9.0864569714
 30
0.0
 10
11.7812025295
 20
9.0771090169
 30
0.0
 10
11.7718229964
 20
9.069522788
 30
0.0
 10
11.7614562759
 20
9.0639538284
 30
0.0
 10
11.7506974827
 20
9.0606300431
 30
0.0
 10
11.7434373776
 20
9.0597520571
 30
0.0
 10
11.7399158631
 20
9.0596458704
 30
0.0
  0
SPLINE
  5
3FB
100
AcDbEntity
  8
0
100
AcDbSpline
 62
9
  6
CONTINUOUS
 70
0
 71
3
 72
15
 73
11
 74
0
 42
0.0000001
 43
0.0000001
 44
0.0000000001
 40
0.0
 40
0.0
 40
0.0
 40
0.0
 40
0.1255621776
 40
0.250730074
 40
0.3754573618
 40
0.4999077968
 40
0.624371787
 40
0.7491438152
 40
0.8743872784
 40
1.0
 40
1.0
 40
1.0
 40
1.0
 10
11.9157972843
 20
10.7388993836
 30
0.0
 10
11.919701273
 20
10.7389552544
 30
0.0
 10
11.9275280233
 20
10.7383149755
 30
0.0
 10
11.9388346274
 20
10.7351208344
 30
0.0
 10
11.9492378743
 20
10.7297202956
 30
0.0
 10
11.9583276214
 20
10.7223529414
 30
0.0
 10
11.9656988271
 20
10.7132644589
 30
0.0
 10
11.9711035796
 20
10.7028585276
 30
0.0
 10
11.9742999733
 20
10.6915469763
 30
0.0
 10
11.9749416119
 20
10.6837163688
 30
0.0
 10
11.9748858615
 20
10.6798108065
 30
0.0
  0
SPLINE
  5
3FC
100
AcDbEntity
  8
0
100
AcDbSpline
 62
9
  6
CONTINUOUS
 70
0
 71
3
 72
15
 73
11
 74
0
 42
0.0000001
 43
0.0000001
 44
0.0000000001
 40
0.0
 40
0.0
 40
0.0
 40
0.0
 40
0.1255629521
 40
0.2507321887
 40
0.3754606522
 40
0.4999108789
 40
0.6243722165
 40
0.7491420054
 40
0.8743863102
 40
1.0
 40
1.0
 40
1.0
 40
1.0
 10
10.1197508125
 20
10.6798108053
 30
0.0
 10
10.1196949392
 20
10.6837148192
 30
0.0
 10
10.1203352187
 20
10.6915416374
 30
0.0
 10
10.1235293973
 20
10.7028483469
 30
0.0
 10
10.1289300616
 20
10.7132516167
 30
0.0
 10
10.1362974086
 20
10.7223412955
 30
0.0
 10
10.1453857411
 20
10.7297124399
 30
0.0
 10
10.1557915944
 20
10.7351170847
 30
0.0
 10
10.1671031374
 20
10.7383134452
 30
0.0
 10
10.1749337999
 20
10.7389551367
 30
0.0
 10
10.1788393934
 20
10.7388993862
 30
0.0
  0
SPLINE
  5
3FD
100
AcDbEntity
  8
0
100
AcDbSpline
 62
9
  6
CONTINUOUS
 70
0
 71
3
 72
18
 73
14
 74
0
 42
0.0000001
 43
0.0000001
 44
0.0000000001
 40
0.0
 40
0.0
 40
0.0
 40
0.0
 40
0.1248472823
 40
0.249947207
 40
0.3125029004
 40
0.3750229223
 40
0.4375448554
 40
0.5000952401
 40
0.625039906
 40
0.7499502994
 40
0.8125320061
 40
0.8751541934
 40
1.0
 40
1.0
 40
1.0
 40
1.0
 10
11.9157973206
 20
8.8542201804
 30
0.0
 10
11.9215922273
 20
8.8542210081
 30
0.0
 10
11.9332210748
 20
8.8553535286
 30
0.0
 10
11.9472159983
 20
8.8595135673
 30
0.0
 10
11.9577546592
 20
8.8644285521
 30
0.0
 10
11.9652585903
 20
8.8688748136
 30
0.0
 10
11.9722765678
 20
8.8740549259
 30
0.0
 10
11.9808854602
 20
8.8818607969
 30
0.0
 10
11.9901295778
 20
8.8931656368
 30
0.0
 10
11.996950944
 20
8.9060767364
 30
0.0
 10
12.0008153644
 20
8.9170420282
 30
0.0
 10
12.0035829105
 20
8.9283271273
 30
0.0
 10
12.0044293953
 20
8.9370580398
 30
0.0
 10
12.0044300183
 20
8.942852878
 30
0.0
  0
SPLINE
  5
3FE
100
AcDbEntity
  8
0
100
AcDbSpline
 62
9
  6
CONTINUOUS
 70
0
 71
3
 72
18
 73
14
 74
0
 42
0.0000001
 43
0.0000001
 44
0.0000000001
 40
0.0
 40
0.0
 40
0.0
 40
0.0
 40
0.1248462996
 40
0.2499405075
 40
0.3124953397
 40
0.3750174383
 40
0.4375432921
 40
0.5000960116
 40
0.6250357653
 40
0.7499463039
 40
0.8125315784
 40
0.8751557079
 40
1.0
 40
1.0
 40
1.0
 40
1.0
 10
12.0044300183
 20
10.6798108428
 30
0.0
 10
12.0044291911
 20
10.6856056931
 30
0.0
 10
12.0032977383
 20
10.6972343
 30
0.0
 10
11.9991369908
 20
10.7112288139
 30
0.0
 10
11.994220465
 20
10.7217664973
 30
0.0
 10
11.9897735085
 20
10.7292702267
 30
0.0
 10
11.9845939658
 20
10.7362890119
 30
0.0
 10
11.9767906826
 20
10.744900213
 30
0.0
 10
11.9654875393
 20
10.7541469416
 30
0.0
 10
11.9525739258
 20
10.7609638353
 30
0.0
 10
11.9416079147
 20
10.7648265784
 30
0.0
 10
11.930322917
 20
10.7675949233
 30
0.0
 10
11.9215920778
 20
10.7684429144
 30
0.0
 10
11.9157973206
 20
10.7684435405
 30
0.0
  0
SPLINE
  5
3FF
100
AcDbEntity
  8
0
100
AcDbSpline
 62
9
  6
CONTINUOUS
 70
0
 71
3
 72
18
 73
14
 74
0
 42
0.0000001
 43
0.0000001
 44
0.0000000001
 40
0.0
 40
0.0
 40
0.0
 40
0.0
 40
0.1248472823
 40
0.249947207
 40
0.3125029004
 40
0.3750229223
 40
0.4375448554
 40
0.5000952401
 40
0.625039906
 40
0.7499502994
 40
0.8125320061
 40
0.8751541934
 40
1.0
 40
1.0
 40
1.0
 40
1.0
 10
10.178839356
 20
10.7684435405
 30
0.0
 10
10.1730444493
 20
10.7684427127
 30
0.0
 10
10.1614156018
 20
10.7673101922
 30
0.0
 10
10.1474206783
 20
10.7631501535
 30
0.0
 10
10.1368820174
 20
10.7582351687
 30
0.0
 10
10.1293780863
 20
10.7537889072
 30
0.0
 10
10.1223601088
 20
10.7486087949
 30
0.0
 10
10.1137512164
 20
10.7408029239
 30
0.0
 10
10.1045070988
 20
10.729498084
 30
0.0
 10
10.0976857325
 20
10.7165869844
 30
0.0
 10
10.0938213121
 20
10.7056216926
 30
0.0
 10
10.0910537661
 20
10.6943365936
 30
0.0
 10
10.0902072813
 20
10.685605681
 30
0.0
 10
10.0902066582
 20
10.6798108428
 30
0.0
  0
SPLINE
  5
400
100
AcDbEntity
  8
0
100
AcDbSpline
 62
9
  6
CONTINUOUS
 70
0
 71
3
 72
18
 73
14
 74
0
 42
0.0000001
 43
0.0000001
 44
0.0000000001
 40
0.0
 40
0.0
 40
0.0
 40
0.0
 40
0.1248462996
 40
0.2499405075
 40
0.3124953397
 40
0.3750174383
 40
0.4375432921
 40
0.5000960116
 40
0.6250357653
 40
0.7499463039
 40
0.8125315784
 40
0.8751557079
 40
1.0
 40
1.0
 40
1.0
 40
1.0
 10
10.0902066582
 20
8.9428528781
 30
0.0
 10
10.0902074855
 20
8.9370580277
 30
0.0
 10
10.0913389383
 20
8.9254294208
 30
0.0
 10
10.0954996858
 20
8.911434907
 30
0.0
 10
10.1004162115
 20
8.9008972235
 30
0.0
 10
10.104863168
 20
8.8933934941
 30
0.0
 10
10.1100427108
 20
8.8863747089
 30
0.0
 10
10.117845994
 20
8.8777635078
 30
0.0
 10
10.1291491373
 20
8.8685167792
 30
0.0
 10
10.1420627507
 20
8.8616998855
 30
0.0
 10
10.1530287619
 20
8.8578371424
 30
0.0
 10
10.1643137596
 20
8.8550687975
 30
0.0
 10
10.1730445988
 20
8.8542208064
 30
0.0
 10
10.178839356
 20
8.8542201804
 30
0.0
  0
SPLINE
  5
401
100
AcDbEntity
  8
0
100
AcDbSpline
 62
9
  6
CONTINUOUS
 70
0
 71
3
 72
19
 73
15
 74
0
 42
0.0000001
 43
0.0000001
 44
0.0000000001
 40
0.0
 40
0.0
 40
0.0
 40
0.0
 40
0.1248920348
 40
0.1874717012
 40
0.2500130037
 40
0.3125358401
 40
0.3750645154
 40
0.4999978898
 40
0.624923784
 40
0.6874505067
 40
0.7499770213
 40
0.8125218592
 40
0.8751078486
 40
1.0
 40
1.0
 40
1.0
 40
1.0
 10
10.5207342257
 20
4.0378218532
 30
0.0
 10
10.5210142394
 20
4.0301157244
 30
0.0
 10
10.5225273549
 20
4.0185500426
 30
0.0
 10
10.5266545905
 20
4.0036593416
 30
0.0
 10
10.5307976375
 20
3.9928199116
 30
0.0
 10
10.5359398575
 20
3.9824217664
 30
0.0
 10
10.5440695364
 20
3.9692789357
 30
0.0
 10
10.5565134091
 20
3.9543787309
 30
0.0
 10
10.5715878667
 20
3.9421420085
 30
0.0
 10
10.5848645365
 20
3.9342313273
 30
0.0
 10
10.595360221
 20
3.9292881954
 30
0.0
 10
10.6062905461
 20
3.9253847099
 30
0.0
 10
10.6212840585
 20
3.9216407561
 30
0.0
 10
10.6329004964
 20
3.9204936266
 30
0.0
 10
10.6406117181
 20
3.9204928915
 30
0.0
  0
SPLINE
  5
402
100
AcDbEntity
  8
0
100
AcDbSpline
 62
9
  6
CONTINUOUS
 70
0
 71
3
 72
18
 73
14
 74
0
 42
0.0000001
 43
0.0000001
 44
0.0000000001
 40
0.0
 40
0.0
 40
0.0
 40
0.0
 40
0.1249063567
 40
0.187498001
 40
0.2500507198
 40
0.3125872639
 40
0.3751247581
 40
0.5000686719
 40
0.6250124981
 40
0.7499326372
 40
0.8124847185
 40
0.8750809094
 40
1.0
 40
1.0
 40
1.0
 40
1.0
 10
11.4540249584
 20
3.9204928915
 30
0.0
 10
11.4617359795
 20
3.920493693
 30
0.0
 10
11.4733521199
 20
3.9216399414
 30
0.0
 10
11.4883450796
 20
3.9253845049
 30
0.0
 10
11.4992749179
 20
3.9292888087
 30
0.0
 10
11.5097704638
 20
3.9342327198
 30
0.0
 10
11.5230472294
 20
3.9421428565
 30
0.0
 10
11.5381243046
 20
3.9543809588
 30
0.0
 10
11.5530490167
 20
3.972239783
 30
0.0
 10
11.5624641294
 20
3.9892153513
 30
0.0
 10
11.567980474
 20
4.003656076
 30
0.0
 10
11.5721079006
 20
4.018548899
 30
0.0
 10
11.5736224526
 20
4.0301151306
 30
0.0
 10
11.5739024508
 20
4.0378218531
 30
0.0
  0
LINE
  5
403
100
AcDbEntity
  8
0
100
AcDbLine
 62
9
  6
CONTINUOUS
 10
11.5914144396
 20
4.8410002213
 11
11.5798183381
 21
4.2010718929
  0
SPLINE
  5
404
100
AcDbEntity
  8
0
100
AcDbSpline
 62
9
  6
CONTINUOUS
 70
0
 71
3
 72
9
 73
5
 74
0
 42
0.0000001
 43
0.0000001
 44
0.0000000001
 40
0.0
 40
0.0
 40
0.0
 40
0.0
 40
0.2312218428
 40
1.0
 40
1.0
 40
1.0
 40
1.0
 10
11.7269537005
 20
9.068447715
 30
0.0
 10
11.7280637995
 20
9.0679638827
 30
0.0
 10
11.7327564583
 20
9.0656214871
 30
0.0
 10
11.736961569
 20
9.0623813419
 30
0.0
 10
11.7399158641
 20
9.0596458701
 30
0.0
  0
LINE
  5
405
100
AcDbEntity
  8
0
100
AcDbLine
 62
9
  6
CONTINUOUS
 10
11.5139426711
 20
4.0399943489
 11
11.5430870352
 21
4.8427540801
  0
SPLINE
  5
406
100
AcDbEntity
  8
0
100
AcDbSpline
 62
9
  6
CONTINUOUS
 70
0
 71
3
 72
16
 73
12
 74
0
 42
0.0000001
 43
0.0000001
 44
0.0000000001
 40
0.0
 40
0.0
 40
0.0
 40
0.0
 40
0.1263518482
 40
0.252641866
 40
0.3785066383
 40
0.5036805928
 40
0.6283407008
 40
0.7525705248
 40
0.8146122808
 40
0.8765630033
 40
1.0
 40
1.0
 40
1.0
 40
1.0
 10
11.5139439087
 20
4.0399944601
 30
0.0
 10
11.5138057782
 20
4.0360415462
 30
0.0
 10
11.5127749424
 20
4.0281461143
 30
0.0
 10
11.509130962
 20
4.0168085212
 30
0.0
 10
11.5035428129
 20
4.0063285021
 30
0.0
 10
11.49614724
 20
3.9970899151
 30
0.0
 10
11.4871196363
 20
3.989515427
 30
0.0
 10
11.4785294303
 20
3.984794098
 30
0.0
 10
11.4712229566
 20
3.9821141328
 30
0.0
 10
11.46371362
 20
3.9801802798
 30
0.0
 10
11.457889038
 20
3.9795804888
 30
0.0
 10
11.4540249583
 20
3.979581327
 30
0.0
  0
SPLINE
  5
407
100
AcDbEntity
  8
0
100
AcDbSpline
 62
9
  6
CONTINUOUS
 70
0
 71
3
 72
15
 73
11
 74
0
 42
0.0000001
 43
0.0000001
 44
0.0000000001
 40
0.0
 40
0.0
 40
0.0
 40
0.0
 40
0.1258251362
 40
0.2517246245
 40
0.3772012913
 40
0.502371211
 40
0.6271799248
 40
0.7516549036
 40
0.8760290667
 40
1.0
 40
1.0
 40
1.0
 40
1.0
 10
11.4519309912
 20
4.1604661754
 30
0.0
 10
11.4558425117
 20
4.1604667828
 30
0.0
 10
11.4636878195
 20
4.1612324772
 30
0.0
 10
11.4749938222
 20
4.164595747
 30
0.0
 10
11.4854233115
 20
4.170075064
 30
0.0
 10
11.4945645072
 20
4.1774505897
 30
0.0
 10
11.5020843389
 20
4.1864337466
 30
0.0
 10
11.5076843697
 20
4.1966993297
 30
0.0
 10
11.5111331267
 20
4.2078400928
 30
0.0
 10
11.5119315282
 20
4.2155793236
 30
0.0
 10
11.511940839
 20
4.2194331913
 30
0.0
  0
LINE
  5
408
100
AcDbEntity
  8
0
100
AcDbLine
 62
9
  6
CONTINUOUS
 10
11.511940839
 20
4.2194331913
 11
11.5139453509
 21
4.0399942982
  0
SPLINE
  5
409
100
AcDbEntity
  8
0
100
AcDbSpline
 62
9
  6
CONTINUOUS
 70
0
 71
3
 72
16
 73
12
 74
0
 42
0.0000001
 43
0.0000001
 44
0.0000000001
 40
0.0
 40
0.0
 40
0.0
 40
0.0
 40
0.1234305558
 40
0.1853769016
 40
0.247414112
 40
0.3716357164
 40
0.4962917695
 40
0.6214695515
 40
0.7473432864
 40
0.8736426465
 40
1.0
 40
1.0
 40
1.0
 40
1.0
 10
10.6406117183
 20
3.9795813223
 30
0.0
 10
10.6367478439
 20
3.9795804453
 30
0.0
 10
10.6309236012
 20
3.9801801225
 30
0.0
 10
10.6234147091
 20
3.9821137387
 30
0.0
 10
10.6161086914
 20
3.9847933542
 30
0.0
 10
10.6075187758
 20
3.9895140771
 30
0.0
 10
10.5984911527
 20
3.9970881368
 30
0.0
 10
10.5910953134
 20
4.006326853
 30
0.0
 10
10.5855066217
 20
4.0168073468
 30
0.0
 10
10.5818620407
 20
4.0281455164
 30
0.0
 10
10.5808309248
 20
4.03604139
 30
0.0
 10
10.5806927673
 20
4.0399944715
 30
0.0
  0
LINE
  5
40A
100
AcDbEntity
  8
0
100
AcDbLine
 62
9
  6
CONTINUOUS
 10
10.5806913728
 20
4.0399943024
 11
10.5826955484
 21
4.219433123
  0
SPLINE
  5
40B
100
AcDbEntity
  8
0
100
AcDbSpline
 62
9
  6
CONTINUOUS
 70
0
 71
3
 72
11
 73
7
 74
0
 42
0.0000001
 43
0.0000001
 44
0.0000000001
 40
0.0
 40
0.0
 40
0.0
 40
0.0
 40
0.1812816974
 40
0.4059234431
 40
0.6776249768
 40
1.0
 40
1.0
 40
1.0
 40
1.0
 10
10.5515481756
 20
4.8427537199
 30
0.0
 10
10.5517898858
 20
4.8439076036
 30
0.0
 10
10.5522448259
 20
4.8465093664
 30
0.0
 10
10.5528262528
 20
4.8508783064
 30
0.0
 10
10.5533712096
 20
4.8561753465
 30
0.0
 10
10.5536804926
 20
4.8600266681
 30
0.0
 10
10.5538316462
 20
4.8621177116
 30
0.0
  0
SPLINE
  5
40C
100
AcDbEntity
  8
0
100
AcDbSpline
 62
9
  6
CONTINUOUS
 70
0
 71
3
 72
17
 73
13
 74
0
 42
0.0000001
 43
0.0000001
 44
0.0000000001
 40
0.0
 40
0.0
 40
0.0
 40
0.0
 40
0.029937176
 40
0.0655747786
 40
0.1065562434
 40
0.1525955378
 40
0.2590580367
 40
0.38300779
 40
0.5219426467
 40
0.6730990877
 40
0.8334775851
 40
1.0
 40
1.0
 40
1.0
 40
1.0
 10
10.5538316462
 20
4.8621177116
 30
0.0
 10
10.5540938256
 20
4.8657446752
 30
0.0
 10
10.5545616717
 20
4.873696864
 30
0.0
 10
10.555123916
 20
4.8866281191
 30
0.0
 10
10.5556120391
 20
4.9015194997
 30
0.0
 10
10.5561947505
 20
4.925014592
 30
0.0
 10
10.5566999994
 20
4.9585916925
 30
0.0
 10
10.5570051915
 20
5.0034550317
 30
0.0
 10
10.5570276371
 20
5.0537483293
 30
0.0
 10
10.5567519685
 20
5.1084658114
 30
0.0
 10
10.5561684609
 20
5.1665321022
 30
0.0
 10
10.5555444987
 20
5.2062356653
 30
0.0
 10
10.5551693161
 20
5.2264594326
 30
0.0
  0
LINE
  5
40D
100
AcDbEntity
  8
0
100
AcDbLine
 62
9
  6
CONTINUOUS
 10
10.5551693161
 20
5.2264594326
 11
10.5547794568
 21
5.2465157905
  0
LINE
  5
40E
100
AcDbEntity
  8
0
100
AcDbLine
 62
9
  6
CONTINUOUS
 10
10.5148184069
 20
4.2010718781
 11
10.5032222859
 21
4.84100022
  0
LINE
  5
40F
100
AcDbEntity
  8
0
100
AcDbLine
 62
9
  6
CONTINUOUS
 10
10.5515496013
 20
4.8427537916
 11
10.5806940026
 21
4.0399943978
  0
SPLINE
  5
410
100
AcDbEntity
  8
0
100
AcDbSpline
 62
9
  6
CONTINUOUS
 70
0
 71
3
 72
29
 73
25
 74
0
 42
0.0000001
 43
0.0000001
 44
0.0000000001
 40
0.0
 40
0.0
 40
0.0
 40
0.0
 40
0.0003251407
 40
0.0011567843
 40
0.0025273885
 40
0.0044463548
 40
0.006920085
 40
0.0099541433
 40
0.0177239996
 40
0.0277964727
 40
0.0402111321
 40
0.0550072198
 40
0.072223825
 40
0.0918810983
 40
0.1139237075
 40
0.1648679862
 40
0.2244626273
 40
0.2921133997
 40
0.3671213758
 40
0.4483691096
 40
0.5346344912
 40
0.6246953817
 40
0.811508705
 40
1.0
 40
1.0
 40
1.0
 40
1.0
 10
10.4548182159
 20
4.8414215152
 30
0.0
 10
10.4548181995
 20
4.8414162683
 30
0.0
 10
10.4548426251
 20
4.8414093723
 30
0.0
 10
10.4548767256
 20
4.8414018893
 30
0.0
 10
10.4549460445
 20
4.8413933479
 30
0.0
 10
10.455037186
 20
4.8413847481
 30
0.0
 10
10.4551572845
 20
4.8413759003
 30
0.0
 10
10.4553708882
 20
4.8413629432
 30
0.0
 10
10.4557076122
 20
4.8413473553
 30
0.0
 10
10.4561954796
 20
4.8413295684
 30
0.0
 10
10.4567969015
 20
4.8413117105
 30
0.0
 10
10.4575136115
 20
4.8412938413
 30
0.0
 10
10.4583472451
 20
4.8412760652
 30
0.0
 10
10.4592978401
 20
4.8412584668
 30
0.0
 10
10.4607926772
 20
4.841234082
 30
0.0
 10
10.4629320027
 20
4.8412050378
 30
0.0
 10
10.465807342
 20
4.8411730095
 30
0.0
 10
10.4690710457
 20
4.8411428993
 30
0.0
 10
10.472684206
 20
4.8411152077
 30
0.0
 10
10.4765977822
 20
4.8410900408
 30
0.0
 10
10.4807542933
 20
4.841067597
 30
0.0
 10
10.4866143584
 20
4.8410412456
 30
0.0
 10
10.4941241039
 20
4.8410167308
 30
0.0
 10
10.5001805288
 20
4.8410046905
 30
0.0
 10
10.5032222825
 20
4.8410004046
 30
0.0
  0
SPLINE
  5
411
100
AcDbEntity
  8
0
100
AcDbSpline
 62
9
  6
CONTINUOUS
 70
0
 71
3
 72
11
 73
7
 74
0
 42
0.0000001
 43
0.0000001
 44
0.0000000001
 40
0.0
 40
0.0
 40
0.0
 40
0.0
 40
0.2500427743
 40
0.5000843664
 40
0.7500316211
 40
1.0
 40
1.0
 40
1.0
 40
1.0
 10
10.5032223042
 20
4.8410000727
 30
0.0
 10
10.5030845924
 20
4.847417565
 30
0.0
 10
10.503466691
 20
4.8602743937
 30
0.0
 10
10.5058248801
 20
4.8794067968
 30
0.0
 10
10.5097009919
 20
4.8982819595
 30
0.0
 10
10.5130443413
 20
4.9106777445
 30
0.0
 10
10.514817998
 20
4.9168448183
 30
0.0
  0
SPLINE
  5
412
100
AcDbEntity
  8
0
100
AcDbSpline
 62
9
  6
CONTINUOUS
 70
0
 71
3
 72
14
 73
10
 74
0
 42
0.0000001
 43
0.0000001
 44
0.0000000001
 40
0.0
 40
0.0
 40
0.0
 40
0.0
 40
0.1249805535
 40
0.249942129
 40
0.374909797
 40
0.4999096179
 40
0.624929515
 40
0.7499885617
 40
1.0
 40
1.0
 40
1.0
 40
1.0
 10
11.5798180911
 20
4.9168455228
 30
0.0
 10
11.5806603239
 20
4.9137492249
 30
0.0
 10
11.5823544601
 20
4.9075598079
 30
0.0
 10
11.5847730564
 20
4.8982422013
 30
0.0
 10
11.586895966
 20
4.8888508268
 30
0.0
 10
11.5886457829
 20
4.8793809933
 30
0.0
 10
11.5900039155
 20
4.8698440091
 30
0.0
 10
11.5912439195
 20
4.8570615794
 30
0.0
 10
11.5915229275
 20
4.8474183472
 30
0.0
 10
11.5914143917
 20
4.8410003666
 30
0.0
  0
LINE
  5
413
100
AcDbEntity
  8
0
100
AcDbLine
 62
9
  6
CONTINUOUS
 10
11.5382644249
 20
4.9464136454
 11
11.5563278173
 21
4.9413319076
  0
SPLINE
  5
414
100
AcDbEntity
  8
0
100
AcDbSpline
 62
9
  6
CONTINUOUS
 70
0
 71
3
 72
29
 73
25
 74
0
 42
0.0000001
 43
0.0000001
 44
0.0000000001
 40
0.0
 40
0.0
 40
0.0
 40
0.0
 40
0.0002889351
 40
0.0010139167
 40
0.0022099657
 40
0.0038895724
 40
0.0060622211
 40
0.0087365525
 40
0.0156233121
 40
0.0246149802
 40
0.0357756944
 40
0.0491692612
 40
0.0648593326
 40
0.0828934184
 40
0.1032547348
 40
0.1508275012
 40
0.2073143853
 40
0.2724519486
 40
0.3458363816
 40
0.4265026458
 40
0.5133453618
 40
0.6052591229
 40
0.7996885722
 40
1.0
 40
1.0
 40
1.0
 40
1.0
 10
11.6398183383
 20
4.8414218112
 30
0.0
 10
11.6398183385
 20
4.8414171486
 30
0.0
 10
11.639797562
 20
4.8414102717
 30
0.0
 10
11.6397673697
 20
4.8414035624
 30
0.0
 10
11.6397071375
 20
4.8413953554
 30
0.0
 10
11.6396272423
 20
4.8413873464
 30
0.0
 10
11.6395217866
 20
4.8413789757
 30
0.0
 10
11.6393330501
 20
4.8413667289
 30
0.0
 10
11.6390338618
 20
4.8413519252
 30
0.0
 10
11.6385979126
 20
4.8413349918
 30
0.0
 10
11.6380568104
 20
4.8413179014
 30
0.0
 10
11.6374076065
 20
4.8413007098
 30
0.0
 10
11.6366474403
 20
4.8412835063
 30
0.0
 10
11.635774811
 20
4.8412663642
 30
0.0
 10
11.6343877164
 20
4.8412423696
 30
0.0
 10
11.6323800919
 20
4.841213526
 30
0.0
 10
11.6296498795
 20
4.8411814191
 30
0.0
 10
11.6265030944
 20
4.8411508476
 30
0.0
 10
11.6229660845
 20
4.8411223489
 30
0.0
 10
11.6190787845
 20
4.8410960952
 30
0.0
 10
11.6148924484
 20
4.8410723932
 30
0.0
 10
11.6088702723
 20
4.8410440865
 30
0.0
 10
11.6010169846
 20
4.8410175427
 30
0.0
 10
11.5946469138
 20
4.8410045974
 30
0.0
 10
11.5914144161
 20
4.8410000354
 30
0.0
  0
SPLINE
  5
415
100
AcDbEntity
  8
0
100
AcDbSpline
 62
9
  6
CONTINUOUS
 70
0
 71
3
 72
17
 73
13
 74
0
 42
0.0000001
 43
0.0000001
 44
0.0000000001
 40
0.0
 40
0.0
 40
0.0
 40
0.0
 40
0.1674347746
 40
0.3284380297
 40
0.4799774831
 40
0.6190122008
 40
0.7428060159
 40
0.8488819526
 40
0.8946282951
 40
0.9352428321
 40
0.9704691609
 40
1.0
 40
1.0
 40
1.0
 40
1.0
 10
11.5393890208
 20
5.2220312186
 30
0.0
 10
11.5390218127
 20
5.2018799592
 30
0.0
 10
11.5384134389
 20
5.1623493398
 30
0.0
 10
11.5378573951
 20
5.1045754912
 30
0.0
 10
11.5376013115
 20
5.0502181942
 30
0.0
 10
11.5376429453
 20
5.0003392287
 30
0.0
 10
11.5379659936
 20
4.9559340164
 30
0.0
 10
11.5384853662
 20
4.9227606399
 30
0.0
 10
11.5390802502
 20
4.8996039238
 30
0.0
 10
11.5395772168
 20
4.884976311
 30
0.0
 10
11.5401483737
 20
4.8723050356
 30
0.0
 10
11.5406225166
 20
4.8645237751
 30
0.0
 10
11.5408876017
 20
4.860978961
 30
0.0
  0
SPLINE
  5
416
100
AcDbEntity
  8
0
100
AcDbSpline
 62
9
  6
CONTINUOUS
 70
0
 71
3
 72
11
 73
7
 74
0
 42
0.0000001
 43
0.0000001
 44
0.0000000001
 40
0.0
 40
0.0
 40
0.0
 40
0.0
 40
0.3217621186
 40
0.5939401505
 40
0.8191217119
 40
1.0
 40
1.0
 40
1.0
 40
1.0
 10
11.5408876017
 20
4.860978961
 30
0.0
 10
11.5410345199
 20
4.859014318
 30
0.0
 10
11.541334308
 20
4.8553897982
 30
0.0
 10
11.5418588167
 20
4.8504012551
 30
0.0
 10
11.5424169725
 20
4.8462855154
 30
0.0
 10
11.5428545203
 20
4.8438365325
 30
0.0
 10
11.5430885095
 20
4.8427540267
 30
0.0
  0
SPLINE
  5
417
100
AcDbEntity
  8
0
100
AcDbSpline
 62
9
  6
CONTINUOUS
 70
0
 71
3
 72
8
 73
4
 74
0
 42
0.0000001
 43
0.0000001
 44
0.0000000001
 40
0.0
 40
0.0
 40
0.0
 40
0.0
 40
1.0
 40
1.0
 40
1.0
 40
1.0
 10
11.5203888773
 20
9.337535088
 30
0.0
 10
11.5178961961
 20
7.6315005913
 30
0.0
 10
11.5151195369
 20
5.9254664827
 30
0.0
 10
11.5120401537
 20
4.2194329442
 30
0.0
  0
SPLINE
  5
418
100
AcDbEntity
  8
0
100
AcDbSpline
 62
9
  6
CONTINUOUS
 70
0
 71
3
 72
8
 73
4
 74
0
 42
0.0000001
 43
0.0000001
 44
0.0000000001
 40
0.0
 40
0.0
 40
0.0
 40
0.0
 40
1.0
 40
1.0
 40
1.0
 40
1.0
 10
10.5825970175
 20
4.2194333348
 30
0.0
 10
10.5795176345
 20
5.925466744
 30
0.0
 10
10.5767388336
 20
7.6315007205
 30
0.0
 10
10.5742509187
 20
9.3375350947
 30
0.0
  0
SPLINE
  5
419
100
AcDbEntity
  8
0
100
AcDbSpline
 62
9
  6
CONTINUOUS
 70
0
 71
3
 72
15
 73
11
 74
0
 42
0.0000001
 43
0.0000001
 44
0.0000000001
 40
0.0
 40
0.0
 40
0.0
 40
0.0
 40
0.1258236854
 40
0.251742877
 40
0.3772605384
 40
0.5024486367
 40
0.6272650686
 40
0.7517219697
 40
0.8760502898
 40
1.0
 40
1.0
 40
1.0
 40
1.0
 10
10.6426973088
 20
4.1604662929
 30
0.0
 10
10.6387861745
 20
4.1604675239
 30
0.0
 10
10.6309410357
 20
4.161233764
 30
0.0
 10
10.619634823
 20
4.1645992893
 30
0.0
 10
10.6092046629
 20
4.1700804444
 30
0.0
 10
10.6000640309
 20
4.1774583983
 30
0.0
 10
10.5925462296
 20
4.1864423131
 30
0.0
 10
10.5869498955
 20
4.1967065785
 30
0.0
 10
10.5835015057
 20
4.2078435935
 30
0.0
 10
10.5827048568
 20
4.2155802509
 30
0.0
 10
10.5826955484
 20
4.219433123
 30
0.0
  0
ENDSEC
  0
SECTION
  2
OBJECTS
  0
DICTIONARY
  5
C
100
AcDbDictionary
280
0
281
1
  3
ACAD_GROUP
350
D
  3
ACAD_MLINESTYLE
350
17
  3
ACAD_LAYOUT
350
1A
  3
ACAD_PLOTSETTINGS
350
19
  3
ACAD_PLOTSTYLENAME
350
E
  0
DICTIONARY
  5
D
102
{ACAD_REACTORS
330
C
102
}
100
AcDbDictionary
280
0
281
1
  0
ACDBDICTIONARYWDFLT
  5
E
102
{ACAD_REACTORS
330
C
102
}
100
AcDbDictionary
281
1
  3
Normal
350
F
100
AcDbDictionaryWithDefault
340
F
  0
DICTIONARY
  5
17
102
{ACAD_REACTORS
330
C
102
}
100
AcDbDictionary
280
0
281
1
  3
Standard
350
18
  0
DICTIONARY
  5
19
102
{ACAD_REACTORS
330
C
102
}
100
AcDbDictionary
281
1
  0
DICTIONARY
  5
1A
102
{ACAD_REACTORS
330
C
102
}
100
AcDbDictionary
281
1
  3
Model
350
41A
  3
Layout1
350
41B
  0
ACDBPLACEHOLDER
  5
F
102
{ACAD_REACTORS
330
E
102
}
  0
MLINESTYLE
  5
18
102
{ACAD_REACTORS
330
17
102
}
100
AcDbMlineStyle
  2
STANDARD
 70
0
  3

 62
256
 51
90.0
 52
90.0
 71
2
 49
0.5
 62
256
  6
BYLAYER
 49
-0.5
 62
256
  6
BYLAYER
  0
LAYOUT
  5
41A
102
{ACAD_REACTORS
330
1A
102
}
100
AcDbPlotSettings
  1

  2
none_device
  4
ANSI_C_(22.00_x_17.00_Inches)
  6

 40
0.0
 41
0.0
 42
0.0
 43
0.0
 44
558.8
 45
431.8
 46
0.0
 47
0.0
 48
0.0
 49
0.0
140
0.0
141
0.0
142
1.0
143
1.0
 70
1024
 72
0
 73
0
 74
0
  7

 75
0
147
1.0
148
0.0
149
0.0
100
AcDbLayout
  1
Model
 70
0
 71
0
 10
0.0
 20
0.0
 11
22.0
 21
17.0
 12
0.0
 22
0.0
 32
0.0
 14
0.0
 24
0.0
 34
0.0
 15
0.0
 25
0.0
 35
0.0
146
0.0
 13
0.0
 23
0.0
 33
0.0
 16
1.0
 26
0.0
 36
0.0
 17
0.0
 27
1.0
 37
0.0
 76
0
330
202
345
0
346
0
  0
LAYOUT
  5
41B
102
{ACAD_REACTORS
330
1A
102
}
100
AcDbPlotSettings
  1

  2
none_device
  4
ANSI_C_(22.00_x_17.00_Inches)
  6

 40
0.0
 41
0.0
 42
0.0
 43
0.0
 44
558.8
 45
431.8
 46
0.0
 47
0.0
 48
0.0
 49
0.0
140
0.0
141
0.0
142
1.0
143
1.0
 70
0
 72
0
 73
0
 74
0
  7

 75
0
147
1.0
148
0.0
149
0.0
100
AcDbLayout
  1
Layout1
 70
0
 71
1
 10
0.0
 20
0.0
 11
22.0
 21
17.0
 12
0.0
 22
0.0
 32
0.0
 14
0.0
 24
0.0
 34
0.0
 15
0.0
 25
0.0
 35
0.0
146
0.0
 13
0.0
 23
0.0
 33
0.0
 16
1.0
 26
0.0
 36
0.0
 17
0.0
 27
1.0
 37
0.0
 76
0
330
203
345
0
346
0
  0
ENDSEC
  0
EOF
