999
DXF file: C:\Prowork\plots\314_front.dxf
999
Pro/ENGINEER 2018500 by Parametric Technology Corporation
  0
SECTION
  2
HEADER
  9
$ACADVER
  1
AC1032
  9
$DWGCODEPAGE
  3
ANSI_1252
  9
$EXTMAX
 10
11.0
 20
8.5
 30
0.0
  9
$EXTMIN
 10
0.0
 20
0.0
 30
0.0
  9
$LIMMIN
 10
0.0
 20
0.0
  9
$LIMMAX
 10
11.0
 20
8.5
  9
$VIEWCTR
 10
5.5
 20
4.25
  9
$VIEWSIZE
 40
8.5
  9
$CLAYER
  8
0
  9
$LTSCALE
 40
0.605
  9
$CELTYPE
  6
BYLAYER
  9
$DIMSCALE
 40
1.0
  9
$DIMASZ
 40
0.1
  9
$DIMEXO
 40
0.0625
  9
$DIMDLI
 40
0.418
  9
$DIMEXE
 40
0.125
  9
$DIMCEN
 40
0.099
  9
$DIMLFAC
 40
1.0
  9
$DIMBLK
  1
_FILLED
  9
$DIMALT
 70
1
  9
$DIMALTD
 70
2
  9
$DIMALTTD
 70
2
  9
$DIMALTF
 40
25.4
  9
$DIMTXT
 40
0.08
  9
$DIMTOL
 70
1
  9
$DIMLIM
 70
0
  9
$DIMTFAC
 40
1.0
  9
$DIMTP
 40
0.001
  9
$DIMTM
 40
0.001
  9
$DIMGAP
 40
0.09
  9
$DIMDSEP
 70
46
  9
$AUNITS
 70
0
  9
$PDMODE
 70
3
  9
$PDSIZE
 40
0.06
  9
$HANDSEED
  5
234
  9
$TILEMODE
 70
1
  9
$MEASUREMENT
 70
0
  9
$INSUNITS
 70
1
  0
ENDSEC
  0
SECTION
  2
CLASSES
  0
CLASS
  1
ACDBDICTIONARYWDFLT
  2
AcDbDictionaryWithDefault
  3
AutoCAD 2000
 90
0
 91
1
280
0
281
0
  0
CLASS
  1
ACDBPLACEHOLDER
  2
AcDbPlaceHolder
  3
AutoCAD 2000
 90
0
 91
1
280
0
281
0
  0
CLASS
  1
LAYOUT
  2
AcDbLayout
  3
AutoCAD 2000
 90
0
 91
0
280
0
281
0
  0
ENDSEC
  0
SECTION
  2
TABLES
  0
TABLE
  2
VPORT
  5
8
100
AcDbSymbolTable
 70
2
  0
VPORT
  5
1F4
100
AcDbSymbolTableRecord
100
AcDbViewportTableRecord
  2
*ACTIVE
 70
0
 10
0.0
 20
0.0
 11
1.0
 21
1.0
 12
5.5
 22
4.25
 13
0.0
 23
0.0
 14
1.0
 24
1.0
 15
0.0
 25
0.0
 16
0.0
 26
0.0
 36
1.0
 17
0.0
 27
0.0
 37
0.0
 40
8.5
 41
1.2941176471
 42
50.0
 43
0.0
 44
0.0
 50
0.0
 51
0.0
 71
0
 72
100
 73
1
 74
1
 75
0
 76
0
 77
0
 78
0
  0
ENDTAB
  0
TABLE
  2
LTYPE
  5
5
100
AcDbSymbolTable
 70
6
  0
LTYPE
  5
14
100
AcDbSymbolTableRecord
100
AcDbLinetypeTableRecord
  2
BYBLOCK
 70
0
  3

 72
65
 73
0
 40
0.0
  0
LTYPE
  5
15
100
AcDbSymbolTableRecord
100
AcDbLinetypeTableRecord
  2
BYLAYER
 70
0
  3

 72
65
 73
0
 40
0.0
  0
LTYPE
  5
16
100
AcDbSymbolTableRecord
100
AcDbLinetypeTableRecord
  2
CONTINUOUS
 70
64
  3
Solid line
 72
65
 73
0
 40
0.0
  0
LTYPE
  5
1F5
100
AcDbSymbolTableRecord
100
AcDbLinetypeTableRecord
  2
CENTER
 70
64
  3
____ _ ____ _ ____ _ ____ _ ____ _ ____ _ ____
 72
65
 73
4
 40
0.6
 49
0.375
 74
0
 49
-0.075
 74
0
 49
0.075
 74
0
 49
-0.075
 74
0
  0
LTYPE
  5
1F6
100
AcDbSymbolTableRecord
100
AcDbLinetypeTableRecord
  2
HIDDEN
 70
64
  3
- - - - - - - - - - - - - - - - - - - -
 72
65
 73
2
 40
0.2
 49
0.1
 74
0
 49
-0.1
 74
0
  0
LTYPE
  5
1F7
100
AcDbSymbolTableRecord
100
AcDbLinetypeTableRecord
  2
PHANTOM
 70
64
  3
_____ _ _ _____ _ _ _____ _ _ _____
 72
65
 73
6
 40
0.8
 49
0.45
 74
0
 49
-0.05
 74
0
 49
0.1
 74
0
 49
-0.05
 74
0
 49
0.1
 74
0
 49
-0.05
 74
0
  0
LTYPE
  5
1F8
100
AcDbSymbolTableRecord
100
AcDbLinetypeTableRecord
  2
DOT
 70
64
  3
. . . . . . . . . . . . . . . . . . . .
 72
65
 73
2
 40
0.2
 49
0.1
 74
0
 49
-0.1
 74
0
  0
LTYPE
  5
1F9
100
AcDbSymbolTableRecord
100
AcDbLinetypeTableRecord
  2
DASHED
 70
64
  3
- - - - - - - - - - - - - - - - - - - -
 72
65
 73
2
 40
0.2
 49
0.1
 74
0
 49
-0.1
 74
0
  0
ENDTAB
  0
TABLE
  2
LAYER
  5
2
100
AcDbSymbolTable
 70
36
  0
LAYER
  5
10
100
AcDbSymbolTableRecord
100
AcDbLayerTableRecord
  2
0
 70
0
 62
7
  6
CONTINUOUS
370
-3
390
F
  0
LAYER
  5
1FA
100
AcDbSymbolTableRecord
100
AcDbLayerTableRecord
  2
DEFAULT_1
 70
0
 62
7
  6
CENTER
370
-3
390
F
  0
LAYER
  5
1FB
100
AcDbSymbolTableRecord
100
AcDbLayerTableRecord
  2
DEFAULT_2
 70
0
 62
8
  6
HIDDEN
370
-3
390
F
  0
LAYER
  5
1FC
100
AcDbSymbolTableRecord
100
AcDbLayerTableRecord
  2
DEFAULT_3
 70
0
 62
7
  6
PHANTOM
370
-3
390
F
  0
LAYER
  5
1FD
100
AcDbSymbolTableRecord
100
AcDbLayerTableRecord
  2
ALL_FEATURES
 70
0
 62
7
  6
CONTINUOUS
370
-3
390
F
  0
LAYER
  5
1FE
100
AcDbSymbolTableRecord
100
AcDbLayerTableRecord
  2
AXES_FEATURES
 70
0
 62
7
  6
CONTINUOUS
370
-3
390
F
  0
LAYER
  5
1FF
100
AcDbSymbolTableRecord
100
AcDbLayerTableRecord
  2
CUT_FEATURES
 70
0
 62
7
  6
CONTINUOUS
370
-3
390
F
  0
LAYER
  5
200
100
AcDbSymbolTableRecord
100
AcDbLayerTableRecord
  2
DEFAULT_COORDINATE_SYSTEM
 70
0
 62
7
  6
CONTINUOUS
370
-3
390
F
  0
LAYER
  5
201
100
AcDbSymbolTableRecord
100
AcDbLayerTableRecord
  2
DEFAULT_DATUM_AXES
 70
0
 62
7
  6
CONTINUOUS
370
-3
390
F
  0
LAYER
  5
202
100
AcDbSymbolTableRecord
100
AcDbLayerTableRecord
  2
DEFAULT_DATUM_PLANES
 70
0
 62
7
  6
CONTINUOUS
370
-3
390
F
  0
LAYER
  5
203
100
AcDbSymbolTableRecord
100
AcDbLayerTableRecord
  2
DIMENSIONS
 70
0
 62
7
  6
CONTINUOUS
370
-3
390
F
  0
LAYER
  5
204
100
AcDbSymbolTableRecord
100
AcDbLayerTableRecord
  2
HOLE_FEATURES
 70
0
 62
7
  6
CONTINUOUS
370
-3
390
F
  0
LAYER
  5
205
100
AcDbSymbolTableRecord
100
AcDbLayerTableRecord
  2
PROTRUSION_FEATURES
 70
0
 62
7
  6
CONTINUOUS
370
-3
390
F
  0
LAYER
  5
206
100
AcDbSymbolTableRecord
100
AcDbLayerTableRecord
  2
ROUND_FEATURES
 70
0
 62
7
  6
CONTINUOUS
370
-3
390
F
  0
LAYER
  5
207
100
AcDbSymbolTableRecord
100
AcDbLayerTableRecord
  2
SHELL_FEATURES
 70
0
 62
7
  6
CONTINUOUS
370
-3
390
F
  0
ENDTAB
  0
TABLE
  2
STYLE
  5
3
100
AcDbSymbolTable
 70
1
  0
STYLE
  5
11
100
AcDbSymbolTableRecord
100
AcDbTextStyleTableRecord
  2
STANDARD
 70
0
 40
0.0
 41
0.8
 50
0.0
 71
0
 42
0.2
  3
txt
  4

  0
STYLE
  5
208
100
AcDbSymbolTableRecord
100
AcDbTextStyleTableRecord
  2
TEXTSTYLE_1
 70
0
 40
0.0
 41
0.8
 50
0.0
 71
0
 42
0.2
  3
gdt
  4

  0
ENDTAB
  0
TABLE
  2
VIEW
  5
6
100
AcDbSymbolTable
 70
0
  0
ENDTAB
  0
TABLE
  2
UCS
  5
7
100
AcDbSymbolTable
 70
0
  0
ENDTAB
  0
TABLE
  2
APPID
  5
9
100
AcDbSymbolTable
 70
1
  0
APPID
  5
209
100
AcDbSymbolTableRecord
100
AcDbRegAppTableRecord
  2
ACAD
 70
0
  0
ENDTAB
  0
TABLE
  2
BLOCK_RECORD
  5
1
100
AcDbSymbolTable
 70
0
  0
BLOCK_RECORD
  5
20A
100
AcDbSymbolTableRecord
100
AcDbBlockTableRecord
  2
*Model_Space
  0
BLOCK_RECORD
  5
20B
100
AcDbSymbolTableRecord
100
AcDbBlockTableRecord
  2
*Paper_Space
  0
BLOCK_RECORD
  5
20C
100
AcDbSymbolTableRecord
100
AcDbBlockTableRecord
  2
_FILLED
  0
ENDTAB
  0
TABLE
  2
DIMSTYLE
  5
A
100
AcDbSymbolTable
 70
1
100
AcDbDimStyleTable
 71
0
  0
DIMSTYLE
105
20D
100
AcDbSymbolTableRecord
100
AcDbDimStyleTableRecord
  2
STANDARD
 70
0
  3

  4

 40
1.0
 41
0.1
 42
0.0625
 43
0.38
 44
0.125
 45
0.0
 46
0.0
 47
0.001
 48
0.001
140
0.08
141
0.09
142
0.0
143
25.4
144
1.0
145
0.0
146
1.0
147
0.09
 71
1.0
 72
0.0
 73
1
 74
1
 75
0
 76
0
 77
0
 78
4
 79
1
170
1
171
2
172
0
173
0
174
0
175
0
176
0
177
0
178
0
270
2
179
3
271
3
272
3
273
2
274
2
275
0
280
0
281
0
282
0
283
1
284
4
285
0
286
0
287
3
288
0
340
11
278
46
341
20C
342
20C
343
20C
344
20C
  0
ENDTAB
  0
ENDSEC
  0
SECTION
  2
BLOCKS
  0
BLOCK
  5
20
100
AcDbEntity
  8
0
100
AcDbBlockBegin
  2
*Model_Space
 70
0
 10
0.0
 20
0.0
 30
0.0
  3
*Model_Space
  1

  0
ENDBLK
  5
21
100
AcDbEntity
  8
0
100
AcDbBlockEnd
  0
BLOCK
  5
1C
100
AcDbEntity
  8
0
100
AcDbBlockBegin
  2
*Paper_Space
 70
0
 10
0.0
 20
0.0
 30
0.0
  3
*Paper_Space
  1

  0
ENDBLK
  5
1D
100
AcDbEntity
  8
0
100
AcDbBlockEnd
  0
BLOCK
  5
20E
100
AcDbEntity
  8
0
100
AcDbBlockBegin
  2
_FILLED
 70
64
 10
0.0
 20
0.0
  3
_FILLED
  1

  0
SOLID
  5
20F
100
AcDbEntity
  8
0
  6
BYBLOCK
 62
0
100
AcDbTrace
 10
0.0
 20
0.0
 11
-1.0
 21
0.2
 12
-1.0
 22
-0.2
 13
-1.0
 23
-0.2
  0
ENDBLK
  5
210
100
AcDbEntity
  8
0
  6
BYBLOCK
 62
0
100
AcDbBlockEnd
  0
ENDSEC
  0
SECTION
  2
ENTITIES
  0
MTEXT
  5
211
100
AcDbEntity
  8
0
100
AcDbMText
 62
7
  6
CONTINUOUS
  7
STANDARD
 71
1
 72
1
 10
9.4488548137
 20
0.4333812112
 30
0.0
 11
1.0
 21
0.0
 31
0.0
 73
2
 44
0.9
  1
SCALE: 2:1
 40
0.08
 41
0.64
  0
LINE
  5
212
100
AcDbEntity
  8
0
100
AcDbLine
 62
7
  6
CONTINUOUS
 10
0.0
 20
0.0
 11
0.0
 21
8.5
  0
LINE
  5
213
100
AcDbEntity
  8
0
100
AcDbLine
 62
7
  6
CONTINUOUS
 10
0.0
 20
0.0
 11
11.0
 21
0.0
  0
LINE
  5
214
100
AcDbEntity
  8
0
100
AcDbLine
 62
7
  6
CONTINUOUS
 10
0.0
 20
8.5
 11
11.0
 21
8.5
  0
LINE
  5
215
100
AcDbEntity
  8
0
100
AcDbLine
 62
7
  6
CONTINUOUS
 10
11.0
 20
0.0
 11
11.0
 21
8.5
  0
CIRCLE
  5
216
100
AcDbEntity
  8
ALL_FEATURES
100
AcDbCircle
 62
7
  6
CONTINUOUS
 10
5.4365877329
 20
4.0021156832
 40
3.0
  0
CIRCLE
  5
217
100
AcDbEntity
  8
ALL_FEATURES
100
AcDbCircle
 62
9
  6
CONTINUOUS
 10
5.4365877329
 20
4.0021156832
 40
1.9999999999
  0
CIRCLE
  5
218
100
AcDbEntity
  8
ALL_FEATURES
100
AcDbCircle
 62
9
  6
CONTINUOUS
 10
5.4365877329
 20
4.0021156832
 40
1.4112855285
  0
CIRCLE
  5
219
100
AcDbEntity
  8
ALL_FEATURES
100
AcDbCircle
 62
9
  6
CONTINUOUS
 10
5.4365877329
 20
4.0021156832
 40
1.2867613897
  0
ARC
  5
21A
100
AcDbEntity
  8
0
100
AcDbCircle
 62
7
  6
CONTINUOUS
 10
5.4365877329
 20
4.0021156832
 40
1.2652484129
100
AcDbArc
 50
41.6455
 51
78.3545
  0
ARC
  5
21B
100
AcDbEntity
  8
0
100
AcDbCircle
 62
7
  6
CONTINUOUS
 10
5.4365877329
 20
4.0021156832
 40
1.2652484129
100
AcDbArc
 50
281.6455
 51
318.3545
  0
ARC
  5
21C
100
AcDbEntity
  8
0
100
AcDbCircle
 62
7
  6
CONTINUOUS
 10
5.4365877329
 20
4.0021156832
 40
1.2652484129
100
AcDbArc
 50
341.6455
 51
18.3545
  0
ARC
  5
21D
100
AcDbEntity
  8
0
100
AcDbCircle
 62
7
  6
CONTINUOUS
 10
5.4365877329
 20
4.0021156832
 40
1.2652484129
100
AcDbArc
 50
101.6455
 51
138.3545
  0
ARC
  5
21E
100
AcDbEntity
  8
0
100
AcDbCircle
 62
7
  6
CONTINUOUS
 10
5.4365877329
 20
4.0021156832
 40
1.2652484129
100
AcDbArc
 50
161.6455
 51
198.3545
  0
ARC
  5
21F
100
AcDbEntity
  8
0
100
AcDbCircle
 62
7
  6
CONTINUOUS
 10
5.4365877329
 20
4.0021156832
 40
1.2652484129
100
AcDbArc
 50
221.6455
 51
258.3545
  0
ARC
  5
220
100
AcDbEntity
  8
0
100
AcDbCircle
 62
7
  6
CONTINUOUS
 10
5.4365877329
 20
4.0021156832
 40
1.253
100
AcDbArc
 50
324.7696584039
 51
335.2303415961
  0
ARC
  5
221
100
AcDbEntity
  8
0
100
AcDbCircle
 62
7
  6
CONTINUOUS
 10
5.4365877329
 20
4.0021156832
 40
1.253
100
AcDbArc
 50
24.7696584039
 51
35.2303415961
  0
ARC
  5
222
100
AcDbEntity
  8
0
100
AcDbCircle
 62
7
  6
CONTINUOUS
 10
5.4365877329
 20
4.0021156832
 40
1.253
100
AcDbArc
 50
264.7696584039
 51
275.2303415961
  0
ARC
  5
223
100
AcDbEntity
  8
0
100
AcDbCircle
 62
7
  6
CONTINUOUS
 10
5.4365877329
 20
4.0021156832
 40
1.253
100
AcDbArc
 50
84.7696584039
 51
95.2303415961
  0
ARC
  5
224
100
AcDbEntity
  8
0
100
AcDbCircle
 62
7
  6
CONTINUOUS
 10
5.4365877329
 20
4.0021156832
 40
1.253
100
AcDbArc
 50
144.7696584039
 51
155.2303415961
  0
ARC
  5
225
100
AcDbEntity
  8
0
100
AcDbCircle
 62
7
  6
CONTINUOUS
 10
5.4365877329
 20
4.0021156832
 40
1.253
100
AcDbArc
 50
204.7696584039
 51
215.2303415961
  0
SPLINE
  5
226
100
AcDbEntity
  8
0
100
AcDbSpline
 62
7
  6
CONTINUOUS
 70
0
 71
3
 72
31
 73
27
 74
0
 42
0.0000001
 43
0.0000001
 44
0.0000000001
 40
0.0
 40
0.0
 40
0.0
 40
0.0
 40
0.0021276722
 40
0.0044153603
 40
0.006991631
 40
0.0099465424
 40
0.0133391938
 40
0.0172078517
 40
0.0264611467
 40
0.0378290652
 40
0.051363838
 40
0.0670737311
 40
0.0849411108
 40
0.1049388119
 40
0.1270341052
 40
0.1511906965
 40
0.1773618407
 40
0.235487922
 40
0.300874754
 40
0.3729423567
 40
0.4509798551
 40
0.5342381833
 40
0.6219411534
 40
0.7132706292
 40
0.8073931889
 40
1.0
 40
1.0
 40
1.0
 40
1.0
 10
6.3820706919
 20
4.8428983666
 30
0.0
 10
6.3819952425
 20
4.8428312722
 30
0.0
 10
6.3818585184
 20
4.8426682501
 30
0.0
 10
6.3817188015
 20
4.8423639781
 30
0.0
 10
6.3816383103
 20
4.8419995712
 30
0.0
 10
6.3816147413
 20
4.8415754087
 30
0.0
 10
6.3816468012
 20
4.841090767
 30
0.0
 10
6.3817712537
 20
4.8403161679
 30
0.0
 10
6.3820831097
 20
4.8391934892
 30
0.0
 10
6.3826532473
 20
4.8376751156
 30
0.0
 10
6.3834419584
 20
4.8359155735
 30
0.0
 10
6.3844462945
 20
4.8339176681
 30
0.0
 10
6.3856626924
 20
4.8316847875
 30
0.0
 10
6.3870869255
 20
4.829221261
 30
0.0
 10
6.3887145831
 20
4.826531404
 30
0.0
 10
6.3905409402
 20
4.823619943
 30
0.0
 10
6.3933328135
 20
4.8192963061
 30
0.0
 10
6.3972814541
 20
4.8133913709
 30
0.0
 10
6.4025444937
 20
4.8057466498
 30
0.0
 10
6.4084194989
 20
4.7973766632
 30
0.0
 10
6.4148326979
 20
4.7883486038
 30
0.0
 10
6.4217051086
 20
4.7787367326
 30
0.0
 10
6.4289561259
 20
4.7686201836
 30
0.0
 10
6.4365065536
 20
4.7580839299
 30
0.0
 10
6.4469366601
 20
4.7434869515
 30
0.0
 10
6.4548151306
 20
4.732393374
 30
0.0
 10
6.4600876613
 20
4.7249274821
 30
0.0
  0
SPLINE
  5
227
100
AcDbEntity
  8
0
100
AcDbSpline
 62
7
  6
CONTINUOUS
 70
0
 71
3
 72
31
 73
27
 74
0
 42
0.0000001
 43
0.0000001
 44
0.0000000001
 40
0.0
 40
0.0
 40
0.0
 40
0.0
 40
0.1926100401
 40
0.2867378575
 40
0.3780727485
 40
0.4657795347
 40
0.5490386332
 40
0.6270736668
 40
0.699138872
 40
0.7645233008
 40
0.8226462853
 40
0.8488163252
 40
0.872972153
 40
0.8950663843
 40
0.9150628798
 40
0.9329291092
 40
0.9486380985
 40
0.9621723595
 40
0.9735398431
 40
0.9827927136
 40
0.9866611866
 40
0.9900536829
 40
0.9930084774
 40
0.9955846746
 40
0.9978723314
 40
1.0
 40
1.0
 40
1.0
 40
1.0
 10
5.5508111487
 20
5.2498985214
 30
0.0
 10
5.5599132204
 20
5.2490653078
 30
0.0
 10
5.5734601756
 20
5.2477890661
 30
0.0
 10
5.5913172476
 20
5.246054803
 30
0.0
 10
5.6042178084
 20
5.2447839677
 30
0.0
 10
5.6166049779
 20
5.2435626079
 30
0.0
 10
5.6283654172
 20
5.2424169224
 30
0.0
 10
5.6393903544
 20
5.2413769788
 30
0.0
 10
5.6495761346
 20
5.2404740775
 30
0.0
 10
5.6588278073
 20
5.2397385642
 30
0.0
 10
5.6659156434
 20
5.2392714824
 30
0.0
 10
5.6710557254
 20
5.2390154886
 30
0.0
 10
5.6744901644
 20
5.2388895358
 30
0.0
 10
5.677633335
 20
5.2388248913
 30
0.0
 10
5.6804787664
 20
5.2388232612
 30
0.0
 10
5.6830205419
 20
5.2388862951
 30
0.0
 10
5.6852528239
 20
5.2390154823
 30
0.0
 10
5.6871709024
 20
5.2392121784
 30
0.0
 10
5.6887708595
 20
5.2394775913
 30
0.0
 10
5.6898990061
 20
5.2397688525
 30
0.0
 10
5.6906320156
 20
5.240048375
 30
0.0
 10
5.6910677323
 20
5.2402629339
 30
0.0
 10
5.6914232615
 20
5.2404954302
 30
0.0
 10
5.6916985839
 20
5.2407473447
 30
0.0
 10
5.6918922201
 20
5.2410204815
 30
0.0
 10
5.6919650356
 20
5.2412203981
 30
0.0
 10
5.6919854163
 20
5.2413192862
 30
0.0
  0
SPLINE
  5
228
100
AcDbEntity
  8
0
100
AcDbSpline
 62
7
  6
CONTINUOUS
 70
0
 71
3
 72
31
 73
27
 74
0
 42
0.0000001
 43
0.0000001
 44
0.0000000001
 40
0.0
 40
0.0
 40
0.0
 40
0.0
 40
0.0021276686
 40
0.0044153254
 40
0.0069915226
 40
0.0099463171
 40
0.0133388134
 40
0.0172072864
 40
0.0264601569
 40
0.0378276405
 40
0.0513619015
 40
0.0670708908
 40
0.0849371202
 40
0.1049336157
 40
0.127027847
 40
0.1511836748
 40
0.1773537147
 40
0.2354766992
 40
0.300861128
 40
0.3729263332
 40
0.4509613668
 40
0.5342204653
 40
0.6219272515
 40
0.7132621425
 40
0.8073899599
 40
1.0
 40
1.0
 40
1.0
 40
1.0
 10
5.6919854163
 20
2.7629120802
 30
0.0
 10
5.6919650356
 20
2.7630109684
 30
0.0
 10
5.6918922201
 20
2.763210885
 30
0.0
 10
5.6916985839
 20
2.7634840217
 30
0.0
 10
5.6914232615
 20
2.7637359363
 30
0.0
 10
5.6910677323
 20
2.7639684325
 30
0.0
 10
5.6906320156
 20
2.7641829915
 30
0.0
 10
5.6898990061
 20
2.7644625139
 30
0.0
 10
5.6887708595
 20
2.7647537752
 30
0.0
 10
5.6871709024
 20
2.7650191881
 30
0.0
 10
5.6852528239
 20
2.7652158842
 30
0.0
 10
5.6830205419
 20
2.7653450713
 30
0.0
 10
5.6804787664
 20
2.7654081053
 30
0.0
 10
5.677633335
 20
2.7654064752
 30
0.0
 10
5.6744901644
 20
2.7653418306
 30
0.0
 10
5.6710557254
 20
2.7652158778
 30
0.0
 10
5.6659156434
 20
2.764959884
 30
0.0
 10
5.6588278073
 20
2.7644928022
 30
0.0
 10
5.6495761346
 20
2.763757289
 30
0.0
 10
5.6393903544
 20
2.7628543876
 30
0.0
 10
5.6283654172
 20
2.7618144441
 30
0.0
 10
5.6166049779
 20
2.7606687586
 30
0.0
 10
5.6042178084
 20
2.7594473988
 30
0.0
 10
5.5913172476
 20
2.7581765634
 30
0.0
 10
5.5734601756
 20
2.7564423003
 30
0.0
 10
5.5599132204
 20
2.7551660587
 30
0.0
 10
5.5508111487
 20
2.754332845
 30
0.0
  0
SPLINE
  5
229
100
AcDbEntity
  8
0
100
AcDbSpline
 62
7
  6
CONTINUOUS
 70
0
 71
3
 72
31
 73
27
 74
0
 42
0.0000001
 43
0.0000001
 44
0.0000000001
 40
0.0
 40
0.0
 40
0.0
 40
0.0
 40
0.1926062136
 40
0.2867283292
 40
0.3780577205
 40
0.4657608366
 40
0.5490193281
 40
0.6270569726
 40
0.6991246503
 40
0.7645115709
 40
0.822637786
 40
0.8488089797
 40
0.8729656072
 40
0.8950609519
 40
0.9150587118
 40
0.9329261484
 40
0.948636087
 40
0.9621708866
 40
0.9735388239
 40
0.9827921333
 40
0.9866607968
 40
0.9900534524
 40
0.9930083667
 40
0.9955846391
 40
0.9978723278
 40
1.0
 40
1.0
 40
1.0
 40
1.0
 10
6.4600876613
 20
3.2793038844
 30
0.0
 10
6.454815147
 20
3.2718380156
 30
0.0
 10
6.4469367108
 20
3.2607444745
 30
0.0
 10
6.436506628
 20
3.246147545
 30
0.0
 10
6.4289562118
 20
3.2356113054
 30
0.0
 10
6.4217051909
 20
3.2254947459
 30
0.0
 10
6.4148327656
 20
3.2158828587
 30
0.0
 10
6.4084195559
 20
3.2068547846
 30
0.0
 10
6.4025445428
 20
3.1984847857
 30
0.0
 10
6.3972814941
 20
3.1908400538
 30
0.0
 10
6.3933328444
 20
3.1849351093
 30
0.0
 10
6.3905409653
 20
3.1806114637
 30
0.0
 10
6.3887146056
 20
3.1776999966
 30
0.0
 10
6.3870869439
 20
3.175010134
 30
0.0
 10
6.3856627059
 20
3.1725466012
 30
0.0
 10
6.3844463032
 20
3.1703137145
 30
0.0
 10
6.3834419634
 20
3.1683158041
 30
0.0
 10
6.3826532509
 20
3.1665562579
 30
0.0
 10
6.3820831125
 20
3.1650378816
 30
0.0
 10
6.3817712557
 20
3.1639152013
 30
0.0
 10
6.3816468025
 20
3.1631406011
 30
0.0
 10
6.3816147422
 20
3.1626559588
 30
0.0
 10
6.3816383108
 20
3.1622317959
 30
0.0
 10
6.3817188017
 20
3.1618673887
 30
0.0
 10
6.3818585184
 20
3.1615631164
 30
0.0
 10
6.3819952425
 20
3.1614000942
 30
0.0
 10
6.3820706919
 20
3.1613329999
 30
0.0
  0
SPLINE
  5
22A
100
AcDbEntity
  8
0
100
AcDbSpline
 62
7
  6
CONTINUOUS
 70
0
 71
3
 72
31
 73
27
 74
0
 42
0.0000001
 43
0.0000001
 44
0.0000000001
 40
0.0
 40
0.0
 40
0.0
 40
0.0
 40
0.0021276686
 40
0.0044153254
 40
0.0069915226
 40
0.0099463171
 40
0.0133388134
 40
0.0172072864
 40
0.0264601569
 40
0.0378276405
 40
0.0513619015
 40
0.0670708908
 40
0.0849371202
 40
0.1049336157
 40
0.127027847
 40
0.1511836748
 40
0.1773537147
 40
0.2354766992
 40
0.300861128
 40
0.3729263332
 40
0.4509613668
 40
0.5342204653
 40
0.6219272515
 40
0.7132621425
 40
0.8073899599
 40
1.0
 40
1.0
 40
1.0
 40
1.0
 10
6.6374683752
 20
3.6036947636
 30
0.0
 10
6.6373725453
 20
3.6037265575
 30
0.0
 10
6.6371630047
 20
3.6037634557
 30
0.0
 10
6.6368296432
 20
3.6037323303
 30
0.0
 10
6.6364738176
 20
3.6036198513
 30
0.0
 10
6.6360947054
 20
3.6034282021
 30
0.0
 10
6.6356910335
 20
3.6031581399
 30
0.0
 10
6.6350824552
 20
3.6026630963
 30
0.0
 10
6.6342661422
 20
3.6018317232
 30
0.0
 10
6.6332363094
 20
3.6005788262
 30
0.0
 10
6.6321069263
 20
3.5990160695
 30
0.0
 10
6.630878906
 20
3.5971474502
 30
0.0
 10
6.6295534292
 20
3.594977725
 30
0.0
 10
6.6281321252
 20
3.592512694
 30
0.0
 10
6.6266165237
 20
3.5897583062
 30
0.0
 10
6.6250083826
 20
3.5867210184
 30
0.0
 10
6.6226600387
 20
3.58214158
 30
0.0
 10
6.6195206253
 20
3.5757697929
 30
0.0
 10
6.6155317622
 20
3.5673898526
 30
0.0
 10
6.6112208076
 20
3.5581172576
 30
0.0
 10
6.6066089565
 20
3.5480494101
 30
0.0
 10
6.6017209296
 20
3.5372917282
 30
0.0
 10
6.5965850735
 20
3.5259534448
 30
0.0
 10
6.5912353688
 20
3.5141458138
 30
0.0
 10
6.5838087487
 20
3.4978140042
 30
0.0
 10
6.5781405287
 20
3.4854438761
 30
0.0
 10
6.5743110771
 20
3.4771446439
 30
0.0
  0
SPLINE
  5
22B
100
AcDbEntity
  8
0
100
AcDbSpline
 62
7
  6
CONTINUOUS
 70
0
 71
3
 72
31
 73
27
 74
0
 42
0.0000001
 43
0.0000001
 44
0.0000000001
 40
0.0
 40
0.0
 40
0.0
 40
0.0
 40
0.1926100401
 40
0.2867378575
 40
0.3780727485
 40
0.4657795347
 40
0.5490386332
 40
0.6270736668
 40
0.699138872
 40
0.7645233008
 40
0.8226462853
 40
0.8488163252
 40
0.872972153
 40
0.8950663843
 40
0.9150628798
 40
0.9329291092
 40
0.9486380985
 40
0.9621723595
 40
0.9735398431
 40
0.9827927136
 40
0.9866611866
 40
0.9900536829
 40
0.9930084774
 40
0.9955846746
 40
0.9978723314
 40
1.0
 40
1.0
 40
1.0
 40
1.0
 10
6.5743110771
 20
4.5270867225
 30
0.0
 10
6.5781405287
 20
4.5187874904
 30
0.0
 10
6.5838087487
 20
4.5064173623
 30
0.0
 10
6.5912353688
 20
4.4900855527
 30
0.0
 10
6.5965850735
 20
4.4782779217
 30
0.0
 10
6.6017209296
 20
4.4669396382
 30
0.0
 10
6.6066089565
 20
4.4561819563
 30
0.0
 10
6.6112208076
 20
4.4461141089
 30
0.0
 10
6.6155317622
 20
4.4368415138
 30
0.0
 10
6.6195206253
 20
4.4284615736
 30
0.0
 10
6.6226600387
 20
4.4220897865
 30
0.0
 10
6.6250083826
 20
4.417510348
 30
0.0
 10
6.6266165237
 20
4.4144730602
 30
0.0
 10
6.6281321252
 20
4.4117186724
 30
0.0
 10
6.6295534292
 20
4.4092536415
 30
0.0
 10
6.630878906
 20
4.4070839162
 30
0.0
 10
6.6321069263
 20
4.405215297
 30
0.0
 10
6.6332363094
 20
4.4036525402
 30
0.0
 10
6.6342661422
 20
4.4023996433
 30
0.0
 10
6.6350824552
 20
4.4015682702
 30
0.0
 10
6.6356910335
 20
4.4010732266
 30
0.0
 10
6.6360947054
 20
4.4008031644
 30
0.0
 10
6.6364738176
 20
4.4006115151
 30
0.0
 10
6.6368296432
 20
4.4004990362
 30
0.0
 10
6.6371630047
 20
4.4004679107
 30
0.0
 10
6.6373725453
 20
4.400504809
 30
0.0
 10
6.6374683752
 20
4.4005366029
 30
0.0
  0
SPLINE
  5
22C
100
AcDbEntity
  8
0
100
AcDbSpline
 62
7
  6
CONTINUOUS
 70
0
 71
3
 72
31
 73
27
 74
0
 42
0.0000001
 43
0.0000001
 44
0.0000000001
 40
0.0
 40
0.0
 40
0.0
 40
0.0
 40
0.1926100401
 40
0.2867378575
 40
0.3780727485
 40
0.4657795347
 40
0.5490386332
 40
0.6270736668
 40
0.699138872
 40
0.7645233008
 40
0.8226462853
 40
0.8488163252
 40
0.872972153
 40
0.8950663843
 40
0.9150628798
 40
0.9329291092
 40
0.9486380985
 40
0.9621723595
 40
0.9735398431
 40
0.9827927136
 40
0.9866611866
 40
0.9900536829
 40
0.9930084774
 40
0.9955846746
 40
0.9978723314
 40
1.0
 40
1.0
 40
1.0
 40
1.0
 10
5.3223643171
 20
2.754332845
 30
0.0
 10
5.3132622454
 20
2.7551660587
 30
0.0
 10
5.2997152903
 20
2.7564423003
 30
0.0
 10
5.2818582182
 20
2.7581765634
 30
0.0
 10
5.2689576575
 20
2.7594473988
 30
0.0
 10
5.2565704879
 20
2.7606687586
 30
0.0
 10
5.2448100486
 20
2.7618144441
 30
0.0
 10
5.2337851114
 20
2.7628543876
 30
0.0
 10
5.2235993313
 20
2.763757289
 30
0.0
 10
5.2143476586
 20
2.7644928022
 30
0.0
 10
5.2072598224
 20
2.764959884
 30
0.0
 10
5.2021197404
 20
2.7652158778
 30
0.0
 10
5.1986853014
 20
2.7653418306
 30
0.0
 10
5.1955421309
 20
2.7654064752
 30
0.0
 10
5.1926966995
 20
2.7654081053
 30
0.0
 10
5.1901549239
 20
2.7653450713
 30
0.0
 10
5.187922642
 20
2.7652158842
 30
0.0
 10
5.1860045634
 20
2.7650191881
 30
0.0
 10
5.1844046064
 20
2.7647537752
 30
0.0
 10
5.1832764597
 20
2.7644625139
 30
0.0
 10
5.1825434502
 20
2.7641829915
 30
0.0
 10
5.1821077336
 20
2.7639684325
 30
0.0
 10
5.1817522043
 20
2.7637359363
 30
0.0
 10
5.1814768819
 20
2.7634840217
 30
0.0
 10
5.1812832457
 20
2.763210885
 30
0.0
 10
5.1812104302
 20
2.7630109684
 30
0.0
 10
5.1811900496
 20
2.7629120802
 30
0.0
  0
SPLINE
  5
22D
100
AcDbEntity
  8
0
100
AcDbSpline
 62
7
  6
CONTINUOUS
 70
0
 71
3
 72
31
 73
27
 74
0
 42
0.0000001
 43
0.0000001
 44
0.0000000001
 40
0.0
 40
0.0
 40
0.0
 40
0.0
 40
0.0021276686
 40
0.0044153254
 40
0.0069915226
 40
0.0099463171
 40
0.0133388134
 40
0.0172072864
 40
0.0264601569
 40
0.0378276405
 40
0.0513619015
 40
0.0670708908
 40
0.0849371202
 40
0.1049336157
 40
0.127027847
 40
0.1511836748
 40
0.1773537147
 40
0.2354766992
 40
0.300861128
 40
0.3729263332
 40
0.4509613668
 40
0.5342204653
 40
0.6219272515
 40
0.7132621425
 40
0.8073899599
 40
1.0
 40
1.0
 40
1.0
 40
1.0
 10
5.1811900496
 20
5.2413192862
 30
0.0
 10
5.1812104302
 20
5.2412203981
 30
0.0
 10
5.1812832457
 20
5.2410204815
 30
0.0
 10
5.1814768819
 20
5.2407473447
 30
0.0
 10
5.1817522043
 20
5.2404954302
 30
0.0
 10
5.1821077336
 20
5.2402629339
 30
0.0
 10
5.1825434502
 20
5.240048375
 30
0.0
 10
5.1832764597
 20
5.2397688525
 30
0.0
 10
5.1844046064
 20
5.2394775913
 30
0.0
 10
5.1860045634
 20
5.2392121784
 30
0.0
 10
5.187922642
 20
5.2390154823
 30
0.0
 10
5.1901549239
 20
5.2388862951
 30
0.0
 10
5.1926966995
 20
5.2388232612
 30
0.0
 10
5.1955421309
 20
5.2388248913
 30
0.0
 10
5.1986853014
 20
5.2388895358
 30
0.0
 10
5.2021197404
 20
5.2390154886
 30
0.0
 10
5.2072598224
 20
5.2392714824
 30
0.0
 10
5.2143476586
 20
5.2397385642
 30
0.0
 10
5.2235993313
 20
5.2404740775
 30
0.0
 10
5.2337851114
 20
5.2413769788
 30
0.0
 10
5.2448100486
 20
5.2424169224
 30
0.0
 10
5.2565704879
 20
5.2435626079
 30
0.0
 10
5.2689576575
 20
5.2447839677
 30
0.0
 10
5.2818582182
 20
5.246054803
 30
0.0
 10
5.2997152903
 20
5.2477890661
 30
0.0
 10
5.3132622454
 20
5.2490653078
 30
0.0
 10
5.3223643171
 20
5.2498985214
 30
0.0
  0
SPLINE
  5
22E
100
AcDbEntity
  8
0
100
AcDbSpline
 62
7
  6
CONTINUOUS
 70
0
 71
3
 72
31
 73
27
 74
0
 42
0.0000001
 43
0.0000001
 44
0.0000000001
 40
0.0
 40
0.0
 40
0.0
 40
0.0
 40
0.1926062136
 40
0.2867283292
 40
0.3780577205
 40
0.4657608366
 40
0.5490193281
 40
0.6270569726
 40
0.6991246503
 40
0.7645115709
 40
0.822637786
 40
0.8488089797
 40
0.8729656072
 40
0.8950609519
 40
0.9150587118
 40
0.9329261484
 40
0.948636087
 40
0.9621708866
 40
0.9735388239
 40
0.9827921333
 40
0.9866607968
 40
0.9900534524
 40
0.9930083667
 40
0.9955846391
 40
0.9978723278
 40
1.0
 40
1.0
 40
1.0
 40
1.0
 10
4.4130878045
 20
4.7249274821
 30
0.0
 10
4.4183603188
 20
4.7323933508
 30
0.0
 10
4.4262387551
 20
4.7434868919
 30
0.0
 10
4.4366688379
 20
4.7580838214
 30
0.0
 10
4.4442192541
 20
4.768620061
 30
0.0
 10
4.451470275
 20
4.7787366205
 30
0.0
 10
4.4583427002
 20
4.7883485077
 30
0.0
 10
4.46475591
 20
4.7973765819
 30
0.0
 10
4.470630923
 20
4.8057465808
 30
0.0
 10
4.4758939718
 20
4.8133913126
 30
0.0
 10
4.4798426215
 20
4.8192962572
 30
0.0
 10
4.4826345006
 20
4.8236199027
 30
0.0
 10
4.4844608603
 20
4.8265313699
 30
0.0
 10
4.4860885219
 20
4.8292212325
 30
0.0
 10
4.48751276
 20
4.8316847652
 30
0.0
 10
4.4887291626
 20
4.833917652
 30
0.0
 10
4.4897335025
 20
4.8359155623
 30
0.0
 10
4.4905222149
 20
4.8376751085
 30
0.0
 10
4.4910923533
 20
4.8391934849
 30
0.0
 10
4.4914042102
 20
4.8403161652
 30
0.0
 10
4.4915286634
 20
4.8410907654
 30
0.0
 10
4.4915607236
 20
4.8415754076
 30
0.0
 10
4.491537155
 20
4.8419995706
 30
0.0
 10
4.4914566641
 20
4.8423639778
 30
0.0
 10
4.4913169474
 20
4.84266825
 30
0.0
 10
4.4911802234
 20
4.8428312722
 30
0.0
 10
4.4911047739
 20
4.8428983666
 30
0.0
  0
SPLINE
  5
22F
100
AcDbEntity
  8
0
100
AcDbSpline
 62
7
  6
CONTINUOUS
 70
0
 71
3
 72
31
 73
27
 74
0
 42
0.0000001
 43
0.0000001
 44
0.0000000001
 40
0.0
 40
0.0
 40
0.0
 40
0.0
 40
0.0021276686
 40
0.0044153254
 40
0.0069915226
 40
0.0099463171
 40
0.0133388134
 40
0.0172072864
 40
0.0264601569
 40
0.0378276405
 40
0.0513619015
 40
0.0670708908
 40
0.0849371202
 40
0.1049336157
 40
0.127027847
 40
0.1511836748
 40
0.1773537147
 40
0.2354766992
 40
0.300861128
 40
0.3729263332
 40
0.4509613668
 40
0.5342204653
 40
0.6219272515
 40
0.7132621425
 40
0.8073899599
 40
1.0
 40
1.0
 40
1.0
 40
1.0
 10
4.2357070906
 20
4.4005366029
 30
0.0
 10
4.2358029206
 20
4.400504809
 30
0.0
 10
4.2360124612
 20
4.4004679107
 30
0.0
 10
4.2363458226
 20
4.4004990362
 30
0.0
 10
4.2367016482
 20
4.4006115151
 30
0.0
 10
4.2370807605
 20
4.4008031644
 30
0.0
 10
4.2374844323
 20
4.4010732266
 30
0.0
 10
4.2380930106
 20
4.4015682702
 30
0.0
 10
4.2389093236
 20
4.4023996433
 30
0.0
 10
4.2399391564
 20
4.4036525402
 30
0.0
 10
4.2410685395
 20
4.405215297
 30
0.0
 10
4.2422965599
 20
4.4070839162
 30
0.0
 10
4.2436220366
 20
4.4092536415
 30
0.0
 10
4.2450433406
 20
4.4117186724
 30
0.0
 10
4.2465589421
 20
4.4144730602
 30
0.0
 10
4.2481670832
 20
4.417510348
 30
0.0
 10
4.2505154271
 20
4.4220897865
 30
0.0
 10
4.2536548405
 20
4.4284615736
 30
0.0
 10
4.2576437037
 20
4.4368415138
 30
0.0
 10
4.2619546583
 20
4.4461141089
 30
0.0
 10
4.2665665093
 20
4.4561819563
 30
0.0
 10
4.2714545362
 20
4.4669396382
 30
0.0
 10
4.2765903924
 20
4.4782779217
 30
0.0
 10
4.2819400971
 20
4.4900855527
 30
0.0
 10
4.2893667172
 20
4.5064173623
 30
0.0
 10
4.2950349371
 20
4.5187874904
 30
0.0
 10
4.2988643887
 20
4.5270867225
 30
0.0
  0
SPLINE
  5
230
100
AcDbEntity
  8
0
100
AcDbSpline
 62
7
  6
CONTINUOUS
 70
0
 71
3
 72
31
 73
27
 74
0
 42
0.0000001
 43
0.0000001
 44
0.0000000001
 40
0.0
 40
0.0
 40
0.0
 40
0.0
 40
0.1926100401
 40
0.2867378575
 40
0.3780727485
 40
0.4657795347
 40
0.5490386332
 40
0.6270736668
 40
0.699138872
 40
0.7645233008
 40
0.8226462853
 40
0.8488163252
 40
0.872972153
 40
0.8950663843
 40
0.9150628798
 40
0.9329291092
 40
0.9486380985
 40
0.9621723595
 40
0.9735398431
 40
0.9827927136
 40
0.9866611866
 40
0.9900536829
 40
0.9930084774
 40
0.9955846746
 40
0.9978723314
 40
1.0
 40
1.0
 40
1.0
 40
1.0
 10
4.2988643887
 20
3.4771446439
 30
0.0
 10
4.2950349371
 20
3.4854438761
 30
0.0
 10
4.2893667172
 20
3.4978140042
 30
0.0
 10
4.2819400971
 20
3.5141458138
 30
0.0
 10
4.2765903924
 20
3.5259534448
 30
0.0
 10
4.2714545362
 20
3.5372917282
 30
0.0
 10
4.2665665093
 20
3.5480494101
 30
0.0
 10
4.2619546583
 20
3.5581172576
 30
0.0
 10
4.2576437037
 20
3.5673898526
 30
0.0
 10
4.2536548405
 20
3.5757697929
 30
0.0
 10
4.2505154271
 20
3.58214158
 30
0.0
 10
4.2481670832
 20
3.5867210184
 30
0.0
 10
4.2465589421
 20
3.5897583062
 30
0.0
 10
4.2450433406
 20
3.592512694
 30
0.0
 10
4.2436220366
 20
3.594977725
 30
0.0
 10
4.2422965599
 20
3.5971474502
 30
0.0
 10
4.2410685395
 20
3.5990160695
 30
0.0
 10
4.2399391564
 20
3.6005788262
 30
0.0
 10
4.2389093236
 20
3.6018317232
 30
0.0
 10
4.2380930106
 20
3.6026630963
 30
0.0
 10
4.2374844323
 20
3.6031581399
 30
0.0
 10
4.2370807605
 20
3.6034282021
 30
0.0
 10
4.2367016482
 20
3.6036198513
 30
0.0
 10
4.2363458226
 20
3.6037323303
 30
0.0
 10
4.2360124612
 20
3.6037634557
 30
0.0
 10
4.2358029206
 20
3.6037265575
 30
0.0
 10
4.2357070906
 20
3.6036947636
 30
0.0
  0
SPLINE
  5
231
100
AcDbEntity
  8
0
100
AcDbSpline
 62
7
  6
CONTINUOUS
 70
0
 71
3
 72
31
 73
27
 74
0
 42
0.0000001
 43
0.0000001
 44
0.0000000001
 40
0.0
 40
0.0
 40
0.0
 40
0.0
 40
0.0021276722
 40
0.0044153603
 40
0.006991631
 40
0.0099465424
 40
0.0133391938
 40
0.0172078517
 40
0.0264611467
 40
0.0378290652
 40
0.051363838
 40
0.0670737311
 40
0.0849411108
 40
0.1049388119
 40
0.1270341052
 40
0.1511906965
 40
0.1773618407
 40
0.235487922
 40
0.300874754
 40
0.3729423567
 40
0.4509798551
 40
0.5342381833
 40
0.6219411534
 40
0.7132706292
 40
0.8073931889
 40
1.0
 40
1.0
 40
1.0
 40
1.0
 10
4.4911047739
 20
3.1613329999
 30
0.0
 10
4.4911802234
 20
3.1614000942
 30
0.0
 10
4.4913169474
 20
3.1615631164
 30
0.0
 10
4.4914566644
 20
3.1618673884
 30
0.0
 10
4.4915371556
 20
3.1622317953
 30
0.0
 10
4.4915607245
 20
3.1626559578
 30
0.0
 10
4.4915286647
 20
3.1631405995
 30
0.0
 10
4.4914042121
 20
3.1639151986
 30
0.0
 10
4.4910923561
 20
3.1650378773
 30
0.0
 10
4.4905222186
 20
3.1665562509
 30
0.0
 10
4.4897335074
 20
3.1683157929
 30
0.0
 10
4.4887291713
 20
3.1703136983
 30
0.0
 10
4.4875127734
 20
3.172546579
 30
0.0
 10
4.4860885403
 20
3.1750101055
 30
0.0
 10
4.4844608827
 20
3.1776999624
 30
0.0
 10
4.4826345256
 20
3.1806114235
 30
0.0
 10
4.4798426523
 20
3.1849350604
 30
0.0
 10
4.4758940118
 20
3.1908399956
 30
0.0
 10
4.4706309721
 20
3.1984847167
 30
0.0
 10
4.464755967
 20
3.2068547032
 30
0.0
 10
4.4583427679
 20
3.2158827627
 30
0.0
 10
4.4514703573
 20
3.2254946338
 30
0.0
 10
4.44421934
 20
3.2356111829
 30
0.0
 10
4.4366689122
 20
3.2461474366
 30
0.0
 10
4.4262388057
 20
3.2607444149
 30
0.0
 10
4.4183603352
 20
3.2718379924
 30
0.0
 10
4.4130878045
 20
3.2793038844
 30
0.0
  0
ENDSEC
  0
SECTION
  2
OBJECTS
  0
DICTIONARY
  5
C
100
AcDbDictionary
280
0
281
1
  3
ACAD_GROUP
350
D
  3
ACAD_MLINESTYLE
350
17
  3
ACAD_LAYOUT
350
1A
  3
ACAD_PLOTSETTINGS
350
19
  3
ACAD_PLOTSTYLENAME
350
E
  0
DICTIONARY
  5
D
102
{ACAD_REACTORS
330
C
102
}
100
AcDbDictionary
280
0
281
1
  0
ACDBDICTIONARYWDFLT
  5
E
102
{ACAD_REACTORS
330
C
102
}
100
AcDbDictionary
281
1
  3
Normal
350
F
100
AcDbDictionaryWithDefault
340
F
  0
DICTIONARY
  5
17
102
{ACAD_REACTORS
330
C
102
}
100
AcDbDictionary
280
0
281
1
  3
Standard
350
18
  0
DICTIONARY
  5
19
102
{ACAD_REACTORS
330
C
102
}
100
AcDbDictionary
281
1
  0
DICTIONARY
  5
1A
102
{ACAD_REACTORS
330
C
102
}
100
AcDbDictionary
281
1
  3
Model
350
232
  3
Layout1
350
233
  0
ACDBPLACEHOLDER
  5
F
102
{ACAD_REACTORS
330
E
102
}
  0
MLINESTYLE
  5
18
102
{ACAD_REACTORS
330
17
102
}
100
AcDbMlineStyle
  2
STANDARD
 70
0
  3

 62
256
 51
90.0
 52
90.0
 71
2
 49
0.5
 62
256
  6
BYLAYER
 49
-0.5
 62
256
  6
BYLAYER
  0
LAYOUT
  5
232
102
{ACAD_REACTORS
330
1A
102
}
100
AcDbPlotSettings
  1

  2
none_device
  4
ANSI_A_(11.00_x_8.50_Inches)
  6

 40
0.0
 41
0.0
 42
0.0
 43
0.0
 44
279.4
 45
215.9
 46
0.0
 47
0.0
 48
0.0
 49
0.0
140
0.0
141
0.0
142
1.0
143
1.0
 70
1024
 72
0
 73
0
 74
0
  7

 75
0
147
1.0
148
0.0
149
0.0
100
AcDbLayout
  1
Model
 70
0
 71
0
 10
0.0
 20
0.0
 11
11.0
 21
8.5
 12
0.0
 22
0.0
 32
0.0
 14
0.0
 24
0.0
 34
0.0
 15
0.0
 25
0.0
 35
0.0
146
0.0
 13
0.0
 23
0.0
 33
0.0
 16
1.0
 26
0.0
 36
0.0
 17
0.0
 27
1.0
 37
0.0
 76
0
330
20A
345
0
346
0
  0
LAYOUT
  5
233
102
{ACAD_REACTORS
330
1A
102
}
100
AcDbPlotSettings
  1

  2
none_device
  4
ANSI_A_(11.00_x_8.50_Inches)
  6

 40
0.0
 41
0.0
 42
0.0
 43
0.0
 44
279.4
 45
215.9
 46
0.0
 47
0.0
 48
0.0
 49
0.0
140
0.0
141
0.0
142
1.0
143
1.0
 70
0
 72
0
 73
0
 74
0
  7

 75
0
147
1.0
148
0.0
149
0.0
100
AcDbLayout
  1
Layout1
 70
0
 71
1
 10
0.0
 20
0.0
 11
11.0
 21
8.5
 12
0.0
 22
0.0
 32
0.0
 14
0.0
 24
0.0
 34
0.0
 15
0.0
 25
0.0
 35
0.0
146
0.0
 13
0.0
 23
0.0
 33
0.0
 16
1.0
 26
0.0
 36
0.0
 17
0.0
 27
1.0
 37
0.0
 76
0
330
20B
345
0
346
0
  0
ENDSEC
  0
EOF
