999
DXF file: E:\BT Custom\CADOUTPUT\_FRONT.dxf
999
Pro/ENGINEER 2018400 by Parametric Technology Corporation
  0
SECTION
  2
HEADER
  9
$ACADVER
  1
AC1018
  9
$DWGCODEPAGE
  3
ANSI_1252
  9
$EXTMAX
 10
22.0
 20
17.0
 30
0.0
  9
$EXTMIN
 10
0.0
 20
0.0
 30
0.0
  9
$LIMMIN
 10
0.0
 20
0.0
  9
$LIMMAX
 10
22.0
 20
17.0
  9
$VIEWCTR
 10
11.0
 20
8.5
  9
$VIEWSIZE
 40
17.0
  9
$CLAYER
  8
0
  9
$LTSCALE
 40
1.21
  9
$CELTYPE
  6
BYLAYER
  9
$DIMSCALE
 40
1.0
  9
$DIMASZ
 40
0.1
  9
$DIMEXO
 40
0.0625
  9
$DIMDLI
 40
0.836
  9
$DIMEXE
 40
0.125
  9
$DIMCEN
 40
0.198
  9
$DIMLFAC
 40
1.0
  9
$DIMBLK
  1
_FILLED
  9
$DIMALT
 70
1
  9
$DIMALTD
 70
2
  9
$DIMALTTD
 70
2
  9
$DIMALTF
 40
25.4
  9
$DIMTXT
 40
0.08
  9
$DIMTOL
 70
1
  9
$DIMLIM
 70
0
  9
$DIMTFAC
 40
1.0
  9
$DIMTP
 40
0.001
  9
$DIMTM
 40
0.001
  9
$DIMGAP
 40
0.09
  9
$DIMDSEP
 70
46
  9
$AUNITS
 70
0
  9
$PDMODE
 70
3
  9
$PDSIZE
 40
0.06
  9
$HANDSEED
  5
44F
  9
$TILEMODE
 70
1
  9
$MEASUREMENT
 70
0
  9
$INSUNITS
 70
1
  0
ENDSEC
  0
SECTION
  2
CLASSES
  0
CLASS
  1
ACDBDICTIONARYWDFLT
  2
AcDbDictionaryWithDefault
  3
AutoCAD 2000
 90
0
 91
1
280
0
281
0
  0
CLASS
  1
ACDBPLACEHOLDER
  2
AcDbPlaceHolder
  3
AutoCAD 2000
 90
0
 91
1
280
0
281
0
  0
CLASS
  1
LAYOUT
  2
AcDbLayout
  3
AutoCAD 2000
 90
0
 91
0
280
0
281
0
  0
ENDSEC
  0
SECTION
  2
TABLES
  0
TABLE
  2
VPORT
  5
8
100
AcDbSymbolTable
 70
2
  0
VPORT
  5
1F4
100
AcDbSymbolTableRecord
100
AcDbViewportTableRecord
  2
*ACTIVE
 70
0
 10
0.0
 20
0.0
 11
1.0
 21
1.0
 12
11.0
 22
8.5
 13
0.0
 23
0.0
 14
1.0
 24
1.0
 15
0.0
 25
0.0
 16
0.0
 26
0.0
 36
1.0
 17
0.0
 27
0.0
 37
0.0
 40
17.0
 41
1.2941176471
 42
50.0
 43
0.0
 44
0.0
 50
0.0
 51
0.0
 71
0
 72
100
 73
1
 74
1
 75
0
 76
0
 77
0
 78
0
  0
ENDTAB
  0
TABLE
  2
LTYPE
  5
5
100
AcDbSymbolTable
 70
6
  0
LTYPE
  5
14
100
AcDbSymbolTableRecord
100
AcDbLinetypeTableRecord
  2
BYBLOCK
 70
0
  3

 72
65
 73
0
 40
0.0
  0
LTYPE
  5
15
100
AcDbSymbolTableRecord
100
AcDbLinetypeTableRecord
  2
BYLAYER
 70
0
  3

 72
65
 73
0
 40
0.0
  0
LTYPE
  5
16
100
AcDbSymbolTableRecord
100
AcDbLinetypeTableRecord
  2
CONTINUOUS
 70
64
  3
Solid line
 72
65
 73
0
 40
0.0
  0
LTYPE
  5
1F5
100
AcDbSymbolTableRecord
100
AcDbLinetypeTableRecord
  2
CENTER
 70
64
  3
____ _ ____ _ ____ _ ____ _ ____ _ ____ _ ____
 72
65
 73
4
 40
0.6
 49
0.375
 74
0
 49
-0.075
 74
0
 49
0.075
 74
0
 49
-0.075
 74
0
  0
LTYPE
  5
1F6
100
AcDbSymbolTableRecord
100
AcDbLinetypeTableRecord
  2
HIDDEN
 70
64
  3
- - - - - - - - - - - - - - - - - - - -
 72
65
 73
2
 40
0.2
 49
0.1
 74
0
 49
-0.1
 74
0
  0
LTYPE
  5
1F7
100
AcDbSymbolTableRecord
100
AcDbLinetypeTableRecord
  2
PHANTOM
 70
64
  3
_____ _ _ _____ _ _ _____ _ _ _____
 72
65
 73
6
 40
0.8
 49
0.45
 74
0
 49
-0.05
 74
0
 49
0.1
 74
0
 49
-0.05
 74
0
 49
0.1
 74
0
 49
-0.05
 74
0
  0
LTYPE
  5
1F8
100
AcDbSymbolTableRecord
100
AcDbLinetypeTableRecord
  2
DOT
 70
64
  3
. . . . . . . . . . . . . . . . . . . .
 72
65
 73
2
 40
0.2
 49
0.1
 74
0
 49
-0.1
 74
0
  0
LTYPE
  5
1F9
100
AcDbSymbolTableRecord
100
AcDbLinetypeTableRecord
  2
DASHED
 70
64
  3
- - - - - - - - - - - - - - - - - - - -
 72
65
 73
2
 40
0.2
 49
0.1
 74
0
 49
-0.1
 74
0
  0
ENDTAB
  0
TABLE
  2
LAYER
  5
2
100
AcDbSymbolTable
 70
36
  0
LAYER
  5
10
100
AcDbSymbolTableRecord
100
AcDbLayerTableRecord
  2
0
 70
0
 62
7
  6
CONTINUOUS
370
-3
390
F
  0
LAYER
  5
1FA
100
AcDbSymbolTableRecord
100
AcDbLayerTableRecord
  2
DEFAULT_1
 70
0
 62
7
  6
CENTER
370
-3
390
F
  0
LAYER
  5
1FB
100
AcDbSymbolTableRecord
100
AcDbLayerTableRecord
  2
DEFAULT_2
 70
0
 62
8
  6
HIDDEN
370
-3
390
F
  0
LAYER
  5
1FC
100
AcDbSymbolTableRecord
100
AcDbLayerTableRecord
  2
DEFAULT_3
 70
0
 62
7
  6
PHANTOM
370
-3
390
F
  0
LAYER
  5
1FD
100
AcDbSymbolTableRecord
100
AcDbLayerTableRecord
  2
ALL_FEATURES
 70
0
 62
7
  6
CONTINUOUS
370
-3
390
F
  0
LAYER
  5
1FE
100
AcDbSymbolTableRecord
100
AcDbLayerTableRecord
  2
AXES_FEATURES
 70
0
 62
7
  6
CONTINUOUS
370
-3
390
F
  0
LAYER
  5
1FF
100
AcDbSymbolTableRecord
100
AcDbLayerTableRecord
  2
DIMENSIONS
 70
0
 62
7
  6
CONTINUOUS
370
-3
390
F
  0
ENDTAB
  0
TABLE
  2
STYLE
  5
3
100
AcDbSymbolTable
 70
1
  0
STYLE
  5
11
100
AcDbSymbolTableRecord
100
AcDbTextStyleTableRecord
  2
STANDARD
 70
0
 40
0.0
 41
0.8
 50
0.0
 71
0
 42
0.2
  3
txt
  4

  0
STYLE
  5
200
100
AcDbSymbolTableRecord
100
AcDbTextStyleTableRecord
  2
TEXTSTYLE_1
 70
0
 40
0.0
 41
0.8
 50
0.0
 71
0
 42
0.2
  3
gdt
  4

  0
ENDTAB
  0
TABLE
  2
VIEW
  5
6
100
AcDbSymbolTable
 70
0
  0
ENDTAB
  0
TABLE
  2
UCS
  5
7
100
AcDbSymbolTable
 70
0
  0
ENDTAB
  0
TABLE
  2
APPID
  5
9
100
AcDbSymbolTable
 70
1
  0
APPID
  5
201
100
AcDbSymbolTableRecord
100
AcDbRegAppTableRecord
  2
ACAD
 70
0
  0
ENDTAB
  0
TABLE
  2
BLOCK_RECORD
  5
1
100
AcDbSymbolTable
 70
0
  0
BLOCK_RECORD
  5
202
100
AcDbSymbolTableRecord
100
AcDbBlockTableRecord
  2
*Model_Space
  0
BLOCK_RECORD
  5
203
100
AcDbSymbolTableRecord
100
AcDbBlockTableRecord
  2
*Paper_Space
  0
BLOCK_RECORD
  5
204
100
AcDbSymbolTableRecord
100
AcDbBlockTableRecord
  2
_FILLED
  0
ENDTAB
  0
TABLE
  2
DIMSTYLE
  5
A
100
AcDbSymbolTable
 70
1
100
AcDbDimStyleTable
 71
0
  0
DIMSTYLE
105
205
100
AcDbSymbolTableRecord
100
AcDbDimStyleTableRecord
  2
STANDARD
 70
0
  3

  4

 40
1.0
 41
0.1
 42
0.0625
 43
0.38
 44
0.125
 45
0.0
 46
0.0
 47
0.001
 48
0.001
140
0.08
141
0.09
142
0.0
143
25.4
144
1.0
145
0.0
146
1.0
147
0.09
 71
1.0
 72
0.0
 73
1
 74
1
 75
0
 76
0
 77
0
 78
4
 79
1
170
1
171
2
172
0
173
0
174
0
175
0
176
0
177
0
178
0
270
2
179
3
271
3
272
3
273
2
274
2
275
0
280
0
281
0
282
0
283
1
284
4
285
0
286
0
287
3
288
0
340
11
278
46
341
204
342
204
343
204
344
204
  0
ENDTAB
  0
ENDSEC
  0
SECTION
  2
BLOCKS
  0
BLOCK
  5
20
100
AcDbEntity
  8
0
100
AcDbBlockBegin
  2
*Model_Space
 70
0
 10
0.0
 20
0.0
 30
0.0
  3
*Model_Space
  1

  0
ENDBLK
  5
21
100
AcDbEntity
  8
0
100
AcDbBlockEnd
  0
BLOCK
  5
1C
100
AcDbEntity
  8
0
100
AcDbBlockBegin
  2
*Paper_Space
 70
0
 10
0.0
 20
0.0
 30
0.0
  3
*Paper_Space
  1

  0
ENDBLK
  5
1D
100
AcDbEntity
  8
0
100
AcDbBlockEnd
  0
BLOCK
  5
206
100
AcDbEntity
  8
0
100
AcDbBlockBegin
  2
_FILLED
 70
64
 10
0.0
 20
0.0
  3
_FILLED
  1

  0
SOLID
  5
207
100
AcDbEntity
  8
0
  6
BYBLOCK
 62
0
100
AcDbTrace
 10
0.0
 20
0.0
 11
-1.0
 21
0.2
 12
-1.0
 22
-0.2
 13
-1.0
 23
-0.2
  0
ENDBLK
  5
208
100
AcDbEntity
  8
0
  6
BYBLOCK
 62
0
100
AcDbBlockEnd
  0
ENDSEC
  0
SECTION
  2
ENTITIES
  0
LINE
  5
209
100
AcDbEntity
  8
0
100
AcDbLine
 62
7
  6
CONTINUOUS
 10
5.5001923427
 20
10.4326695021
 11
5.5001923427
 21
10.8726695021
  0
LINE
  5
20A
100
AcDbEntity
  8
0
100
AcDbLine
 62
9
  6
CONTINUOUS
 10
5.5301923427
 20
10.9026695021
 11
5.5301923427
 21
10.4026695021
  0
LINE
  5
20B
100
AcDbEntity
  8
0
100
AcDbLine
 62
7
  6
CONTINUOUS
 10
5.7426923427
 20
7.6445148681
 11
5.7426923427
 21
7.7476695021
  0
LINE
  5
20C
100
AcDbEntity
  8
0
100
AcDbLine
 62
7
  6
CONTINUOUS
 10
5.7926923427
 20
7.3676695021
 11
5.7926923427
 21
7.5470469247
  0
LINE
  5
20D
100
AcDbEntity
  8
0
100
AcDbLine
 62
9
  6
CONTINUOUS
 10
5.8026923427
 20
7.7776695021
 11
5.8026923428
 21
7.647185355
  0
LINE
  5
20E
100
AcDbEntity
  8
0
100
AcDbLine
 62
9
  6
CONTINUOUS
 10
5.8526923427
 20
7.3676695021
 11
5.8526923846
 21
7.6445148681
  0
LINE
  5
20F
100
AcDbEntity
  8
0
100
AcDbLine
 62
9
  6
CONTINUOUS
 10
5.8088277908
 20
7.6204056439
 11
5.8108740345
 21
7.6460968637
  0
LINE
  5
210
100
AcDbEntity
  8
0
100
AcDbLine
 62
7
  6
CONTINUOUS
 10
6.0651923427
 20
7.7876695021
 11
6.0651923427
 21
7.9451695021
  0
LINE
  5
211
100
AcDbEntity
  8
0
100
AcDbLine
 62
9
  6
CONTINUOUS
 10
6.1251923427
 20
7.9751695021
 11
6.1251923427
 21
7.7876695021
  0
LINE
  5
212
100
AcDbEntity
  8
0
100
AcDbLine
 62
7
  6
CONTINUOUS
 10
6.1876923427
 20
7.7776695021
 11
6.1876923427
 21
7.7876695021
  0
LINE
  5
213
100
AcDbEntity
  8
0
100
AcDbLine
 62
9
  6
CONTINUOUS
 10
6.2537133605
 20
7.9999600568
 11
6.2537133605
 21
7.9751695021
  0
LINE
  5
214
100
AcDbEntity
  8
0
100
AcDbLine
 62
9
  6
CONTINUOUS
 10
5.7980419776
 20
7.6207241091
 11
5.8026923324
 21
7.6471853626
  0
LINE
  5
215
100
AcDbEntity
  8
0
100
AcDbLine
 62
7
  6
CONTINUOUS
 10
6.3986923427
 20
9.7562440489
 11
6.3986923427
 21
9.8831695021
  0
LINE
  5
216
100
AcDbEntity
  8
0
100
AcDbLine
 62
9
  6
CONTINUOUS
 10
6.4176923427
 20
7.7876695021
 11
6.4176923427
 21
7.7776695021
  0
LINE
  5
217
100
AcDbEntity
  8
0
100
AcDbLine
 62
9
  6
CONTINUOUS
 10
6.4586923427
 20
9.9131695021
 11
6.4586923428
 21
9.7613738288
  0
LINE
  5
218
100
AcDbEntity
  8
0
100
AcDbLine
 62
9
  6
CONTINUOUS
 10
6.5341923427
 20
10.4026695021
 11
6.5341923427
 21
10.9026695021
  0
LINE
  5
219
100
AcDbEntity
  8
0
100
AcDbLine
 62
7
  6
CONTINUOUS
 10
6.5941923427
 20
10.3171257122
 11
6.5941923427
 21
10.9661695021
  0
LINE
  5
21A
100
AcDbEntity
  8
0
100
AcDbLine
 62
9
  6
CONTINUOUS
 10
6.6241923427
 20
10.9961695021
 11
6.6241923427
 21
10.3091695021
  0
LINE
  5
21B
100
AcDbEntity
  8
0
100
AcDbLine
 62
7
  6
CONTINUOUS
 10
6.6251923427
 20
9.9441695021
 11
6.6251923427
 21
10.2491695021
  0
LINE
  5
21C
100
AcDbEntity
  8
0
100
AcDbLine
 62
9
  6
CONTINUOUS
 10
6.6276923427
 20
10.4326695018
 11
6.6276923427
 21
10.8726695023
  0
LINE
  5
21D
100
AcDbEntity
  8
0
100
AcDbLine
 62
7
  6
CONTINUOUS
 10
6.6846923427
 20
9.9441695021
 11
6.6846923427
 21
9.9131695021
  0
LINE
  5
21E
100
AcDbEntity
  8
0
100
AcDbLine
 62
7
  6
CONTINUOUS
 10
6.6876923427
 20
10.4326695021
 11
6.6876923427
 21
10.8726695021
  0
LINE
  5
21F
100
AcDbEntity
  8
0
100
AcDbLine
 62
9
  6
CONTINUOUS
 10
6.7176923427
 20
10.9626695021
 11
6.7176923427
 21
10.3426695021
  0
LINE
  5
220
100
AcDbEntity
  8
0
100
AcDbLine
 62
9
  6
CONTINUOUS
 10
6.7365108327
 20
10.3091695021
 11
6.7365108327
 21
10.3391695021
  0
LINE
  5
221
100
AcDbEntity
  8
0
100
AcDbLine
 62
9
  6
CONTINUOUS
 10
6.5404468608
 20
9.7562438156
 11
6.5404521678
 21
9.6261311662
  0
LINE
  5
222
100
AcDbEntity
  8
0
100
AcDbLine
 62
9
  6
CONTINUOUS
 10
6.4586923766
 20
9.7613738279
 11
6.4572791489
 21
9.7314698872
  0
LINE
  5
223
100
AcDbEntity
  8
0
100
AcDbLine
 62
7
  6
CONTINUOUS
 10
6.4813626182
 20
9.6261304917
 11
6.1946248953
 21
7.9999600568
  0
LINE
  5
224
100
AcDbEntity
  8
0
100
AcDbLine
 62
9
  6
CONTINUOUS
 10
6.2537133604
 20
7.9999600568
 11
6.5404536772
 21
9.6261302295
  0
LINE
  5
225
100
AcDbEntity
  8
0
100
AcDbLine
 62
9
  6
CONTINUOUS
 10
7.1388738589
 20
10.3391695021
 11
7.1388738589
 21
10.3091695021
  0
LWPOLYLINE
  5
226
100
AcDbEntity
  8
0
100
AcDbPolyline
 62
7
  6
CONTINUOUS
 90
4
 70
0
 10
6.5941923427
 20
10.3171327747
 10
6.5959925383
 20
10.3068970084
 10
6.601176463
 20
10.2978904033
 10
6.6045256818
 20
10.2944783743
  0
LINE
  5
227
100
AcDbEntity
  8
0
100
AcDbLine
 62
9
  6
CONTINUOUS
 10
7.4166925024
 20
9.7613737818
 11
7.4181026363
 21
9.7314698449
  0
LINE
  5
228
100
AcDbEntity
  8
0
100
AcDbLine
 62
9
  6
CONTINUOUS
 10
7.1576923427
 20
10.3426695021
 11
7.1576923427
 21
10.9626695021
  0
LINE
  5
229
100
AcDbEntity
  8
0
100
AcDbLine
 62
7
  6
CONTINUOUS
 10
7.1876923427
 20
10.8726695021
 11
7.1876923427
 21
10.4326695021
  0
LINE
  5
22A
100
AcDbEntity
  8
0
100
AcDbLine
 62
7
  6
CONTINUOUS
 10
7.1906923427
 20
9.9441695021
 11
7.1906923427
 21
9.9131695021
  0
LINE
  5
22B
100
AcDbEntity
  8
0
100
AcDbLine
 62
9
  6
CONTINUOUS
 10
7.2476923427
 20
10.8726695025
 11
7.2476923427
 21
10.432669502
  0
LINE
  5
22C
100
AcDbEntity
  8
0
100
AcDbLine
 62
7
  6
CONTINUOUS
 10
7.2501923427
 20
9.9441695021
 11
7.2501923427
 21
10.2491695021
  0
LINE
  5
22D
100
AcDbEntity
  8
0
100
AcDbLine
 62
9
  6
CONTINUOUS
 10
7.2511923427
 20
10.3091695021
 11
7.2511923427
 21
10.9961695021
  0
LINE
  5
22E
100
AcDbEntity
  8
0
100
AcDbLine
 62
7
  6
CONTINUOUS
 10
7.2811923427
 20
10.9661695021
 11
7.2811923427
 21
10.3171327275
  0
LINE
  5
22F
100
AcDbEntity
  8
0
100
AcDbLine
 62
9
  6
CONTINUOUS
 10
7.3349335879
 20
9.6261311662
 11
7.3349314288
 21
9.7562438156
  0
LINE
  5
230
100
AcDbEntity
  8
0
100
AcDbLine
 62
9
  6
CONTINUOUS
 10
7.3411923427
 20
10.9026695021
 11
7.3411923427
 21
10.4026695021
  0
LINE
  5
231
100
AcDbEntity
  8
0
100
AcDbLine
 62
9
  6
CONTINUOUS
 10
7.4166923427
 20
9.7613737754
 11
7.4166923427
 21
9.9131695021
  0
LINE
  5
232
100
AcDbEntity
  8
0
100
AcDbLine
 62
9
  6
CONTINUOUS
 10
7.4576923427
 20
7.7776695021
 11
7.4576923427
 21
7.7876695021
  0
LINE
  5
233
100
AcDbEntity
  8
0
100
AcDbLine
 62
7
  6
CONTINUOUS
 10
7.4766923427
 20
9.7562437488
 11
7.4766923427
 21
9.8831695021
  0
LINE
  5
234
100
AcDbEntity
  8
0
100
AcDbLine
 62
9
  6
CONTINUOUS
 10
7.3349342534
 20
9.6261310535
 11
7.621671325
 21
7.9999600568
  0
LINE
  5
235
100
AcDbEntity
  8
0
100
AcDbLine
 62
7
  6
CONTINUOUS
 10
7.6807597902
 20
7.9999600568
 11
7.3940214202
 21
9.6261341616
  0
LINE
  5
236
100
AcDbEntity
  8
0
100
AcDbLine
 62
9
  6
CONTINUOUS
 10
7.6216713298
 20
7.9751695021
 11
7.6216713298
 21
7.9999600568
  0
LINE
  5
237
100
AcDbEntity
  8
0
100
AcDbLine
 62
7
  6
CONTINUOUS
 10
7.6876923427
 20
7.7876695021
 11
7.6876923427
 21
7.7776695021
  0
LINE
  5
238
100
AcDbEntity
  8
0
100
AcDbLine
 62
9
  6
CONTINUOUS
 10
7.7501923427
 20
7.7876695021
 11
7.7501923427
 21
7.9751695021
  0
LINE
  5
239
100
AcDbEntity
  8
0
100
AcDbLine
 62
7
  6
CONTINUOUS
 10
7.8101923427
 20
7.9451695021
 11
7.8101923427
 21
7.7876695021
  0
LINE
  5
23A
100
AcDbEntity
  8
0
100
AcDbLine
 62
9
  6
CONTINUOUS
 10
8.0773424788
 20
7.6207241583
 11
8.072692406
 21
7.6471853992
  0
LINE
  5
23B
100
AcDbEntity
  8
0
100
AcDbLine
 62
9
  6
CONTINUOUS
 10
8.066558059
 20
7.6204057061
 11
8.064510919
 21
7.6460968804
  0
LINE
  5
23C
100
AcDbEntity
  8
0
100
AcDbLine
 62
9
  6
CONTINUOUS
 10
8.0226923427
 20
7.3676695021
 11
8.02269241
 21
7.6445148681
  0
LINE
  5
23D
100
AcDbEntity
  8
0
100
AcDbLine
 62
9
  6
CONTINUOUS
 10
8.0726923425
 20
7.6471853943
 11
8.0726923427
 21
7.7776695021
  0
LINE
  5
23E
100
AcDbEntity
  8
0
100
AcDbLine
 62
7
  6
CONTINUOUS
 10
8.0826923427
 20
7.5470469247
 11
8.0826923427
 21
7.3676695021
  0
LINE
  5
23F
100
AcDbEntity
  8
0
100
AcDbLine
 62
7
  6
CONTINUOUS
 10
8.1326923427
 20
7.7476695021
 11
8.1326923427
 21
7.6445148681
  0
LINE
  5
240
100
AcDbEntity
  8
0
100
AcDbLine
 62
9
  6
CONTINUOUS
 10
8.3451923427
 20
10.4026695021
 11
8.3451923427
 21
10.9026695021
  0
LINE
  5
241
100
AcDbEntity
  8
0
100
AcDbLine
 62
7
  6
CONTINUOUS
 10
8.3751923427
 20
10.8726695021
 11
8.3751923427
 21
10.4326695021
  0
LINE
  5
242
100
AcDbEntity
  8
0
100
AcDbLine
 62
7
  6
CONTINUOUS
 10
5.7926923427
 20
7.3676695021
 11
8.0826923427
 21
7.3676695021
  0
LINE
  5
243
100
AcDbEntity
  8
0
100
AcDbLine
 62
7
  6
CONTINUOUS
 10
9.6876923427
 20
7.3676695021
 11
12.1876923427
 21
7.3676695021
  0
LINE
  5
244
100
AcDbEntity
  8
0
100
AcDbLine
 62
7
  6
CONTINUOUS
 10
13.7926923427
 20
7.3676695021
 11
16.0826923427
 21
7.3676695021
  0
LINE
  5
245
100
AcDbEntity
  8
0
100
AcDbLine
 62
9
  6
CONTINUOUS
 10
12.1276923427
 20
7.5428166884
 11
9.7476923427
 21
7.5428166884
  0
LINE
  5
246
100
AcDbEntity
  8
0
100
AcDbLine
 62
9
  6
CONTINUOUS
 10
16.0226923427
 20
7.5470469247
 11
13.8526923427
 21
7.5470469247
  0
LINE
  5
247
100
AcDbEntity
  8
0
100
AcDbLine
 62
9
  6
CONTINUOUS
 10
8.0226923427
 20
7.5470469247
 11
5.8526923427
 21
7.5470469247
  0
LINE
  5
248
100
AcDbEntity
  8
0
100
AcDbLine
 62
9
  6
CONTINUOUS
 10
16.02269241
 20
7.620147882
 11
13.8526923846
 21
7.620147882
  0
LINE
  5
249
100
AcDbEntity
  8
0
100
AcDbLine
 62
9
  6
CONTINUOUS
 10
8.02269241
 20
7.620147882
 11
5.8526923846
 21
7.620147882
  0
LINE
  5
24A
100
AcDbEntity
  8
0
100
AcDbLine
 62
9
  6
CONTINUOUS
 10
12.1276923623
 20
7.6207589742
 11
9.7476924291
 21
7.6207589742
  0
LINE
  5
24B
100
AcDbEntity
  8
0
100
AcDbLine
 62
9
  6
CONTINUOUS
 10
5.8526923985
 20
7.6445148681
 11
8.0226922817
 21
7.6445148681
  0
LINE
  5
24C
100
AcDbEntity
  8
0
100
AcDbLine
 62
9
  6
CONTINUOUS
 10
13.8526923985
 20
7.6445148681
 11
16.0226922817
 21
7.6445148681
  0
LINE
  5
24D
100
AcDbEntity
  8
0
100
AcDbLine
 62
9
  6
CONTINUOUS
 10
9.7476924571
 20
7.6467397369
 11
12.1276920724
 21
7.6467397369
  0
LINE
  5
24E
100
AcDbEntity
  8
0
100
AcDbLine
 62
9
  6
CONTINUOUS
 10
16.1326923427
 20
7.7476695021
 11
13.7426923427
 21
7.7476695021
  0
LINE
  5
24F
100
AcDbEntity
  8
0
100
AcDbLine
 62
9
  6
CONTINUOUS
 10
12.2476923427
 20
7.7476695021
 11
9.6276923427
 21
7.7476695021
  0
LINE
  5
250
100
AcDbEntity
  8
0
100
AcDbLine
 62
9
  6
CONTINUOUS
 10
8.1326923427
 20
7.7476695021
 11
5.7426923427
 21
7.7476695021
  0
LINE
  5
251
100
AcDbEntity
  8
0
100
AcDbLine
 62
7
  6
CONTINUOUS
 10
5.7726923427
 20
7.7776695021
 11
8.1026923427
 21
7.7776695021
  0
LINE
  5
252
100
AcDbEntity
  8
0
100
AcDbLine
 62
7
  6
CONTINUOUS
 10
9.6576923427
 20
7.7776695021
 11
12.2176923427
 21
7.7776695021
  0
LINE
  5
253
100
AcDbEntity
  8
0
100
AcDbLine
 62
7
  6
CONTINUOUS
 10
13.7726923427
 20
7.7776695021
 11
16.1026923427
 21
7.7776695021
  0
LINE
  5
254
100
AcDbEntity
  8
0
100
AcDbLine
 62
7
  6
CONTINUOUS
 10
9.6276923427
 20
7.6467397369
 11
9.6276923427
 21
7.7476695021
  0
LINE
  5
255
100
AcDbEntity
  8
0
100
AcDbLine
 62
9
  6
CONTINUOUS
 10
9.6876923427
 20
7.7776695021
 11
9.6876923429
 21
7.6506339421
  0
LINE
  5
256
100
AcDbEntity
  8
0
100
AcDbLine
 62
7
  6
CONTINUOUS
 10
9.6876923427
 20
7.3676695021
 11
9.6876923427
 21
7.5428166884
  0
LINE
  5
257
100
AcDbEntity
  8
0
100
AcDbLine
 62
9
  6
CONTINUOUS
 10
9.7476923427
 20
7.3676695021
 11
9.7476924291
 21
7.6467397369
  0
LINE
  5
258
100
AcDbEntity
  8
0
100
AcDbLine
 62
7
  6
CONTINUOUS
 10
6.0651923427
 20
7.7876695021
 11
7.8101923427
 21
7.7876695021
  0
LINE
  5
259
100
AcDbEntity
  8
0
100
AcDbLine
 62
7
  6
CONTINUOUS
 10
14.0651923427
 20
7.7876695021
 11
15.8101923427
 21
7.7876695021
  0
LINE
  5
25A
100
AcDbEntity
  8
0
100
AcDbLine
 62
9
  6
CONTINUOUS
 10
11.9596923427
 20
7.9351695021
 11
9.9156923427
 21
7.9351695021
  0
LINE
  5
25B
100
AcDbEntity
  8
0
100
AcDbLine
 62
9
  6
CONTINUOUS
 10
15.8101923427
 20
7.9451695021
 11
14.0651923427
 21
7.9451695021
  0
LINE
  5
25C
100
AcDbEntity
  8
0
100
AcDbLine
 62
9
  6
CONTINUOUS
 10
7.8101923427
 20
7.9451695021
 11
6.0651923427
 21
7.9451695021
  0
LINE
  5
25D
100
AcDbEntity
  8
0
100
AcDbLine
 62
7
  6
CONTINUOUS
 10
9.9456923427
 20
7.9651695021
 11
11.9296923427
 21
7.9651695021
  0
LINE
  5
25E
100
AcDbEntity
  8
0
100
AcDbLine
 62
7
  6
CONTINUOUS
 10
6.0951923427
 20
7.9751695021
 11
7.7801923427
 21
7.9751695021
  0
LINE
  5
25F
100
AcDbEntity
  8
0
100
AcDbLine
 62
7
  6
CONTINUOUS
 10
14.0951923427
 20
7.9751695021
 11
15.7801923427
 21
7.9751695021
  0
LINE
  5
260
100
AcDbEntity
  8
0
100
AcDbLine
 62
9
  6
CONTINUOUS
 10
10.0692133604
 20
7.9899600568
 11
11.8061713251
 21
7.9899600568
  0
LINE
  5
261
100
AcDbEntity
  8
0
100
AcDbLine
 62
9
  6
CONTINUOUS
 10
6.2537133604
 20
7.9999600568
 11
7.621671325
 21
7.9999600568
  0
LINE
  5
262
100
AcDbEntity
  8
0
100
AcDbLine
 62
9
  6
CONTINUOUS
 10
14.2537133604
 20
7.9999600568
 11
15.621671325
 21
7.9999600568
  0
LINE
  5
263
100
AcDbEntity
  8
0
100
AcDbLine
 62
7
  6
CONTINUOUS
 10
9.9156923427
 20
7.7776695021
 11
9.9156923427
 21
7.9351695021
  0
LINE
  5
264
100
AcDbEntity
  8
0
100
AcDbLine
 62
9
  6
CONTINUOUS
 10
9.9756923427
 20
7.9651695021
 11
9.9756923427
 21
7.7776695021
  0
LINE
  5
265
100
AcDbEntity
  8
0
100
AcDbLine
 62
9
  6
CONTINUOUS
 10
10.0692133593
 20
7.9899600568
 11
10.0692133593
 21
7.9651695021
  0
LINE
  5
266
100
AcDbEntity
  8
0
100
AcDbLine
 62
9
  6
CONTINUOUS
 10
9.6961301738
 20
7.6216072532
 11
9.6989429309
 21
7.6490155335
  0
LINE
  5
267
100
AcDbEntity
  8
0
100
AcDbLine
 62
9
  6
CONTINUOUS
 10
9.682907254
 20
7.6225346953
 11
9.687692319
 21
7.6506339558
  0
LWPOLYLINE
  5
268
100
AcDbEntity
  8
0
100
AcDbPolyline
 62
7
  6
CONTINUOUS
 90
26
 70
0
 10
10.4461398635
 20
9.9161024837
 10
10.4461466612
 20
9.9160393607
 10
10.4462636856
 20
9.9146748487
 10
10.4464393035
 20
9.9118955249
 10
10.4466252705
 20
9.9079125611
 10
10.4468013092
 20
9.9028230712
 10
10.4469576208
 20
9.8966720667
 10
10.4470888969
 20
9.8894812485
 10
10.4471919214
 20
9.8812649631
 10
10.4472644906
 20
9.8720368918
 10
10.4473051204
 20
9.8617994816
 10
10.4473126666
 20
9.8505468203
 10
10.4472860161
 20
9.8382732264
 10
10.4472238107
 20
9.8249759588
 10
10.4471246416
 20
9.8106521356
 10
10.4469870697
 20
9.7952993301
 10
10.4468093815
 20
9.7789196994
 10
10.4465894629
 20
9.7615201252
 10
10.446325067
 20
9.7431096461
 10
10.4460137821
 20
9.7237012578
 10
10.4456527233
 20
9.7033169126
 10
10.4452386801
 20
9.681983137
 10
10.4447682544
 20
9.6597310365
 10
10.4442377984
 20
9.6365993393
 10
10.4436433879
 20
9.6126353331
 10
10.4429808713
 20
9.5878929324
  0
LINE
  5
269
100
AcDbEntity
  8
0
100
AcDbLine
 62
9
  6
CONTINUOUS
 10
10.4419226692
 20
9.5505272287
 11
10.4418919085
 21
9.5508273741
  0
LINE
  5
26A
100
AcDbEntity
  8
0
100
AcDbLine
 62
7
  6
CONTINUOUS
 10
10.3451923427
 20
9.3366695021
 11
10.3451923427
 21
9.4326695021
  0
LINE
  5
26B
100
AcDbEntity
  8
0
100
AcDbLine
 62
9
  6
CONTINUOUS
 10
10.4051923427
 20
9.4926695021
 11
10.4051923427
 21
9.3366695021
  0
LINE
  5
26C
100
AcDbEntity
  8
0
100
AcDbLine
 62
9
  6
CONTINUOUS
 10
10.5309857186
 20
9.5422506115
 11
10.5309857186
 21
9.4926695021
  0
LINE
  5
26D
100
AcDbEntity
  8
0
100
AcDbLine
 62
9
  6
CONTINUOUS
 10
10.5330713134
 20
10.6176695021
 11
10.5330713134
 21
10.5680883928
  0
LINE
  5
26E
100
AcDbEntity
  8
0
100
AcDbLine
 62
9
  6
CONTINUOUS
 10
10.5309857227
 20
9.5422506161
 11
10.5330713134
 21
10.5680883931
  0
LINE
  5
26F
100
AcDbEntity
  8
0
100
AcDbLine
 62
7
  6
CONTINUOUS
 10
10.4429808713
 20
9.5878929324
 11
10.4418921183
 21
9.5508349172
  0
LWPOLYLINE
  5
270
100
AcDbEntity
  8
0
100
AcDbPolyline
 62
7
  6
CONTINUOUS
 90
4
 70
0
 10
10.4418917852
 20
9.5508073175
 10
10.440674115
 20
9.5405024102
 10
10.4332055511
 20
9.521526682
 10
10.4197994072
 20
9.506137542
  0
LINE
  5
271
100
AcDbEntity
  8
0
100
AcDbLine
 62
7
  6
CONTINUOUS
 10
10.0101248953
 20
7.9899600568
 11
10.4647184806
 21
10.5680883927
  0
LINE
  5
272
100
AcDbEntity
  8
0
100
AcDbLine
 62
9
  6
CONTINUOUS
 10
10.0692133604
 20
7.9899600568
 11
10.2450948179
 21
8.9874333689
  0
LINE
  5
273
100
AcDbEntity
  8
0
100
AcDbLine
 62
9
  6
CONTINUOUS
 10
10.2450948251
 20
8.9874333689
 11
10.2868752932
 21
9.206830513
  0
LINE
  5
274
100
AcDbEntity
  8
0
100
AcDbLine
 62
7
  6
CONTINUOUS
 10
10.4197994072
 20
9.506137542
 11
10.4020146979
 21
9.496134093
  0
LWPOLYLINE
  5
275
100
AcDbEntity
  8
0
100
AcDbPolyline
 62
7
  6
CONTINUOUS
 90
5
 70
0
 10
10.3935904947
 20
9.4938153334
 10
10.3751617391
 20
9.4868915767
 10
10.3592148951
 20
9.4734974141
 10
10.3488075192
 20
9.4554600746
 10
10.3451923427
 20
9.4349479136
  0
LINE
  5
276
100
AcDbEntity
  8
0
100
AcDbLine
 62
7
  6
CONTINUOUS
 10
10.6251923427
 20
10.9476695021
 11
10.6251923427
 21
11.1376695021
  0
LINE
  5
277
100
AcDbEntity
  8
0
100
AcDbLine
 62
9
  6
CONTINUOUS
 10
10.6851923427
 20
11.1676695021
 11
10.6851923427
 21
10.9176695021
  0
LINE
  5
278
100
AcDbEntity
  8
0
100
AcDbLine
 62
7
  6
CONTINUOUS
 10
10.7501923427
 20
10.9176695021
 11
10.7501923427
 21
10.6176695021
  0
LINE
  5
279
100
AcDbEntity
  8
0
100
AcDbLine
 62
9
  6
CONTINUOUS
 10
11.4818167318
 20
9.4938106576
 11
11.4817883961
 21
9.493801968
  0
LINE
  5
27A
100
AcDbEntity
  8
0
100
AcDbLine
 62
9
  6
CONTINUOUS
 10
11.6302898676
 20
8.9874333689
 11
10.2450948179
 21
8.9874333689
  0
LINE
  5
27B
100
AcDbEntity
  8
0
100
AcDbLine
 62
9
  6
CONTINUOUS
 10
11.3423133721
 20
10.5680883931
 11
11.3443989627
 21
9.5422506183
  0
LINE
  5
27C
100
AcDbEntity
  8
0
100
AcDbLine
 62
7
  6
CONTINUOUS
 10
11.1251923427
 20
10.9176695021
 11
11.1251923427
 21
10.6176695021
  0
LINE
  5
27D
100
AcDbEntity
  8
0
100
AcDbLine
 62
9
  6
CONTINUOUS
 10
11.1901923427
 20
10.9176695021
 11
11.1901923427
 21
11.1676695021
  0
LINE
  5
27E
100
AcDbEntity
  8
0
100
AcDbLine
 62
7
  6
CONTINUOUS
 10
11.2501923427
 20
11.1376695021
 11
11.2501923427
 21
10.9476695021
  0
LINE
  5
27F
100
AcDbEntity
  8
0
100
AcDbLine
 62
9
  6
CONTINUOUS
 10
11.3423133721
 20
10.5680883928
 11
11.3423133721
 21
10.6176695021
  0
LINE
  5
280
100
AcDbEntity
  8
0
100
AcDbLine
 62
9
  6
CONTINUOUS
 10
11.3443989626
 20
9.4926695021
 11
11.3443989626
 21
9.5422506115
  0
LINE
  5
281
100
AcDbEntity
  8
0
100
AcDbLine
 62
7
  6
CONTINUOUS
 10
10.4020146979
 20
9.496134093
 11
10.3935537412
 21
9.4938078771
  0
LINE
  5
282
100
AcDbEntity
  8
0
100
AcDbLine
 62
7
  6
CONTINUOUS
 10
10.3451923427
 20
9.3366695021
 11
11.5301923427
 21
9.3366695021
  0
LINE
  5
283
100
AcDbEntity
  8
0
100
AcDbLine
 62
9
  6
CONTINUOUS
 10
11.5301923427
 20
9.4326695021
 11
10.3451923427
 21
9.4326695021
  0
LINE
  5
284
100
AcDbEntity
  8
0
100
AcDbLine
 62
7
  6
CONTINUOUS
 10
10.4051923427
 20
9.4926695021
 11
11.4701923427
 21
9.4926695021
  0
LINE
  5
285
100
AcDbEntity
  8
0
100
AcDbLine
 62
9
  6
CONTINUOUS
 10
10.5309857227
 20
9.5422506161
 11
11.3443989627
 21
9.5422506183
  0
LINE
  5
286
100
AcDbEntity
  8
0
100
AcDbLine
 62
9
  6
CONTINUOUS
 10
15.3349342534
 20
9.6261310535
 11
14.5404536772
 21
9.6261302295
  0
LINE
  5
287
100
AcDbEntity
  8
0
100
AcDbLine
 62
9
  6
CONTINUOUS
 10
7.3349342534
 20
9.6261310535
 11
6.5404536772
 21
9.6261302295
  0
LINE
  5
288
100
AcDbEntity
  8
0
100
AcDbLine
 62
7
  6
CONTINUOUS
 10
11.4818167318
 20
9.4938106576
 11
11.4733696579
 21
9.4961341785
  0
LWPOLYLINE
  5
289
100
AcDbEntity
  8
0
100
AcDbPolyline
 62
7
  6
CONTINUOUS
 90
26
 70
0
 10
11.4334924255
 20
9.5508373472
 10
11.4330548186
 20
9.5652514022
 10
11.4322810889
 20
9.5923376471
 10
11.4315879265
 20
9.6186449814
 10
11.4309705274
 20
9.6440890669
 10
11.4304243778
 20
9.6685950319
 10
11.4299451673
 20
9.6920968082
 10
11.4295288813
 20
9.71454058
 10
11.429171724
 20
9.7358818298
 10
11.4288700778
 20
9.7560819507
 10
11.4286207941
 20
9.7751118366
 10
11.4284211605
 20
9.7929538452
 10
11.4282685618
 20
9.8095949609
 10
11.4281605981
 20
9.8250268692
 10
11.4280953574
 20
9.8392502292
 10
11.4280709872
 20
9.8522696076
 10
11.4280855834
 20
9.8640908581
 10
11.4281373692
 20
9.8747232201
 10
11.4282245447
 20
9.8841794318
 10
11.4283447908
 20
9.8924654868
 10
11.4284948239
 20
9.8995792505
 10
11.4286697978
 20
9.9055136988
 10
11.4288614128
 20
9.9102447996
 10
11.4290532027
 20
9.913704199
 10
11.4292073261
 20
9.9157257151
 10
11.4292297767
 20
9.9159597096
  0
LINE
  5
28A
100
AcDbEntity
  8
0
100
AcDbLine
 62
9
  6
CONTINUOUS
 10
11.4701923427
 20
9.3366695021
 11
11.4701923427
 21
9.4926695021
  0
LINE
  5
28B
100
AcDbEntity
  8
0
100
AcDbLine
 62
7
  6
CONTINUOUS
 10
11.5301923427
 20
9.4349351178
 11
11.5301923427
 21
9.3366695021
  0
LINE
  5
28C
100
AcDbEntity
  8
0
100
AcDbLine
 62
9
  6
CONTINUOUS
 10
11.4334926439
 20
9.5508294681
 11
11.4334619463
 21
9.5505272995
  0
LINE
  5
28D
100
AcDbEntity
  8
0
100
AcDbLine
 62
9
  6
CONTINUOUS
 10
6.5404521678
 20
9.7276228716
 11
7.3349335879
 21
9.7276228716
  0
LINE
  5
28E
100
AcDbEntity
  8
0
100
AcDbLine
 62
9
  6
CONTINUOUS
 10
14.5404521678
 20
9.7276228716
 11
15.3349335879
 21
9.7276228716
  0
LINE
  5
28F
100
AcDbEntity
  8
0
100
AcDbLine
 62
9
  6
CONTINUOUS
 10
6.5404469704
 20
9.756243912
 11
7.3349314073
 21
9.7562437193
  0
LINE
  5
290
100
AcDbEntity
  8
0
100
AcDbLine
 62
9
  6
CONTINUOUS
 10
14.5404469704
 20
9.756243912
 11
15.3349314073
 21
9.7562437193
  0
LINE
  5
291
100
AcDbEntity
  8
0
100
AcDbLine
 62
7
  6
CONTINUOUS
 10
10.4336827744
 20
9.8676695021
 11
10.4472818237
 21
9.8676695021
  0
LINE
  5
292
100
AcDbEntity
  8
0
100
AcDbLine
 62
7
  6
CONTINUOUS
 10
11.4281030135
 20
9.8676695021
 11
11.4417019111
 21
9.8676695021
  0
LINE
  5
293
100
AcDbEntity
  8
0
100
AcDbLine
 62
9
  6
CONTINUOUS
 10
15.4766923427
 20
9.8831695021
 11
14.3986923427
 21
9.8831695021
  0
LINE
  5
294
100
AcDbEntity
  8
0
100
AcDbLine
 62
9
  6
CONTINUOUS
 10
7.4766923427
 20
9.8831695021
 11
6.3986923427
 21
9.8831695021
  0
LINE
  5
295
100
AcDbEntity
  8
0
100
AcDbLine
 62
7
  6
CONTINUOUS
 10
6.4286923427
 20
9.9131695021
 11
7.4466923427
 21
9.9131695021
  0
LINE
  5
296
100
AcDbEntity
  8
0
100
AcDbLine
 62
7
  6
CONTINUOUS
 10
14.4286923427
 20
9.9131695021
 11
15.4466923427
 21
9.9131695021
  0
LINE
  5
297
100
AcDbEntity
  8
0
100
AcDbLine
 62
7
  6
CONTINUOUS
 10
6.6251923427
 20
9.9441695021
 11
7.2501923427
 21
9.9441695021
  0
LINE
  5
298
100
AcDbEntity
  8
0
100
AcDbLine
 62
7
  6
CONTINUOUS
 10
14.6251923427
 20
9.9441695021
 11
15.2501923427
 21
9.9441695021
  0
LWPOLYLINE
  5
299
100
AcDbEntity
  8
0
100
AcDbPolyline
 62
7
  6
CONTINUOUS
 90
5
 70
0
 10
11.4733696579
 20
9.4961341785
 10
11.4555848598
 20
9.506137839
 10
11.4421788939
 20
9.5215270005
 10
11.4347104762
 20
9.5405026408
 10
11.4334928474
 20
9.5508075077
  0
LINE
  5
29A
100
AcDbEntity
  8
0
100
AcDbLine
 62
9
  6
CONTINUOUS
 10
11.588509641
 20
9.2068292166
 11
11.6302898766
 21
8.9874333689
  0
LINE
  5
29B
100
AcDbEntity
  8
0
100
AcDbLine
 62
9
  6
CONTINUOUS
 10
11.6302898676
 20
8.9874333689
 11
11.8061713251
 21
7.9899600568
  0
LINE
  5
29C
100
AcDbEntity
  8
0
100
AcDbLine
 62
7
  6
CONTINUOUS
 10
11.8652597902
 20
7.9899600568
 11
11.4106662049
 21
10.5680883927
  0
LWPOLYLINE
  5
29D
100
AcDbEntity
  8
0
100
AcDbPolyline
 62
7
  6
CONTINUOUS
 90
5
 70
0
 10
11.5301923427
 20
9.4349479807
 10
11.5265771303
 20
9.4554602688
 10
11.5161696598
 20
9.4734976897
 10
11.5002226887
 20
9.4868918636
 10
11.4818105755
 20
9.4938122491
  0
LINE
  5
29E
100
AcDbEntity
  8
0
100
AcDbLine
 62
9
  6
CONTINUOUS
 10
12.1792558244
 20
7.6216072483
 11
12.1764418233
 21
7.6490154999
  0
LINE
  5
29F
100
AcDbEntity
  8
0
100
AcDbLine
 62
9
  6
CONTINUOUS
 10
11.806171325
 20
7.9651695021
 11
11.806171325
 21
7.9899600568
  0
LINE
  5
2A0
100
AcDbEntity
  8
0
100
AcDbLine
 62
9
  6
CONTINUOUS
 10
11.8996923427
 20
7.7776695021
 11
11.8996923427
 21
7.9651695021
  0
LINE
  5
2A1
100
AcDbEntity
  8
0
100
AcDbLine
 62
7
  6
CONTINUOUS
 10
11.9596923427
 20
7.9351695021
 11
11.9596923427
 21
7.7776695021
  0
LINE
  5
2A2
100
AcDbEntity
  8
0
100
AcDbLine
 62
9
  6
CONTINUOUS
 10
12.1276923427
 20
7.3676695021
 11
12.1276923623
 21
7.6467397369
  0
LINE
  5
2A3
100
AcDbEntity
  8
0
100
AcDbLine
 62
9
  6
CONTINUOUS
 10
15.2501923427
 20
10.2491695021
 11
14.6251923427
 21
10.2491695021
  0
LINE
  5
2A4
100
AcDbEntity
  8
0
100
AcDbLine
 62
9
  6
CONTINUOUS
 10
7.2501923427
 20
10.2491695021
 11
6.6251923427
 21
10.2491695021
  0
LINE
  5
2A5
100
AcDbEntity
  8
0
100
AcDbLine
 62
7
  6
CONTINUOUS
 10
15.2511923427
 20
10.3091695021
 11
15.1388738528
 21
10.3091695021
  0
LINE
  5
2A6
100
AcDbEntity
  8
0
100
AcDbLine
 62
7
  6
CONTINUOUS
 10
14.7365108326
 20
10.3091695021
 11
14.6241923427
 21
10.3091695021
  0
LINE
  5
2A7
100
AcDbEntity
  8
0
100
AcDbLine
 62
7
  6
CONTINUOUS
 10
7.2511923427
 20
10.3091695021
 11
7.1388738528
 21
10.3091695021
  0
LINE
  5
2A8
100
AcDbEntity
  8
0
100
AcDbLine
 62
7
  6
CONTINUOUS
 10
6.7365108326
 20
10.3091695021
 11
6.6241923427
 21
10.3091695021
  0
LINE
  5
2A9
100
AcDbEntity
  8
0
100
AcDbLine
 62
9
  6
CONTINUOUS
 10
6.5941923427
 20
10.3391695021
 11
6.7365108327
 21
10.3391695021
  0
LINE
  5
2AA
100
AcDbEntity
  8
0
100
AcDbLine
 62
9
  6
CONTINUOUS
 10
7.1388738528
 20
10.3391695021
 11
7.2811923427
 21
10.3391695021
  0
LINE
  5
2AB
100
AcDbEntity
  8
0
100
AcDbLine
 62
9
  6
CONTINUOUS
 10
14.5941923427
 20
10.3391695021
 11
14.7365108327
 21
10.3391695021
  0
LINE
  5
2AC
100
AcDbEntity
  8
0
100
AcDbLine
 62
9
  6
CONTINUOUS
 10
15.1388738528
 20
10.3391695021
 11
15.2811923427
 21
10.3391695021
  0
LINE
  5
2AD
100
AcDbEntity
  8
0
100
AcDbLine
 62
9
  6
CONTINUOUS
 10
15.1576923431
 20
10.3426695021
 11
14.7176923425
 21
10.3426695021
  0
LINE
  5
2AE
100
AcDbEntity
  8
0
100
AcDbLine
 62
9
  6
CONTINUOUS
 10
7.1576923431
 20
10.3426695021
 11
6.7176923425
 21
10.3426695021
  0
LINE
  5
2AF
100
AcDbEntity
  8
0
100
AcDbLine
 62
7
  6
CONTINUOUS
 10
16.3451923427
 20
10.4026695021
 11
15.3411923427
 21
10.4026695021
  0
LINE
  5
2B0
100
AcDbEntity
  8
0
100
AcDbLine
 62
7
  6
CONTINUOUS
 10
15.1576923427
 20
10.4026695021
 11
14.7176923427
 21
10.4026695021
  0
LINE
  5
2B1
100
AcDbEntity
  8
0
100
AcDbLine
 62
7
  6
CONTINUOUS
 10
14.5341923427
 20
10.4026695021
 11
13.5301923427
 21
10.4026695021
  0
LINE
  5
2B2
100
AcDbEntity
  8
0
100
AcDbLine
 62
7
  6
CONTINUOUS
 10
8.3451923427
 20
10.4026695021
 11
7.3411923427
 21
10.4026695021
  0
LINE
  5
2B3
100
AcDbEntity
  8
0
100
AcDbLine
 62
7
  6
CONTINUOUS
 10
7.1576923427
 20
10.4026695021
 11
6.7176923427
 21
10.4026695021
  0
LINE
  5
2B4
100
AcDbEntity
  8
0
100
AcDbLine
 62
7
  6
CONTINUOUS
 10
6.5341923427
 20
10.4026695021
 11
5.5301923427
 21
10.4026695021
  0
LINE
  5
2B5
100
AcDbEntity
  8
0
100
AcDbLine
 62
9
  6
CONTINUOUS
 10
5.5001923427
 20
10.4326695021
 11
6.5941923427
 21
10.4326695021
  0
LINE
  5
2B6
100
AcDbEntity
  8
0
100
AcDbLine
 62
9
  6
CONTINUOUS
 10
6.6276923427
 20
10.4326695021
 11
7.2476923427
 21
10.4326695021
  0
LINE
  5
2B7
100
AcDbEntity
  8
0
100
AcDbLine
 62
9
  6
CONTINUOUS
 10
7.2811923427
 20
10.4326695021
 11
8.3751923427
 21
10.4326695021
  0
LINE
  5
2B8
100
AcDbEntity
  8
0
100
AcDbLine
 62
9
  6
CONTINUOUS
 10
13.5001923427
 20
10.4326695021
 11
14.5941923427
 21
10.4326695021
  0
LINE
  5
2B9
100
AcDbEntity
  8
0
100
AcDbLine
 62
9
  6
CONTINUOUS
 10
14.6276923427
 20
10.4326695021
 11
15.2476923427
 21
10.4326695021
  0
LINE
  5
2BA
100
AcDbEntity
  8
0
100
AcDbLine
 62
9
  6
CONTINUOUS
 10
15.2811923427
 20
10.4326695021
 11
16.3751923427
 21
10.4326695021
  0
LINE
  5
2BB
100
AcDbEntity
  8
0
100
AcDbLine
 62
9
  6
CONTINUOUS
 10
12.1924770293
 20
7.6225347464
 11
12.1876923516
 21
7.6506339775
  0
LINE
  5
2BC
100
AcDbEntity
  8
0
100
AcDbLine
 62
7
  6
CONTINUOUS
 10
12.1876923427
 20
7.5428166884
 11
12.1876923427
 21
7.3676695021
  0
LINE
  5
2BD
100
AcDbEntity
  8
0
100
AcDbLine
 62
9
  6
CONTINUOUS
 10
12.1876923425
 20
7.6506339767
 11
12.1876923427
 21
7.7776695021
  0
LINE
  5
2BE
100
AcDbEntity
  8
0
100
AcDbLine
 62
7
  6
CONTINUOUS
 10
12.2476923427
 20
7.7476695021
 11
12.2476923427
 21
7.6467397369
  0
LINE
  5
2BF
100
AcDbEntity
  8
0
100
AcDbLine
 62
9
  6
CONTINUOUS
 10
11.3423133721
 20
10.5680883931
 11
10.5330713134
 21
10.5680883931
  0
LINE
  5
2C0
100
AcDbEntity
  8
0
100
AcDbLine
 62
7
  6
CONTINUOUS
 10
10.5330713134
 20
10.6176695021
 11
11.3423133721
 21
10.6176695021
  0
LINE
  5
2C1
100
AcDbEntity
  8
0
100
AcDbLine
 62
9
  6
CONTINUOUS
 10
16.3751923427
 20
10.8726695021
 11
15.2811923427
 21
10.8726695021
  0
LINE
  5
2C2
100
AcDbEntity
  8
0
100
AcDbLine
 62
9
  6
CONTINUOUS
 10
15.2476923427
 20
10.8726695021
 11
14.6276923427
 21
10.8726695021
  0
LINE
  5
2C3
100
AcDbEntity
  8
0
100
AcDbLine
 62
9
  6
CONTINUOUS
 10
14.5941923427
 20
10.8726695021
 11
13.5001923427
 21
10.8726695021
  0
LINE
  5
2C4
100
AcDbEntity
  8
0
100
AcDbLine
 62
9
  6
CONTINUOUS
 10
8.3751923427
 20
10.8726695021
 11
7.2811923427
 21
10.8726695021
  0
LINE
  5
2C5
100
AcDbEntity
  8
0
100
AcDbLine
 62
9
  6
CONTINUOUS
 10
7.2476923427
 20
10.8726695021
 11
6.6276923427
 21
10.8726695021
  0
LINE
  5
2C6
100
AcDbEntity
  8
0
100
AcDbLine
 62
9
  6
CONTINUOUS
 10
6.5941923427
 20
10.8726695021
 11
5.5001923427
 21
10.8726695021
  0
LINE
  5
2C7
100
AcDbEntity
  8
0
100
AcDbLine
 62
7
  6
CONTINUOUS
 10
5.5301923427
 20
10.9026695021
 11
6.5341923427
 21
10.9026695021
  0
LINE
  5
2C8
100
AcDbEntity
  8
0
100
AcDbLine
 62
7
  6
CONTINUOUS
 10
6.7176923427
 20
10.9026695021
 11
7.1576923427
 21
10.9026695021
  0
LINE
  5
2C9
100
AcDbEntity
  8
0
100
AcDbLine
 62
7
  6
CONTINUOUS
 10
7.3411923427
 20
10.9026695021
 11
8.3451923427
 21
10.9026695021
  0
LINE
  5
2CA
100
AcDbEntity
  8
0
100
AcDbLine
 62
7
  6
CONTINUOUS
 10
13.5301923427
 20
10.9026695021
 11
14.5341923427
 21
10.9026695021
  0
LINE
  5
2CB
100
AcDbEntity
  8
0
100
AcDbLine
 62
7
  6
CONTINUOUS
 10
14.7176923427
 20
10.9026695021
 11
15.1576923427
 21
10.9026695021
  0
LINE
  5
2CC
100
AcDbEntity
  8
0
100
AcDbLine
 62
7
  6
CONTINUOUS
 10
15.3411923427
 20
10.9026695021
 11
16.3451923427
 21
10.9026695021
  0
LINE
  5
2CD
100
AcDbEntity
  8
0
100
AcDbLine
 62
7
  6
CONTINUOUS
 10
10.6551923427
 20
10.9176695021
 11
11.2201923427
 21
10.9176695021
  0
LINE
  5
2CE
100
AcDbEntity
  8
0
100
AcDbLine
 62
9
  6
CONTINUOUS
 10
10.6251923427
 20
10.9476695021
 11
11.2501923427
 21
10.9476695021
  0
LINE
  5
2CF
100
AcDbEntity
  8
0
100
AcDbLine
 62
9
  6
CONTINUOUS
 10
6.7176923424
 20
10.9626695021
 11
7.1576923429
 21
10.9626695021
  0
LINE
  5
2D0
100
AcDbEntity
  8
0
100
AcDbLine
 62
9
  6
CONTINUOUS
 10
14.7176923424
 20
10.9626695021
 11
15.1576923429
 21
10.9626695021
  0
LINE
  5
2D1
100
AcDbEntity
  8
0
100
AcDbLine
 62
9
  6
CONTINUOUS
 10
15.2811923427
 20
10.9661695021
 11
14.5941923427
 21
10.9661695021
  0
LINE
  5
2D2
100
AcDbEntity
  8
0
100
AcDbLine
 62
9
  6
CONTINUOUS
 10
7.2811923427
 20
10.9661695021
 11
6.5941923427
 21
10.9661695021
  0
LINE
  5
2D3
100
AcDbEntity
  8
0
100
AcDbLine
 62
7
  6
CONTINUOUS
 10
6.6241923427
 20
10.9961695021
 11
7.2511923427
 21
10.9961695021
  0
LINE
  5
2D4
100
AcDbEntity
  8
0
100
AcDbLine
 62
7
  6
CONTINUOUS
 10
14.6241923427
 20
10.9961695021
 11
15.2511923427
 21
10.9961695021
  0
LINE
  5
2D5
100
AcDbEntity
  8
0
100
AcDbLine
 62
9
  6
CONTINUOUS
 10
11.2501923427
 20
11.1376695021
 11
10.6251923427
 21
11.1376695021
  0
LINE
  5
2D6
100
AcDbEntity
  8
0
100
AcDbLine
 62
7
  6
CONTINUOUS
 10
10.6551923427
 20
11.1676695021
 11
11.2201923427
 21
11.1676695021
  0
LINE
  5
2D7
100
AcDbEntity
  8
0
100
AcDbLine
 62
7
  6
CONTINUOUS
 10
13.5001923427
 20
10.4326695021
 11
13.5001923427
 21
10.8726695021
  0
LINE
  5
2D8
100
AcDbEntity
  8
0
100
AcDbLine
 62
9
  6
CONTINUOUS
 10
13.5301923427
 20
10.9026695021
 11
13.5301923427
 21
10.4026695021
  0
LINE
  5
2D9
100
AcDbEntity
  8
0
100
AcDbLine
 62
7
  6
CONTINUOUS
 10
13.7426923427
 20
7.6445148681
 11
13.7426923427
 21
7.7476695021
  0
LINE
  5
2DA
100
AcDbEntity
  8
0
100
AcDbLine
 62
7
  6
CONTINUOUS
 10
13.7926923427
 20
7.3676695021
 11
13.7926923427
 21
7.5470469247
  0
LINE
  5
2DB
100
AcDbEntity
  8
0
100
AcDbLine
 62
9
  6
CONTINUOUS
 10
13.8026923427
 20
7.7776695021
 11
13.8026923428
 21
7.647185355
  0
LINE
  5
2DC
100
AcDbEntity
  8
0
100
AcDbLine
 62
9
  6
CONTINUOUS
 10
13.8526923427
 20
7.3676695021
 11
13.8526923846
 21
7.6445148681
  0
LINE
  5
2DD
100
AcDbEntity
  8
0
100
AcDbLine
 62
9
  6
CONTINUOUS
 10
13.8088277908
 20
7.6204056439
 11
13.8108740345
 21
7.6460968637
  0
LINE
  5
2DE
100
AcDbEntity
  8
0
100
AcDbLine
 62
9
  6
CONTINUOUS
 10
13.7980419776
 20
7.6207241091
 11
13.8026923324
 21
7.6471853626
  0
LINE
  5
2DF
100
AcDbEntity
  8
0
100
AcDbLine
 62
7
  6
CONTINUOUS
 10
14.0651923427
 20
7.7876695021
 11
14.0651923427
 21
7.9451695021
  0
LINE
  5
2E0
100
AcDbEntity
  8
0
100
AcDbLine
 62
9
  6
CONTINUOUS
 10
14.1251923427
 20
7.9751695021
 11
14.1251923427
 21
7.7876695021
  0
LINE
  5
2E1
100
AcDbEntity
  8
0
100
AcDbLine
 62
7
  6
CONTINUOUS
 10
14.1876923427
 20
7.7776695021
 11
14.1876923427
 21
7.7876695021
  0
LINE
  5
2E2
100
AcDbEntity
  8
0
100
AcDbLine
 62
9
  6
CONTINUOUS
 10
14.2537133605
 20
7.9999600568
 11
14.2537133605
 21
7.9751695021
  0
LINE
  5
2E3
100
AcDbEntity
  8
0
100
AcDbLine
 62
7
  6
CONTINUOUS
 10
14.3986923427
 20
9.7562440489
 11
14.3986923427
 21
9.8831695021
  0
LINE
  5
2E4
100
AcDbEntity
  8
0
100
AcDbLine
 62
9
  6
CONTINUOUS
 10
14.4176923427
 20
7.7876695021
 11
14.4176923427
 21
7.7776695021
  0
LINE
  5
2E5
100
AcDbEntity
  8
0
100
AcDbLine
 62
9
  6
CONTINUOUS
 10
14.4586923766
 20
9.7613738279
 11
14.4572791489
 21
9.7314698872
  0
LINE
  5
2E6
100
AcDbEntity
  8
0
100
AcDbLine
 62
7
  6
CONTINUOUS
 10
14.4813626182
 20
9.6261304917
 11
14.1946248953
 21
7.9999600568
  0
LINE
  5
2E7
100
AcDbEntity
  8
0
100
AcDbLine
 62
9
  6
CONTINUOUS
 10
14.2537133604
 20
7.9999600568
 11
14.5404536772
 21
9.6261302295
  0
LINE
  5
2E8
100
AcDbEntity
  8
0
100
AcDbLine
 62
9
  6
CONTINUOUS
 10
14.4586923427
 20
9.9131695021
 11
14.4586923428
 21
9.7613738288
  0
LINE
  5
2E9
100
AcDbEntity
  8
0
100
AcDbLine
 62
9
  6
CONTINUOUS
 10
14.5341923427
 20
10.4026695021
 11
14.5341923427
 21
10.9026695021
  0
LINE
  5
2EA
100
AcDbEntity
  8
0
100
AcDbLine
 62
7
  6
CONTINUOUS
 10
14.5941923427
 20
10.3171257122
 11
14.5941923427
 21
10.9661695021
  0
LINE
  5
2EB
100
AcDbEntity
  8
0
100
AcDbLine
 62
9
  6
CONTINUOUS
 10
14.6241923427
 20
10.9961695021
 11
14.6241923427
 21
10.3091695021
  0
LINE
  5
2EC
100
AcDbEntity
  8
0
100
AcDbLine
 62
7
  6
CONTINUOUS
 10
14.6251923427
 20
9.9441695021
 11
14.6251923427
 21
10.2491695021
  0
LINE
  5
2ED
100
AcDbEntity
  8
0
100
AcDbLine
 62
9
  6
CONTINUOUS
 10
14.6276923427
 20
10.4326695018
 11
14.6276923427
 21
10.8726695023
  0
LINE
  5
2EE
100
AcDbEntity
  8
0
100
AcDbLine
 62
7
  6
CONTINUOUS
 10
14.6846923427
 20
9.9441695021
 11
14.6846923427
 21
9.9131695021
  0
LINE
  5
2EF
100
AcDbEntity
  8
0
100
AcDbLine
 62
7
  6
CONTINUOUS
 10
14.6876923427
 20
10.4326695021
 11
14.6876923427
 21
10.8726695021
  0
LINE
  5
2F0
100
AcDbEntity
  8
0
100
AcDbLine
 62
9
  6
CONTINUOUS
 10
14.7176923427
 20
10.9626695021
 11
14.7176923427
 21
10.3426695021
  0
LINE
  5
2F1
100
AcDbEntity
  8
0
100
AcDbLine
 62
9
  6
CONTINUOUS
 10
14.7365108327
 20
10.3091695021
 11
14.7365108327
 21
10.3391695021
  0
LINE
  5
2F2
100
AcDbEntity
  8
0
100
AcDbLine
 62
9
  6
CONTINUOUS
 10
14.5404468608
 20
9.7562438156
 11
14.5404521678
 21
9.6261311662
  0
LWPOLYLINE
  5
2F3
100
AcDbEntity
  8
0
100
AcDbPolyline
 62
7
  6
CONTINUOUS
 90
4
 70
0
 10
14.5941923427
 20
10.3171327747
 10
14.5959925383
 20
10.3068970084
 10
14.601176463
 20
10.2978904033
 10
14.6045256818
 20
10.2944783743
  0
LINE
  5
2F4
100
AcDbEntity
  8
0
100
AcDbLine
 62
9
  6
CONTINUOUS
 10
15.1388738589
 20
10.3391695021
 11
15.1388738589
 21
10.3091695021
  0
LINE
  5
2F5
100
AcDbEntity
  8
0
100
AcDbLine
 62
9
  6
CONTINUOUS
 10
15.1576923427
 20
10.3426695021
 11
15.1576923427
 21
10.9626695021
  0
LINE
  5
2F6
100
AcDbEntity
  8
0
100
AcDbLine
 62
7
  6
CONTINUOUS
 10
15.1876923427
 20
10.8726695021
 11
15.1876923427
 21
10.4326695021
  0
LINE
  5
2F7
100
AcDbEntity
  8
0
100
AcDbLine
 62
7
  6
CONTINUOUS
 10
15.1906923427
 20
9.9441695021
 11
15.1906923427
 21
9.9131695021
  0
LINE
  5
2F8
100
AcDbEntity
  8
0
100
AcDbLine
 62
9
  6
CONTINUOUS
 10
15.4166925024
 20
9.7613737818
 11
15.4181026363
 21
9.7314698449
  0
LINE
  5
2F9
100
AcDbEntity
  8
0
100
AcDbLine
 62
9
  6
CONTINUOUS
 10
15.2476923427
 20
10.8726695025
 11
15.2476923427
 21
10.432669502
  0
LINE
  5
2FA
100
AcDbEntity
  8
0
100
AcDbLine
 62
7
  6
CONTINUOUS
 10
15.2501923427
 20
9.9441695021
 11
15.2501923427
 21
10.2491695021
  0
LINE
  5
2FB
100
AcDbEntity
  8
0
100
AcDbLine
 62
9
  6
CONTINUOUS
 10
15.2511923427
 20
10.3091695021
 11
15.2511923427
 21
10.9961695021
  0
LINE
  5
2FC
100
AcDbEntity
  8
0
100
AcDbLine
 62
7
  6
CONTINUOUS
 10
15.2811923427
 20
10.9661695021
 11
15.2811923427
 21
10.3171327275
  0
LINE
  5
2FD
100
AcDbEntity
  8
0
100
AcDbLine
 62
9
  6
CONTINUOUS
 10
15.3349335879
 20
9.6261311662
 11
15.3349314288
 21
9.7562438156
  0
LINE
  5
2FE
100
AcDbEntity
  8
0
100
AcDbLine
 62
9
  6
CONTINUOUS
 10
15.3411923427
 20
10.9026695021
 11
15.3411923427
 21
10.4026695021
  0
LINE
  5
2FF
100
AcDbEntity
  8
0
100
AcDbLine
 62
9
  6
CONTINUOUS
 10
15.4166923427
 20
9.7613737754
 11
15.4166923427
 21
9.9131695021
  0
LINE
  5
300
100
AcDbEntity
  8
0
100
AcDbLine
 62
9
  6
CONTINUOUS
 10
15.4576923427
 20
7.7776695021
 11
15.4576923427
 21
7.7876695021
  0
LINE
  5
301
100
AcDbEntity
  8
0
100
AcDbLine
 62
7
  6
CONTINUOUS
 10
15.4766923427
 20
9.7562437488
 11
15.4766923427
 21
9.8831695021
  0
LINE
  5
302
100
AcDbEntity
  8
0
100
AcDbLine
 62
9
  6
CONTINUOUS
 10
15.3349342534
 20
9.6261310535
 11
15.621671325
 21
7.9999600568
  0
LINE
  5
303
100
AcDbEntity
  8
0
100
AcDbLine
 62
7
  6
CONTINUOUS
 10
15.6807597902
 20
7.9999600568
 11
15.3940214202
 21
9.6261341616
  0
LINE
  5
304
100
AcDbEntity
  8
0
100
AcDbLine
 62
9
  6
CONTINUOUS
 10
16.066558059
 20
7.6204057061
 11
16.064510919
 21
7.6460968804
  0
LINE
  5
305
100
AcDbEntity
  8
0
100
AcDbLine
 62
9
  6
CONTINUOUS
 10
15.6216713298
 20
7.9751695021
 11
15.6216713298
 21
7.9999600568
  0
LINE
  5
306
100
AcDbEntity
  8
0
100
AcDbLine
 62
7
  6
CONTINUOUS
 10
15.6876923427
 20
7.7876695021
 11
15.6876923427
 21
7.7776695021
  0
LINE
  5
307
100
AcDbEntity
  8
0
100
AcDbLine
 62
9
  6
CONTINUOUS
 10
15.7501923427
 20
7.7876695021
 11
15.7501923427
 21
7.9751695021
  0
LINE
  5
308
100
AcDbEntity
  8
0
100
AcDbLine
 62
7
  6
CONTINUOUS
 10
15.8101923427
 20
7.9451695021
 11
15.8101923427
 21
7.7876695021
  0
LINE
  5
309
100
AcDbEntity
  8
0
100
AcDbLine
 62
9
  6
CONTINUOUS
 10
16.0773424788
 20
7.6207241583
 11
16.072692406
 21
7.6471853992
  0
LINE
  5
30A
100
AcDbEntity
  8
0
100
AcDbLine
 62
9
  6
CONTINUOUS
 10
16.0226923427
 20
7.3676695021
 11
16.02269241
 21
7.6445148681
  0
LINE
  5
30B
100
AcDbEntity
  8
0
100
AcDbLine
 62
9
  6
CONTINUOUS
 10
16.0726923425
 20
7.6471853943
 11
16.0726923427
 21
7.7776695021
  0
LINE
  5
30C
100
AcDbEntity
  8
0
100
AcDbLine
 62
7
  6
CONTINUOUS
 10
16.0826923427
 20
7.5470469247
 11
16.0826923427
 21
7.3676695021
  0
LINE
  5
30D
100
AcDbEntity
  8
0
100
AcDbLine
 62
7
  6
CONTINUOUS
 10
16.1326923427
 20
7.7476695021
 11
16.1326923427
 21
7.6445148681
  0
LINE
  5
30E
100
AcDbEntity
  8
0
100
AcDbLine
 62
9
  6
CONTINUOUS
 10
16.3451923427
 20
10.4026695021
 11
16.3451923427
 21
10.9026695021
  0
LINE
  5
30F
100
AcDbEntity
  8
0
100
AcDbLine
 62
7
  6
CONTINUOUS
 10
16.3751923427
 20
10.8726695021
 11
16.3751923427
 21
10.4326695021
  0
ARC
  5
310
100
AcDbEntity
  8
0
100
AcDbCircle
 62
9
  6
CONTINUOUS
 10
-25.839852016
 20
1.4297842465
 40
38.2289108179
100
AcDbArc
 50
11.9024236104
 51
12.1048666812
  0
ARC
  5
311
100
AcDbEntity
  8
0
100
AcDbCircle
 62
9
  6
CONTINUOUS
 10
-3.1410955056
 20
9.965518745
 40
13.5893549159
100
AcDbArc
 50
358.3109309743
 51
358.5389284346
  0
ARC
  5
312
100
AcDbEntity
  8
0
100
AcDbCircle
 62
9
  6
CONTINUOUS
 10
-2.1422392868
 20
9.9364622807
 40
12.5900886459
100
AcDbArc
 50
358.8691203666
 51
359.0847541272
  0
ARC
  5
313
100
AcDbEntity
  8
0
100
AcDbCircle
 62
9
  6
CONTINUOUS
 10
-1.8252565005
 20
9.9300283075
 40
12.2730406199
100
AcDbArc
 50
358.7114549892
 51
358.8699450689
  0
ARC
  5
314
100
AcDbEntity
  8
0
100
AcDbCircle
 62
9
  6
CONTINUOUS
 10
-1.4621352905
 20
9.9219127127
 40
11.9098287352
100
AcDbArc
 50
358.5426912208
 51
358.7112042015
  0
ARC
  5
315
100
AcDbEntity
  8
0
100
AcDbCircle
 62
7
  6
CONTINUOUS
 10
5.7026923427
 20
7.5470469247
 40
0.09
100
AcDbArc
 50
0.0
 51
54.3146649845
  0
ARC
  5
316
100
AcDbEntity
  8
0
100
AcDbCircle
 62
7
  6
CONTINUOUS
 10
5.7726923427
 20
7.7476695021
 40
0.03
100
AcDbArc
 50
90.0
 51
180.0
  0
ARC
  5
317
100
AcDbEntity
  8
0
100
AcDbCircle
 62
7
  6
CONTINUOUS
 10
5.7726923427
 20
7.6445148681
 40
0.03
100
AcDbArc
 50
180.0
 51
234.3146661959
  0
ARC
  5
318
100
AcDbEntity
  8
0
100
AcDbCircle
 62
7
  6
CONTINUOUS
 10
6.0951923427
 20
7.9451695021
 40
0.03
100
AcDbArc
 50
90.0
 51
180.0
  0
ARC
  5
319
100
AcDbEntity
  8
0
100
AcDbCircle
 62
7
  6
CONTINUOUS
 10
6.1650806627
 20
8.0051695021
 40
0.03
100
AcDbArc
 50
270.0
 51
350.0000000013
  0
ARC
  5
31A
100
AcDbEntity
  8
0
100
AcDbCircle
 62
7
  6
CONTINUOUS
 10
8.1726923427
 20
7.5470469247
 40
0.09
100
AcDbArc
 50
125.6853350155
 51
180.0
  0
ARC
  5
31B
100
AcDbEntity
  8
0
100
AcDbCircle
 62
7
  6
CONTINUOUS
 10
9.5976923427
 20
7.5428166884
 40
0.09
100
AcDbArc
 50
0.0
 51
59.9999992572
  0
ARC
  5
31C
100
AcDbEntity
  8
0
100
AcDbCircle
 62
7
  6
CONTINUOUS
 10
8.1026923427
 20
7.7476695021
 40
0.03
100
AcDbArc
 50
0.0
 51
90.0
  0
ARC
  5
31D
100
AcDbEntity
  8
0
100
AcDbCircle
 62
7
  6
CONTINUOUS
 10
8.1026923427
 20
7.6445148681
 40
0.03
100
AcDbArc
 50
305.6853338041
 51
360.0
  0
ARC
  5
31E
100
AcDbEntity
  8
0
100
AcDbCircle
 62
7
  6
CONTINUOUS
 10
9.6576923427
 20
7.7476695021
 40
0.03
100
AcDbArc
 50
90.0
 51
180.0
  0
ARC
  5
31F
100
AcDbEntity
  8
0
100
AcDbCircle
 62
7
  6
CONTINUOUS
 10
9.6576923427
 20
7.6467397369
 40
0.03
100
AcDbArc
 50
180.0
 51
240.0000022283
  0
ARC
  5
320
100
AcDbEntity
  8
0
100
AcDbCircle
 62
7
  6
CONTINUOUS
 10
7.7801923427
 20
7.9451695021
 40
0.03
100
AcDbArc
 50
0.0
 51
90.0
  0
ARC
  5
321
100
AcDbEntity
  8
0
100
AcDbCircle
 62
7
  6
CONTINUOUS
 10
7.7103040228
 20
8.0051695021
 40
0.03
100
AcDbArc
 50
189.9999999987
 51
270.0
  0
ARC
  5
322
100
AcDbEntity
  8
0
100
AcDbCircle
 62
7
  6
CONTINUOUS
 10
6.3927300393
 20
9.6417595021
 40
0.09
100
AcDbArc
 50
350.0
 51
72.5612501748
  0
ARC
  5
323
100
AcDbEntity
  8
0
100
AcDbCircle
 62
7
  6
CONTINUOUS
 10
6.5651923427
 20
10.2491695021
 40
0.06
100
AcDbArc
 50
0.0
 51
49.0382420891
  0
ARC
  5
324
100
AcDbEntity
  8
0
100
AcDbCircle
 62
7
  6
CONTINUOUS
 10
6.4286923427
 20
9.7562440545
 40
0.03
100
AcDbArc
 50
180.0000353986
 51
252.5612637656
  0
ARC
  5
325
100
AcDbEntity
  8
0
100
AcDbCircle
 62
7
  6
CONTINUOUS
 10
6.4286923427
 20
9.8831695021
 40
0.03
100
AcDbArc
 50
90.0
 51
180.0000000002
  0
ARC
  5
326
100
AcDbEntity
  8
0
100
AcDbCircle
 62
9
  6
CONTINUOUS
 10
6.4286818568
 20
9.7614020484
 40
0.0299914215
100
AcDbArc
 50
180.0514293542
 51
266.3134830073
  0
ARC
  5
327
100
AcDbEntity
  8
0
100
AcDbCircle
 62
7
  6
CONTINUOUS
 10
5.5301923427
 20
10.4326695021
 40
0.03
100
AcDbArc
 50
180.0
 51
270.0
  0
ARC
  5
328
100
AcDbEntity
  8
0
100
AcDbCircle
 62
7
  6
CONTINUOUS
 10
5.5301923427
 20
10.8726695021
 40
0.03
100
AcDbArc
 50
90.0
 51
180.0
  0
ARC
  5
329
100
AcDbEntity
  8
0
100
AcDbCircle
 62
9
  6
CONTINUOUS
 10
6.7176923427
 20
10.4326695021
 40
0.09
100
AcDbArc
 50
180.0000002049
 51
269.999999878
  0
ARC
  5
32A
100
AcDbEntity
  8
0
100
AcDbCircle
 62
7
  6
CONTINUOUS
 10
6.5341923427
 20
10.3426695021
 40
0.06
100
AcDbArc
 50
0.0000000107
 51
90.0
  0
ARC
  5
32B
100
AcDbEntity
  8
0
100
AcDbCircle
 62
7
  6
CONTINUOUS
 10
6.7176923427
 20
10.4326695021
 40
0.03
100
AcDbArc
 50
180.0
 51
269.9999999837
  0
ARC
  5
32C
100
AcDbEntity
  8
0
100
AcDbCircle
 62
7
  6
CONTINUOUS
 10
6.6241923427
 20
10.3391695021
 40
0.03
100
AcDbArc
 50
180.0
 51
270.0
  0
ARC
  5
32D
100
AcDbEntity
  8
0
100
AcDbCircle
 62
9
  6
CONTINUOUS
 10
6.7176923427
 20
10.8726695021
 40
0.09
100
AcDbArc
 50
90.0000002049
 51
179.999999878
  0
ARC
  5
32E
100
AcDbEntity
  8
0
100
AcDbCircle
 62
7
  6
CONTINUOUS
 10
6.5341923427
 20
10.9626695021
 40
0.06
100
AcDbArc
 50
270.0
 51
359.9999999893
  0
ARC
  5
32F
100
AcDbEntity
  8
0
100
AcDbCircle
 62
7
  6
CONTINUOUS
 10
6.6241923427
 20
10.9661695021
 40
0.03
100
AcDbArc
 50
90.0
 51
180.0
  0
ARC
  5
330
100
AcDbEntity
  8
0
100
AcDbCircle
 62
7
  6
CONTINUOUS
 10
6.7176923427
 20
10.8726695021
 40
0.03
100
AcDbArc
 50
90.0
 51
179.9999999837
  0
ARC
  5
331
100
AcDbEntity
  8
0
100
AcDbCircle
 62
7
  6
CONTINUOUS
 10
7.4826546461
 20
9.6417595021
 40
0.09
100
AcDbArc
 50
107.4388507291
 51
190.0
  0
ARC
  5
332
100
AcDbEntity
  8
0
100
AcDbCircle
 62
7
  6
CONTINUOUS
 10
7.3101923427
 20
10.2491695021
 40
0.06
100
AcDbArc
 50
130.9617885269
 51
180.0
  0
ARC
  5
333
100
AcDbEntity
  8
0
100
AcDbCircle
 62
7
  6
CONTINUOUS
 10
7.4466923427
 20
9.7562440545
 40
0.03
100
AcDbArc
 50
287.4387362344
 51
359.9994160169
  0
ARC
  5
334
100
AcDbEntity
  8
0
100
AcDbCircle
 62
7
  6
CONTINUOUS
 10
7.4466923427
 20
9.8831695021
 40
0.03
100
AcDbArc
 50
0.0
 51
90.0
  0
ARC
  5
335
100
AcDbEntity
  8
0
100
AcDbCircle
 62
9
  6
CONTINUOUS
 10
7.4467025899
 20
9.7614016661
 40
0.0299915459
100
AcDbArc
 50
273.6933846328
 51
359.9490061816
  0
ARC
  5
336
100
AcDbEntity
  8
0
100
AcDbCircle
 62
9
  6
CONTINUOUS
 10
7.1576923427
 20
10.4326695021
 40
0.09
100
AcDbArc
 50
270.0000002049
 51
359.999999878
  0
ARC
  5
337
100
AcDbEntity
  8
0
100
AcDbCircle
 62
7
  6
CONTINUOUS
 10
7.3411923427
 20
10.3426695021
 40
0.06
100
AcDbArc
 50
90.0
 51
179.9999999892
  0
ARC
  5
338
100
AcDbEntity
  8
0
100
AcDbCircle
 62
7
  6
CONTINUOUS
 10
7.2511394876
 20
10.3171618145
 40
0.0300540526
100
AcDbArc
 50
311.0015249944
 51
359.9455370007
  0
ARC
  5
339
100
AcDbEntity
  8
0
100
AcDbCircle
 62
7
  6
CONTINUOUS
 10
7.2511923427
 20
10.3391695021
 40
0.03
100
AcDbArc
 50
269.9999999927
 51
360.0
  0
ARC
  5
33A
100
AcDbEntity
  8
0
100
AcDbCircle
 62
7
  6
CONTINUOUS
 10
7.1576923427
 20
10.4326695021
 40
0.03
100
AcDbArc
 50
270.0
 51
359.9999999837
  0
ARC
  5
33B
100
AcDbEntity
  8
0
100
AcDbCircle
 62
9
  6
CONTINUOUS
 10
7.1576923427
 20
10.8726695021
 40
0.09
100
AcDbArc
 50
0.0000002049
 51
89.999999878
  0
ARC
  5
33C
100
AcDbEntity
  8
0
100
AcDbCircle
 62
7
  6
CONTINUOUS
 10
7.3411923427
 20
10.9626695021
 40
0.06
100
AcDbArc
 50
180.0000000108
 51
270.0
  0
ARC
  5
33D
100
AcDbEntity
  8
0
100
AcDbCircle
 62
7
  6
CONTINUOUS
 10
7.2511923427
 20
10.9661695021
 40
0.03
100
AcDbArc
 50
0.0
 51
90.0
  0
ARC
  5
33E
100
AcDbEntity
  8
0
100
AcDbCircle
 62
7
  6
CONTINUOUS
 10
7.1576923427
 20
10.8726695021
 40
0.03
100
AcDbArc
 50
0.0
 51
89.9999999837
  0
ARC
  5
33F
100
AcDbEntity
  8
0
100
AcDbCircle
 62
7
  6
CONTINUOUS
 10
8.3451923427
 20
10.4326695021
 40
0.03
100
AcDbArc
 50
270.0
 51
360.0
  0
ARC
  5
340
100
AcDbEntity
  8
0
100
AcDbCircle
 62
7
  6
CONTINUOUS
 10
8.3451923427
 20
10.8726695021
 40
0.03
100
AcDbArc
 50
0.0
 51
90.0
  0
ARC
  5
341
100
AcDbEntity
  8
0
100
AcDbCircle
 62
9
  6
CONTINUOUS
 10
45.6928993147
 20
1.8593796831
 40
36.1614510498
100
AcDbArc
 50
167.9068834459
 51
168.1027434287
  0
ARC
  5
342
100
AcDbEntity
  8
0
100
AcDbCircle
 62
7
  6
CONTINUOUS
 10
12.2776923427
 20
7.5428166884
 40
0.09
100
AcDbArc
 50
120.0000007428
 51
180.0
  0
ARC
  5
343
100
AcDbEntity
  8
0
100
AcDbCircle
 62
7
  6
CONTINUOUS
 10
12.2176923427
 20
7.7476695021
 40
0.03
100
AcDbArc
 50
0.0
 51
90.0
  0
ARC
  5
344
100
AcDbEntity
  8
0
100
AcDbCircle
 62
7
  6
CONTINUOUS
 10
12.2176923427
 20
7.6467397369
 40
0.03
100
AcDbArc
 50
299.9999977717
 51
360.0
  0
ARC
  5
345
100
AcDbEntity
  8
0
100
AcDbCircle
 62
7
  6
CONTINUOUS
 10
9.9805806627
 20
7.9951695021
 40
0.03
100
AcDbArc
 50
289.7998007211
 51
350.0
  0
ARC
  5
346
100
AcDbEntity
  8
0
100
AcDbCircle
 62
7
  6
CONTINUOUS
 10
11.8948040228
 20
7.9951695021
 40
0.03
100
AcDbArc
 50
190.0
 51
249.848473937
  0
ARC
  5
347
100
AcDbEntity
  8
0
100
AcDbCircle
 62
7
  6
CONTINUOUS
 10
9.9456923427
 20
7.9351695021
 40
0.03
100
AcDbArc
 50
90.0
 51
180.0
  0
ARC
  5
348
100
AcDbEntity
  8
0
100
AcDbCircle
 62
7
  6
CONTINUOUS
 10
11.9296923427
 20
7.9351695021
 40
0.03
100
AcDbArc
 50
0.0
 51
90.0
  0
ARC
  5
349
100
AcDbEntity
  8
0
100
AcDbCircle
 62
7
  6
CONTINUOUS
 10
16.1726923427
 20
7.5470469247
 40
0.09
100
AcDbArc
 50
125.6853350155
 51
180.0
  0
ARC
  5
34A
100
AcDbEntity
  8
0
100
AcDbCircle
 62
7
  6
CONTINUOUS
 10
13.7026923427
 20
7.5470469247
 40
0.09
100
AcDbArc
 50
0.0
 51
54.3146649845
  0
ARC
  5
34B
100
AcDbEntity
  8
0
100
AcDbCircle
 62
7
  6
CONTINUOUS
 10
16.1026923427
 20
7.7476695021
 40
0.03
100
AcDbArc
 50
0.0
 51
90.0
  0
ARC
  5
34C
100
AcDbEntity
  8
0
100
AcDbCircle
 62
7
  6
CONTINUOUS
 10
16.1026923427
 20
7.6445148681
 40
0.03
100
AcDbArc
 50
305.6853338041
 51
360.0
  0
ARC
  5
34D
100
AcDbEntity
  8
0
100
AcDbCircle
 62
7
  6
CONTINUOUS
 10
13.7726923427
 20
7.7476695021
 40
0.03
100
AcDbArc
 50
90.0
 51
180.0
  0
ARC
  5
34E
100
AcDbEntity
  8
0
100
AcDbCircle
 62
7
  6
CONTINUOUS
 10
13.7726923427
 20
7.6445148681
 40
0.03
100
AcDbArc
 50
180.0
 51
234.3146661959
  0
ARC
  5
34F
100
AcDbEntity
  8
0
100
AcDbCircle
 62
7
  6
CONTINUOUS
 10
14.0951923427
 20
7.9451695021
 40
0.03
100
AcDbArc
 50
90.0
 51
180.0
  0
ARC
  5
350
100
AcDbEntity
  8
0
100
AcDbCircle
 62
7
  6
CONTINUOUS
 10
15.7801923427
 20
7.9451695021
 40
0.03
100
AcDbArc
 50
0.0
 51
90.0
  0
ARC
  5
351
100
AcDbEntity
  8
0
100
AcDbCircle
 62
7
  6
CONTINUOUS
 10
15.7103040228
 20
8.0051695021
 40
0.03
100
AcDbArc
 50
189.9999999987
 51
270.0
  0
ARC
  5
352
100
AcDbEntity
  8
0
100
AcDbCircle
 62
7
  6
CONTINUOUS
 10
14.1650806627
 20
8.0051695021
 40
0.03
100
AcDbArc
 50
270.0
 51
350.0000000013
  0
ARC
  5
353
100
AcDbEntity
  8
0
100
AcDbCircle
 62
9
  6
CONTINUOUS
 10
10.3813469712
 20
9.5533709939
 40
0.0609318109
100
AcDbArc
 50
305.0656415645
 51
313.6170037045
  0
ARC
  5
354
100
AcDbEntity
  8
0
100
AcDbCircle
 62
9
  6
CONTINUOUS
 10
10.4056873429
 20
9.4343146218
 40
0.0607842446
100
AcDbArc
 50
120.8039156841
 51
130.6182192989
  0
ARC
  5
355
100
AcDbEntity
  8
0
100
AcDbCircle
 62
9
  6
CONTINUOUS
 10
10.3817831724
 20
9.5531924869
 40
0.0605561011
100
AcDbArc
 50
291.1873350381
 51
294.4456685232
  0
ARC
  5
356
100
AcDbEntity
  8
0
100
AcDbCircle
 62
9
  6
CONTINUOUS
 10
10.3815664572
 20
9.5528544064
 40
0.0604328035
100
AcDbArc
 50
324.2204430682
 51
333.2560582158
  0
ARC
  5
357
100
AcDbEntity
  8
0
100
AcDbCircle
 62
9
  6
CONTINUOUS
 10
10.4054466345
 20
9.4348899545
 40
0.0602544299
100
AcDbArc
 50
160.3071247213
 51
179.9585545439
  0
ARC
  5
358
100
AcDbEntity
  8
0
100
AcDbCircle
 62
9
  6
CONTINUOUS
 10
10.3817544246
 20
9.5526942469
 40
0.0602072551
100
AcDbArc
 50
343.5754081971
 51
357.9369112339
  0
ARC
  5
359
100
AcDbEntity
  8
0
100
AcDbCircle
 62
9
  6
CONTINUOUS
 10
10.4052282969
 20
9.4348453847
 40
0.0600934057
100
AcDbArc
 50
101.1609361098
 51
120.6871361758
  0
ARC
  5
35A
100
AcDbEntity
  8
0
100
AcDbCircle
 62
7
  6
CONTINUOUS
 10
10.4051923427
 20
9.4326695021
 40
0.06
100
AcDbArc
 50
90.0
 51
180.0
  0
ARC
  5
35B
100
AcDbEntity
  8
0
100
AcDbCircle
 62
9
  6
CONTINUOUS
 10
10.3820138219
 20
9.552680353
 40
0.0599944283
100
AcDbArc
 50
294.4475439382
 51
296.4976015867
  0
ARC
  5
35C
100
AcDbEntity
  8
0
100
AcDbCircle
 62
9
  6
CONTINUOUS
 10
10.3820083541
 20
9.5526798666
 40
0.0599596497
100
AcDbArc
 50
333.2149813549
 51
343.5199793913
  0
ARC
  5
35D
100
AcDbEntity
  8
0
100
AcDbCircle
 62
9
  6
CONTINUOUS
 10
10.381978966
 20
9.5525638261
 40
0.0598991887
100
AcDbArc
 50
281.183163231
 51
291.2300453158
  0
ARC
  5
35E
100
AcDbEntity
  8
0
100
AcDbCircle
 62
9
  6
CONTINUOUS
 10
10.4051816463
 20
9.5524805936
 40
0.0598110924
100
AcDbArc
 50
258.8312601773
 51
270.0103123971
  0
ARC
  5
35F
100
AcDbEntity
  8
0
100
AcDbCircle
 62
9
  6
CONTINUOUS
 10
10.4047926013
 20
9.4350232027
 40
0.0595938235
100
AcDbArc
 50
153.7050105697
 51
160.2158456429
  0
ARC
  5
360
100
AcDbEntity
  8
0
100
AcDbCircle
 62
9
  6
CONTINUOUS
 10
10.3823421839
 20
9.5523677799
 40
0.0595189917
100
AcDbArc
 50
313.5896165993
 51
324.1638817557
  0
ARC
  5
361
100
AcDbEntity
  8
0
100
AcDbCircle
 62
9
  6
CONTINUOUS
 10
10.4047101463
 20
9.4353429378
 40
0.0593675603
100
AcDbArc
 50
130.548437271
 51
140.6220229249
  0
ARC
  5
362
100
AcDbEntity
  8
0
100
AcDbCircle
 62
9
  6
CONTINUOUS
 10
10.3825205138
 20
9.5516856363
 40
0.0588781384
100
AcDbArc
 50
296.4881989212
 51
305.0731583484
  0
ARC
  5
363
100
AcDbEntity
  8
0
100
AcDbCircle
 62
9
  6
CONTINUOUS
 10
10.504798815
 20
9.9276983985
 40
0.0603183846
100
AcDbArc
 50
177.4141090568
 51
195.7424708795
  0
ARC
  5
364
100
AcDbEntity
  8
0
100
AcDbCircle
 62
9
  6
CONTINUOUS
 10
11.4698295111
 20
9.4345305428
 40
0.0605319062
100
AcDbArc
 50
49.186727444
 51
59.1883747943
  0
ARC
  5
365
100
AcDbEntity
  8
0
100
AcDbCircle
 62
9
  6
CONTINUOUS
 10
11.4700554746
 20
9.4348049744
 40
0.0601714728
100
AcDbArc
 50
19.843693466
 51
25.7458407298
  0
ARC
  5
366
100
AcDbEntity
  8
0
100
AcDbCircle
 62
9
  6
CONTINUOUS
 10
11.4701399527
 20
9.4347946853
 40
0.0601461758
100
AcDbArc
 50
59.3134774853
 51
78.8330016492
  0
ARC
  5
367
100
AcDbEntity
  8
0
100
AcDbCircle
 62
9
  6
CONTINUOUS
 10
11.470114861
 20
9.4349174766
 40
0.0600774842
100
AcDbArc
 50
0.0165531822
 51
19.7619967969
  0
ARC
  5
368
100
AcDbEntity
  8
0
100
AcDbCircle
 62
9
  6
CONTINUOUS
 10
11.4702033581
 20
9.4348610355
 40
0.0600374674
100
AcDbArc
 50
39.4590548466
 51
49.2506057919
  0
ARC
  5
369
100
AcDbEntity
  8
0
100
AcDbCircle
 62
7
  6
CONTINUOUS
 10
11.4701923427
 20
9.4326695021
 40
0.06
100
AcDbArc
 50
0.0
 51
90.0
  0
ARC
  5
36A
100
AcDbEntity
  8
0
100
AcDbCircle
 62
9
  6
CONTINUOUS
 10
11.470203216
 20
9.5524801838
 40
0.0598106826
100
AcDbArc
 50
269.9895838381
 51
281.1686924432
  0
ARC
  5
36B
100
AcDbEntity
  8
0
100
AcDbCircle
 62
9
  6
CONTINUOUS
 10
11.4940366324
 20
9.5533697819
 40
0.0609302461
100
AcDbArc
 50
226.3793889955
 51
234.95935515
  0
ARC
  5
36C
100
AcDbEntity
  8
0
100
AcDbCircle
 62
9
  6
CONTINUOUS
 10
11.493602125
 20
9.5531940963
 40
0.0605578724
100
AcDbArc
 50
245.5853784606
 51
248.8109531989
  0
ARC
  5
36D
100
AcDbEntity
  8
0
100
AcDbCircle
 62
9
  6
CONTINUOUS
 10
11.4938174632
 20
9.5528540125
 40
0.0604320118
100
AcDbArc
 50
206.7334566564
 51
215.7908447034
  0
ARC
  5
36E
100
AcDbEntity
  8
0
100
AcDbCircle
 62
9
  6
CONTINUOUS
 10
11.4936305608
 20
9.5526942924
 40
0.0602076235
100
AcDbArc
 50
182.0626352902
 51
196.4174747336
  0
ARC
  5
36F
100
AcDbEntity
  8
0
100
AcDbCircle
 62
9
  6
CONTINUOUS
 10
11.4933724364
 20
9.5526836578
 40
0.0599981395
100
AcDbArc
 50
243.5005539538
 51
245.5836274858
  0
ARC
  5
370
100
AcDbEntity
  8
0
100
AcDbCircle
 62
9
  6
CONTINUOUS
 10
11.4933742906
 20
9.5526790573
 40
0.0599575239
100
AcDbArc
 50
196.4727248476
 51
206.7746462152
  0
ARC
  5
371
100
AcDbEntity
  8
0
100
AcDbCircle
 62
9
  6
CONTINUOUS
 10
11.4934057384
 20
9.5525640149
 40
0.0598994224
100
AcDbArc
 50
248.7682620687
 51
258.8167220504
  0
ARC
  5
372
100
AcDbEntity
  8
0
100
AcDbCircle
 62
9
  6
CONTINUOUS
 10
11.4930426781
 20
9.5523680335
 40
0.0595193542
100
AcDbArc
 50
215.8475545314
 51
226.4067865307
  0
ARC
  5
373
100
AcDbEntity
  8
0
100
AcDbCircle
 62
9
  6
CONTINUOUS
 10
11.492863659
 20
9.5516846932
 40
0.0588771173
100
AcDbArc
 50
234.9524067825
 51
243.5098935379
  0
ARC
  5
374
100
AcDbEntity
  8
0
100
AcDbCircle
 62
9
  6
CONTINUOUS
 10
11.3705861594
 20
9.9276984325
 40
0.0603180943
100
AcDbArc
 50
344.2265667291
 51
2.585871109
  0
ARC
  5
375
100
AcDbEntity
  8
0
100
AcDbCircle
 62
7
  6
CONTINUOUS
 10
10.532970128
 20
10.5576704791
 40
0.0599980409
100
AcDbArc
 50
89.9033735907
 51
179.8623517406
  0
ARC
  5
376
100
AcDbEntity
  8
0
100
AcDbCircle
 62
7
  6
CONTINUOUS
 10
11.3424158353
 20
10.5576704225
 40
0.059997477
100
AcDbArc
 50
0.1377052118
 51
90.0978465669
  0
ARC
  5
377
100
AcDbEntity
  8
0
100
AcDbCircle
 62
7
  6
CONTINUOUS
 10
11.2201923427
 20
10.9476695021
 40
0.03
100
AcDbArc
 50
270.0
 51
360.0
  0
ARC
  5
378
100
AcDbEntity
  8
0
100
AcDbCircle
 62
7
  6
CONTINUOUS
 10
11.2201923427
 20
11.1376695021
 40
0.03
100
AcDbArc
 50
0.0
 51
90.0
  0
ARC
  5
379
100
AcDbEntity
  8
0
100
AcDbCircle
 62
7
  6
CONTINUOUS
 10
10.6551923427
 20
10.9476695021
 40
0.03
100
AcDbArc
 50
180.0
 51
270.0
  0
ARC
  5
37A
100
AcDbEntity
  8
0
100
AcDbCircle
 62
7
  6
CONTINUOUS
 10
10.6551923427
 20
11.1376695021
 40
0.03
100
AcDbArc
 50
90.0
 51
180.0
  0
ARC
  5
37B
100
AcDbEntity
  8
0
100
AcDbCircle
 62
7
  6
CONTINUOUS
 10
15.4826546461
 20
9.6417595021
 40
0.09
100
AcDbArc
 50
107.4388507291
 51
190.0
  0
ARC
  5
37C
100
AcDbEntity
  8
0
100
AcDbCircle
 62
7
  6
CONTINUOUS
 10
14.3927300393
 20
9.6417595021
 40
0.09
100
AcDbArc
 50
350.0
 51
72.5612501748
  0
ARC
  5
37D
100
AcDbEntity
  8
0
100
AcDbCircle
 62
7
  6
CONTINUOUS
 10
15.3101923427
 20
10.2491695021
 40
0.06
100
AcDbArc
 50
130.9617885269
 51
180.0
  0
ARC
  5
37E
100
AcDbEntity
  8
0
100
AcDbCircle
 62
7
  6
CONTINUOUS
 10
14.5651923427
 20
10.2491695021
 40
0.06
100
AcDbArc
 50
0.0
 51
49.0382420891
  0
ARC
  5
37F
100
AcDbEntity
  8
0
100
AcDbCircle
 62
7
  6
CONTINUOUS
 10
14.4286923427
 20
9.7562440545
 40
0.03
100
AcDbArc
 50
180.0000353986
 51
252.5612637656
  0
ARC
  5
380
100
AcDbEntity
  8
0
100
AcDbCircle
 62
7
  6
CONTINUOUS
 10
15.4466923427
 20
9.7562440545
 40
0.03
100
AcDbArc
 50
287.4387362344
 51
359.9994160169
  0
ARC
  5
381
100
AcDbEntity
  8
0
100
AcDbCircle
 62
7
  6
CONTINUOUS
 10
15.4466923427
 20
9.8831695021
 40
0.03
100
AcDbArc
 50
0.0
 51
90.0
  0
ARC
  5
382
100
AcDbEntity
  8
0
100
AcDbCircle
 62
7
  6
CONTINUOUS
 10
14.4286923427
 20
9.8831695021
 40
0.03
100
AcDbArc
 50
90.0
 51
180.0000000002
  0
ARC
  5
383
100
AcDbEntity
  8
0
100
AcDbCircle
 62
9
  6
CONTINUOUS
 10
15.4467025899
 20
9.7614016661
 40
0.0299915459
100
AcDbArc
 50
273.6933846379
 51
359.9490061792
  0
ARC
  5
384
100
AcDbEntity
  8
0
100
AcDbCircle
 62
9
  6
CONTINUOUS
 10
14.4286818568
 20
9.7614020484
 40
0.0299914215
100
AcDbArc
 50
180.0514293378
 51
266.3134830323
  0
ARC
  5
385
100
AcDbEntity
  8
0
100
AcDbCircle
 62
9
  6
CONTINUOUS
 10
14.7176923427
 20
10.4326695021
 40
0.09
100
AcDbArc
 50
180.0000002049
 51
269.999999878
  0
ARC
  5
386
100
AcDbEntity
  8
0
100
AcDbCircle
 62
7
  6
CONTINUOUS
 10
14.5341923427
 20
10.3426695021
 40
0.06
100
AcDbArc
 50
0.0000000107
 51
90.0
  0
ARC
  5
387
100
AcDbEntity
  8
0
100
AcDbCircle
 62
7
  6
CONTINUOUS
 10
14.7176923427
 20
10.4326695021
 40
0.03
100
AcDbArc
 50
180.0
 51
269.9999999837
  0
ARC
  5
388
100
AcDbEntity
  8
0
100
AcDbCircle
 62
7
  6
CONTINUOUS
 10
14.6241923427
 20
10.3391695021
 40
0.03
100
AcDbArc
 50
180.0
 51
270.0
  0
ARC
  5
389
100
AcDbEntity
  8
0
100
AcDbCircle
 62
7
  6
CONTINUOUS
 10
13.5301923427
 20
10.4326695021
 40
0.03
100
AcDbArc
 50
180.0
 51
270.0
  0
ARC
  5
38A
100
AcDbEntity
  8
0
100
AcDbCircle
 62
9
  6
CONTINUOUS
 10
14.7176923427
 20
10.8726695021
 40
0.09
100
AcDbArc
 50
90.0000002049
 51
179.999999878
  0
ARC
  5
38B
100
AcDbEntity
  8
0
100
AcDbCircle
 62
7
  6
CONTINUOUS
 10
14.5341923427
 20
10.9626695021
 40
0.06
100
AcDbArc
 50
270.0
 51
359.9999999893
  0
ARC
  5
38C
100
AcDbEntity
  8
0
100
AcDbCircle
 62
7
  6
CONTINUOUS
 10
14.6241923427
 20
10.9661695021
 40
0.03
100
AcDbArc
 50
90.0
 51
180.0
  0
ARC
  5
38D
100
AcDbEntity
  8
0
100
AcDbCircle
 62
7
  6
CONTINUOUS
 10
14.7176923427
 20
10.8726695021
 40
0.03
100
AcDbArc
 50
90.0
 51
179.9999999837
  0
ARC
  5
38E
100
AcDbEntity
  8
0
100
AcDbCircle
 62
7
  6
CONTINUOUS
 10
13.5301923427
 20
10.8726695021
 40
0.03
100
AcDbArc
 50
90.0
 51
180.0
  0
ARC
  5
38F
100
AcDbEntity
  8
0
100
AcDbCircle
 62
9
  6
CONTINUOUS
 10
15.1576923427
 20
10.4326695021
 40
0.09
100
AcDbArc
 50
270.0000002049
 51
359.999999878
  0
ARC
  5
390
100
AcDbEntity
  8
0
100
AcDbCircle
 62
7
  6
CONTINUOUS
 10
15.3411923427
 20
10.3426695021
 40
0.06
100
AcDbArc
 50
90.0
 51
179.9999999892
  0
ARC
  5
391
100
AcDbEntity
  8
0
100
AcDbCircle
 62
7
  6
CONTINUOUS
 10
15.2511394875
 20
10.3171618145
 40
0.0300540526
100
AcDbArc
 50
311.0015250263
 51
359.9455369676
  0
ARC
  5
392
100
AcDbEntity
  8
0
100
AcDbCircle
 62
7
  6
CONTINUOUS
 10
16.3451923427
 20
10.4326695021
 40
0.03
100
AcDbArc
 50
270.0
 51
360.0
  0
ARC
  5
393
100
AcDbEntity
  8
0
100
AcDbCircle
 62
7
  6
CONTINUOUS
 10
15.2511923427
 20
10.3391695021
 40
0.03
100
AcDbArc
 50
269.9999999927
 51
360.0
  0
ARC
  5
394
100
AcDbEntity
  8
0
100
AcDbCircle
 62
7
  6
CONTINUOUS
 10
15.1576923427
 20
10.4326695021
 40
0.03
100
AcDbArc
 50
270.0
 51
359.9999999837
  0
ARC
  5
395
100
AcDbEntity
  8
0
100
AcDbCircle
 62
9
  6
CONTINUOUS
 10
15.1576923427
 20
10.8726695021
 40
0.09
100
AcDbArc
 50
0.0000002049
 51
89.999999878
  0
ARC
  5
396
100
AcDbEntity
  8
0
100
AcDbCircle
 62
7
  6
CONTINUOUS
 10
15.3411923427
 20
10.9626695021
 40
0.06
100
AcDbArc
 50
180.0000000108
 51
270.0
  0
ARC
  5
397
100
AcDbEntity
  8
0
100
AcDbCircle
 62
7
  6
CONTINUOUS
 10
16.3451923427
 20
10.8726695021
 40
0.03
100
AcDbArc
 50
0.0
 51
90.0
  0
ARC
  5
398
100
AcDbEntity
  8
0
100
AcDbCircle
 62
7
  6
CONTINUOUS
 10
15.2511923427
 20
10.9661695021
 40
0.03
100
AcDbArc
 50
0.0
 51
90.0
  0
ARC
  5
399
100
AcDbEntity
  8
0
100
AcDbCircle
 62
7
  6
CONTINUOUS
 10
15.1576923427
 20
10.8726695021
 40
0.03
100
AcDbArc
 50
0.0
 51
89.9999999837
  0
ARC
  5
39A
100
AcDbEntity
  8
0
100
AcDbCircle
 62
9
  6
CONTINUOUS
 10
24.3934678499
 20
9.9483196014
 40
12.9661078878
100
AcDbArc
 50
181.4733348525
 51
181.6944800028
  0
ARC
  5
39B
100
AcDbEntity
  8
0
100
AcDbCircle
 62
9
  6
CONTINUOUS
 10
23.8990779746
 20
9.9345000454
 40
12.4715266425
100
AcDbArc
 50
180.9313983961
 51
181.1660530994
  0
ARC
  5
39C
100
AcDbEntity
  8
0
100
AcDbCircle
 62
9
  6
CONTINUOUS
 10
23.882620759
 20
9.9338392842
 40
12.4550593925
100
AcDbArc
 50
181.1645547259
 51
181.2953398822
  0
ARC
  5
39D
100
AcDbEntity
  8
0
100
AcDbCircle
 62
9
  6
CONTINUOUS
 10
23.4958039615
 20
9.9251428232
 40
12.0681448533
100
AcDbArc
 50
181.2955779774
 51
181.472914008
  0
SPLINE
  5
39E
100
AcDbEntity
  8
0
100
AcDbSpline
 62
9
  6
CONTINUOUS
 70
0
 71
3
 72
18
 73
14
 74
0
 42
0.0000001
 43
0.0000001
 44
0.0000000001
 40
0.0
 40
0.0
 40
0.0
 40
0.0
 40
0.0227852494
 40
0.051715923
 40
0.0867417825
 40
0.1277399859
 40
0.1745542251
 40
0.2270108233
 40
0.3481071674
 40
0.4892001796
 40
0.6471781399
 40
0.8185965874
 40
1.0
 40
1.0
 40
1.0
 40
1.0
 10
13.7593425028
 20
7.6207249285
 30
0.0
 10
13.759618742
 20
7.6208278727
 30
0.0
 10
13.7602648441
 20
7.6210090366
 30
0.0
 10
13.7613672967
 20
7.6212213038
 30
0.0
 10
13.7627135634
 20
7.6214034192
 30
0.0
 10
13.7642959369
 20
7.6215542302
 30
0.0
 10
13.7661071078
 20
7.6216726279
 30
0.0
 10
13.7689559465
 20
7.6217916903
 30
0.0
 10
13.7730273868
 20
7.6218416266
 30
0.0
 10
13.7784633866
 20
7.6217629102
 30
0.0
 10
13.7845472707
 20
7.6215501912
 30
0.0
 10
13.7911473711
 20
7.6212066304
 30
0.0
 10
13.7957020712
 20
7.6208995252
 30
0.0
 10
13.7980425714
 20
7.6207247954
 30
0.0
  0
SPLINE
  5
39F
100
AcDbEntity
  8
0
100
AcDbSpline
 62
9
  6
CONTINUOUS
 70
0
 71
3
 72
16
 73
12
 74
0
 42
0.0000001
 43
0.0000001
 44
0.0000000001
 40
0.0
 40
0.0
 40
0.0
 40
0.0
 40
0.0443189184
 40
0.0921903982
 40
0.1981463363
 40
0.316695042
 40
0.4454497199
 40
0.581548312
 40
0.7216003178
 40
0.8621315036
 40
1.0
 40
1.0
 40
1.0
 40
1.0
 10
13.8088270082
 20
7.6204056519
 30
0.0
 10
13.8095099597
 20
7.6194169063
 30
0.0
 10
13.810870178
 20
7.6173180001
 30
0.0
 10
13.813566575
 20
7.6126691073
 30
0.0
 10
13.8168353377
 20
7.6060363813
 30
0.0
 10
13.8204374756
 20
7.5971541933
 30
0.0
 10
13.8237600466
 20
7.5872976783
 30
0.0
 10
13.8266994113
 20
7.5767148615
 30
0.0
 10
13.8292056686
 20
7.5656941597
 30
0.0
 10
13.8312238236
 20
7.5545255752
 30
0.0
 10
13.8322576137
 20
7.5470455496
 30
0.0
 10
13.8326923432
 20
7.5433326872
 30
0.0
  0
SPLINE
  5
3A0
100
AcDbEntity
  8
0
100
AcDbSpline
 62
9
  6
CONTINUOUS
 70
0
 71
3
 72
9
 73
5
 74
0
 42
0.0000001
 43
0.0000001
 44
0.0000000001
 40
0.0
 40
0.0
 40
0.0
 40
0.0
 40
0.5304098927
 40
1.0
 40
1.0
 40
1.0
 40
1.0
 10
13.7593439675
 20
7.6207241598
 30
0.0
 10
13.759004515
 20
7.6205993713
 30
0.0
 10
13.7583472718
 20
7.6204060723
 30
0.0
 10
13.757655248
 20
7.6203665078
 30
0.0
 10
13.7573374637
 20
7.6204057061
 30
0.0
  0
SPLINE
  5
3A1
100
AcDbEntity
  8
0
100
AcDbSpline
 62
9
  6
CONTINUOUS
 70
0
 71
3
 72
13
 73
9
 74
0
 42
0.0000001
 43
0.0000001
 44
0.0000000001
 40
0.0
 40
0.0
 40
0.0
 40
0.0
 40
0.1228999029
 40
0.248621424
 40
0.5028834293
 40
0.7555647299
 40
0.8794884142
 40
1.0
 40
1.0
 40
1.0
 40
1.0
 10
13.7573374637
 20
7.6204057061
 30
0.0
 10
13.7562501352
 20
7.6210514707
 30
0.0
 10
13.7541367344
 20
7.6225092569
 30
0.0
 10
13.7502740072
 20
7.62596629
 30
0.0
 10
13.7462615831
 20
7.6311977718
 30
0.0
 10
13.7438358108
 20
7.6373078959
 30
0.0
 10
13.7428608783
 20
7.6423385689
 30
0.0
 10
13.7426923431
 20
7.6448568236
 30
0.0
 10
13.7426923427
 20
7.6460968804
 30
0.0
  0
SPLINE
  5
3A2
100
AcDbEntity
  8
0
100
AcDbSpline
 62
9
  6
CONTINUOUS
 70
0
 71
3
 72
26
 73
22
 74
0
 42
0.0000001
 43
0.0000001
 44
0.0000000001
 40
0.0
 40
0.0
 40
0.0
 40
0.0
 40
0.0002804675
 40
0.0011194635
 40
0.0025133448
 40
0.0044584784
 40
0.0099880202
 40
0.0176792433
 40
0.0275034761
 40
0.0394322291
 40
0.0534371986
 40
0.0694902726
 40
0.1076291275
 40
0.1536280259
 40
0.2072694941
 40
0.2683396447
 40
0.3366283711
 40
0.4119295525
 40
0.5827623208
 40
0.7792798461
 40
1.0
 40
1.0
 40
1.0
 40
1.0
 10
13.7926923427
 20
7.5470469892
 30
0.0
 10
13.7926927154
 20
7.5470472809
 30
0.0
 10
13.7926935935
 20
7.5470441107
 30
0.0
 10
13.7926963105
 20
7.5470422607
 30
0.0
 10
13.7927003456
 20
7.547035677
 30
0.0
 10
13.7927092811
 20
7.5470241543
 30
0.0
 10
13.7927244595
 20
7.5470031904
 30
0.0
 10
13.7927477894
 20
7.5469722467
 30
0.0
 10
13.7927777557
 20
7.5469325452
 30
0.0
 10
13.7928144134
 20
7.5468846363
 30
0.0
 10
13.7928577479
 20
7.54682857
 30
0.0
 10
13.7929286246
 20
7.5467379026
 30
0.0
 10
13.7930338947
 20
7.5466055894
 30
0.0
 10
13.7931806734
 20
7.5464252618
 30
0.0
 10
13.7933542825
 20
7.546216897
 30
0.0
 10
13.793554756
 20
7.5459819819
 30
0.0
 10
13.7937821284
 20
7.5457220007
 30
0.0
 10
13.7941364014
 20
7.5453269803
 30
0.0
 10
13.7946462284
 20
7.5447808864
 30
0.0
 10
13.7953428531
 20
7.544073927
 30
0.0
 10
13.7958512468
 20
7.5435866148
 30
0.0
 10
13.7961238065
 20
7.5433327477
 30
0.0
  0
SPLINE
  5
3A3
100
AcDbEntity
  8
0
100
AcDbSpline
 62
9
  6
CONTINUOUS
 70
0
 71
3
 72
17
 73
13
 74
0
 42
0.0000001
 43
0.0000001
 44
0.0000000001
 40
0.0
 40
0.0
 40
0.0
 40
0.0
 40
0.0415220585
 40
0.0840592624
 40
0.1285827844
 40
0.1757093097
 40
0.2789503786
 40
0.3952628791
 40
0.5249723425
 40
0.6686282077
 40
0.8268986446
 40
1.0
 40
1.0
 40
1.0
 40
1.0
 10
13.7961236844
 20
7.5433315674
 30
0.0
 10
13.7965055271
 20
7.5429760365
 30
0.0
 10
13.7973443404
 20
7.5423242339
 30
0.0
 10
13.7987667072
 20
7.5415465466
 30
0.0
 10
13.8003442098
 20
7.5409397727
 30
0.0
 10
13.8027131859
 20
7.5403064284
 30
0.0
 10
13.8060441066
 20
7.5398472696
 30
0.0
 10
13.8104342719
 20
7.5397072216
 30
0.0
 10
13.8153312931
 20
7.5398848523
 30
0.0
 10
13.8207279936
 20
7.5404694146
 30
0.0
 10
13.8266057452
 20
7.5415407946
 30
0.0
 10
13.8306266922
 20
7.5426514179
 30
0.0
 10
13.8326926704
 20
7.5433315674
 30
0.0
  0
SPLINE
  5
3A4
100
AcDbEntity
  8
0
100
AcDbSpline
 62
9
  6
CONTINUOUS
 70
0
 71
3
 72
10
 73
6
 74
0
 42
0.0000001
 43
0.0000001
 44
0.0000000001
 40
0.0
 40
0.0
 40
0.0
 40
0.0
 40
0.251383889
 40
0.6272526092
 40
1.0
 40
1.0
 40
1.0
 40
1.0
 10
13.8326923682
 20
7.5433326
 30
0.0
 10
13.8343173087
 20
7.5438676997
 30
0.0
 10
13.8384026222
 20
7.5451118659
 30
0.0
 10
13.8450561841
 20
7.5465979588
 30
0.0
 10
13.8501556319
 20
7.5470468275
 30
0.0
 10
13.8526923427
 20
7.547046832
 30
0.0
  0
SPLINE
  5
3A5
100
AcDbEntity
  8
0
100
AcDbSpline
 62
9
  6
CONTINUOUS
 70
0
 71
3
 72
26
 73
22
 74
0
 42
0.0000001
 43
0.0000001
 44
0.0000000001
 40
0.0
 40
0.0
 40
0.0
 40
0.0
 40
0.2207012436
 40
0.417209919
 40
0.5880415086
 40
0.6633442418
 40
0.7316355624
 40
0.7927090644
 40
0.8463543596
 40
0.8923572823
 40
0.9305000839
 40
0.9465550175
 40
0.9605617259
 40
0.9724920635
 40
0.9823176939
 40
0.9900100943
 40
0.9955405607
 40
0.9974860517
 40
0.9988802149
 40
0.9997194135
 40
1.0
 40
1.0
 40
1.0
 40
1.0
 10
16.0792608942
 20
7.5433326
 30
0.0
 10
16.079533427
 20
7.5435864473
 30
0.0
 10
16.0800417809
 20
7.5440737297
 30
0.0
 10
16.0807383671
 20
7.5447806534
 30
0.0
 10
16.0812481852
 20
7.5453267324
 30
0.0
 10
16.0816024646
 20
7.5457217513
 30
0.0
 10
16.0818298482
 20
7.5459817379
 30
0.0
 10
16.0820303355
 20
7.5462166614
 30
0.0
 10
16.0822039605
 20
7.5464250363
 30
0.0
 10
16.0823507541
 20
7.5466053767
 30
0.0
 10
16.0824560387
 20
7.5467376979
 30
0.0
 10
16.0825269211
 20
7.5468283781
 30
0.0
 10
16.0825702688
 20
7.546884441
 30
0.0
 10
16.0826069093
 20
7.5469323844
 30
0.0
 10
16.082636941
 20
7.5469720125
 30
0.0
 10
16.0826601138
 20
7.5470031661
 30
0.0
 10
16.0826756266
 20
7.547023707
 30
0.0
 10
16.0826841114
 20
7.5470358107
 30
0.0
 10
16.0826888912
 20
7.5470414413
 30
0.0
 10
16.0826902866
 20
7.5470449859
 30
0.0
 10
16.0826925355
 20
7.5470463996
 30
0.0
 10
16.0826923427
 20
7.547046832
 30
0.0
  0
LINE
  5
3A6
100
AcDbEntity
  8
0
100
AcDbLine
 62
9
  6
CONTINUOUS
 10
16.1201923427
 20
7.6201478822
 11
16.118047273
 21
7.6204056439
  0
LINE
  5
3A7
100
AcDbEntity
  8
0
100
AcDbLine
 62
9
  6
CONTINUOUS
 10
13.7573374256
 20
7.6204057286
 11
13.7551923436
 21
7.6201478816
  0
SPLINE
  5
3A8
100
AcDbEntity
  8
0
100
AcDbSpline
 62
9
  6
CONTINUOUS
 70
0
 71
3
 72
13
 73
9
 74
0
 42
0.0000001
 43
0.0000001
 44
0.0000000001
 40
0.0
 40
0.0
 40
0.0
 40
0.0
 40
0.121830811
 40
0.2467555524
 40
0.5003230112
 40
0.7537088843
 40
0.8784285775
 40
1.0
 40
1.0
 40
1.0
 40
1.0
 10
16.118047273
 20
7.6204056439
 30
0.0
 10
16.1191251409
 20
7.6210457946
 30
0.0
 10
16.1212235412
 20
7.6224910683
 30
0.0
 10
16.1250725115
 20
7.6259237509
 30
0.0
 10
16.1290904858
 20
7.631140295
 30
0.0
 10
16.1315318995
 20
7.6372535201
 30
0.0
 10
16.1325207009
 20
7.6423084661
 30
0.0
 10
16.1326923426
 20
7.6448459013
 30
0.0
 10
16.1326923427
 20
7.6460968637
 30
0.0
  0
SPLINE
  5
3A9
100
AcDbEntity
  8
0
100
AcDbSpline
 62
9
  6
CONTINUOUS
 70
0
 71
3
 72
14
 73
10
 74
0
 42
0.0000001
 43
0.0000001
 44
0.0000000001
 40
0.0
 40
0.0
 40
0.0
 40
0.0
 40
0.2397006453
 40
0.364699863
 40
0.4918261464
 40
0.6200819823
 40
0.7483305642
 40
0.8753332609
 40
1.0
 40
1.0
 40
1.0
 40
1.0
 10
13.757337317
 20
7.62040572
 30
0.0
 10
13.7634315841
 20
7.6165512655
 30
0.0
 10
13.7719530907
 20
7.6093658761
 30
0.0
 10
13.781130252
 20
7.5977216884
 30
0.0
 10
13.7869735846
 20
7.5878389419
 30
0.0
 10
13.7914591649
 20
7.577169621
 30
0.0
 10
13.794533211
 20
7.5660159664
 30
0.0
 10
13.7961354385
 20
7.5546707519
 30
0.0
 10
13.7962788155
 20
7.5470799072
 30
0.0
 10
13.7961236999
 20
7.5433327805
 30
0.0
  0
SPLINE
  5
3AA
100
AcDbEntity
  8
0
100
AcDbSpline
 62
9
  6
CONTINUOUS
 70
0
 71
3
 72
18
 73
14
 74
0
 42
0.0000001
 43
0.0000001
 44
0.0000000001
 40
0.0
 40
0.0
 40
0.0
 40
0.0
 40
0.1814314546
 40
0.3529121171
 40
0.5109521254
 40
0.6520725742
 40
0.7731389921
 40
0.8255658484
 40
0.8723463987
 40
0.9133113965
 40
0.9483089463
 40
0.9772205432
 40
1.0
 40
1.0
 40
1.0
 40
1.0
 10
16.0773426677
 20
7.6207249285
 30
0.0
 10
16.0796834952
 20
7.6208997253
 30
0.0
 10
16.0842393018
 20
7.6212068864
 30
0.0
 10
16.0908412905
 20
7.6215503883
 30
0.0
 10
16.0969270607
 20
7.6217630084
 30
0.0
 10
16.1023637595
 20
7.6218416306
 30
0.0
 10
16.1064347283
 20
7.6217916236
 30
0.0
 10
16.1092823173
 20
7.6216724869
 30
0.0
 10
16.1110922087
 20
7.6215540537
 30
0.0
 10
16.1126733219
 20
7.6214032174
 30
0.0
 10
16.1140185149
 20
7.6212210855
 30
0.0
 10
16.1151202524
 20
7.6210088109
 30
0.0
 10
16.1157660124
 20
7.6208276803
 30
0.0
 10
16.1160421895
 20
7.6207247954
 30
0.0
  0
SPLINE
  5
3AB
100
AcDbEntity
  8
0
100
AcDbSpline
 62
9
  6
CONTINUOUS
 70
0
 71
3
 72
13
 73
9
 74
0
 42
0.0000001
 43
0.0000001
 44
0.0000000001
 40
0.0
 40
0.0
 40
0.0
 40
0.0
 40
0.2424311775
 40
0.3682079594
 40
0.4956625204
 40
0.6237575983
 40
0.7513722117
 40
1.0
 40
1.0
 40
1.0
 40
1.0
 10
16.1180471821
 20
7.6204056519
 30
0.0
 10
16.1118864161
 20
7.6165091364
 30
0.0
 10
16.103294932
 20
7.609242695
 30
0.0
 10
16.0940891517
 20
7.5974824576
 30
0.0
 10
16.0882707682
 20
7.5875588412
 30
0.0
 10
16.0838309028
 20
7.57688907
 30
0.0
 10
16.0798381217
 20
7.5622285281
 30
0.0
 10
16.0789516731
 20
7.5508021862
 30
0.0
 10
16.0792608854
 20
7.5433326872
 30
0.0
  0
SPLINE
  5
3AC
100
AcDbEntity
  8
0
100
AcDbSpline
 62
9
  6
CONTINUOUS
 70
0
 71
3
 72
14
 73
10
 74
0
 42
0.0000001
 43
0.0000001
 44
0.0000000001
 40
0.0
 40
0.0
 40
0.0
 40
0.0
 40
0.0676248677
 40
0.1422158888
 40
0.2314158417
 40
0.3397416881
 40
0.4696662612
 40
0.6225630236
 40
1.0
 40
1.0
 40
1.0
 40
1.0
 10
16.1326923427
 20
7.647185355
 30
0.0
 10
16.1326923325
 20
7.6472440588
 30
0.0
 10
16.1326664498
 20
7.6473687179
 30
0.0
 10
16.1325531506
 20
7.647538742
 30
0.0
 10
16.1323736395
 20
7.6476950153
 30
0.0
 10
16.1321288535
 20
7.6478414016
 30
0.0
 10
16.1318180373
 20
7.6479795096
 30
0.0
 10
16.1312757193
 20
7.6481664175
 30
0.0
 10
16.1308267401
 20
7.6482730616
 30
0.0
 10
16.1305058256
 20
7.6483391327
 30
0.0
  0
SPLINE
  5
3AD
100
AcDbEntity
  8
0
100
AcDbSpline
 62
9
  6
CONTINUOUS
 70
0
 71
3
 72
17
 73
13
 74
0
 42
0.0000001
 43
0.0000001
 44
0.0000000001
 40
0.0
 40
0.0
 40
0.0
 40
0.0
 40
0.0261267458
 40
0.0585112341
 40
0.0970102544
 40
0.1414350303
 40
0.2468991239
 40
0.3722798474
 40
0.5141756077
 40
0.6688433443
 40
0.8323314738
 40
1.0
 40
1.0
 40
1.0
 40
1.0
 10
16.1305058256
 20
7.6483391327
 30
0.0
 10
16.1300118414
 20
7.6484408361
 30
0.0
 10
16.1288946519
 20
7.6486147076
 30
0.0
 10
16.1270316419
 20
7.6488077015
 30
0.0
 10
16.1248105817
 20
7.6489598992
 30
0.0
 10
16.1211771982
 20
7.6491183006
 30
0.0
 10
16.115863045
 20
7.6491957382
 30
0.0
 10
16.1086676511
 20
7.6491319876
 30
0.0
 10
16.100525152
 20
7.6489089996
 30
0.0
 10
16.0916524609
 20
7.6485222895
 30
0.0
 10
16.082290622
 20
7.6479608296
 30
0.0
 10
16.0759166734
 20
7.6474673746
 30
0.0
 10
16.0726923426
 20
7.6471853943
 30
0.0
  0
SPLINE
  5
3AE
100
AcDbEntity
  8
0
100
AcDbSpline
 62
9
  6
CONTINUOUS
 70
0
 71
3
 72
9
 73
5
 74
0
 42
0.0000001
 43
0.0000001
 44
0.0000000001
 40
0.0
 40
0.0
 40
0.0
 40
0.0
 40
0.4695534772
 40
1.0
 40
1.0
 40
1.0
 40
1.0
 10
16.1180473115
 20
7.6204056668
 30
0.0
 10
16.117729497
 20
7.6203666938
 30
0.0
 10
16.1170374573
 20
7.6204059203
 30
0.0
 10
16.1163801452
 20
7.6205993497
 30
0.0
 10
16.1160406223
 20
7.6207241091
 30
0.0
  0
SPLINE
  5
3AF
100
AcDbEntity
  8
0
100
AcDbSpline
 62
9
  6
CONTINUOUS
 70
0
 71
3
 72
13
 73
9
 74
0
 42
0.0000001
 43
0.0000001
 44
0.0000000001
 40
0.0
 40
0.0
 40
0.0
 40
0.0
 40
0.121989917
 40
0.2473846805
 40
0.5017263513
 40
0.7550802419
 40
0.8793768774
 40
1.0
 40
1.0
 40
1.0
 40
1.0
 10
16.1160406223
 20
7.6207241091
 30
0.0
 10
16.1172410908
 20
7.6213115382
 30
0.0
 10
16.119592728
 20
7.622680547
 30
0.0
 10
16.1239426183
 20
7.6260581754
 30
0.0
 10
16.1285442591
 20
7.6313844432
 30
0.0
 10
16.131354304
 20
7.6378266758
 30
0.0
 10
16.1324931727
 20
7.643176786
 30
0.0
 10
16.132692343
 20
7.6458638497
 30
0.0
 10
16.1326923427
 20
7.6471853626
 30
0.0
  0
SPLINE
  5
3B0
100
AcDbEntity
  8
0
100
AcDbSpline
 62
9
  6
CONTINUOUS
 70
0
 71
3
 72
10
 73
6
 74
0
 42
0.0000001
 43
0.0000001
 44
0.0000000001
 40
0.0
 40
0.0
 40
0.0
 40
0.0
 40
0.2494820715
 40
0.6242815308
 40
1.0
 40
1.0
 40
1.0
 40
1.0
 10
16.0773424983
 20
7.6207241598
 30
0.0
 10
16.076447426
 20
7.620657853
 30
0.0
 10
16.0742060874
 20
7.6205123409
 30
0.0
 10
16.0706102902
 20
7.6203799172
 30
0.0
 10
16.0679094358
 20
7.6203776952
 30
0.0
 10
16.066558059
 20
7.6204057061
 30
0.0
  0
LINE
  5
3B1
100
AcDbEntity
  8
0
100
AcDbLine
 62
9
  6
CONTINUOUS
 10
16.0726923441
 20
7.6471853853
 11
16.0645108064
 21
7.6460968714
  0
SPLINE
  5
3B2
100
AcDbEntity
  8
0
100
AcDbSpline
 62
9
  6
CONTINUOUS
 70
0
 71
3
 72
9
 73
5
 74
0
 42
0.0000001
 43
0.0000001
 44
0.0000000001
 40
0.0
 40
0.0
 40
0.0
 40
0.0
 40
0.2489663416
 40
1.0
 40
1.0
 40
1.0
 40
1.0
 10
16.0645108061
 20
7.6460968755
 30
0.0
 10
16.0610482706
 20
7.6458212756
 30
0.0
 10
16.0471281368
 20
7.6448727185
 30
0.0
 10
16.0331704256
 20
7.644514976
 30
0.0
 10
16.0226922817
 20
7.6445148631
 30
0.0
  0
SPLINE
  5
3B3
100
AcDbEntity
  8
0
100
AcDbSpline
 62
9
  6
CONTINUOUS
 70
0
 71
3
 72
9
 73
5
 74
0
 42
0.0000001
 43
0.0000001
 44
0.0000000001
 40
0.0
 40
0.0
 40
0.0
 40
0.0
 40
0.2508227134
 40
1.0
 40
1.0
 40
1.0
 40
1.0
 10
13.8526923985
 20
7.6445148637
 30
0.0
 10
13.8491930638
 20
7.6445146812
 30
0.0
 10
13.8352422366
 20
7.6446343182
 30
0.0
 10
13.8212930516
 20
7.6452672378
 30
0.0
 10
13.8108739375
 20
7.6460968714
 30
0.0
  0
LINE
  5
3B4
100
AcDbEntity
  8
0
100
AcDbLine
 62
9
  6
CONTINUOUS
 10
13.8108739383
 20
7.6460968814
 11
13.8026923438
 21
7.6471853606
  0
SPLINE
  5
3B5
100
AcDbEntity
  8
0
100
AcDbSpline
 62
9
  6
CONTINUOUS
 70
0
 71
3
 72
9
 73
5
 74
0
 42
0.0000001
 43
0.0000001
 44
0.0000000001
 40
0.0
 40
0.0
 40
0.0
 40
0.0
 40
0.4976192294
 40
1.0
 40
1.0
 40
1.0
 40
1.0
 10
16.0226923427
 20
7.5470469892
 30
0.0
 10
16.0260771195
 20
7.5470470011
 30
0.0
 10
16.032885141
 20
7.5462463988
 30
0.0
 10
16.0394466502
 20
7.5444015683
 30
0.0
 10
16.0426923605
 20
7.5433327477
 30
0.0
  0
SPLINE
  5
3B6
100
AcDbEntity
  8
0
100
AcDbSpline
 62
9
  6
CONTINUOUS
 70
0
 71
3
 72
28
 73
24
 74
0
 42
0.0000001
 43
0.0000001
 44
0.0000000001
 40
0.0
 40
0.0
 40
0.0
 40
0.0
 40
0.1936302774
 40
0.3799770309
 40
0.4680185432
 40
0.5515543235
 40
0.6298029771
 40
0.7020004821
 40
0.7674225365
 40
0.825474043
 40
0.8755952476
 40
0.89752891
 40
0.9173259905
 40
0.9349560599
 40
0.9503942596
 40
0.9636252778
 40
0.974659336
 40
0.9835583853
 40
0.9904595013
 40
0.9932553807
 40
0.995698948
 40
0.9978980921
 40
1.0
 40
1.0
 40
1.0
 40
1.0
 10
13.8026923427
 20
7.647185355
 30
0.0
 10
13.7988012204
 20
7.6475255518
 30
0.0
 10
13.7911572088
 20
7.6481023414
 30
0.0
 10
13.7817297538
 20
7.6486196802
 30
0.0
 10
13.7745152156
 20
7.6489068149
 30
0.0
 10
13.7694778129
 20
7.649057274
 30
0.0
 10
13.7647586401
 20
7.6491482488
 30
0.0
 10
13.7604040878
 20
7.6491802511
 30
0.0
 10
13.7564568719
 20
7.6491540969
 30
0.0
 10
13.7529559025
 20
7.6490694124
 30
0.0
 10
13.7503338653
 20
7.6489459193
 30
0.0
 10
13.7484858217
 20
7.6488109455
 30
0.0
 10
13.7472935258
 20
7.6486988614
 30
0.0
 10
13.7462346195
 20
7.6485713034
 30
0.0
 10
13.7453114377
 20
7.6484281269
 30
0.0
 10
13.744526125
 20
7.6482692823
 30
0.0
 10
13.7438794767
 20
7.6480945963
 30
0.0
 10
13.7433720039
 20
7.6479042822
 30
0.0
 10
13.7430411839
 20
7.6477206187
 30
0.0
 10
13.7428560932
 20
7.6475587302
 30
0.0
 10
13.7427623994
 20
7.6474401058
 30
0.0
 10
13.7427049947
 20
7.6473150803
 30
0.0
 10
13.7426923541
 20
7.6472277945
 30
0.0
 10
13.7426923427
 20
7.6471853943
 30
0.0
  0
SPLINE
  5
3B7
100
AcDbEntity
  8
0
100
AcDbSpline
 62
9
  6
CONTINUOUS
 70
0
 71
3
 72
17
 73
13
 74
0
 42
0.0000001
 43
0.0000001
 44
0.0000000001
 40
0.0
 40
0.0
 40
0.0
 40
0.0
 40
0.1730928525
 40
0.3313542597
 40
0.4750110091
 40
0.6047249937
 40
0.7210381284
 40
0.8242800646
 40
0.8714090922
 40
0.9159359593
 40
0.9584762369
 40
1.0
 40
1.0
 40
1.0
 40
1.0
 10
16.0426920151
 20
7.5433315674
 30
0.0
 10
16.0447578912
 20
7.5426514483
 30
0.0
 10
16.0487786214
 20
7.5415408644
 30
0.0
 10
16.0546561726
 20
7.5404695451
 30
0.0
 10
16.0600528247
 20
7.5398849704
 30
0.0
 10
16.0649499168
 20
7.5397072299
 30
0.0
 10
16.0693401633
 20
7.5398471553
 30
0.0
 10
16.0726711422
 20
7.5403062883
 30
0.0
 10
16.0750401991
 20
7.54093966
 30
0.0
 10
16.076617807
 20
7.5415464727
 30
0.0
 10
16.078040271
 20
7.5423241945
 30
0.0
 10
16.0788791417
 20
7.5429760229
 30
0.0
 10
16.0792610011
 20
7.5433315674
 30
0.0
  0
SPLINE
  5
3B8
100
AcDbEntity
  8
0
100
AcDbSpline
 62
9
  6
CONTINUOUS
 70
0
 71
3
 72
13
 73
9
 74
0
 42
0.0000001
 43
0.0000001
 44
0.0000000001
 40
0.0
 40
0.0
 40
0.0
 40
0.0
 40
0.121421987
 40
0.2463901855
 40
0.5003551255
 40
0.7540903988
 40
0.8788124992
 40
1.0
 40
1.0
 40
1.0
 40
1.0
 10
13.7593439636
 20
7.6207241583
 30
0.0
 10
13.7581490897
 20
7.6213088564
 30
0.0
 10
13.755806457
 20
7.6226713348
 30
0.0
 10
13.7514651115
 20
7.6260353163
 30
0.0
 10
13.746860548
 20
7.631352607
 30
0.0
 10
13.7440410107
 20
7.637796057
 30
0.0
 10
13.7428934693
 20
7.6431597493
 30
0.0
 10
13.742692343
 20
7.6458577067
 30
0.0
 10
13.7426923427
 20
7.6471853992
 30
0.0
  0
SPLINE
  5
3B9
100
AcDbEntity
  8
0
100
AcDbSpline
 62
9
  6
CONTINUOUS
 70
0
 71
3
 72
10
 73
6
 74
0
 42
0.0000001
 43
0.0000001
 44
0.0000000001
 40
0.0
 40
0.0
 40
0.0
 40
0.0
 40
0.2505941253
 40
0.625674464
 40
1.0
 40
1.0
 40
1.0
 40
1.0
 10
13.8088277926
 20
7.6204056668
 30
0.0
 10
13.8079263392
 20
7.6203871211
 30
0.0
 10
13.8056748955
 20
7.6203732511
 30
0.0
 10
13.8020771935
 20
7.6204630896
 30
0.0
 10
13.7993851316
 20
7.6206246285
 30
0.0
 10
13.7980419776
 20
7.6207241091
 30
0.0
  0
LINE
  5
3BA
100
AcDbEntity
  8
0
100
AcDbLine
 62
9
  6
CONTINUOUS
 10
13.8526923846
 20
7.6201478822
 11
13.8088277908
 21
7.6204056439
  0
LINE
  5
3BB
100
AcDbEntity
  8
0
100
AcDbLine
 62
9
  6
CONTINUOUS
 10
16.0665580572
 20
7.6204057286
 11
16.0226925118
 21
7.6201478816
  0
SPLINE
  5
3BC
100
AcDbEntity
  8
0
100
AcDbSpline
 62
9
  6
CONTINUOUS
 70
0
 71
3
 72
15
 73
11
 74
0
 42
0.0000001
 43
0.0000001
 44
0.0000000001
 40
0.0
 40
0.0
 40
0.0
 40
0.0
 40
0.0909414767
 40
0.1957429765
 40
0.3133919566
 40
0.4416688277
 40
0.5778526673
 40
0.718587852
 40
0.8603874738
 40
1.0
 40
1.0
 40
1.0
 40
1.0
 10
16.0665571327
 20
7.62040572
 30
0.0
 10
16.0651557841
 20
7.6183768845
 30
0.0
 10
16.0623978706
 20
7.6138303397
 30
0.0
 10
16.0586267722
 20
7.6062072685
 30
0.0
 10
16.0550362969
 20
7.5973938348
 30
0.0
 10
16.0517097478
 20
7.5875762529
 30
0.0
 10
16.0487538359
 20
7.5769900605
 30
0.0
 10
16.046223148
 20
7.5659185601
 30
0.0
 10
16.0441793361
 20
7.5546530187
 30
0.0
 10
16.0431322737
 20
7.5470925023
 30
0.0
 10
16.042692059
 20
7.5433327805
 30
0.0
  0
SPLINE
  5
3BD
100
AcDbEntity
  8
0
100
AcDbSpline
 62
9
  6
CONTINUOUS
 70
0
 71
3
 72
18
 73
14
 74
0
 42
0.0000001
 43
0.0000001
 44
0.0000000001
 40
0.0
 40
0.0
 40
0.0
 40
0.0
 40
0.0227852494
 40
0.051715923
 40
0.0867417825
 40
0.1277399859
 40
0.1745542251
 40
0.2270108233
 40
0.3481071674
 40
0.4892001796
 40
0.6471781399
 40
0.8185965874
 40
1.0
 40
1.0
 40
1.0
 40
1.0
 10
5.7593425028
 20
7.6207249285
 30
0.0
 10
5.759618742
 20
7.6208278727
 30
0.0
 10
5.7602648441
 20
7.6210090366
 30
0.0
 10
5.7613672967
 20
7.6212213038
 30
0.0
 10
5.7627135634
 20
7.6214034192
 30
0.0
 10
5.7642959369
 20
7.6215542302
 30
0.0
 10
5.7661071078
 20
7.6216726279
 30
0.0
 10
5.7689559465
 20
7.6217916903
 30
0.0
 10
5.7730273868
 20
7.6218416266
 30
0.0
 10
5.7784633866
 20
7.6217629102
 30
0.0
 10
5.7845472707
 20
7.6215501912
 30
0.0
 10
5.7911473711
 20
7.6212066304
 30
0.0
 10
5.7957020712
 20
7.6208995252
 30
0.0
 10
5.7980425714
 20
7.6207247954
 30
0.0
  0
SPLINE
  5
3BE
100
AcDbEntity
  8
0
100
AcDbSpline
 62
9
  6
CONTINUOUS
 70
0
 71
3
 72
16
 73
12
 74
0
 42
0.0000001
 43
0.0000001
 44
0.0000000001
 40
0.0
 40
0.0
 40
0.0
 40
0.0
 40
0.0443189184
 40
0.0921903982
 40
0.1981463363
 40
0.316695042
 40
0.4454497199
 40
0.581548312
 40
0.7216003178
 40
0.8621315036
 40
1.0
 40
1.0
 40
1.0
 40
1.0
 10
5.8088270082
 20
7.6204056519
 30
0.0
 10
5.8095099597
 20
7.6194169063
 30
0.0
 10
5.810870178
 20
7.6173180001
 30
0.0
 10
5.813566575
 20
7.6126691073
 30
0.0
 10
5.8168353377
 20
7.6060363813
 30
0.0
 10
5.8204374756
 20
7.5971541933
 30
0.0
 10
5.8237600466
 20
7.5872976783
 30
0.0
 10
5.8266994113
 20
7.5767148615
 30
0.0
 10
5.8292056686
 20
7.5656941597
 30
0.0
 10
5.8312238236
 20
7.5545255752
 30
0.0
 10
5.8322576137
 20
7.5470455496
 30
0.0
 10
5.8326923432
 20
7.5433326872
 30
0.0
  0
SPLINE
  5
3BF
100
AcDbEntity
  8
0
100
AcDbSpline
 62
9
  6
CONTINUOUS
 70
0
 71
3
 72
9
 73
5
 74
0
 42
0.0000001
 43
0.0000001
 44
0.0000000001
 40
0.0
 40
0.0
 40
0.0
 40
0.0
 40
0.5304098927
 40
1.0
 40
1.0
 40
1.0
 40
1.0
 10
5.7593439675
 20
7.6207241598
 30
0.0
 10
5.759004515
 20
7.6205993713
 30
0.0
 10
5.7583472718
 20
7.6204060723
 30
0.0
 10
5.757655248
 20
7.6203665078
 30
0.0
 10
5.7573374637
 20
7.6204057061
 30
0.0
  0
SPLINE
  5
3C0
100
AcDbEntity
  8
0
100
AcDbSpline
 62
9
  6
CONTINUOUS
 70
0
 71
3
 72
13
 73
9
 74
0
 42
0.0000001
 43
0.0000001
 44
0.0000000001
 40
0.0
 40
0.0
 40
0.0
 40
0.0
 40
0.1228999029
 40
0.248621424
 40
0.5028834293
 40
0.7555647299
 40
0.8794884142
 40
1.0
 40
1.0
 40
1.0
 40
1.0
 10
5.7573374637
 20
7.6204057061
 30
0.0
 10
5.7562501352
 20
7.6210514707
 30
0.0
 10
5.7541367344
 20
7.6225092569
 30
0.0
 10
5.7502740072
 20
7.62596629
 30
0.0
 10
5.7462615831
 20
7.6311977718
 30
0.0
 10
5.7438358108
 20
7.6373078959
 30
0.0
 10
5.7428608783
 20
7.6423385689
 30
0.0
 10
5.7426923431
 20
7.6448568236
 30
0.0
 10
5.7426923427
 20
7.6460968804
 30
0.0
  0
SPLINE
  5
3C1
100
AcDbEntity
  8
0
100
AcDbSpline
 62
9
  6
CONTINUOUS
 70
0
 71
3
 72
26
 73
22
 74
0
 42
0.0000001
 43
0.0000001
 44
0.0000000001
 40
0.0
 40
0.0
 40
0.0
 40
0.0
 40
0.0002804675
 40
0.0011194635
 40
0.0025133448
 40
0.0044584784
 40
0.0099880202
 40
0.0176792433
 40
0.0275034761
 40
0.0394322291
 40
0.0534371986
 40
0.0694902726
 40
0.1076291275
 40
0.1536280259
 40
0.2072694941
 40
0.2683396447
 40
0.3366283711
 40
0.4119295525
 40
0.5827623208
 40
0.7792798461
 40
1.0
 40
1.0
 40
1.0
 40
1.0
 10
5.7926923427
 20
7.5470469892
 30
0.0
 10
5.7926927154
 20
7.5470472809
 30
0.0
 10
5.7926935935
 20
7.5470441107
 30
0.0
 10
5.7926963105
 20
7.5470422607
 30
0.0
 10
5.7927003456
 20
7.547035677
 30
0.0
 10
5.7927092811
 20
7.5470241543
 30
0.0
 10
5.7927244595
 20
7.5470031904
 30
0.0
 10
5.7927477894
 20
7.5469722467
 30
0.0
 10
5.7927777557
 20
7.5469325452
 30
0.0
 10
5.7928144134
 20
7.5468846363
 30
0.0
 10
5.7928577479
 20
7.54682857
 30
0.0
 10
5.7929286246
 20
7.5467379026
 30
0.0
 10
5.7930338947
 20
7.5466055894
 30
0.0
 10
5.7931806734
 20
7.5464252618
 30
0.0
 10
5.7933542825
 20
7.546216897
 30
0.0
 10
5.793554756
 20
7.5459819819
 30
0.0
 10
5.7937821284
 20
7.5457220007
 30
0.0
 10
5.7941364014
 20
7.5453269803
 30
0.0
 10
5.7946462284
 20
7.5447808864
 30
0.0
 10
5.7953428531
 20
7.544073927
 30
0.0
 10
5.7958512468
 20
7.5435866148
 30
0.0
 10
5.7961238065
 20
7.5433327477
 30
0.0
  0
SPLINE
  5
3C2
100
AcDbEntity
  8
0
100
AcDbSpline
 62
9
  6
CONTINUOUS
 70
0
 71
3
 72
17
 73
13
 74
0
 42
0.0000001
 43
0.0000001
 44
0.0000000001
 40
0.0
 40
0.0
 40
0.0
 40
0.0
 40
0.0415220585
 40
0.0840592624
 40
0.1285827844
 40
0.1757093097
 40
0.2789503786
 40
0.3952628791
 40
0.5249723425
 40
0.6686282077
 40
0.8268986446
 40
1.0
 40
1.0
 40
1.0
 40
1.0
 10
5.7961236844
 20
7.5433315674
 30
0.0
 10
5.7965055271
 20
7.5429760365
 30
0.0
 10
5.7973443404
 20
7.5423242339
 30
0.0
 10
5.7987667072
 20
7.5415465466
 30
0.0
 10
5.8003442098
 20
7.5409397727
 30
0.0
 10
5.8027131859
 20
7.5403064284
 30
0.0
 10
5.8060441066
 20
7.5398472696
 30
0.0
 10
5.8104342719
 20
7.5397072216
 30
0.0
 10
5.8153312931
 20
7.5398848523
 30
0.0
 10
5.8207279936
 20
7.5404694146
 30
0.0
 10
5.8266057452
 20
7.5415407946
 30
0.0
 10
5.8306266922
 20
7.5426514179
 30
0.0
 10
5.8326926704
 20
7.5433315674
 30
0.0
  0
SPLINE
  5
3C3
100
AcDbEntity
  8
0
100
AcDbSpline
 62
9
  6
CONTINUOUS
 70
0
 71
3
 72
10
 73
6
 74
0
 42
0.0000001
 43
0.0000001
 44
0.0000000001
 40
0.0
 40
0.0
 40
0.0
 40
0.0
 40
0.251383889
 40
0.6272526092
 40
1.0
 40
1.0
 40
1.0
 40
1.0
 10
5.8326923682
 20
7.5433326
 30
0.0
 10
5.8343173087
 20
7.5438676997
 30
0.0
 10
5.8384026222
 20
7.5451118659
 30
0.0
 10
5.8450561841
 20
7.5465979588
 30
0.0
 10
5.8501556319
 20
7.5470468275
 30
0.0
 10
5.8526923427
 20
7.547046832
 30
0.0
  0
SPLINE
  5
3C4
100
AcDbEntity
  8
0
100
AcDbSpline
 62
9
  6
CONTINUOUS
 70
0
 71
3
 72
26
 73
22
 74
0
 42
0.0000001
 43
0.0000001
 44
0.0000000001
 40
0.0
 40
0.0
 40
0.0
 40
0.0
 40
0.2207012436
 40
0.417209919
 40
0.5880415086
 40
0.6633442418
 40
0.7316355624
 40
0.7927090644
 40
0.8463543596
 40
0.8923572823
 40
0.9305000839
 40
0.9465550175
 40
0.9605617259
 40
0.9724920635
 40
0.9823176939
 40
0.9900100943
 40
0.9955405607
 40
0.9974860517
 40
0.9988802149
 40
0.9997194135
 40
1.0
 40
1.0
 40
1.0
 40
1.0
 10
8.0792608942
 20
7.5433326
 30
0.0
 10
8.079533427
 20
7.5435864473
 30
0.0
 10
8.0800417809
 20
7.5440737297
 30
0.0
 10
8.0807383671
 20
7.5447806534
 30
0.0
 10
8.0812481852
 20
7.5453267324
 30
0.0
 10
8.0816024646
 20
7.5457217513
 30
0.0
 10
8.0818298482
 20
7.5459817379
 30
0.0
 10
8.0820303355
 20
7.5462166614
 30
0.0
 10
8.0822039605
 20
7.5464250363
 30
0.0
 10
8.0823507541
 20
7.5466053767
 30
0.0
 10
8.0824560387
 20
7.5467376979
 30
0.0
 10
8.0825269211
 20
7.5468283781
 30
0.0
 10
8.0825702688
 20
7.546884441
 30
0.0
 10
8.0826069093
 20
7.5469323844
 30
0.0
 10
8.082636941
 20
7.5469720125
 30
0.0
 10
8.0826601138
 20
7.5470031661
 30
0.0
 10
8.0826756266
 20
7.547023707
 30
0.0
 10
8.0826841114
 20
7.5470358107
 30
0.0
 10
8.0826888912
 20
7.5470414413
 30
0.0
 10
8.0826902866
 20
7.5470449859
 30
0.0
 10
8.0826925355
 20
7.5470463996
 30
0.0
 10
8.0826923427
 20
7.547046832
 30
0.0
  0
LINE
  5
3C5
100
AcDbEntity
  8
0
100
AcDbLine
 62
9
  6
CONTINUOUS
 10
8.1201923427
 20
7.6201478822
 11
8.118047273
 21
7.6204056439
  0
LINE
  5
3C6
100
AcDbEntity
  8
0
100
AcDbLine
 62
9
  6
CONTINUOUS
 10
5.7573374256
 20
7.6204057286
 11
5.7551923436
 21
7.6201478816
  0
SPLINE
  5
3C7
100
AcDbEntity
  8
0
100
AcDbSpline
 62
9
  6
CONTINUOUS
 70
0
 71
3
 72
13
 73
9
 74
0
 42
0.0000001
 43
0.0000001
 44
0.0000000001
 40
0.0
 40
0.0
 40
0.0
 40
0.0
 40
0.121830811
 40
0.2467555524
 40
0.5003230112
 40
0.7537088843
 40
0.8784285775
 40
1.0
 40
1.0
 40
1.0
 40
1.0
 10
8.118047273
 20
7.6204056439
 30
0.0
 10
8.1191251409
 20
7.6210457946
 30
0.0
 10
8.1212235412
 20
7.6224910683
 30
0.0
 10
8.1250725115
 20
7.6259237509
 30
0.0
 10
8.1290904858
 20
7.631140295
 30
0.0
 10
8.1315318995
 20
7.6372535201
 30
0.0
 10
8.1325207009
 20
7.6423084661
 30
0.0
 10
8.1326923426
 20
7.6448459013
 30
0.0
 10
8.1326923427
 20
7.6460968637
 30
0.0
  0
SPLINE
  5
3C8
100
AcDbEntity
  8
0
100
AcDbSpline
 62
9
  6
CONTINUOUS
 70
0
 71
3
 72
14
 73
10
 74
0
 42
0.0000001
 43
0.0000001
 44
0.0000000001
 40
0.0
 40
0.0
 40
0.0
 40
0.0
 40
0.2397006453
 40
0.364699863
 40
0.4918261464
 40
0.6200819823
 40
0.7483305642
 40
0.8753332609
 40
1.0
 40
1.0
 40
1.0
 40
1.0
 10
5.757337317
 20
7.62040572
 30
0.0
 10
5.7634315841
 20
7.6165512655
 30
0.0
 10
5.7719530907
 20
7.6093658761
 30
0.0
 10
5.781130252
 20
7.5977216884
 30
0.0
 10
5.7869735846
 20
7.5878389419
 30
0.0
 10
5.7914591649
 20
7.577169621
 30
0.0
 10
5.794533211
 20
7.5660159664
 30
0.0
 10
5.7961354385
 20
7.5546707519
 30
0.0
 10
5.7962788155
 20
7.5470799072
 30
0.0
 10
5.7961236999
 20
7.5433327805
 30
0.0
  0
SPLINE
  5
3C9
100
AcDbEntity
  8
0
100
AcDbSpline
 62
9
  6
CONTINUOUS
 70
0
 71
3
 72
18
 73
14
 74
0
 42
0.0000001
 43
0.0000001
 44
0.0000000001
 40
0.0
 40
0.0
 40
0.0
 40
0.0
 40
0.1814314546
 40
0.3529121171
 40
0.5109521254
 40
0.6520725742
 40
0.7731389921
 40
0.8255658484
 40
0.8723463987
 40
0.9133113965
 40
0.9483089463
 40
0.9772205432
 40
1.0
 40
1.0
 40
1.0
 40
1.0
 10
8.0773426677
 20
7.6207249285
 30
0.0
 10
8.0796834952
 20
7.6208997253
 30
0.0
 10
8.0842393018
 20
7.6212068864
 30
0.0
 10
8.0908412905
 20
7.6215503883
 30
0.0
 10
8.0969270607
 20
7.6217630084
 30
0.0
 10
8.1023637595
 20
7.6218416306
 30
0.0
 10
8.1064347283
 20
7.6217916236
 30
0.0
 10
8.1092823173
 20
7.6216724869
 30
0.0
 10
8.1110922087
 20
7.6215540537
 30
0.0
 10
8.1126733219
 20
7.6214032174
 30
0.0
 10
8.1140185149
 20
7.6212210855
 30
0.0
 10
8.1151202524
 20
7.6210088109
 30
0.0
 10
8.1157660124
 20
7.6208276803
 30
0.0
 10
8.1160421895
 20
7.6207247954
 30
0.0
  0
SPLINE
  5
3CA
100
AcDbEntity
  8
0
100
AcDbSpline
 62
9
  6
CONTINUOUS
 70
0
 71
3
 72
13
 73
9
 74
0
 42
0.0000001
 43
0.0000001
 44
0.0000000001
 40
0.0
 40
0.0
 40
0.0
 40
0.0
 40
0.2424311775
 40
0.3682079594
 40
0.4956625204
 40
0.6237575983
 40
0.7513722117
 40
1.0
 40
1.0
 40
1.0
 40
1.0
 10
8.1180471821
 20
7.6204056519
 30
0.0
 10
8.1118864161
 20
7.6165091364
 30
0.0
 10
8.103294932
 20
7.609242695
 30
0.0
 10
8.0940891517
 20
7.5974824576
 30
0.0
 10
8.0882707682
 20
7.5875588412
 30
0.0
 10
8.0838309028
 20
7.57688907
 30
0.0
 10
8.0798381217
 20
7.5622285281
 30
0.0
 10
8.0789516731
 20
7.5508021862
 30
0.0
 10
8.0792608854
 20
7.5433326872
 30
0.0
  0
SPLINE
  5
3CB
100
AcDbEntity
  8
0
100
AcDbSpline
 62
9
  6
CONTINUOUS
 70
0
 71
3
 72
14
 73
10
 74
0
 42
0.0000001
 43
0.0000001
 44
0.0000000001
 40
0.0
 40
0.0
 40
0.0
 40
0.0
 40
0.0676248677
 40
0.1422158888
 40
0.2314158417
 40
0.3397416881
 40
0.4696662612
 40
0.6225630236
 40
1.0
 40
1.0
 40
1.0
 40
1.0
 10
8.1326923427
 20
7.647185355
 30
0.0
 10
8.1326923325
 20
7.6472440588
 30
0.0
 10
8.1326664498
 20
7.6473687179
 30
0.0
 10
8.1325531506
 20
7.647538742
 30
0.0
 10
8.1323736395
 20
7.6476950153
 30
0.0
 10
8.1321288535
 20
7.6478414016
 30
0.0
 10
8.1318180373
 20
7.6479795096
 30
0.0
 10
8.1312757193
 20
7.6481664175
 30
0.0
 10
8.1308267401
 20
7.6482730616
 30
0.0
 10
8.1305058256
 20
7.6483391327
 30
0.0
  0
SPLINE
  5
3CC
100
AcDbEntity
  8
0
100
AcDbSpline
 62
9
  6
CONTINUOUS
 70
0
 71
3
 72
17
 73
13
 74
0
 42
0.0000001
 43
0.0000001
 44
0.0000000001
 40
0.0
 40
0.0
 40
0.0
 40
0.0
 40
0.0261267458
 40
0.0585112341
 40
0.0970102544
 40
0.1414350303
 40
0.2468991239
 40
0.3722798474
 40
0.5141756077
 40
0.6688433443
 40
0.8323314738
 40
1.0
 40
1.0
 40
1.0
 40
1.0
 10
8.1305058256
 20
7.6483391327
 30
0.0
 10
8.1300118414
 20
7.6484408361
 30
0.0
 10
8.1288946519
 20
7.6486147076
 30
0.0
 10
8.1270316419
 20
7.6488077015
 30
0.0
 10
8.1248105817
 20
7.6489598992
 30
0.0
 10
8.1211771982
 20
7.6491183006
 30
0.0
 10
8.115863045
 20
7.6491957382
 30
0.0
 10
8.1086676511
 20
7.6491319876
 30
0.0
 10
8.100525152
 20
7.6489089996
 30
0.0
 10
8.0916524609
 20
7.6485222895
 30
0.0
 10
8.082290622
 20
7.6479608296
 30
0.0
 10
8.0759166734
 20
7.6474673746
 30
0.0
 10
8.0726923426
 20
7.6471853943
 30
0.0
  0
SPLINE
  5
3CD
100
AcDbEntity
  8
0
100
AcDbSpline
 62
9
  6
CONTINUOUS
 70
0
 71
3
 72
9
 73
5
 74
0
 42
0.0000001
 43
0.0000001
 44
0.0000000001
 40
0.0
 40
0.0
 40
0.0
 40
0.0
 40
0.4695534772
 40
1.0
 40
1.0
 40
1.0
 40
1.0
 10
8.1180473115
 20
7.6204056668
 30
0.0
 10
8.117729497
 20
7.6203666938
 30
0.0
 10
8.1170374573
 20
7.6204059203
 30
0.0
 10
8.1163801452
 20
7.6205993497
 30
0.0
 10
8.1160406223
 20
7.6207241091
 30
0.0
  0
SPLINE
  5
3CE
100
AcDbEntity
  8
0
100
AcDbSpline
 62
9
  6
CONTINUOUS
 70
0
 71
3
 72
13
 73
9
 74
0
 42
0.0000001
 43
0.0000001
 44
0.0000000001
 40
0.0
 40
0.0
 40
0.0
 40
0.0
 40
0.121989917
 40
0.2473846805
 40
0.5017263513
 40
0.7550802419
 40
0.8793768774
 40
1.0
 40
1.0
 40
1.0
 40
1.0
 10
8.1160406223
 20
7.6207241091
 30
0.0
 10
8.1172410908
 20
7.6213115382
 30
0.0
 10
8.119592728
 20
7.622680547
 30
0.0
 10
8.1239426183
 20
7.6260581754
 30
0.0
 10
8.1285442591
 20
7.6313844432
 30
0.0
 10
8.131354304
 20
7.6378266758
 30
0.0
 10
8.1324931727
 20
7.643176786
 30
0.0
 10
8.132692343
 20
7.6458638497
 30
0.0
 10
8.1326923427
 20
7.6471853626
 30
0.0
  0
SPLINE
  5
3CF
100
AcDbEntity
  8
0
100
AcDbSpline
 62
9
  6
CONTINUOUS
 70
0
 71
3
 72
10
 73
6
 74
0
 42
0.0000001
 43
0.0000001
 44
0.0000000001
 40
0.0
 40
0.0
 40
0.0
 40
0.0
 40
0.2494820715
 40
0.6242815308
 40
1.0
 40
1.0
 40
1.0
 40
1.0
 10
8.0773424983
 20
7.6207241598
 30
0.0
 10
8.076447426
 20
7.620657853
 30
0.0
 10
8.0742060874
 20
7.6205123409
 30
0.0
 10
8.0706102902
 20
7.6203799172
 30
0.0
 10
8.0679094358
 20
7.6203776952
 30
0.0
 10
8.066558059
 20
7.6204057061
 30
0.0
  0
LINE
  5
3D0
100
AcDbEntity
  8
0
100
AcDbLine
 62
9
  6
CONTINUOUS
 10
8.0726923441
 20
7.6471853853
 11
8.0645108064
 21
7.6460968714
  0
SPLINE
  5
3D1
100
AcDbEntity
  8
0
100
AcDbSpline
 62
9
  6
CONTINUOUS
 70
0
 71
3
 72
9
 73
5
 74
0
 42
0.0000001
 43
0.0000001
 44
0.0000000001
 40
0.0
 40
0.0
 40
0.0
 40
0.0
 40
0.2489663416
 40
1.0
 40
1.0
 40
1.0
 40
1.0
 10
8.0645108061
 20
7.6460968755
 30
0.0
 10
8.0610482706
 20
7.6458212756
 30
0.0
 10
8.0471281368
 20
7.6448727185
 30
0.0
 10
8.0331704256
 20
7.644514976
 30
0.0
 10
8.0226922817
 20
7.6445148631
 30
0.0
  0
SPLINE
  5
3D2
100
AcDbEntity
  8
0
100
AcDbSpline
 62
9
  6
CONTINUOUS
 70
0
 71
3
 72
9
 73
5
 74
0
 42
0.0000001
 43
0.0000001
 44
0.0000000001
 40
0.0
 40
0.0
 40
0.0
 40
0.0
 40
0.2508227134
 40
1.0
 40
1.0
 40
1.0
 40
1.0
 10
5.8526923985
 20
7.6445148637
 30
0.0
 10
5.8491930638
 20
7.6445146812
 30
0.0
 10
5.8352422366
 20
7.6446343182
 30
0.0
 10
5.8212930516
 20
7.6452672378
 30
0.0
 10
5.8108739375
 20
7.6460968714
 30
0.0
  0
LINE
  5
3D3
100
AcDbEntity
  8
0
100
AcDbLine
 62
9
  6
CONTINUOUS
 10
5.8108739383
 20
7.6460968814
 11
5.8026923438
 21
7.6471853606
  0
SPLINE
  5
3D4
100
AcDbEntity
  8
0
100
AcDbSpline
 62
9
  6
CONTINUOUS
 70
0
 71
3
 72
9
 73
5
 74
0
 42
0.0000001
 43
0.0000001
 44
0.0000000001
 40
0.0
 40
0.0
 40
0.0
 40
0.0
 40
0.4976192294
 40
1.0
 40
1.0
 40
1.0
 40
1.0
 10
8.0226923427
 20
7.5470469892
 30
0.0
 10
8.0260771195
 20
7.5470470011
 30
0.0
 10
8.032885141
 20
7.5462463988
 30
0.0
 10
8.0394466502
 20
7.5444015683
 30
0.0
 10
8.0426923605
 20
7.5433327477
 30
0.0
  0
SPLINE
  5
3D5
100
AcDbEntity
  8
0
100
AcDbSpline
 62
9
  6
CONTINUOUS
 70
0
 71
3
 72
28
 73
24
 74
0
 42
0.0000001
 43
0.0000001
 44
0.0000000001
 40
0.0
 40
0.0
 40
0.0
 40
0.0
 40
0.1936302774
 40
0.3799770309
 40
0.4680185432
 40
0.5515543235
 40
0.6298029771
 40
0.7020004821
 40
0.7674225365
 40
0.825474043
 40
0.8755952476
 40
0.89752891
 40
0.9173259905
 40
0.9349560599
 40
0.9503942596
 40
0.9636252778
 40
0.974659336
 40
0.9835583853
 40
0.9904595013
 40
0.9932553807
 40
0.995698948
 40
0.9978980921
 40
1.0
 40
1.0
 40
1.0
 40
1.0
 10
5.8026923427
 20
7.647185355
 30
0.0
 10
5.7988012204
 20
7.6475255518
 30
0.0
 10
5.7911572088
 20
7.6481023414
 30
0.0
 10
5.7817297538
 20
7.6486196802
 30
0.0
 10
5.7745152156
 20
7.6489068149
 30
0.0
 10
5.7694778129
 20
7.649057274
 30
0.0
 10
5.7647586401
 20
7.6491482488
 30
0.0
 10
5.7604040878
 20
7.6491802511
 30
0.0
 10
5.7564568719
 20
7.6491540969
 30
0.0
 10
5.7529559025
 20
7.6490694124
 30
0.0
 10
5.7503338653
 20
7.6489459193
 30
0.0
 10
5.7484858217
 20
7.6488109455
 30
0.0
 10
5.7472935258
 20
7.6486988614
 30
0.0
 10
5.7462346195
 20
7.6485713034
 30
0.0
 10
5.7453114377
 20
7.6484281269
 30
0.0
 10
5.744526125
 20
7.6482692823
 30
0.0
 10
5.7438794767
 20
7.6480945963
 30
0.0
 10
5.7433720039
 20
7.6479042822
 30
0.0
 10
5.7430411839
 20
7.6477206187
 30
0.0
 10
5.7428560932
 20
7.6475587302
 30
0.0
 10
5.7427623994
 20
7.6474401058
 30
0.0
 10
5.7427049947
 20
7.6473150803
 30
0.0
 10
5.7426923541
 20
7.6472277945
 30
0.0
 10
5.7426923427
 20
7.6471853943
 30
0.0
  0
SPLINE
  5
3D6
100
AcDbEntity
  8
0
100
AcDbSpline
 62
9
  6
CONTINUOUS
 70
0
 71
3
 72
17
 73
13
 74
0
 42
0.0000001
 43
0.0000001
 44
0.0000000001
 40
0.0
 40
0.0
 40
0.0
 40
0.0
 40
0.1730928525
 40
0.3313542597
 40
0.4750110091
 40
0.6047249937
 40
0.7210381284
 40
0.8242800646
 40
0.8714090922
 40
0.9159359593
 40
0.9584762369
 40
1.0
 40
1.0
 40
1.0
 40
1.0
 10
8.0426920151
 20
7.5433315674
 30
0.0
 10
8.0447578912
 20
7.5426514483
 30
0.0
 10
8.0487786214
 20
7.5415408644
 30
0.0
 10
8.0546561726
 20
7.5404695451
 30
0.0
 10
8.0600528247
 20
7.5398849704
 30
0.0
 10
8.0649499168
 20
7.5397072299
 30
0.0
 10
8.0693401633
 20
7.5398471553
 30
0.0
 10
8.0726711422
 20
7.5403062883
 30
0.0
 10
8.0750401991
 20
7.54093966
 30
0.0
 10
8.076617807
 20
7.5415464727
 30
0.0
 10
8.078040271
 20
7.5423241945
 30
0.0
 10
8.0788791417
 20
7.5429760229
 30
0.0
 10
8.0792610011
 20
7.5433315674
 30
0.0
  0
SPLINE
  5
3D7
100
AcDbEntity
  8
0
100
AcDbSpline
 62
9
  6
CONTINUOUS
 70
0
 71
3
 72
13
 73
9
 74
0
 42
0.0000001
 43
0.0000001
 44
0.0000000001
 40
0.0
 40
0.0
 40
0.0
 40
0.0
 40
0.121421987
 40
0.2463901855
 40
0.5003551255
 40
0.7540903988
 40
0.8788124992
 40
1.0
 40
1.0
 40
1.0
 40
1.0
 10
5.7593439636
 20
7.6207241583
 30
0.0
 10
5.7581490897
 20
7.6213088564
 30
0.0
 10
5.755806457
 20
7.6226713348
 30
0.0
 10
5.7514651115
 20
7.6260353163
 30
0.0
 10
5.746860548
 20
7.631352607
 30
0.0
 10
5.7440410107
 20
7.637796057
 30
0.0
 10
5.7428934693
 20
7.6431597493
 30
0.0
 10
5.742692343
 20
7.6458577067
 30
0.0
 10
5.7426923427
 20
7.6471853992
 30
0.0
  0
SPLINE
  5
3D8
100
AcDbEntity
  8
0
100
AcDbSpline
 62
9
  6
CONTINUOUS
 70
0
 71
3
 72
10
 73
6
 74
0
 42
0.0000001
 43
0.0000001
 44
0.0000000001
 40
0.0
 40
0.0
 40
0.0
 40
0.0
 40
0.2505941253
 40
0.625674464
 40
1.0
 40
1.0
 40
1.0
 40
1.0
 10
5.8088277926
 20
7.6204056668
 30
0.0
 10
5.8079263392
 20
7.6203871211
 30
0.0
 10
5.8056748955
 20
7.6203732511
 30
0.0
 10
5.8020771935
 20
7.6204630896
 30
0.0
 10
5.7993851316
 20
7.6206246285
 30
0.0
 10
5.7980419776
 20
7.6207241091
 30
0.0
  0
LINE
  5
3D9
100
AcDbEntity
  8
0
100
AcDbLine
 62
9
  6
CONTINUOUS
 10
5.8526923846
 20
7.6201478822
 11
5.8088277908
 21
7.6204056439
  0
LINE
  5
3DA
100
AcDbEntity
  8
0
100
AcDbLine
 62
9
  6
CONTINUOUS
 10
8.0665580572
 20
7.6204057286
 11
8.0226925118
 21
7.6201478816
  0
SPLINE
  5
3DB
100
AcDbEntity
  8
0
100
AcDbSpline
 62
9
  6
CONTINUOUS
 70
0
 71
3
 72
15
 73
11
 74
0
 42
0.0000001
 43
0.0000001
 44
0.0000000001
 40
0.0
 40
0.0
 40
0.0
 40
0.0
 40
0.0909414767
 40
0.1957429765
 40
0.3133919566
 40
0.4416688277
 40
0.5778526673
 40
0.718587852
 40
0.8603874738
 40
1.0
 40
1.0
 40
1.0
 40
1.0
 10
8.0665571327
 20
7.62040572
 30
0.0
 10
8.0651557841
 20
7.6183768845
 30
0.0
 10
8.0623978706
 20
7.6138303397
 30
0.0
 10
8.0586267722
 20
7.6062072685
 30
0.0
 10
8.0550362969
 20
7.5973938348
 30
0.0
 10
8.0517097478
 20
7.5875762529
 30
0.0
 10
8.0487538359
 20
7.5769900605
 30
0.0
 10
8.046223148
 20
7.5659185601
 30
0.0
 10
8.0441793361
 20
7.5546530187
 30
0.0
 10
8.0431322737
 20
7.5470925023
 30
0.0
 10
8.042692059
 20
7.5433327805
 30
0.0
  0
SPLINE
  5
3DC
100
AcDbEntity
  8
0
100
AcDbSpline
 62
9
  6
CONTINUOUS
 70
0
 71
3
 72
9
 73
5
 74
0
 42
0.0000001
 43
0.0000001
 44
0.0000000001
 40
0.0
 40
0.0
 40
0.0
 40
0.0
 40
0.4975765695
 40
1.0
 40
1.0
 40
1.0
 40
1.0
 10
12.1764417504
 20
7.6490154944
 30
0.0
 10
12.1683870624
 20
7.6481888627
 30
0.0
 10
12.1521430835
 20
7.6470538402
 30
0.0
 10
12.1358679391
 20
7.6467395914
 30
0.0
 10
12.1276920724
 20
7.6467397313
 30
0.0
  0
SPLINE
  5
3DD
100
AcDbEntity
  8
0
100
AcDbSpline
 62
9
  6
CONTINUOUS
 70
0
 71
3
 72
9
 73
5
 74
0
 42
0.0000001
 43
0.0000001
 44
0.0000000001
 40
0.0
 40
0.0
 40
0.0
 40
0.0
 40
0.502260384
 40
1.0
 40
1.0
 40
1.0
 40
1.0
 10
9.7476924571
 20
7.6467397697
 30
0.0
 10
9.7395192348
 20
7.6467395436
 30
0.0
 10
9.7232440717
 20
7.6470538673
 30
0.0
 10
9.7070000796
 20
7.6481888519
 30
0.0
 10
9.698942723
 20
7.6490155548
 30
0.0
  0
LINE
  5
3DE
100
AcDbEntity
  8
0
100
AcDbLine
 62
9
  6
CONTINUOUS
 10
9.6989427206
 20
7.6490155316
 11
9.6876923445
 21
7.6506339515
  0
SPLINE
  5
3DF
100
AcDbEntity
  8
0
100
AcDbSpline
 62
9
  6
CONTINUOUS
 70
0
 71
3
 72
14
 73
10
 74
0
 42
0.0000001
 43
0.0000001
 44
0.0000000001
 40
0.0
 40
0.0
 40
0.0
 40
0.0
 40
0.066007917
 40
0.139432187
 40
0.2280324031
 40
0.336272677
 40
0.4665468491
 40
0.6201653423
 40
1.0
 40
1.0
 40
1.0
 40
1.0
 10
12.2476923427
 20
7.6506339421
 30
0.0
 10
12.247692335
 20
7.6506909879
 30
0.0
 10
12.2476660369
 20
7.6508126893
 30
0.0
 10
12.2475518848
 20
7.6509775552
 30
0.0
 10
12.2473717007
 20
7.651128862
 30
0.0
 10
12.2471260538
 20
7.6512706507
 30
0.0
 10
12.2468141035
 20
7.651404449
 30
0.0
 10
12.2462693904
 20
7.6515856259
 30
0.0
 10
12.2458189871
 20
7.6516887696
 30
0.0
 10
12.2454970052
 20
7.6517526782
 30
0.0
  0
SPLINE
  5
3E0
100
AcDbEntity
  8
0
100
AcDbSpline
 62
9
  6
CONTINUOUS
 70
0
 71
3
 72
17
 73
13
 74
0
 42
0.0000001
 43
0.0000001
 44
0.0000000001
 40
0.0
 40
0.0
 40
0.0
 40
0.0
 40
0.0261416234
 40
0.0585461646
 40
0.0970660708
 40
0.141509945
 40
0.2470010103
 40
0.3723901443
 40
0.5142755952
 40
0.6689165067
 40
0.8323683686
 40
1.0
 40
1.0
 40
1.0
 40
1.0
 10
12.2454970052
 20
7.6517526782
 30
0.0
 10
12.24500216
 20
7.6518508976
 30
0.0
 10
12.243883728
 20
7.6520186281
 30
0.0
 10
12.2420194451
 20
7.6522046206
 30
0.0
 10
12.2397974625
 20
7.652351178
 30
0.0
 10
12.2361635157
 20
7.6525036822
 30
0.0
 10
12.2308497466
 20
7.6525781547
 30
0.0
 10
12.2236557834
 20
7.6525164679
 30
0.0
 10
12.2155158216
 20
7.6523011503
 30
0.0
 10
12.2066463583
 20
7.6519277191
 30
0.0
 10
12.1972878756
 20
7.6513847146
 30
0.0
 10
12.1909158687
 20
7.6509070026
 30
0.0
 10
12.1876923427
 20
7.6506339767
 30
0.0
  0
SPLINE
  5
3E1
100
AcDbEntity
  8
0
100
AcDbSpline
 62
9
  6
CONTINUOUS
 70
0
 71
3
 72
16
 73
12
 74
0
 42
0.0000001
 43
0.0000001
 44
0.0000000001
 40
0.0
 40
0.0
 40
0.0
 40
0.0
 40
0.1693128717
 40
0.3237140902
 40
0.4641973819
 40
0.5922940612
 40
0.7093733632
 40
0.8159559794
 40
0.8654909511
 40
0.9125484846
 40
1.0
 40
1.0
 40
1.0
 40
1.0
 10
12.1516922786
 20
7.5393824282
 30
0.0
 10
12.1534177322
 20
7.5390098093
 30
0.0
 10
12.156752066
 20
7.5384531889
 30
0.0
 10
12.1615754491
 20
7.5380270414
 30
0.0
 10
12.1659825527
 20
7.5378406013
 30
0.0
 10
12.1700035764
 20
7.5378065242
 30
0.0
 10
12.1736711007
 20
7.5378326915
 30
0.0
 10
12.1765176461
 20
7.537975411
 30
0.0
 10
12.1786239787
 20
7.5382141622
 30
0.0
 10
12.1805125756
 20
7.5385496699
 30
0.0
 10
12.1818660834
 20
7.5389780895
 30
0.0
 10
12.1826832791
 20
7.5393824282
 30
0.0
  0
SPLINE
  5
3E2
100
AcDbEntity
  8
0
100
AcDbSpline
 62
9
  6
CONTINUOUS
 70
0
 71
3
 72
9
 73
5
 74
0
 42
0.0000001
 43
0.0000001
 44
0.0000000001
 40
0.0
 40
0.0
 40
0.0
 40
0.0
 40
0.502361269
 40
1.0
 40
1.0
 40
1.0
 40
1.0
 10
12.1276923427
 20
7.5428166033
 30
0.0
 10
12.1317588276
 20
7.5428166003
 30
0.0
 10
12.139862895
 20
7.5420465231
 30
0.0
 10
12.1477548735
 20
7.5402331748
 30
0.0
 10
12.1516923277
 20
7.5393826988
 30
0.0
  0
SPLINE
  5
3E3
100
AcDbEntity
  8
0
100
AcDbSpline
 62
9
  6
CONTINUOUS
 70
0
 71
3
 72
26
 73
22
 74
0
 42
0.0000001
 43
0.0000001
 44
0.0000000001
 40
0.0
 40
0.0
 40
0.0
 40
0.0
 40
0.2204383022
 40
0.4175625315
 40
0.5895445265
 40
0.6653961722
 40
0.734048618
 40
0.7951864393
 40
0.848637534
 40
0.8942645276
 40
0.9319266676
 40
0.9477260953
 40
0.9614800463
 40
0.9731700272
 40
0.9827773547
 40
0.9902831588
 40
0.9956683858
 40
0.9975597808
 40
0.9989138045
 40
0.9997280251
 40
1.0
 40
1.0
 40
1.0
 40
1.0
 10
12.1826832337
 20
7.5393830012
 30
0.0
 10
12.1830843424
 20
7.5395815093
 30
0.0
 10
12.1838317712
 20
7.5399831492
 30
0.0
 10
12.1848493112
 20
7.5406145729
 30
0.0
 10
12.1855908759
 20
7.54113112
 30
0.0
 10
12.1861060024
 20
7.5415152273
 30
0.0
 10
12.1864364712
 20
7.5417703957
 30
0.0
 10
12.1867282144
 20
7.5420012473
 30
0.0
 10
12.1869809635
 20
7.542206009
 30
0.0
 10
12.1871946864
 20
7.5423831963
 30
0.0
 10
12.1873481312
 20
7.5425133032
 30
0.0
 10
12.1874514504
 20
7.5426024482
 30
0.0
 10
12.1875145493
 20
7.5426575027
 30
0.0
 10
12.1875679245
 20
7.54270454
 30
0.0
 10
12.1876115784
 20
7.5427435294
 30
0.0
 10
12.1876455228
 20
7.5427738875
 30
0.0
 10
12.1876677136
 20
7.5427945235
 30
0.0
 10
12.1876806351
 20
7.5428057782
 30
0.0
 10
12.1876866772
 20
7.5428123416
 30
0.0
 10
12.187690342
 20
7.5428139801
 30
0.0
 10
12.1876919253
 20
7.5428172751
 30
0.0
 10
12.1876923427
 20
7.5428169137
 30
0.0
  0
SPLINE
  5
3E4
100
AcDbEntity
  8
0
100
AcDbSpline
 62
9
  6
CONTINUOUS
 70
0
 71
3
 72
16
 73
12
 74
0
 42
0.0000001
 43
0.0000001
 44
0.0000000001
 40
0.0
 40
0.0
 40
0.0
 40
0.0
 40
0.0874433482
 40
0.1344948294
 40
0.1840253221
 40
0.2906068776
 40
0.4076857693
 40
0.5357745952
 40
0.6762563029
 40
0.8306736853
 40
1.0
 40
1.0
 40
1.0
 40
1.0
 10
9.6927014064
 20
7.5393824282
 30
0.0
 10
9.6935185241
 20
7.5389781242
 30
0.0
 10
9.6948718816
 20
7.5385497247
 30
0.0
 10
9.6967602915
 20
7.5382142737
 30
0.0
 10
9.6988665057
 20
7.5379755608
 30
0.0
 10
9.7017129851
 20
7.5378328093
 30
0.0
 10
9.7053804105
 20
7.5378065177
 30
0.0
 10
9.7094013324
 20
7.5378404773
 30
0.0
 10
9.713808508
 20
7.538026897
 30
0.0
 10
9.718632176
 20
7.5384531296
 30
0.0
 10
9.721966816
 20
7.5390097825
 30
0.0
 10
9.7236924069
 20
7.5393824282
 30
0.0
  0
SPLINE
  5
3E5
100
AcDbEntity
  8
0
100
AcDbSpline
 62
9
  6
CONTINUOUS
 70
0
 71
3
 72
26
 73
22
 74
0
 42
0.0000001
 43
0.0000001
 44
0.0000000001
 40
0.0
 40
0.0
 40
0.0
 40
0.0
 40
0.0002719773
 40
0.0010862393
 40
0.002440341
 40
0.0043318481
 40
0.0097173935
 40
0.0172236316
 40
0.0268314998
 40
0.0385221236
 40
0.0522768195
 40
0.0680770987
 40
0.1057412976
 40
0.1513709433
 40
0.2048254877
 40
0.2659678405
 40
0.3346260283
 40
0.4104838135
 40
0.582474666
 40
0.7795940738
 40
1.0
 40
1.0
 40
1.0
 40
1.0
 10
9.6876923427
 20
7.5428166033
 30
0.0
 10
9.6876921235
 20
7.5428160966
 30
0.0
 10
9.6876952494
 20
7.5428149066
 30
0.0
 10
9.6876974209
 20
7.5428112316
 30
0.0
 10
9.687704298
 20
7.5428058083
 30
0.0
 10
9.6877166982
 20
7.542793844
 30
0.0
 10
9.6877392491
 20
7.542773701
 30
0.0
 10
9.6877729884
 20
7.5427430646
 30
0.0
 10
9.6878166853
 20
7.542704135
 30
0.0
 10
9.6878700058
 20
7.5426570231
 30
0.0
 10
9.6879330829
 20
7.5426019375
 30
0.0
 10
9.6880363555
 20
7.5425127248
 30
0.0
 10
9.6881897546
 20
7.5423825444
 30
0.0
 10
9.6884034363
 20
7.5422052779
 30
0.0
 10
9.6886561694
 20
7.5420004578
 30
0.0
 10
9.6889479291
 20
7.5417695772
 30
0.0
 10
9.6892784533
 20
7.5415144205
 30
0.0
 10
9.6897936861
 20
7.5411303767
 30
0.0
 10
9.690535389
 20
7.5406139794
 30
0.0
 10
9.6915529925
 20
7.5399827537
 30
0.0
 10
9.6923003785
 20
7.5395811865
 30
0.0
 10
9.6927014278
 20
7.5393826988
 30
0.0
  0
LINE
  5
3E6
100
AcDbEntity
  8
0
100
AcDbLine
 62
9
  6
CONTINUOUS
 10
9.6458235138
 20
7.621607255
 11
9.6426923479
 21
7.6207589718
  0
SPLINE
  5
3E7
100
AcDbEntity
  8
0
100
AcDbSpline
 62
9
  6
CONTINUOUS
 70
0
 71
3
 72
9
 73
5
 74
0
 42
0.0000001
 43
0.0000001
 44
0.0000000001
 40
0.0
 40
0.0
 40
0.0
 40
0.0
 40
0.5201571009
 40
1.0
 40
1.0
 40
1.0
 40
1.0
 10
9.648336063
 20
7.6225347459
 30
0.0
 10
9.647929057
 20
7.6223068745
 30
0.0
 10
9.6471230816
 20
7.621909309
 30
0.0
 10
9.6462507018
 20
7.6216590524
 30
0.0
 10
9.6458235296
 20
7.6216072483
 30
0.0
  0
SPLINE
  5
3E8
100
AcDbEntity
  8
0
100
AcDbSpline
 62
9
  6
CONTINUOUS
 70
0
 71
3
 72
13
 73
9
 74
0
 42
0.0000001
 43
0.0000001
 44
0.0000000001
 40
0.0
 40
0.0
 40
0.0
 40
0.0
 40
0.247308674
 40
0.3752643273
 40
0.5040629025
 40
0.6322920208
 40
0.7586231551
 40
1.0
 40
1.0
 40
1.0
 40
1.0
 10
9.6458235296
 20
7.6216072483
 30
0.0
 10
9.6431921924
 20
7.6227348309
 30
0.0
 10
9.6394160047
 20
7.6250377609
 30
0.0
 10
9.6352066373
 20
7.6290998334
 30
0.0
 10
9.6324739597
 20
7.6326425549
 30
0.0
 10
9.630321732
 20
7.6365434613
 30
0.0
 10
9.6283022785
 20
7.6419327803
 30
0.0
 10
9.6276923434
 20
7.6462214077
 30
0.0
 10
9.6276923427
 20
7.6490154999
 30
0.0
  0
SPLINE
  5
3E9
100
AcDbEntity
  8
0
100
AcDbSpline
 62
9
  6
CONTINUOUS
 70
0
 71
3
 72
13
 73
9
 74
0
 42
0.0000001
 43
0.0000001
 44
0.0000000001
 40
0.0
 40
0.0
 40
0.0
 40
0.0
 40
0.244199758
 40
0.3719146838
 40
0.5010639986
 40
0.630044687
 40
0.7572852453
 40
1.0
 40
1.0
 40
1.0
 40
1.0
 10
9.6483360598
 20
7.6225347464
 30
0.0
 10
9.6454560814
 20
7.6234666803
 30
0.0
 10
9.6412474819
 20
7.6255662169
 30
0.0
 10
9.6364681651
 20
7.6295615817
 30
0.0
 10
9.6333074856
 20
7.6331806966
 30
0.0
 10
9.6307926716
 20
7.637268472
 30
0.0
 10
9.6284152915
 20
7.6429980548
 30
0.0
 10
9.6276923428
 20
7.6476253772
 30
0.0
 10
9.6276923427
 20
7.6506339775
 30
0.0
  0
SPLINE
  5
3EA
100
AcDbEntity
  8
0
100
AcDbSpline
 62
9
  6
CONTINUOUS
 70
0
 71
3
 72
9
 73
5
 74
0
 42
0.0000001
 43
0.0000001
 44
0.0000000001
 40
0.0
 40
0.0
 40
0.0
 40
0.0
 40
0.2501389504
 40
1.0
 40
1.0
 40
1.0
 40
1.0
 10
9.6961301755
 20
7.6216072699
 30
0.0
 10
9.6950250114
 20
7.6216318212
 30
0.0
 10
9.6906082454
 20
7.6217979759
 30
0.0
 10
9.6862024668
 20
7.6221836949
 30
0.0
 10
9.682907254
 20
7.6225346953
 30
0.0
  0
SPLINE
  5
3EB
100
AcDbEntity
  8
0
100
AcDbSpline
 62
9
  6
CONTINUOUS
 70
0
 71
3
 72
13
 73
9
 74
0
 42
0.0000001
 43
0.0000001
 44
0.0000000001
 40
0.0
 40
0.0
 40
0.0
 40
0.0
 40
0.2505944997
 40
0.3758371986
 40
0.5010015438
 40
0.6260471853
 40
0.7509317938
 40
1.0
 40
1.0
 40
1.0
 40
1.0
 10
9.7476924291
 20
7.6207589756
 30
0.0
 10
9.7433844982
 20
7.6207722862
 30
0.0
 10
9.7369234943
 20
7.620781482
 30
0.0
 10
9.7283109915
 20
7.6208418623
 30
0.0
 10
9.7218570533
 20
7.6209191842
 30
0.0
 10
9.7154096895
 20
7.6210267678
 30
0.0
 10
9.7068333946
 20
7.6212070809
 30
0.0
 10
9.7004073536
 20
7.6214102762
 30
0.0
 10
9.6961301738
 20
7.6216072532
 30
0.0
  0
SPLINE
  5
3EC
100
AcDbEntity
  8
0
100
AcDbSpline
 62
9
  6
CONTINUOUS
 70
0
 71
3
 72
11
 73
7
 74
0
 42
0.0000001
 43
0.0000001
 44
0.0000000001
 40
0.0
 40
0.0
 40
0.0
 40
0.0
 40
0.2490652008
 40
0.4989894716
 40
0.7494007932
 40
1.0
 40
1.0
 40
1.0
 40
1.0
 10
12.1792558237
 20
7.621607255
 30
0.0
 10
12.1749786413
 20
7.6214096868
 30
0.0
 10
12.1664038102
 20
7.621139912
 30
0.0
 10
12.153522648
 20
7.620911829
 30
0.0
 10
12.1406137288
 20
7.6207772154
 30
0.0
 10
12.1320006446
 20
7.6207497599
 30
0.0
 10
12.1276925401
 20
7.6207589718
 30
0.0
  0
SPLINE
  5
3ED
100
AcDbEntity
  8
0
100
AcDbSpline
 62
9
  6
CONTINUOUS
 70
0
 71
3
 72
9
 73
5
 74
0
 42
0.0000001
 43
0.0000001
 44
0.0000000001
 40
0.0
 40
0.0
 40
0.0
 40
0.0
 40
0.749859938
 40
1.0
 40
1.0
 40
1.0
 40
1.0
 10
12.1924770321
 20
7.6225347459
 30
0.0
 10
12.1891823374
 20
7.6221829536
 30
0.0
 10
12.184777039
 20
7.6217977984
 30
0.0
 10
12.180360845
 20
7.6216320721
 30
0.0
 10
12.1792558244
 20
7.6216072483
 30
0.0
  0
SPLINE
  5
3EE
100
AcDbEntity
  8
0
100
AcDbSpline
 62
9
  6
CONTINUOUS
 70
0
 71
3
 72
10
 73
6
 74
0
 42
0.0000001
 43
0.0000001
 44
0.0000000001
 40
0.0
 40
0.0
 40
0.0
 40
0.0
 40
0.2345994435
 40
0.4802667338
 40
1.0
 40
1.0
 40
1.0
 40
1.0
 10
12.2295615175
 20
7.6216072699
 30
0.0
 10
12.229352402
 20
7.6216322753
 30
0.0
 10
12.2289283502
 20
7.6217191005
 30
0.0
 10
12.2280746736
 20
7.6220009636
 30
0.0
 10
12.2274561307
 20
7.6223079248
 30
0.0
 10
12.2270483703
 20
7.6225346953
 30
0.0
  0
SPLINE
  5
3EF
100
AcDbEntity
  8
0
100
AcDbSpline
 62
9
  6
CONTINUOUS
 70
0
 71
3
 72
13
 73
9
 74
0
 42
0.0000001
 43
0.0000001
 44
0.0000000001
 40
0.0
 40
0.0
 40
0.0
 40
0.0
 40
0.2448055207
 40
0.3726851972
 40
0.5018916543
 40
0.6308125535
 40
0.7578871089
 40
1.0
 40
1.0
 40
1.0
 40
1.0
 10
12.2270483703
 20
7.6225346953
 30
0.0
 10
12.2299355199
 20
7.6234689192
 30
0.0
 10
12.2341525353
 20
7.625574567
 30
0.0
 10
12.2389363213
 20
7.629580744
 30
0.0
 10
12.2420947593
 20
7.6332045647
 30
0.0
 10
12.2446043816
 20
7.6372930771
 30
0.0
 10
12.2469727435
 20
7.6430152645
 30
0.0
 10
12.2476923437
 20
7.6476327971
 30
0.0
 10
12.2476923427
 20
7.6506339558
 30
0.0
  0
LINE
  5
3F0
100
AcDbEntity
  8
0
100
AcDbLine
 62
9
  6
CONTINUOUS
 10
12.2326923441
 20
7.6207589756
 11
12.2295614784
 21
7.6216072532
  0
SPLINE
  5
3F1
100
AcDbEntity
  8
0
100
AcDbSpline
 62
9
  6
CONTINUOUS
 70
0
 71
3
 72
13
 73
9
 74
0
 42
0.0000001
 43
0.0000001
 44
0.0000000001
 40
0.0
 40
0.0
 40
0.0
 40
0.0
 40
0.2447834957
 40
0.3720633135
 40
0.5006314703
 40
0.629106823
 40
0.7561225741
 40
1.0
 40
1.0
 40
1.0
 40
1.0
 10
12.2295614784
 20
7.6216072532
 30
0.0
 10
12.2321659188
 20
7.6227233511
 30
0.0
 10
12.235911769
 20
7.6250003337
 30
0.0
 10
12.2401059816
 20
7.6290205065
 30
0.0
 10
12.2428475308
 20
7.6325465309
 30
0.0
 10
12.2450187475
 20
7.6364462768
 30
0.0
 10
12.247070568
 20
7.6418660409
 30
0.0
 10
12.2476923458
 20
7.6461925108
 30
0.0
 10
12.2476923427
 20
7.6490155335
 30
0.0
  0
SPLINE
  5
3F2
100
AcDbEntity
  8
0
100
AcDbSpline
 62
9
  6
CONTINUOUS
 70
0
 71
3
 72
9
 73
5
 74
0
 42
0.0000001
 43
0.0000001
 44
0.0000000001
 40
0.0
 40
0.0
 40
0.0
 40
0.0
 40
0.4976082381
 40
1.0
 40
1.0
 40
1.0
 40
1.0
 10
9.7236923029
 20
7.5393830012
 30
0.0
 10
9.72762954
 20
7.5402334124
 30
0.0
 10
9.7355213374
 20
7.5420480192
 30
0.0
 10
9.74362559
 20
7.5428169277
 30
0.0
 10
9.7476923427
 20
7.5428169137
 30
0.0
  0
SPLINE
  5
3F3
100
AcDbEntity
  8
0
100
AcDbSpline
 62
9
  6
CONTINUOUS
 70
0
 71
3
 72
27
 73
23
 74
0
 42
0.0000001
 43
0.0000001
 44
0.0000000001
 40
0.0
 40
0.0
 40
0.0
 40
0.0
 40
0.1937035644
 40
0.3801171377
 40
0.4681883868
 40
0.5517534439
 40
0.6300310307
 40
0.7022563026
 40
0.7677033744
 40
0.8257762064
 40
0.8759142782
 40
0.9176510363
 40
0.9352804458
 40
0.9507136789
 40
0.9639339558
 40
0.9749487722
 40
0.9838156367
 40
0.9906642664
 40
0.9934226016
 40
0.9958192363
 40
0.9979618102
 40
1.0
 40
1.0
 40
1.0
 40
1.0
 10
9.6876923428
 20
7.6506339421
 30
0.0
 10
9.6838005715
 20
7.650963472
 30
0.0
 10
9.6761558589
 20
7.6515221483
 30
0.0
 10
9.6667283028
 20
7.6520222502
 30
0.0
 10
9.6595140678
 20
7.6522993097
 30
0.0
 10
9.6544769946
 20
7.6524444785
 30
0.0
 10
9.6497581469
 20
7.6525322853
 30
0.0
 10
9.6454038862
 20
7.6525632223
 30
0.0
 10
9.6414569683
 20
7.6525379671
 30
0.0
 10
9.6379561606
 20
7.6524564575
 30
0.0
 10
9.6349356259
 20
7.6523185863
 30
0.0
 10
9.6327334216
 20
7.6521495523
 30
0.0
 10
9.6312351169
 20
7.6519753854
 30
0.0
 10
9.6303119757
 20
7.6518369849
 30
0.0
 10
9.6295267206
 20
7.6516834192
 30
0.0
 10
9.6288801825
 20
7.6515145001
 30
0.0
 10
9.6283729549
 20
7.6513304598
 30
0.0
 10
9.6280419616
 20
7.6511528462
 30
0.0
 10
9.6278564475
 20
7.6509958903
 30
0.0
 10
9.6277626642
 20
7.6508810843
 30
0.0
 10
9.6277050717
 20
7.6507599064
 30
0.0
 10
9.6276923519
 20
7.6506750733
 30
0.0
 10
9.6276923427
 20
7.6506339767
 30
0.0
  0
SPLINE
  5
3F4
100
AcDbEntity
  8
0
100
AcDbSpline
 62
9
  6
CONTINUOUS
 70
0
 71
3
 72
15
 73
11
 74
0
 42
0.0000001
 43
0.0000001
 44
0.0000000001
 40
0.0
 40
0.0
 40
0.0
 40
0.0
 40
0.1249083314
 40
0.2528385592
 40
0.3823233553
 40
0.511642867
 40
0.6392468737
 40
0.7638458028
 40
0.8842950259
 40
1.0
 40
1.0
 40
1.0
 40
1.0
 10
12.1826833565
 20
7.5393828339
 30
0.0
 10
12.1825515613
 20
7.543543889
 30
0.0
 10
12.1828297438
 20
7.5519932549
 30
0.0
 10
12.1849027783
 20
7.5646041137
 30
0.0
 10
12.1887534988
 20
7.576949634
 30
0.0
 10
12.1942888754
 20
7.5886287867
 30
0.0
 10
12.2014193134
 20
7.5992146204
 30
0.0
 10
12.2098338253
 20
7.6084156563
 30
0.0
 10
12.2192505807
 20
7.6159639396
 30
0.0
 10
12.2260876568
 20
7.6199325233
 30
0.0
 10
12.2295614128
 20
7.6216072839
 30
0.0
  0
SPLINE
  5
3F5
100
AcDbEntity
  8
0
100
AcDbSpline
 62
9
  6
CONTINUOUS
 70
0
 71
3
 72
18
 73
14
 74
0
 42
0.0000001
 43
0.0000001
 44
0.0000000001
 40
0.0
 40
0.0
 40
0.0
 40
0.0
 40
0.1401487224
 40
0.2835054526
 40
0.4262912048
 40
0.5642439371
 40
0.6932828757
 40
0.7534553184
 40
0.810234107
 40
0.8633290264
 40
0.9126611322
 40
0.9582148541
 40
1.0
 40
1.0
 40
1.0
 40
1.0
 10
12.1516923423
 20
7.5393827818
 30
0.0
 10
12.151990501
 20
7.5434911523
 30
0.0
 10
12.1528231623
 20
7.5517869223
 30
0.0
 10
12.1547624335
 20
7.5641720854
 30
0.0
 10
12.1574385445
 20
7.5763547536
 30
0.0
 10
12.1607841553
 20
7.5879344828
 30
0.0
 10
12.1641566179
 20
7.5969527107
 30
0.0
 10
12.1671396673
 20
7.6035411455
 30
0.0
 10
12.1694219776
 20
7.6079901173
 30
0.0
 10
12.1717866325
 20
7.6120309771
 30
0.0
 10
12.1742092555
 20
7.6156468343
 30
0.0
 10
12.1766675512
 20
7.6188277337
 30
0.0
 10
12.178390742
 20
7.6207351867
 30
0.0
 10
12.1792555066
 20
7.6216072399
 30
0.0
  0
SPLINE
  5
3F6
100
AcDbEntity
  8
0
100
AcDbSpline
 62
9
  6
CONTINUOUS
 70
0
 71
3
 72
18
 73
14
 74
0
 42
0.0000001
 43
0.0000001
 44
0.0000000001
 40
0.0
 40
0.0
 40
0.0
 40
0.0
 40
0.1803110419
 40
0.3519176502
 40
0.5107413897
 40
0.6527027947
 40
0.7741594542
 40
0.8265769758
 40
0.8732218202
 40
0.9139472278
 40
0.9486458706
 40
0.9772863669
 40
1.0
 40
1.0
 40
1.0
 40
1.0
 10
12.1924765276
 20
7.6225351083
 30
0.0
 10
12.1945545487
 20
7.6227571141
 30
0.0
 10
12.1986157711
 20
7.6231406332
 30
0.0
 10
12.2045213042
 20
7.6235561442
 30
0.0
 10
12.209991367
 20
7.6238063296
 30
0.0
 10
12.2148850116
 20
7.6238957301
 30
0.0
 10
12.2185464464
 20
7.6238394979
 30
0.0
 10
12.221098818
 20
7.623699817
 30
0.0
 10
12.2227132535
 20
7.62355913
 30
0.0
 10
12.2241168166
 20
7.6233775227
 30
0.0
 10
12.2253033768
 20
7.6231549611
 30
0.0
 10
12.226266352
 20
7.6228918424
 30
0.0
 10
12.2268200606
 20
7.6226637789
 30
0.0
 10
12.2270497019
 20
7.6225350595
 30
0.0
  0
SPLINE
  5
3F7
100
AcDbEntity
  8
0
100
AcDbSpline
 62
9
  6
CONTINUOUS
 70
0
 71
3
 72
18
 73
14
 74
0
 42
0.0000001
 43
0.0000001
 44
0.0000000001
 40
0.0
 40
0.0
 40
0.0
 40
0.0
 40
0.1422849135
 40
0.28719814
 40
0.4308000296
 40
0.5688131892
 40
0.6972100969
 40
0.7568624697
 40
0.8130284849
 40
0.8654462997
 40
0.9140679151
 40
0.9589073529
 40
1.0
 40
1.0
 40
1.0
 40
1.0
 10
9.7236925844
 20
7.5393828339
 30
0.0
 10
9.7233898793
 20
7.5435538181
 30
0.0
 10
9.7225425349
 20
7.55195739
 30
0.0
 10
9.7205686455
 20
7.5644714737
 30
0.0
 10
9.7178547916
 20
7.5767192393
 30
0.0
 10
9.7144806554
 20
7.5882979721
 30
0.0
 10
9.7110955092
 20
7.5972768829
 30
0.0
 10
9.7081150127
 20
7.6038091507
 30
0.0
 10
9.7058444384
 20
7.6082042802
 30
0.0
 10
9.7034990058
 20
7.612188175
 30
0.0
 10
9.7011025957
 20
7.6157471097
 30
0.0
 10
9.6986769144
 20
7.6188744176
 30
0.0
 10
9.6969800254
 20
7.6207496808
 30
0.0
 10
9.6961295978
 20
7.6216072839
 30
0.0
  0
SPLINE
  5
3F8
100
AcDbEntity
  8
0
100
AcDbSpline
 62
9
  6
CONTINUOUS
 70
0
 71
3
 72
15
 73
11
 74
0
 42
0.0000001
 43
0.0000001
 44
0.0000000001
 40
0.0
 40
0.0
 40
0.0
 40
0.0
 40
0.1230348766
 40
0.2495591369
 40
0.3781998153
 40
0.5072601555
 40
0.6352123994
 40
0.7606993859
 40
0.8825244332
 40
1.0
 40
1.0
 40
1.0
 40
1.0
 10
9.6927014342
 20
7.5393827818
 30
0.0
 10
9.692831253
 20
7.543481418
 30
0.0
 10
9.6925654809
 20
7.5518206637
 30
0.0
 10
9.6905476154
 20
7.5642999971
 30
0.0
 10
9.6867720738
 20
7.576580214
 30
0.0
 10
9.6813030387
 20
7.5882624119
 30
0.0
 10
9.6742065249
 20
7.5989103436
 30
0.0
 10
9.6657739251
 20
7.6082139535
 30
0.0
 10
9.6562743324
 20
7.6158760459
 30
0.0
 10
9.6493503787
 20
7.6199068524
 30
0.0
 10
9.6458234737
 20
7.6216072399
 30
0.0
  0
LINE
  5
3F9
100
AcDbEntity
  8
0
100
AcDbLine
 62
9
  6
CONTINUOUS
 10
12.1876923437
 20
7.6506339693
 11
12.1764417506
 21
7.6490154925
  0
SPLINE
  5
3FA
100
AcDbEntity
  8
0
100
AcDbSpline
 62
9
  6
CONTINUOUS
 70
0
 71
3
 72
18
 73
14
 74
0
 42
0.0000001
 43
0.0000001
 44
0.0000000001
 40
0.0
 40
0.0
 40
0.0
 40
0.0
 40
0.0227200893
 40
0.0513813525
 40
0.0861108785
 40
0.1268725757
 40
0.1735543082
 40
0.2260045059
 40
0.347494744
 40
0.4894279635
 40
0.6481854381
 40
0.8197236629
 40
1.0
 40
1.0
 40
1.0
 40
1.0
 10
9.6483347165
 20
7.6225351083
 30
0.0
 10
9.6485644128
 20
7.622663879
 30
0.0
 10
9.6491184663
 20
7.6228919557
 30
0.0
 10
9.6500821369
 20
7.6231550397
 30
0.0
 10
9.6512697307
 20
7.6233775803
 30
0.0
 10
9.6526745004
 20
7.6235591735
 30
0.0
 10
9.6542901569
 20
7.6236998485
 30
0.0
 10
9.656843709
 20
7.6238394968
 30
0.0
 10
9.6605055583
 20
7.6238957337
 30
0.0
 10
9.665398464
 20
7.6238063198
 30
0.0
 10
9.6708665977
 20
7.6235560877
 30
0.0
 10
9.6767701176
 20
7.6231405194
 30
0.0
 10
9.6808301121
 20
7.6227570216
 30
0.0
 10
9.6829077188
 20
7.6225350595
 30
0.0
  0
SPLINE
  5
3FB
100
AcDbEntity
  8
0
100
AcDbSpline
 62
9
  6
CONTINUOUS
 70
0
 71
3
 72
30
 73
26
 74
0
 42
0.0000001
 43
0.0000001
 44
0.0000000001
 40
0.0
 40
0.0
 40
0.0
 40
0.0
 40
0.081948162
 40
0.16383639
 40
0.2464358652
 40
0.3296085341
 40
0.4128260081
 40
0.4952254372
 40
0.5756678428
 40
0.6529171504
 40
0.7256884058
 40
0.7926017044
 40
0.8522621626
 40
0.9033991575
 40
0.9253744732
 40
0.944738401
 40
0.9613337521
 40
0.9750626301
 40
0.9858594033
 40
0.9901377703
 40
0.9936584964
 40
0.9964133432
 40
0.9983940569
 40
0.9995923688
 40
1.0
 40
1.0
 40
1.0
 40
1.0
 10
6.6241923427
 20
10.3091695021
 30
0.0
 10
6.6234983918
 20
10.3091694981
 30
0.0
 10
6.6221082925
 20
10.3090339398
 30
0.0
 10
6.6200877341
 20
10.3084828657
 30
0.0
 10
6.6181537653
 20
10.3076581127
 30
0.0
 10
6.6163120965
 20
10.3066247396
 30
0.0
 10
6.6145723566
 20
10.3054323827
 30
0.0
 10
6.612943921
 20
10.3041299651
 30
0.0
 10
6.6114352922
 20
10.302765463
 30
0.0
 10
6.6100556096
 20
10.3013841699
 30
0.0
 10
6.608814055
 20
10.3000295558
 30
0.0
 10
6.6077188616
 20
10.2987445608
 30
0.0
 10
6.6067772823
 20
10.297570391
 30
0.0
 10
6.6060963162
 20
10.2966755912
 30
0.0
 10
6.6056320632
 20
10.2960449281
 30
0.0
 10
6.6053446217
 20
10.2956473482
 30
0.0
 10
6.6051001941
 20
10.2953048515
 30
0.0
 10
6.604899461
 20
10.2950203159
 30
0.0
 10
6.6047598482
 20
10.2948202896
 30
0.0
 10
6.6046704064
 20
10.2946907049
 30
0.0
 10
6.6046195884
 20
10.2946171395
 30
0.0
 10
6.6045806735
 20
10.2945591697
 30
0.0
 10
6.604551249
 20
10.2945181458
 30
0.0
 10
6.6045363865
 20
10.2944919954
 30
0.0
 10
6.6045266012
 20
10.2944817088
 30
0.0
 10
6.604525643
 20
10.2944783926
 30
0.0
  0
SPLINE
  5
3FC
100
AcDbEntity
  8
0
100
AcDbSpline
 62
9
  6
CONTINUOUS
 70
0
 71
3
 72
13
 73
9
 74
0
 42
0.0000001
 43
0.0000001
 44
0.0000000001
 40
0.0
 40
0.0
 40
0.0
 40
0.0
 40
0.2513513785
 40
0.5019878446
 40
0.6268814182
 40
0.7515170913
 40
0.8759128463
 40
1.0
 40
1.0
 40
1.0
 40
1.0
 10
6.9371972702
 20
10.2944785204
 30
0.0
 10
6.9541471098
 20
10.294464892
 30
0.0
 10
6.9880084905
 20
10.2959193411
 30
0.0
 10
7.0300553101
 20
10.3003533878
 30
0.0
 10
7.0635720184
 20
10.3041208467
 30
0.0
 10
7.0886577206
 20
10.3066900089
 30
0.0
 10
7.1137479836
 20
10.3086286135
 30
0.0
 10
7.1305060529
 20
10.3091694934
 30
0.0
 10
7.1388738527
 20
10.3091695021
 30
0.0
  0
SPLINE
  5
3FD
100
AcDbEntity
  8
0
100
AcDbSpline
 62
9
  6
CONTINUOUS
 70
0
 71
3
 72
34
 73
30
 74
0
 42
0.0000001
 43
0.0000001
 44
0.0000000001
 40
0.0
 40
0.0
 40
0.0
 40
0.0
 40
0.0001003841
 40
0.000400836
 40
0.0009001744
 40
0.0015972194
 40
0.0035797185
 40
0.0063389296
 40
0.0098654765
 40
0.0141500113
 40
0.0191832151
 40
0.0249557989
 40
0.0386820811
 40
0.0552551858
 40
0.0745937136
 40
0.0965570166
 40
0.1209793164
 40
0.1476965069
 40
0.2073680889
 40
0.2742964847
 40
0.3471062832
 40
0.4243658435
 40
0.5047305265
 40
0.5869660068
 40
0.6700073106
 40
0.7530947229
 40
0.8358093664
 40
0.917923778
 40
1.0
 40
1.0
 40
1.0
 40
1.0
 10
7.2708590094
 20
10.294478319
 30
0.0
 10
7.2708589828
 20
10.2944774693
 30
0.0
 10
7.2708560479
 20
10.2944841001
 30
0.0
 10
7.2708528825
 20
10.2944868094
 30
0.0
 10
7.2708453066
 20
10.2944994452
 30
0.0
 10
7.270830769
 20
10.2945206261
 30
0.0
 10
7.2708049298
 20
10.2945598558
 30
0.0
 10
7.270765978
 20
10.2946175191
 30
0.0
 10
7.2707157227
 20
10.2946918051
 30
0.0
 10
7.270654423
 20
10.2947815927
 30
0.0
 10
7.2705820101
 20
10.2948869223
 30
0.0
 10
7.2704636963
 20
10.295057694
 30
0.0
 10
7.2702883035
 20
10.2953078293
 30
0.0
 10
7.2700444385
 20
10.2956502491
 30
0.0
 10
7.269757147
 20
10.2960473724
 30
0.0
 10
7.2694268285
 20
10.296495389
 30
0.0
 10
7.2690541983
 20
10.2969898115
 30
0.0
 10
7.2684805881
 20
10.2977325779
 30
0.0
 10
7.2676663737
 20
10.2987442409
 30
0.0
 10
7.2665681947
 20
10.300027601
 30
0.0
 10
7.2653244503
 20
10.3013811413
 30
0.0
 10
7.2639445614
 20
10.3027620874
 30
0.0
 10
7.2624389757
 20
10.3041272075
 30
0.0
 10
7.2608169942
 20
10.3054322491
 30
0.0
 10
7.2590833032
 20
10.3066274708
 30
0.0
 10
7.2572435171
 20
10.307662422
 30
0.0
 10
7.2553060163
 20
10.3084852854
 30
0.0
 10
7.2532806073
 20
10.3090341591
 30
0.0
 10
7.2518874424
 20
10.309169496
 30
0.0
 10
7.2511923428
 20
10.3091695021
 30
0.0
  0
SPLINE
  5
3FE
100
AcDbEntity
  8
0
100
AcDbSpline
 62
9
  6
CONTINUOUS
 70
0
 71
3
 72
17
 73
13
 74
0
 42
0.0000001
 43
0.0000001
 44
0.0000000001
 40
0.0
 40
0.0
 40
0.0
 40
0.0
 40
0.125730516
 40
0.1885731381
 40
0.2513726808
 40
0.3768212808
 40
0.5020160769
 40
0.626926512
 40
0.7515386367
 40
0.8137453398
 40
0.875898977
 40
1.0
 40
1.0
 40
1.0
 40
1.0
 10
6.9371972702
 20
10.2944785204
 30
0.0
 10
6.9287596119
 20
10.2944853047
 30
0.0
 10
6.9161032611
 20
10.2947649937
 30
0.0
 10
6.8992547152
 20
10.2956140048
 30
0.0
 10
6.8824422812
 20
10.2967578083
 30
0.0
 10
6.8614900502
 20
10.2986456521
 30
0.0
 10
6.8364325856
 20
10.3013540842
 30
0.0
 10
6.8114430601
 20
10.3041616343
 30
0.0
 10
6.7906305468
 20
10.3062905908
 30
0.0
 10
6.7739782149
 20
10.3076677015
 30
0.0
 10
6.7573400663
 20
10.3087616908
 30
0.0
 10
6.7448391399
 20
10.3091694955
 30
0.0
 10
6.7365108327
 20
10.3091695021
 30
0.0
  0
SPLINE
  5
3FF
100
AcDbEntity
  8
0
100
AcDbSpline
 62
9
  6
CONTINUOUS
 70
0
 71
3
 72
23
 73
19
 74
0
 42
0.0000001
 43
0.0000001
 44
0.0000000001
 40
0.0
 40
0.0
 40
0.0
 40
0.0
 40
0.0640361062
 40
0.1276034084
 40
0.1906767594
 40
0.2532966626
 40
0.3154826615
 40
0.3772641048
 40
0.43873526
 40
0.4999990541
 40
0.5612629087
 40
0.6227342167
 40
0.6845158809
 40
0.7467021943
 40
0.8093225015
 40
0.8723961995
 40
0.9359636807
 40
1.0
 40
1.0
 40
1.0
 40
1.0
 10
7.1388738528
 20
10.3391695021
 30
0.0
 10
7.1302238765
 20
10.339169476
 30
0.0
 10
7.1129833302
 20
10.33845133
 30
0.0
 10
7.0873566434
 20
10.3357733593
 30
0.0
 10
7.0620561705
 20
10.3320748686
 30
0.0
 10
7.0370261403
 20
10.327881997
 30
0.0
 10
7.0121685091
 20
10.3237166579
 30
0.0
 10
6.9873701361
 20
10.3201454083
 30
0.0
 10
6.9625504003
 20
10.317740897
 30
0.0
 10
6.9376927176
 20
10.3168291821
 30
0.0
 10
6.9128350117
 20
10.317740832
 30
0.0
 10
6.8880152122
 20
10.3201453032
 30
0.0
 10
6.8632167468
 20
10.3237165658
 30
0.0
 10
6.8383589921
 20
10.3278819349
 30
0.0
 10
6.8133288172
 20
10.3320748146
 30
0.0
 10
6.78802822
 20
10.3357733213
 30
0.0
 10
6.7624014385
 20
10.3384513426
 30
0.0
 10
6.7451608378
 20
10.339169491
 30
0.0
 10
6.7365108327
 20
10.3391695021
 30
0.0
  0
SPLINE
  5
400
100
AcDbEntity
  8
0
100
AcDbSpline
 62
9
  6
CONTINUOUS
 70
0
 71
3
 72
30
 73
26
 74
0
 42
0.0000001
 43
0.0000001
 44
0.0000000001
 40
0.0
 40
0.0
 40
0.0
 40
0.0
 40
0.081948162
 40
0.16383639
 40
0.2464358652
 40
0.3296085341
 40
0.4128260081
 40
0.4952254372
 40
0.5756678428
 40
0.6529171504
 40
0.7256884058
 40
0.7926017044
 40
0.8522621626
 40
0.9033991575
 40
0.9253744732
 40
0.944738401
 40
0.9613337521
 40
0.9750626301
 40
0.9858594033
 40
0.9901377703
 40
0.9936584964
 40
0.9964133432
 40
0.9983940569
 40
0.9995923688
 40
1.0
 40
1.0
 40
1.0
 40
1.0
 10
14.6241923427
 20
10.3091695021
 30
0.0
 10
14.6234983918
 20
10.3091694981
 30
0.0
 10
14.6221082925
 20
10.3090339398
 30
0.0
 10
14.6200877341
 20
10.3084828657
 30
0.0
 10
14.6181537653
 20
10.3076581127
 30
0.0
 10
14.6163120965
 20
10.3066247396
 30
0.0
 10
14.6145723566
 20
10.3054323827
 30
0.0
 10
14.612943921
 20
10.3041299651
 30
0.0
 10
14.6114352922
 20
10.302765463
 30
0.0
 10
14.6100556096
 20
10.3013841699
 30
0.0
 10
14.608814055
 20
10.3000295558
 30
0.0
 10
14.6077188616
 20
10.2987445608
 30
0.0
 10
14.6067772823
 20
10.297570391
 30
0.0
 10
14.6060963162
 20
10.2966755912
 30
0.0
 10
14.6056320632
 20
10.2960449281
 30
0.0
 10
14.6053446217
 20
10.2956473482
 30
0.0
 10
14.6051001941
 20
10.2953048515
 30
0.0
 10
14.604899461
 20
10.2950203159
 30
0.0
 10
14.6047598482
 20
10.2948202896
 30
0.0
 10
14.6046704064
 20
10.2946907049
 30
0.0
 10
14.6046195884
 20
10.2946171395
 30
0.0
 10
14.6045806735
 20
10.2945591697
 30
0.0
 10
14.604551249
 20
10.2945181458
 30
0.0
 10
14.6045363865
 20
10.2944919954
 30
0.0
 10
14.6045266012
 20
10.2944817088
 30
0.0
 10
14.604525643
 20
10.2944783926
 30
0.0
  0
SPLINE
  5
401
100
AcDbEntity
  8
0
100
AcDbSpline
 62
9
  6
CONTINUOUS
 70
0
 71
3
 72
13
 73
9
 74
0
 42
0.0000001
 43
0.0000001
 44
0.0000000001
 40
0.0
 40
0.0
 40
0.0
 40
0.0
 40
0.2513513785
 40
0.5019878446
 40
0.6268814182
 40
0.7515170913
 40
0.8759128463
 40
1.0
 40
1.0
 40
1.0
 40
1.0
 10
14.9371972702
 20
10.2944785204
 30
0.0
 10
14.9541471098
 20
10.294464892
 30
0.0
 10
14.9880084905
 20
10.2959193411
 30
0.0
 10
15.0300553101
 20
10.3003533878
 30
0.0
 10
15.0635720184
 20
10.3041208467
 30
0.0
 10
15.0886577206
 20
10.3066900089
 30
0.0
 10
15.1137479836
 20
10.3086286135
 30
0.0
 10
15.1305060529
 20
10.3091694934
 30
0.0
 10
15.1388738527
 20
10.3091695021
 30
0.0
  0
SPLINE
  5
402
100
AcDbEntity
  8
0
100
AcDbSpline
 62
9
  6
CONTINUOUS
 70
0
 71
3
 72
34
 73
30
 74
0
 42
0.0000001
 43
0.0000001
 44
0.0000000001
 40
0.0
 40
0.0
 40
0.0
 40
0.0
 40
0.0001003841
 40
0.000400836
 40
0.0009001744
 40
0.0015972194
 40
0.0035797185
 40
0.0063389296
 40
0.0098654765
 40
0.0141500113
 40
0.0191832151
 40
0.0249557989
 40
0.0386820811
 40
0.0552551858
 40
0.0745937136
 40
0.0965570166
 40
0.1209793164
 40
0.1476965069
 40
0.2073680889
 40
0.2742964847
 40
0.3471062832
 40
0.4243658435
 40
0.5047305265
 40
0.5869660068
 40
0.6700073106
 40
0.7530947229
 40
0.8358093664
 40
0.917923778
 40
1.0
 40
1.0
 40
1.0
 40
1.0
 10
15.2708590094
 20
10.294478319
 30
0.0
 10
15.2708589828
 20
10.2944774693
 30
0.0
 10
15.2708560479
 20
10.2944841001
 30
0.0
 10
15.2708528825
 20
10.2944868094
 30
0.0
 10
15.2708453066
 20
10.2944994452
 30
0.0
 10
15.270830769
 20
10.2945206261
 30
0.0
 10
15.2708049298
 20
10.2945598558
 30
0.0
 10
15.270765978
 20
10.2946175191
 30
0.0
 10
15.2707157227
 20
10.2946918051
 30
0.0
 10
15.270654423
 20
10.2947815927
 30
0.0
 10
15.2705820101
 20
10.2948869223
 30
0.0
 10
15.2704636963
 20
10.295057694
 30
0.0
 10
15.2702883035
 20
10.2953078293
 30
0.0
 10
15.2700444385
 20
10.2956502491
 30
0.0
 10
15.269757147
 20
10.2960473724
 30
0.0
 10
15.2694268285
 20
10.296495389
 30
0.0
 10
15.2690541983
 20
10.2969898115
 30
0.0
 10
15.2684805881
 20
10.2977325779
 30
0.0
 10
15.2676663737
 20
10.2987442409
 30
0.0
 10
15.2665681947
 20
10.300027601
 30
0.0
 10
15.2653244503
 20
10.3013811413
 30
0.0
 10
15.2639445614
 20
10.3027620874
 30
0.0
 10
15.2624389757
 20
10.3041272075
 30
0.0
 10
15.2608169942
 20
10.3054322491
 30
0.0
 10
15.2590833032
 20
10.3066274708
 30
0.0
 10
15.2572435171
 20
10.307662422
 30
0.0
 10
15.2553060163
 20
10.3084852854
 30
0.0
 10
15.2532806073
 20
10.3090341591
 30
0.0
 10
15.2518874424
 20
10.309169496
 30
0.0
 10
15.2511923428
 20
10.3091695021
 30
0.0
  0
SPLINE
  5
403
100
AcDbEntity
  8
0
100
AcDbSpline
 62
9
  6
CONTINUOUS
 70
0
 71
3
 72
17
 73
13
 74
0
 42
0.0000001
 43
0.0000001
 44
0.0000000001
 40
0.0
 40
0.0
 40
0.0
 40
0.0
 40
0.125730516
 40
0.1885731381
 40
0.2513726808
 40
0.3768212808
 40
0.5020160769
 40
0.626926512
 40
0.7515386367
 40
0.8137453398
 40
0.875898977
 40
1.0
 40
1.0
 40
1.0
 40
1.0
 10
14.9371972702
 20
10.2944785204
 30
0.0
 10
14.9287596119
 20
10.2944853047
 30
0.0
 10
14.9161032611
 20
10.2947649937
 30
0.0
 10
14.8992547152
 20
10.2956140048
 30
0.0
 10
14.8824422812
 20
10.2967578083
 30
0.0
 10
14.8614900502
 20
10.2986456521
 30
0.0
 10
14.8364325856
 20
10.3013540842
 30
0.0
 10
14.8114430601
 20
10.3041616343
 30
0.0
 10
14.7906305468
 20
10.3062905908
 30
0.0
 10
14.7739782149
 20
10.3076677015
 30
0.0
 10
14.7573400663
 20
10.3087616908
 30
0.0
 10
14.7448391399
 20
10.3091694955
 30
0.0
 10
14.7365108327
 20
10.3091695021
 30
0.0
  0
SPLINE
  5
404
100
AcDbEntity
  8
0
100
AcDbSpline
 62
9
  6
CONTINUOUS
 70
0
 71
3
 72
23
 73
19
 74
0
 42
0.0000001
 43
0.0000001
 44
0.0000000001
 40
0.0
 40
0.0
 40
0.0
 40
0.0
 40
0.0640361062
 40
0.1276034084
 40
0.1906767594
 40
0.2532966626
 40
0.3154826615
 40
0.3772641048
 40
0.43873526
 40
0.4999990541
 40
0.5612629087
 40
0.6227342167
 40
0.6845158809
 40
0.7467021943
 40
0.8093225015
 40
0.8723961995
 40
0.9359636807
 40
1.0
 40
1.0
 40
1.0
 40
1.0
 10
15.1388738528
 20
10.3391695021
 30
0.0
 10
15.1302238765
 20
10.339169476
 30
0.0
 10
15.1129833302
 20
10.33845133
 30
0.0
 10
15.0873566434
 20
10.3357733593
 30
0.0
 10
15.0620561705
 20
10.3320748686
 30
0.0
 10
15.0370261403
 20
10.327881997
 30
0.0
 10
15.0121685091
 20
10.3237166579
 30
0.0
 10
14.9873701361
 20
10.3201454083
 30
0.0
 10
14.9625504003
 20
10.317740897
 30
0.0
 10
14.9376927176
 20
10.3168291821
 30
0.0
 10
14.9128350117
 20
10.317740832
 30
0.0
 10
14.8880152122
 20
10.3201453032
 30
0.0
 10
14.8632167468
 20
10.3237165658
 30
0.0
 10
14.8383589921
 20
10.3278819349
 30
0.0
 10
14.8133288172
 20
10.3320748146
 30
0.0
 10
14.78802822
 20
10.3357733213
 30
0.0
 10
14.7624014385
 20
10.3384513426
 30
0.0
 10
14.7451608378
 20
10.339169491
 30
0.0
 10
14.7365108327
 20
10.3391695021
 30
0.0
  0
SPLINE
  5
405
100
AcDbEntity
  8
0
100
AcDbSpline
 62
9
  6
CONTINUOUS
 70
0
 71
3
 72
27
 73
23
 74
0
 42
0.0000001
 43
0.0000001
 44
0.0000000001
 40
0.0
 40
0.0
 40
0.0
 40
0.0
 40
0.1962588924
 40
0.3848205135
 40
0.4738003204
 40
0.5580710786
 40
0.6368001815
 40
0.7091575017
 40
0.7743729942
 40
0.8319059871
 40
0.8812811578
 40
0.9027669531
 40
0.9220451657
 40
0.9390749499
 40
0.9538572554
 40
0.9664115388
 40
0.976774921
 40
0.9850206591
 40
0.9913051755
 40
0.9959974129
 40
0.9980103956
 40
1.0
 40
1.0
 40
1.0
 40
1.0
 10
6.2537146944
 20
7.9999600835
 30
0.0
 10
6.2498244885
 20
7.9996418628
 30
0.0
 10
6.2421917977
 20
7.999075865
 30
0.0
 10
6.2327843602
 20
7.9985267648
 30
0.0
 10
6.2255955036
 20
7.9982099675
 30
0.0
 10
6.2205868826
 20
7.9980408838
 30
0.0
 10
6.2159071293
 20
7.9979369741
 30
0.0
 10
6.2116053231
 20
7.9978995453
 30
0.0
 10
6.2077249455
 20
7.9979299353
 30
0.0
 10
6.2043028619
 20
7.9980265193
 30
0.0
 10
6.2017526317
 20
7.9981652129
 30
0.0
 10
6.1999660525
 20
7.9983145959
 30
0.0
 10
6.1988230516
 20
7.9984369594
 30
0.0
 10
6.1978161587
 20
7.9985746882
 30
0.0
 10
6.1969467828
 20
7.9987269988
 30
0.0
 10
6.1962152101
 20
7.9988932283
 30
0.0
 10
6.1956211824
 20
7.9990721258
 30
0.0
 10
6.1951631604
 20
7.9992642763
 30
0.0
 10
6.1948375341
 20
7.999467917
 30
0.0
 10
6.1946636921
 20
7.999671294
 30
0.0
 10
6.1946153259
 20
7.9998400265
 30
0.0
 10
6.1946180423
 20
7.9999210011
 30
0.0
 10
6.1946248808
 20
7.9999599749
 30
0.0
  0
SPLINE
  5
406
100
AcDbEntity
  8
0
100
AcDbSpline
 62
9
  6
CONTINUOUS
 70
0
 71
3
 72
26
 73
22
 74
0
 42
0.0000001
 43
0.0000001
 44
0.0000000001
 40
0.0
 40
0.0
 40
0.0
 40
0.0
 40
0.0112853355
 40
0.0220627544
 40
0.0328262904
 40
0.0440732494
 40
0.0562433087
 40
0.0696873745
 40
0.0846685687
 40
0.1013790021
 40
0.1199507965
 40
0.1404455011
 40
0.1872644835
 40
0.2418359438
 40
0.3039706269
 40
0.3733333237
 40
0.4492894666
 40
0.531104286
 40
0.6180202205
 40
0.8039099237
 40
1.0
 40
1.0
 40
1.0
 40
1.0
 10
6.4813626777
 20
9.6261307194
 30
0.0
 10
6.481321819
 20
9.625899207
 30
0.0
 10
6.4812829319
 20
9.6254375678
 30
0.0
 10
6.4813738845
 20
9.6247542121
 30
0.0
 10
6.481616828
 20
9.6241096152
 30
0.0
 10
6.4820088007
 20
9.6235092067
 30
0.0
 10
6.4825457238
 20
9.6229548271
 30
0.0
 10
6.4832250922
 20
9.6224464282
 30
0.0
 10
6.4840460651
 20
9.621983811
 30
0.0
 10
6.4850084824
 20
9.6215674819
 30
0.0
 10
6.4861114551
 20
9.6211984813
 30
0.0
 10
6.4878445293
 20
9.620749656
 30
0.0
 10
6.4903534852
 20
9.6203311127
 30
0.0
 10
6.4937498653
 20
9.6200404546
 30
0.0
 10
6.497626971
 20
9.6199492943
 30
0.0
 10
6.5019484264
 20
9.6200626037
 30
0.0
 10
6.5066706388
 20
9.6203756401
 30
0.0
 10
6.5117432519
 20
9.6208841495
 30
0.0
 10
6.5190695063
 20
9.621838737
 30
0.0
 10
6.5287002315
 20
9.6234940335
 30
0.0
 10
6.5364787087
 20
9.6251831141
 30
0.0
 10
6.5404520611
 20
9.6261309758
 30
0.0
  0
SPLINE
  5
407
100
AcDbEntity
  8
0
100
AcDbSpline
 62
9
  6
CONTINUOUS
 70
0
 71
3
 72
27
 73
23
 74
0
 42
0.0000001
 43
0.0000001
 44
0.0000000001
 40
0.0
 40
0.0
 40
0.0
 40
0.0
 40
0.0019895775
 40
0.0040027037
 40
0.0086956064
 40
0.0149810849
 40
0.0232280347
 40
0.0335929303
 40
0.0461491132
 40
0.0609337998
 40
0.0779665467
 40
0.0972483428
 40
0.1187381519
 40
0.1681216638
 40
0.2256617809
 40
0.2908812188
 40
0.363237917
 40
0.4419627201
 40
0.5262269568
 40
0.6151994745
 40
0.8037485138
 40
1.0
 40
1.0
 40
1.0
 40
1.0
 10
7.6807598214
 20
7.9999598791
 30
0.0
 10
7.6807666488
 20
7.9999209048
 30
0.0
 10
7.6807693411
 20
7.999839929
 30
0.0
 10
7.6807209262
 20
7.9996711995
 30
0.0
 10
7.6805470327
 20
7.9994678331
 30
0.0
 10
7.6802213504
 20
7.9992641947
 30
0.0
 10
7.6797632614
 20
7.9990720455
 30
0.0
 10
7.6791691532
 20
7.9988931488
 30
0.0
 10
7.6784374805
 20
7.9987269207
 30
0.0
 10
7.6775679797
 20
7.9985746124
 30
0.0
 10
7.6765609318
 20
7.9984368877
 30
0.0
 10
7.6754177469
 20
7.9983145309
 30
0.0
 10
7.673630892
 20
7.99816516
 30
0.0
 10
7.6710803348
 20
7.998026484
 30
0.0
 10
7.6676579473
 20
7.9979299194
 30
0.0
 10
7.6637774554
 20
7.9978995467
 30
0.0
 10
7.6594757727
 20
7.9979369896
 30
0.0
 10
7.6547963603
 20
7.998040909
 30
0.0
 10
7.6497882209
 20
7.9982099945
 30
0.0
 10
7.6426000631
 20
7.9985267807
 30
0.0
 10
7.6331933945
 20
7.9990758351
 30
0.0
 10
7.6255612837
 20
7.9996417792
 30
0.0
 10
7.6216713181
 20
7.9999599749
 30
0.0
  0
SPLINE
  5
408
100
AcDbEntity
  8
0
100
AcDbSpline
 62
9
  6
CONTINUOUS
 70
0
 71
3
 72
26
 73
22
 74
0
 42
0.0000001
 43
0.0000001
 44
0.0000000001
 40
0.0
 40
0.0
 40
0.0
 40
0.0
 40
0.1960506889
 40
0.381901658
 40
0.4688064638
 40
0.5506168754
 40
0.6265749639
 40
0.6959455829
 40
0.7580933611
 40
0.8126805609
 40
0.8595150574
 40
0.8800166195
 40
0.8985943061
 40
0.915309582
 40
0.9302948875
 40
0.9437426845
 40
0.9559163426
 40
0.9671668283
 40
0.9779336131
 40
0.9887135309
 40
1.0
 40
1.0
 40
1.0
 40
1.0
 10
7.3349337131
 20
9.6261320955
 30
0.0
 10
7.3389061695
 20
9.6251845297
 30
0.0
 10
7.3466828127
 20
9.623495796
 30
0.0
 10
7.356311382
 20
9.6218406351
 30
0.0
 10
7.3636362729
 20
9.6208860122
 30
0.0
 10
7.3687084377
 20
9.6203773719
 30
0.0
 10
7.3734306113
 20
9.6200641359
 30
0.0
 10
7.3777524109
 20
9.6199505794
 30
0.0
 10
7.3816301742
 20
9.6200414567
 30
0.0
 10
7.3850274029
 20
9.6203318473
 30
0.0
 10
7.387537118
 20
9.6207502183
 30
0.0
 10
7.3892707613
 20
9.6211989878
 30
0.0
 10
7.3903740844
 20
9.6215679927
 30
0.0
 10
7.3913367806
 20
9.6219843832
 30
0.0
 10
7.3921579685
 20
9.6224471042
 30
0.0
 10
7.3928375063
 20
9.6229556351
 30
0.0
 10
7.3933745725
 20
9.6235101593
 30
0.0
 10
7.3937666853
 20
9.6241107063
 30
0.0
 10
7.3940097957
 20
9.6247554199
 30
0.0
 10
7.3941009723
 20
9.6254388644
 30
0.0
 10
7.3940622758
 20
9.6259005791
 30
0.0
 10
7.3940215182
 20
9.6261321263
 30
0.0
  0
SPLINE
  5
409
100
AcDbEntity
  8
0
100
AcDbSpline
 62
9
  6
CONTINUOUS
 70
0
 71
3
 72
19
 73
15
 74
0
 42
0.0000001
 43
0.0000001
 44
0.0000000001
 40
0.0
 40
0.0
 40
0.0
 40
0.0
 40
0.1789424615
 40
0.3528946822
 40
0.5160798478
 40
0.6626958959
 40
0.7874348541
 40
0.8405429144
 40
0.8870161374
 40
0.9265135556
 40
0.958703219
 40
0.9832755484
 40
0.9926271961
 40
1.0
 40
1.0
 40
1.0
 40
1.0
 10
7.4181029027
 20
9.7314698782
 30
0.0
 10
7.4199237206
 20
9.7315394249
 30
0.0
 10
7.4235159627
 20
9.7316413266
 30
0.0
 10
7.4287706897
 20
9.7317165134
 30
0.0
 10
7.4336966702
 20
9.7317406264
 30
0.0
 10
7.4381215307
 20
9.7317391376
 30
0.0
 10
7.4414254947
 20
9.7317413713
 30
0.0
 10
7.4437097079
 20
9.7317307272
 30
0.0
 10
7.4451258287
 20
9.731713918
 30
0.0
 10
7.44632879
 20
9.731685075
 30
0.0
 10
7.4473079629
 20
9.7316406589
 30
0.0
 10
7.4479795172
 20
9.731586438
 30
0.0
 10
7.4483957938
 20
9.7315262136
 30
0.0
 10
7.448562741
 20
9.7314911592
 30
0.0
 10
7.4486350809
 20
9.731471075
 30
0.0
  0
SPLINE
  5
40A
100
AcDbEntity
  8
0
100
AcDbSpline
 62
9
  6
CONTINUOUS
 70
0
 71
3
 72
27
 73
23
 74
0
 42
0.0000001
 43
0.0000001
 44
0.0000000001
 40
0.0
 40
0.0
 40
0.0
 40
0.0
 40
0.1899255898
 40
0.3666636618
 40
0.4510186892
 40
0.5326685961
 40
0.6108825446
 40
0.6847077569
 40
0.753177249
 40
0.8153222791
 40
0.8701506248
 40
0.9164620519
 40
0.9360203463
 40
0.9529664833
 40
0.9671466285
 40
0.9784230753
 40
0.9867037616
 40
0.9897353289
 40
0.9920859315
 40
0.9939065742
 40
0.9955434392
 40
1.0
 40
1.0
 40
1.0
 40
1.0
 10
7.4486346296
 20
9.7314713155
 30
0.0
 10
7.4491353034
 20
9.7313484304
 30
0.0
 10
7.450083333
 20
9.7310293512
 30
0.0
 10
7.4511812271
 20
9.7304828664
 30
0.0
 10
7.4519876137
 20
9.730018804
 30
0.0
 10
7.4525548462
 20
9.7296756487
 30
0.0
 10
7.453092646
 20
9.7293392648
 30
0.0
 10
7.4535972733
 20
9.7290173699
 30
0.0
 10
7.4540646622
 20
9.7287182196
 30
0.0
 10
7.4544904159
 20
9.7284496449
 30
0.0
 10
7.4548701329
 20
9.7282209875
 30
0.0
 10
7.4551528927
 20
9.7280555136
 30
0.0
 10
7.4553462915
 20
9.727940917
 30
0.0
 10
7.4554638138
 20
9.7278693962
 30
0.0
 10
7.4555607722
 20
9.7278072927
 30
0.0
 10
7.4556355379
 20
9.7277544387
 30
0.0
 10
7.4556828223
 20
9.7277150139
 30
0.0
 10
7.4557070936
 20
9.7276867935
 30
0.0
 10
7.4557170809
 20
9.7276698638
 30
0.0
 10
7.4557205861
 20
9.727653864
 30
0.0
 10
7.4557122686
 20
9.7276327533
 30
0.0
 10
7.4556947976
 20
9.7276259903
 30
0.0
 10
7.4556832436
 20
9.7276224069
 30
0.0
  0
SPLINE
  5
40B
100
AcDbEntity
  8
0
100
AcDbSpline
 62
9
  6
CONTINUOUS
 70
0
 71
3
 72
11
 73
7
 74
0
 42
0.0000001
 43
0.0000001
 44
0.0000000001
 40
0.0
 40
0.0
 40
0.0
 40
0.0
 40
0.2592942675
 40
0.5142593167
 40
0.7614294041
 40
1.0
 40
1.0
 40
1.0
 40
1.0
 10
7.3349336167
 20
9.7276222615
 30
0.0
 10
7.3421307705
 20
9.727622554
 30
0.0
 10
7.356405468
 20
9.7279265297
 30
0.0
 10
7.3775146325
 20
9.7290033639
 30
0.0
 10
7.3980249003
 20
9.7304198338
 30
0.0
 10
7.4114857551
 20
9.7312169098
 30
0.0
 10
7.4181028554
 20
9.7314698532
 30
0.0
  0
SPLINE
  5
40C
100
AcDbEntity
  8
0
100
AcDbSpline
 62
9
  6
CONTINUOUS
 70
0
 71
3
 72
30
 73
26
 74
0
 42
0.0000001
 43
0.0000001
 44
0.0000000001
 40
0.0
 40
0.0
 40
0.0
 40
0.0
 40
0.1948935116
 40
0.2901015006
 40
0.3824411334
 40
0.4710736928
 40
0.5551769429
 40
0.6339605845
 40
0.7066539894
 40
0.7725145675
 40
0.830935856
 40
0.8813534898
 40
0.9033968754
 40
0.9232659085
 40
0.9409171175
 40
0.9563073802
 40
0.9693942325
 40
0.9801443369
 40
0.9885459712
 40
0.9918653827
 40
0.9945985034
 40
0.9967494627
 40
0.9983291481
 40
0.9993699221
 40
1.0
 40
1.0
 40
1.0
 40
1.0
 10
7.4166923427
 20
9.7613737754
 30
0.0
 10
7.4205919957
 20
9.7614652143
 30
0.0
 10
7.4263976033
 20
9.7615628882
 30
0.0
 10
7.4340516003
 20
9.7616436097
 30
0.0
 10
7.4395791117
 20
9.761684126
 30
0.0
 10
7.4448844458
 20
9.761709462
 30
0.0
 10
7.4499184978
 20
9.7617246633
 30
0.0
 10
7.4546335493
 20
9.7617323924
 30
0.0
 10
7.4589834855
 20
9.7617341423
 30
0.0
 10
7.4629258765
 20
9.7617319733
 30
0.0
 10
7.4664224188
 20
9.7617244435
 30
0.0
 10
7.4690419591
 20
9.7617120742
 30
0.0
 10
7.470889852
 20
9.7616968208
 30
0.0
 10
7.4720819185
 20
9.7616828855
 30
0.0
 10
7.4731407654
 20
9.7616653785
 30
0.0
 10
7.4740637608
 20
9.7616436954
 30
0.0
 10
7.4748484636
 20
9.7616173514
 30
0.0
 10
7.4754929522
 20
9.7615857343
 30
0.0
 10
7.4759416052
 20
9.7615527773
 30
0.0
 10
7.4762291981
 20
9.7615210551
 30
0.0
 10
7.4763916858
 20
9.7614971692
 30
0.0
 10
7.4765187208
 20
9.7614723366
 30
0.0
 10
7.476610371
 20
9.7614442287
 30
0.0
 10
7.4766697752
 20
9.7614180925
 30
0.0
 10
7.4766923345
 20
9.7613875866
 30
0.0
 10
7.4766923427
 20
9.7613749759
 30
0.0
  0
SPLINE
  5
40D
100
AcDbEntity
  8
0
100
AcDbSpline
 62
9
  6
CONTINUOUS
 70
0
 71
3
 72
14
 73
10
 74
0
 42
0.0000001
 43
0.0000001
 44
0.0000000001
 40
0.0
 40
0.0
 40
0.0
 40
0.0
 40
0.1249993537
 40
0.2500183649
 40
0.3750257062
 40
0.500013503
 40
0.6250105245
 40
0.750021657
 40
1.0
 40
1.0
 40
1.0
 40
1.0
 10
7.3349314073
 20
9.7562437193
 30
0.0
 10
7.3383457011
 20
9.7562438211
 30
0.0
 10
7.3451751179
 20
9.756344766
 30
0.0
 10
7.355411296
 20
9.7567588007
 30
0.0
 10
7.3656351467
 20
9.7574016044
 30
0.0
 10
7.3758455425
 20
9.7582175641
 30
0.0
 10
7.3860491723
 20
9.7591138066
 30
0.0
 10
7.3996538882
 20
9.7603011411
 30
0.0
 10
7.4098718969
 20
9.7610520152
 30
0.0
 10
7.4166923427
 20
9.7613737754
 30
0.0
  0
SPLINE
  5
40E
100
AcDbEntity
  8
0
100
AcDbSpline
 62
9
  6
CONTINUOUS
 70
0
 71
3
 72
11
 73
7
 74
0
 42
0.0000001
 43
0.0000001
 44
0.0000000001
 40
0.0
 40
0.0
 40
0.0
 40
0.0
 40
0.238582348
 40
0.4857843648
 40
0.7407560336
 40
1.0
 40
1.0
 40
1.0
 40
1.0
 10
6.4572791015
 20
9.7314698868
 30
0.0
 10
6.4638968069
 20
9.7312163331
 30
0.0
 10
6.4773594486
 20
9.730418758
 30
0.0
 10
6.4978721085
 20
9.7290029921
 30
0.0
 10
6.5189819633
 20
9.7279272217
 30
0.0
 10
6.5332560823
 20
9.7276232381
 30
0.0
 10
6.5404521678
 20
9.7276226156
 30
0.0
  0
SPLINE
  5
40F
100
AcDbEntity
  8
0
100
AcDbSpline
 62
9
  6
CONTINUOUS
 70
0
 71
3
 72
26
 73
22
 74
0
 42
0.0000001
 43
0.0000001
 44
0.0000000001
 40
0.0
 40
0.0
 40
0.0
 40
0.0
 40
0.0003666324
 40
0.0014707178
 40
0.003300802
 40
0.0058454308
 40
0.0130325375
 40
0.0229405639
 40
0.0354781755
 40
0.0505541912
 40
0.0680775926
 40
0.0879575366
 40
0.1344244863
 40
0.1892323681
 40
0.251662106
 40
0.3209988962
 40
0.3964457094
 40
0.4768681726
 40
0.6478714748
 40
0.8249278494
 40
1.0
 40
1.0
 40
1.0
 40
1.0
 10
6.4197016914
 20
9.727622929
 30
0.0
 10
6.4197007085
 20
9.7276228489
 30
0.0
 10
6.4197081614
 20
9.7276269108
 30
0.0
 10
6.4197111204
 20
9.7276306145
 30
0.0
 10
6.4197252748
 20
9.7276403288
 30
0.0
 10
6.419748859
 20
9.7276582983
 30
0.0
 10
6.4197924449
 20
9.7276900021
 30
0.0
 10
6.419856361
 20
9.727736776
 30
0.0
 10
6.4199383471
 20
9.7277959707
 30
0.0
 10
6.4200369899
 20
9.7278666406
 30
0.0
 10
6.4201521416
 20
9.7279483332
 30
0.0
 10
6.420336726
 20
9.7280780267
 30
0.0
 10
6.4206047789
 20
9.7282633923
 30
0.0
 10
6.4209694706
 20
9.7285101896
 30
0.0
 10
6.4213881486
 20
9.7287869328
 30
0.0
 10
6.421856703
 20
9.729088827
 30
0.0
 10
6.4223700899
 20
9.7294104387
 30
0.0
 10
6.423123451
 20
9.7298638368
 30
0.0
 10
6.4241315716
 20
9.7304238677
 30
0.0
 10
6.4254056235
 20
9.7310240677
 30
0.0
 10
6.4262998651
 20
9.7313445268
 30
0.0
 10
6.4267534261
 20
9.731471218
 30
0.0
  0
SPLINE
  5
410
100
AcDbEntity
  8
0
100
AcDbSpline
 62
9
  6
CONTINUOUS
 70
0
 71
3
 72
19
 73
15
 74
0
 42
0.0000001
 43
0.0000001
 44
0.0000000001
 40
0.0
 40
0.0
 40
0.0
 40
0.0
 40
0.0073731442
 40
0.0167283295
 40
0.0413167469
 40
0.0735319459
 40
0.1130603829
 40
0.1595658453
 40
0.212703
 40
0.3374731252
 40
0.4840660924
 40
0.6471942772
 40
0.8210871892
 40
1.0
 40
1.0
 40
1.0
 40
1.0
 10
6.4267530699
 20
9.7314712433
 30
0.0
 10
6.4268253694
 20
9.7314914291
 30
0.0
 10
6.4269922949
 20
9.731526635
 30
0.0
 10
6.4274086636
 20
9.7315870576
 30
0.0
 10
6.4280805463
 20
9.7316413252
 30
0.0
 10
6.4290602658
 20
9.7316856371
 30
0.0
 10
6.4302638956
 20
9.7317142522
 30
0.0
 10
6.4316806749
 20
9.73173077
 30
0.0
 10
6.4339653723
 20
9.7317409875
 30
0.0
 10
6.4372690495
 20
9.7317383966
 30
0.0
 10
6.441692522
 20
9.731740113
 30
0.0
 10
6.4466160946
 20
9.7317164637
 30
0.0
 10
6.4518682844
 20
9.7316416248
 30
0.0
 10
6.4554588979
 20
9.7315396405
 30
0.0
 10
6.4572790402
 20
9.7314699191
 30
0.0
  0
SPLINE
  5
411
100
AcDbEntity
  8
0
100
AcDbSpline
 62
9
  6
CONTINUOUS
 70
0
 71
3
 72
13
 73
9
 74
0
 42
0.0000001
 43
0.0000001
 44
0.0000000001
 40
0.0
 40
0.0
 40
0.0
 40
0.0
 40
0.2499781643
 40
0.4999917434
 40
0.6249799538
 40
0.7499821691
 40
0.8749997324
 40
1.0
 40
1.0
 40
1.0
 40
1.0
 10
6.4586923428
 20
9.7613738288
 30
0.0
 10
6.4655122318
 20
9.7610515684
 30
0.0
 10
6.4791350408
 20
9.7600502571
 30
0.0
 10
6.4961327071
 20
9.7584912141
 30
0.0
 10
6.5097460507
 20
9.7574034428
 30
0.0
 10
6.5199687655
 20
9.7567582924
 30
0.0
 10
6.5302040524
 20
9.7563449546
 30
0.0
 10
6.5370329156
 20
9.7562442538
 30
0.0
 10
6.5404469704
 20
9.756243912
 30
0.0
  0
SPLINE
  5
412
100
AcDbEntity
  8
0
100
AcDbSpline
 62
9
  6
CONTINUOUS
 70
0
 71
3
 72
30
 73
26
 74
0
 42
0.0000001
 43
0.0000001
 44
0.0000000001
 40
0.0
 40
0.0
 40
0.0
 40
0.0
 40
0.0006314015
 40
0.0016733905
 40
0.0032543765
 40
0.0054067465
 40
0.0081413439
 40
0.0114622289
 40
0.019866476
 40
0.0306181722
 40
0.0437060968
 40
0.0590991121
 40
0.0767541045
 40
0.0966271636
 40
0.1186740292
 40
0.1690993466
 40
0.2275328098
 40
0.2933976319
 40
0.366089159
 40
0.4448733178
 40
0.5289766132
 40
0.6176080789
 40
0.7099393093
 40
0.8051281165
 40
1.0
 40
1.0
 40
1.0
 40
1.0
 10
6.3986923427
 20
9.7613751537
 30
0.0
 10
6.3986923522
 20
9.761387791
 30
0.0
 10
6.3987149104
 20
9.7614183582
 30
0.0
 10
6.3987743727
 20
9.7614445748
 30
0.0
 10
6.398866084
 20
9.7614727434
 30
0.0
 10
6.3989931951
 20
9.7614976341
 30
0.0
 10
6.3991557639
 20
9.7615215685
 30
0.0
 10
6.3994434635
 20
9.7615533491
 30
0.0
 10
6.3998922285
 20
9.7615863516
 30
0.0
 10
6.4005368236
 20
9.7616179872
 30
0.0
 10
6.4013216372
 20
9.7616443177
 30
0.0
 10
6.4022447878
 20
9.7616659706
 30
0.0
 10
6.4033038496
 20
9.7616834174
 30
0.0
 10
6.4044961459
 20
9.7616972554
 30
0.0
 10
6.4063443488
 20
9.7617123005
 30
0.0
 10
6.4089643639
 20
9.761724301
 30
0.0
 10
6.412461397
 20
9.7617315633
 30
0.0
 10
6.4164040882
 20
9.7617334541
 30
0.0
 10
6.4207540918
 20
9.7617317317
 30
0.0
 10
6.4254691283
 20
9.7617243863
 30
0.0
 10
6.4305031823
 20
9.7617095533
 30
0.0
 10
6.4358083414
 20
9.7616846733
 30
0.0
 10
6.4413352942
 20
9.7616444963
 30
0.0
 10
6.4489883232
 20
9.761563671
 30
0.0
 10
6.4547931203
 20
9.7614655382
 30
0.0
 10
6.4586923427
 20
9.7613738288
 30
0.0
  0
SPLINE
  5
413
100
AcDbEntity
  8
0
100
AcDbSpline
 62
9
  6
CONTINUOUS
 70
0
 71
3
 72
27
 73
23
 74
0
 42
0.0000001
 43
0.0000001
 44
0.0000000001
 40
0.0
 40
0.0
 40
0.0
 40
0.0
 40
0.1962588924
 40
0.3848205135
 40
0.4738003204
 40
0.5580710786
 40
0.6368001815
 40
0.7091575017
 40
0.7743729942
 40
0.8319059871
 40
0.8812811578
 40
0.9027669531
 40
0.9220451657
 40
0.9390749499
 40
0.9538572554
 40
0.9664115388
 40
0.976774921
 40
0.9850206591
 40
0.9913051755
 40
0.9959974129
 40
0.9980103956
 40
1.0
 40
1.0
 40
1.0
 40
1.0
 10
14.2537146944
 20
7.9999600835
 30
0.0
 10
14.2498244885
 20
7.9996418628
 30
0.0
 10
14.2421917977
 20
7.999075865
 30
0.0
 10
14.2327843602
 20
7.9985267648
 30
0.0
 10
14.2255955036
 20
7.9982099675
 30
0.0
 10
14.2205868826
 20
7.9980408838
 30
0.0
 10
14.2159071293
 20
7.9979369741
 30
0.0
 10
14.2116053231
 20
7.9978995453
 30
0.0
 10
14.2077249455
 20
7.9979299353
 30
0.0
 10
14.2043028619
 20
7.9980265193
 30
0.0
 10
14.2017526317
 20
7.9981652129
 30
0.0
 10
14.1999660525
 20
7.9983145959
 30
0.0
 10
14.1988230516
 20
7.9984369594
 30
0.0
 10
14.1978161587
 20
7.9985746882
 30
0.0
 10
14.1969467828
 20
7.9987269988
 30
0.0
 10
14.1962152101
 20
7.9988932283
 30
0.0
 10
14.1956211824
 20
7.9990721258
 30
0.0
 10
14.1951631604
 20
7.9992642763
 30
0.0
 10
14.1948375341
 20
7.999467917
 30
0.0
 10
14.1946636921
 20
7.999671294
 30
0.0
 10
14.1946153259
 20
7.9998400265
 30
0.0
 10
14.1946180423
 20
7.9999210011
 30
0.0
 10
14.1946248808
 20
7.9999599749
 30
0.0
  0
SPLINE
  5
414
100
AcDbEntity
  8
0
100
AcDbSpline
 62
9
  6
CONTINUOUS
 70
0
 71
3
 72
26
 73
22
 74
0
 42
0.0000001
 43
0.0000001
 44
0.0000000001
 40
0.0
 40
0.0
 40
0.0
 40
0.0
 40
0.0112853355
 40
0.0220627544
 40
0.0328262904
 40
0.0440732494
 40
0.0562433087
 40
0.0696873745
 40
0.0846685687
 40
0.1013790021
 40
0.1199507965
 40
0.1404455011
 40
0.1872644835
 40
0.2418359438
 40
0.3039706269
 40
0.3733333237
 40
0.4492894666
 40
0.531104286
 40
0.6180202205
 40
0.8039099237
 40
1.0
 40
1.0
 40
1.0
 40
1.0
 10
14.4813626777
 20
9.6261307194
 30
0.0
 10
14.481321819
 20
9.625899207
 30
0.0
 10
14.4812829319
 20
9.6254375678
 30
0.0
 10
14.4813738845
 20
9.6247542121
 30
0.0
 10
14.481616828
 20
9.6241096152
 30
0.0
 10
14.4820088007
 20
9.6235092067
 30
0.0
 10
14.4825457238
 20
9.6229548271
 30
0.0
 10
14.4832250922
 20
9.6224464282
 30
0.0
 10
14.4840460651
 20
9.621983811
 30
0.0
 10
14.4850084824
 20
9.6215674819
 30
0.0
 10
14.4861114551
 20
9.6211984813
 30
0.0
 10
14.4878445293
 20
9.620749656
 30
0.0
 10
14.4903534852
 20
9.6203311127
 30
0.0
 10
14.4937498653
 20
9.6200404546
 30
0.0
 10
14.497626971
 20
9.6199492943
 30
0.0
 10
14.5019484264
 20
9.6200626037
 30
0.0
 10
14.5066706388
 20
9.6203756401
 30
0.0
 10
14.5117432519
 20
9.6208841495
 30
0.0
 10
14.5190695063
 20
9.621838737
 30
0.0
 10
14.5287002315
 20
9.6234940335
 30
0.0
 10
14.5364787087
 20
9.6251831141
 30
0.0
 10
14.5404520611
 20
9.6261309758
 30
0.0
  0
SPLINE
  5
415
100
AcDbEntity
  8
0
100
AcDbSpline
 62
9
  6
CONTINUOUS
 70
0
 71
3
 72
27
 73
23
 74
0
 42
0.0000001
 43
0.0000001
 44
0.0000000001
 40
0.0
 40
0.0
 40
0.0
 40
0.0
 40
0.0019895775
 40
0.0040027037
 40
0.0086956064
 40
0.0149810849
 40
0.0232280347
 40
0.0335929303
 40
0.0461491132
 40
0.0609337998
 40
0.0779665467
 40
0.0972483428
 40
0.1187381519
 40
0.1681216638
 40
0.2256617809
 40
0.2908812188
 40
0.363237917
 40
0.4419627201
 40
0.5262269568
 40
0.6151994745
 40
0.8037485138
 40
1.0
 40
1.0
 40
1.0
 40
1.0
 10
15.6807598214
 20
7.9999598791
 30
0.0
 10
15.6807666488
 20
7.9999209048
 30
0.0
 10
15.6807693411
 20
7.999839929
 30
0.0
 10
15.6807209262
 20
7.9996711995
 30
0.0
 10
15.6805470327
 20
7.9994678331
 30
0.0
 10
15.6802213504
 20
7.9992641947
 30
0.0
 10
15.6797632614
 20
7.9990720455
 30
0.0
 10
15.6791691532
 20
7.9988931488
 30
0.0
 10
15.6784374805
 20
7.9987269207
 30
0.0
 10
15.6775679797
 20
7.9985746124
 30
0.0
 10
15.6765609318
 20
7.9984368877
 30
0.0
 10
15.6754177469
 20
7.9983145309
 30
0.0
 10
15.673630892
 20
7.99816516
 30
0.0
 10
15.6710803348
 20
7.998026484
 30
0.0
 10
15.6676579473
 20
7.9979299194
 30
0.0
 10
15.6637774554
 20
7.9978995467
 30
0.0
 10
15.6594757727
 20
7.9979369896
 30
0.0
 10
15.6547963603
 20
7.998040909
 30
0.0
 10
15.6497882209
 20
7.9982099945
 30
0.0
 10
15.6426000631
 20
7.9985267807
 30
0.0
 10
15.6331933945
 20
7.9990758351
 30
0.0
 10
15.6255612837
 20
7.9996417792
 30
0.0
 10
15.6216713181
 20
7.9999599749
 30
0.0
  0
SPLINE
  5
416
100
AcDbEntity
  8
0
100
AcDbSpline
 62
9
  6
CONTINUOUS
 70
0
 71
3
 72
26
 73
22
 74
0
 42
0.0000001
 43
0.0000001
 44
0.0000000001
 40
0.0
 40
0.0
 40
0.0
 40
0.0
 40
0.1960506889
 40
0.381901658
 40
0.4688064638
 40
0.5506168754
 40
0.6265749639
 40
0.6959455829
 40
0.7580933611
 40
0.8126805609
 40
0.8595150574
 40
0.8800166195
 40
0.8985943061
 40
0.915309582
 40
0.9302948875
 40
0.9437426845
 40
0.9559163426
 40
0.9671668283
 40
0.9779336131
 40
0.9887135309
 40
1.0
 40
1.0
 40
1.0
 40
1.0
 10
15.3349337131
 20
9.6261320955
 30
0.0
 10
15.3389061695
 20
9.6251845297
 30
0.0
 10
15.3466828127
 20
9.623495796
 30
0.0
 10
15.356311382
 20
9.6218406351
 30
0.0
 10
15.3636362729
 20
9.6208860122
 30
0.0
 10
15.3687084377
 20
9.6203773719
 30
0.0
 10
15.3734306113
 20
9.6200641359
 30
0.0
 10
15.3777524109
 20
9.6199505794
 30
0.0
 10
15.3816301742
 20
9.6200414567
 30
0.0
 10
15.3850274029
 20
9.6203318473
 30
0.0
 10
15.387537118
 20
9.6207502183
 30
0.0
 10
15.3892707613
 20
9.6211989878
 30
0.0
 10
15.3903740844
 20
9.6215679927
 30
0.0
 10
15.3913367806
 20
9.6219843832
 30
0.0
 10
15.3921579685
 20
9.6224471042
 30
0.0
 10
15.3928375063
 20
9.6229556351
 30
0.0
 10
15.3933745725
 20
9.6235101593
 30
0.0
 10
15.3937666853
 20
9.6241107063
 30
0.0
 10
15.3940097957
 20
9.6247554199
 30
0.0
 10
15.3941009723
 20
9.6254388644
 30
0.0
 10
15.3940622758
 20
9.6259005791
 30
0.0
 10
15.3940215182
 20
9.6261321263
 30
0.0
  0
SPLINE
  5
417
100
AcDbEntity
  8
0
100
AcDbSpline
 62
9
  6
CONTINUOUS
 70
0
 71
3
 72
19
 73
15
 74
0
 42
0.0000001
 43
0.0000001
 44
0.0000000001
 40
0.0
 40
0.0
 40
0.0
 40
0.0
 40
0.1789424615
 40
0.3528946822
 40
0.5160798478
 40
0.6626958959
 40
0.7874348541
 40
0.8405429144
 40
0.8870161374
 40
0.9265135556
 40
0.958703219
 40
0.9832755484
 40
0.9926271961
 40
1.0
 40
1.0
 40
1.0
 40
1.0
 10
15.4181029027
 20
9.7314698782
 30
0.0
 10
15.4199237206
 20
9.7315394249
 30
0.0
 10
15.4235159627
 20
9.7316413266
 30
0.0
 10
15.4287706897
 20
9.7317165134
 30
0.0
 10
15.4336966702
 20
9.7317406264
 30
0.0
 10
15.4381215307
 20
9.7317391376
 30
0.0
 10
15.4414254947
 20
9.7317413713
 30
0.0
 10
15.4437097079
 20
9.7317307272
 30
0.0
 10
15.4451258287
 20
9.731713918
 30
0.0
 10
15.44632879
 20
9.731685075
 30
0.0
 10
15.4473079629
 20
9.7316406589
 30
0.0
 10
15.4479795172
 20
9.731586438
 30
0.0
 10
15.4483957938
 20
9.7315262136
 30
0.0
 10
15.448562741
 20
9.7314911592
 30
0.0
 10
15.4486350809
 20
9.731471075
 30
0.0
  0
SPLINE
  5
418
100
AcDbEntity
  8
0
100
AcDbSpline
 62
9
  6
CONTINUOUS
 70
0
 71
3
 72
27
 73
23
 74
0
 42
0.0000001
 43
0.0000001
 44
0.0000000001
 40
0.0
 40
0.0
 40
0.0
 40
0.0
 40
0.1899255898
 40
0.3666636618
 40
0.4510186892
 40
0.5326685961
 40
0.6108825446
 40
0.6847077569
 40
0.753177249
 40
0.8153222791
 40
0.8701506248
 40
0.9164620519
 40
0.9360203463
 40
0.9529664833
 40
0.9671466285
 40
0.9784230753
 40
0.9867037616
 40
0.9897353289
 40
0.9920859315
 40
0.9939065742
 40
0.9955434392
 40
1.0
 40
1.0
 40
1.0
 40
1.0
 10
15.4486346296
 20
9.7314713155
 30
0.0
 10
15.4491353034
 20
9.7313484304
 30
0.0
 10
15.450083333
 20
9.7310293512
 30
0.0
 10
15.4511812271
 20
9.7304828664
 30
0.0
 10
15.4519876137
 20
9.730018804
 30
0.0
 10
15.4525548462
 20
9.7296756487
 30
0.0
 10
15.453092646
 20
9.7293392648
 30
0.0
 10
15.4535972733
 20
9.7290173699
 30
0.0
 10
15.4540646622
 20
9.7287182196
 30
0.0
 10
15.4544904159
 20
9.7284496449
 30
0.0
 10
15.4548701329
 20
9.7282209875
 30
0.0
 10
15.4551528927
 20
9.7280555136
 30
0.0
 10
15.4553462915
 20
9.727940917
 30
0.0
 10
15.4554638138
 20
9.7278693962
 30
0.0
 10
15.4555607722
 20
9.7278072927
 30
0.0
 10
15.4556355379
 20
9.7277544387
 30
0.0
 10
15.4556828223
 20
9.7277150139
 30
0.0
 10
15.4557070936
 20
9.7276867935
 30
0.0
 10
15.4557170809
 20
9.7276698638
 30
0.0
 10
15.4557205861
 20
9.727653864
 30
0.0
 10
15.4557122686
 20
9.7276327533
 30
0.0
 10
15.4556947976
 20
9.7276259903
 30
0.0
 10
15.4556832436
 20
9.7276224069
 30
0.0
  0
SPLINE
  5
419
100
AcDbEntity
  8
0
100
AcDbSpline
 62
9
  6
CONTINUOUS
 70
0
 71
3
 72
11
 73
7
 74
0
 42
0.0000001
 43
0.0000001
 44
0.0000000001
 40
0.0
 40
0.0
 40
0.0
 40
0.0
 40
0.2592942675
 40
0.5142593167
 40
0.7614294041
 40
1.0
 40
1.0
 40
1.0
 40
1.0
 10
15.3349336167
 20
9.7276222615
 30
0.0
 10
15.3421307705
 20
9.727622554
 30
0.0
 10
15.356405468
 20
9.7279265297
 30
0.0
 10
15.3775146325
 20
9.7290033639
 30
0.0
 10
15.3980249003
 20
9.7304198338
 30
0.0
 10
15.4114857551
 20
9.7312169098
 30
0.0
 10
15.4181028554
 20
9.7314698532
 30
0.0
  0
SPLINE
  5
41A
100
AcDbEntity
  8
0
100
AcDbSpline
 62
9
  6
CONTINUOUS
 70
0
 71
3
 72
30
 73
26
 74
0
 42
0.0000001
 43
0.0000001
 44
0.0000000001
 40
0.0
 40
0.0
 40
0.0
 40
0.0
 40
0.1948935116
 40
0.2901015006
 40
0.3824411334
 40
0.4710736928
 40
0.5551769429
 40
0.6339605845
 40
0.7066539894
 40
0.7725145675
 40
0.830935856
 40
0.8813534898
 40
0.9033968754
 40
0.9232659085
 40
0.9409171175
 40
0.9563073802
 40
0.9693942325
 40
0.9801443369
 40
0.9885459712
 40
0.9918653827
 40
0.9945985034
 40
0.9967494627
 40
0.9983291481
 40
0.9993699221
 40
1.0
 40
1.0
 40
1.0
 40
1.0
 10
15.4166923427
 20
9.7613737754
 30
0.0
 10
15.4205919957
 20
9.7614652143
 30
0.0
 10
15.4263976033
 20
9.7615628882
 30
0.0
 10
15.4340516003
 20
9.7616436097
 30
0.0
 10
15.4395791117
 20
9.761684126
 30
0.0
 10
15.4448844458
 20
9.761709462
 30
0.0
 10
15.4499184978
 20
9.7617246633
 30
0.0
 10
15.4546335493
 20
9.7617323924
 30
0.0
 10
15.4589834855
 20
9.7617341423
 30
0.0
 10
15.4629258765
 20
9.7617319733
 30
0.0
 10
15.4664224188
 20
9.7617244435
 30
0.0
 10
15.4690419591
 20
9.7617120742
 30
0.0
 10
15.470889852
 20
9.7616968208
 30
0.0
 10
15.4720819185
 20
9.7616828855
 30
0.0
 10
15.4731407654
 20
9.7616653785
 30
0.0
 10
15.4740637608
 20
9.7616436954
 30
0.0
 10
15.4748484636
 20
9.7616173514
 30
0.0
 10
15.4754929522
 20
9.7615857343
 30
0.0
 10
15.4759416052
 20
9.7615527773
 30
0.0
 10
15.4762291981
 20
9.7615210551
 30
0.0
 10
15.4763916858
 20
9.7614971692
 30
0.0
 10
15.4765187208
 20
9.7614723366
 30
0.0
 10
15.476610371
 20
9.7614442287
 30
0.0
 10
15.4766697752
 20
9.7614180925
 30
0.0
 10
15.4766923345
 20
9.7613875866
 30
0.0
 10
15.4766923427
 20
9.7613749759
 30
0.0
  0
SPLINE
  5
41B
100
AcDbEntity
  8
0
100
AcDbSpline
 62
9
  6
CONTINUOUS
 70
0
 71
3
 72
14
 73
10
 74
0
 42
0.0000001
 43
0.0000001
 44
0.0000000001
 40
0.0
 40
0.0
 40
0.0
 40
0.0
 40
0.1249993537
 40
0.2500183649
 40
0.3750257062
 40
0.500013503
 40
0.6250105245
 40
0.750021657
 40
1.0
 40
1.0
 40
1.0
 40
1.0
 10
15.3349314073
 20
9.7562437193
 30
0.0
 10
15.3383457011
 20
9.7562438211
 30
0.0
 10
15.3451751179
 20
9.756344766
 30
0.0
 10
15.355411296
 20
9.7567588007
 30
0.0
 10
15.3656351467
 20
9.7574016044
 30
0.0
 10
15.3758455425
 20
9.7582175641
 30
0.0
 10
15.3860491723
 20
9.7591138066
 30
0.0
 10
15.3996538882
 20
9.7603011411
 30
0.0
 10
15.4098718969
 20
9.7610520152
 30
0.0
 10
15.4166923427
 20
9.7613737754
 30
0.0
  0
SPLINE
  5
41C
100
AcDbEntity
  8
0
100
AcDbSpline
 62
9
  6
CONTINUOUS
 70
0
 71
3
 72
11
 73
7
 74
0
 42
0.0000001
 43
0.0000001
 44
0.0000000001
 40
0.0
 40
0.0
 40
0.0
 40
0.0
 40
0.238582348
 40
0.4857843648
 40
0.7407560336
 40
1.0
 40
1.0
 40
1.0
 40
1.0
 10
14.4572791015
 20
9.7314698868
 30
0.0
 10
14.4638968069
 20
9.7312163331
 30
0.0
 10
14.4773594486
 20
9.730418758
 30
0.0
 10
14.4978721085
 20
9.7290029921
 30
0.0
 10
14.5189819633
 20
9.7279272217
 30
0.0
 10
14.5332560823
 20
9.7276232381
 30
0.0
 10
14.5404521678
 20
9.7276226156
 30
0.0
  0
SPLINE
  5
41D
100
AcDbEntity
  8
0
100
AcDbSpline
 62
9
  6
CONTINUOUS
 70
0
 71
3
 72
26
 73
22
 74
0
 42
0.0000001
 43
0.0000001
 44
0.0000000001
 40
0.0
 40
0.0
 40
0.0
 40
0.0
 40
0.0003666324
 40
0.0014707178
 40
0.003300802
 40
0.0058454308
 40
0.0130325375
 40
0.0229405639
 40
0.0354781755
 40
0.0505541912
 40
0.0680775926
 40
0.0879575366
 40
0.1344244863
 40
0.1892323681
 40
0.251662106
 40
0.3209988962
 40
0.3964457094
 40
0.4768681726
 40
0.6478714748
 40
0.8249278494
 40
1.0
 40
1.0
 40
1.0
 40
1.0
 10
14.4197016914
 20
9.727622929
 30
0.0
 10
14.4197007085
 20
9.7276228489
 30
0.0
 10
14.4197081614
 20
9.7276269108
 30
0.0
 10
14.4197111204
 20
9.7276306145
 30
0.0
 10
14.4197252748
 20
9.7276403288
 30
0.0
 10
14.419748859
 20
9.7276582983
 30
0.0
 10
14.4197924449
 20
9.7276900021
 30
0.0
 10
14.419856361
 20
9.727736776
 30
0.0
 10
14.4199383471
 20
9.7277959707
 30
0.0
 10
14.4200369899
 20
9.7278666406
 30
0.0
 10
14.4201521416
 20
9.7279483332
 30
0.0
 10
14.420336726
 20
9.7280780267
 30
0.0
 10
14.4206047789
 20
9.7282633923
 30
0.0
 10
14.4209694706
 20
9.7285101896
 30
0.0
 10
14.4213881486
 20
9.7287869328
 30
0.0
 10
14.421856703
 20
9.729088827
 30
0.0
 10
14.4223700899
 20
9.7294104387
 30
0.0
 10
14.423123451
 20
9.7298638368
 30
0.0
 10
14.4241315716
 20
9.7304238677
 30
0.0
 10
14.4254056235
 20
9.7310240677
 30
0.0
 10
14.4262998651
 20
9.7313445268
 30
0.0
 10
14.4267534261
 20
9.731471218
 30
0.0
  0
SPLINE
  5
41E
100
AcDbEntity
  8
0
100
AcDbSpline
 62
9
  6
CONTINUOUS
 70
0
 71
3
 72
19
 73
15
 74
0
 42
0.0000001
 43
0.0000001
 44
0.0000000001
 40
0.0
 40
0.0
 40
0.0
 40
0.0
 40
0.0073731442
 40
0.0167283295
 40
0.0413167469
 40
0.0735319459
 40
0.1130603829
 40
0.1595658453
 40
0.212703
 40
0.3374731252
 40
0.4840660924
 40
0.6471942772
 40
0.8210871892
 40
1.0
 40
1.0
 40
1.0
 40
1.0
 10
14.4267530699
 20
9.7314712433
 30
0.0
 10
14.4268253694
 20
9.7314914291
 30
0.0
 10
14.4269922949
 20
9.731526635
 30
0.0
 10
14.4274086636
 20
9.7315870576
 30
0.0
 10
14.4280805463
 20
9.7316413252
 30
0.0
 10
14.4290602658
 20
9.7316856371
 30
0.0
 10
14.4302638956
 20
9.7317142522
 30
0.0
 10
14.4316806749
 20
9.73173077
 30
0.0
 10
14.4339653723
 20
9.7317409875
 30
0.0
 10
14.4372690495
 20
9.7317383966
 30
0.0
 10
14.441692522
 20
9.731740113
 30
0.0
 10
14.4466160946
 20
9.7317164637
 30
0.0
 10
14.4518682844
 20
9.7316416248
 30
0.0
 10
14.4554588979
 20
9.7315396405
 30
0.0
 10
14.4572790402
 20
9.7314699191
 30
0.0
  0
SPLINE
  5
41F
100
AcDbEntity
  8
0
100
AcDbSpline
 62
9
  6
CONTINUOUS
 70
0
 71
3
 72
13
 73
9
 74
0
 42
0.0000001
 43
0.0000001
 44
0.0000000001
 40
0.0
 40
0.0
 40
0.0
 40
0.0
 40
0.2499781643
 40
0.4999917434
 40
0.6249799538
 40
0.7499821691
 40
0.8749997324
 40
1.0
 40
1.0
 40
1.0
 40
1.0
 10
14.4586923428
 20
9.7613738288
 30
0.0
 10
14.4655122318
 20
9.7610515684
 30
0.0
 10
14.4791350408
 20
9.7600502571
 30
0.0
 10
14.4961327071
 20
9.7584912141
 30
0.0
 10
14.5097460507
 20
9.7574034428
 30
0.0
 10
14.5199687655
 20
9.7567582924
 30
0.0
 10
14.5302040524
 20
9.7563449546
 30
0.0
 10
14.5370329156
 20
9.7562442538
 30
0.0
 10
14.5404469704
 20
9.756243912
 30
0.0
  0
SPLINE
  5
420
100
AcDbEntity
  8
0
100
AcDbSpline
 62
9
  6
CONTINUOUS
 70
0
 71
3
 72
30
 73
26
 74
0
 42
0.0000001
 43
0.0000001
 44
0.0000000001
 40
0.0
 40
0.0
 40
0.0
 40
0.0
 40
0.0006314015
 40
0.0016733905
 40
0.0032543765
 40
0.0054067465
 40
0.0081413439
 40
0.0114622289
 40
0.019866476
 40
0.0306181722
 40
0.0437060968
 40
0.0590991121
 40
0.0767541045
 40
0.0966271636
 40
0.1186740292
 40
0.1690993466
 40
0.2275328098
 40
0.2933976319
 40
0.366089159
 40
0.4448733178
 40
0.5289766132
 40
0.6176080789
 40
0.7099393093
 40
0.8051281165
 40
1.0
 40
1.0
 40
1.0
 40
1.0
 10
14.3986923427
 20
9.7613751537
 30
0.0
 10
14.3986923522
 20
9.761387791
 30
0.0
 10
14.3987149104
 20
9.7614183582
 30
0.0
 10
14.3987743727
 20
9.7614445748
 30
0.0
 10
14.398866084
 20
9.7614727434
 30
0.0
 10
14.3989931951
 20
9.7614976341
 30
0.0
 10
14.3991557639
 20
9.7615215685
 30
0.0
 10
14.3994434635
 20
9.7615533491
 30
0.0
 10
14.3998922285
 20
9.7615863516
 30
0.0
 10
14.4005368236
 20
9.7616179872
 30
0.0
 10
14.4013216372
 20
9.7616443177
 30
0.0
 10
14.4022447878
 20
9.7616659706
 30
0.0
 10
14.4033038496
 20
9.7616834174
 30
0.0
 10
14.4044961459
 20
9.7616972554
 30
0.0
 10
14.4063443488
 20
9.7617123005
 30
0.0
 10
14.4089643639
 20
9.761724301
 30
0.0
 10
14.412461397
 20
9.7617315633
 30
0.0
 10
14.4164040882
 20
9.7617334541
 30
0.0
 10
14.4207540918
 20
9.7617317317
 30
0.0
 10
14.4254691283
 20
9.7617243863
 30
0.0
 10
14.4305031823
 20
9.7617095533
 30
0.0
 10
14.4358083414
 20
9.7616846733
 30
0.0
 10
14.4413352942
 20
9.7616444963
 30
0.0
 10
14.4489883232
 20
9.761563671
 30
0.0
 10
14.4547931203
 20
9.7614655382
 30
0.0
 10
14.4586923427
 20
9.7613738288
 30
0.0
  0
SPLINE
  5
421
100
AcDbEntity
  8
0
100
AcDbSpline
 62
9
  6
CONTINUOUS
 70
0
 71
3
 72
21
 73
17
 74
0
 42
0.0000001
 43
0.0000001
 44
0.0000000001
 40
0.0
 40
0.0
 40
0.0
 40
0.0
 40
0.0075890985
 40
0.0158030109
 40
0.02506754
 40
0.0357190128
 40
0.0621095118
 40
0.0964607727
 40
0.1395627271
 40
0.1912799079
 40
0.2511696122
 40
0.3187277741
 40
0.4735819598
 40
0.6458465545
 40
0.8245346552
 40
1.0
 40
1.0
 40
1.0
 40
1.0
 10
11.6893783327
 20
8.9874333689
 30
0.0
 10
11.6893517458
 20
8.9875841502
 30
0.0
 10
11.689252837
 20
8.9878917603
 30
0.0
 10
11.6889807476
 20
8.9883230784
 30
0.0
 10
11.6885830495
 20
8.9887325467
 30
0.0
 10
11.6878280558
 20
8.9892882232
 30
0.0
 10
11.6865108235
 20
8.9898993695
 30
0.0
 10
11.6844949349
 20
8.9904829805
 30
0.0
 10
11.681926854
 20
8.9909464643
 30
0.0
 10
11.678822773
 20
8.9912871668
 30
0.0
 10
11.6752127274
 20
8.9914940431
 30
0.0
 10
11.6695167203
 20
8.9915805896
 30
0.0
 10
11.6615550559
 20
8.991274846
 30
0.0
 10
11.6513837175
 20
8.990424187
 30
0.0
 10
11.6408406093
 20
8.9891270167
 30
0.0
 10
11.6337791635
 20
8.9880300737
 30
0.0
 10
11.6302898676
 20
8.9874333689
 30
0.0
  0
SPLINE
  5
422
100
AcDbEntity
  8
0
100
AcDbSpline
 62
9
  6
CONTINUOUS
 70
0
 71
3
 72
9
 73
5
 74
0
 42
0.0000001
 43
0.0000001
 44
0.0000000001
 40
0.0
 40
0.0
 40
0.0
 40
0.0
 40
0.2477329686
 40
1.0
 40
1.0
 40
1.0
 40
1.0
 10
11.5242537117
 20
9.460942251
 30
0.0
 10
11.5237397855
 20
9.4620088543
 30
0.0
 10
11.5215406879
 20
9.4662528832
 30
0.0
 10
11.5188406064
 20
9.4702396031
 30
0.0
 10
11.5165570226
 20
9.473016445
 30
0.0
  0
SPLINE
  5
423
100
AcDbEntity
  8
0
100
AcDbSpline
 62
9
  6
CONTINUOUS
 70
0
 71
3
 72
8
 73
4
 74
0
 42
0.0000001
 43
0.0000001
 44
0.0000000001
 40
0.0
 40
0.0
 40
0.0
 40
0.0
 40
1.0
 40
1.0
 40
1.0
 40
1.0
 10
11.4106623202
 20
10.5681033158
 30
0.0
 10
11.4827622385
 20
10.1590738672
 30
0.0
 10
11.5545782715
 20
9.7499942767
 30
0.0
 10
11.6261108823
 20
9.3408652339
 30
0.0
  0
SPLINE
  5
424
100
AcDbEntity
  8
0
100
AcDbSpline
 62
9
  6
CONTINUOUS
 70
0
 71
3
 72
17
 73
13
 74
0
 42
0.0000001
 43
0.0000001
 44
0.0000000001
 40
0.0
 40
0.0
 40
0.0
 40
0.0
 40
0.0116849494
 40
0.0281413148
 40
0.0501723584
 40
0.0783325399
 40
0.1548054622
 40
0.2608091452
 40
0.398941773
 40
0.5690676828
 40
0.7698691041
 40
1.0
 40
1.0
 40
1.0
 40
1.0
 10
11.4308428335
 20
9.9304197821
 30
0.0
 10
11.4307511198
 20
9.9303402527
 30
0.0
 10
11.4305775213
 20
9.9300976654
 30
0.0
 10
11.430366741
 20
9.9296204564
 30
0.0
 10
11.430161771
 20
9.9289575483
 30
0.0
 10
11.4298688427
 20
9.9276741482
 30
0.0
 10
11.4295512851
 20
9.9255063571
 30
0.0
 10
11.4292300411
 20
9.9221909372
 30
0.0
 10
11.4289522993
 20
9.9178955077
 30
0.0
 10
11.4287116688
 20
9.9126123378
 30
0.0
 10
11.4285081926
 20
9.9063711894
 30
0.0
 10
11.4284030881
 20
9.9018954866
 30
0.0
 10
11.4283545367
 20
9.899505182
 30
0.0
  0
SPLINE
  5
425
100
AcDbEntity
  8
0
100
AcDbSpline
 62
9
  6
CONTINUOUS
 70
0
 71
3
 72
12
 73
8
 74
0
 42
0.0000001
 43
0.0000001
 44
0.0000000001
 40
0.0
 40
0.0
 40
0.0
 40
0.0
 40
0.0820395663
 40
0.1774116431
 40
0.4066890448
 40
0.6829413686
 40
1.0
 40
1.0
 40
1.0
 40
1.0
 10
11.4283545367
 20
9.899505182
 30
0.0
 10
11.4282658008
 20
9.8951365003
 30
0.0
 10
11.4281278973
 20
9.885688067
 30
0.0
 10
11.4279743173
 20
9.8640274616
 30
0.0
 10
11.4280254655
 20
9.8320218211
 30
0.0
 10
11.4283858892
 20
9.7882105375
 30
0.0
 10
11.4288099159
 20
9.7566123533
 30
0.0
 10
11.4290726465
 20
9.7397272537
 30
0.0
  0
LINE
  5
426
100
AcDbEntity
  8
0
100
AcDbLine
 62
9
  6
CONTINUOUS
 10
11.4290726465
 20
9.7397272537
 11
11.429199137
 21
9.7317722282
  0
LINE
  5
427
100
AcDbEntity
  8
0
100
AcDbLine
 62
9
  6
CONTINUOUS
 10
11.4330298649
 20
9.5649125143
 11
11.433462514
 21
9.5505273198
  0
SPLINE
  5
428
100
AcDbEntity
  8
0
100
AcDbSpline
 62
9
  6
CONTINUOUS
 70
0
 71
3
 72
22
 73
18
 74
0
 42
0.0000001
 43
0.0000001
 44
0.0000000001
 40
0.0
 40
0.0
 40
0.0
 40
0.0
 40
0.1873154128
 40
0.3680171247
 40
0.5348521094
 40
0.6112176347
 40
0.6819792812
 40
0.7465350392
 40
0.8043074681
 40
0.8548526057
 40
0.8979119224
 40
0.9333512541
 40
0.9613482088
 40
0.9728160103
 40
0.982838903
 40
0.9917422481
 40
1.0
 40
1.0
 40
1.0
 40
1.0
 10
10.5330713133
 20
10.56808803
 30
0.0
 10
10.5291781421
 20
10.5680957533
 30
0.0
 10
10.5215283094
 20
10.5679820712
 30
0.0
 10
10.5104233056
 20
10.5674334387
 30
0.0
 10
10.5016439995
 20
10.5666570128
 30
0.0
 10
10.4951688125
 20
10.5658436045
 30
0.0
 10
10.4908197101
 20
10.5651743323
 30
0.0
 10
10.4868741605
 20
10.5644361711
 30
0.0
 10
10.4833701404
 20
10.5636358649
 30
0.0
 10
10.4803407179
 20
10.5627809502
 30
0.0
 10
10.4778105696
 20
10.5618815103
 30
0.0
 10
10.475801094
 20
10.5609460937
 30
0.0
 10
10.4744874727
 20
10.5600894455
 30
0.0
 10
10.4737457576
 20
10.5593720759
 30
0.0
 10
10.4733666548
 20
10.5588622004
 30
0.0
 10
10.4731301024
 20
10.5583435197
 30
0.0
 10
10.4730719043
 20
10.5579859974
 30
0.0
 10
10.4730695528
 20
10.5578143838
 30
0.0
  0
SPLINE
  5
429
100
AcDbEntity
  8
0
100
AcDbSpline
 62
9
  6
CONTINUOUS
 70
0
 71
3
 72
9
 73
5
 74
0
 42
0.0000001
 43
0.0000001
 44
0.0000000001
 40
0.0
 40
0.0
 40
0.0
 40
0.0
 40
0.5039885634
 40
1.0
 40
1.0
 40
1.0
 40
1.0
 10
10.2277882892
 20
9.2243911302
 30
0.0
 10
10.2312434937
 20
9.2439863942
 30
0.0
 10
10.2381934433
 20
9.2828502715
 30
0.0
 10
10.2455044224
 20
9.3216488151
 30
0.0
 10
10.2492738077
 20
9.3408652331
 30
0.0
  0
SPLINE
  5
42A
100
AcDbEntity
  8
0
100
AcDbSpline
 62
9
  6
CONTINUOUS
 70
0
 71
3
 72
20
 73
16
 74
0
 42
0.0000001
 43
0.0000001
 44
0.0000000001
 40
0.0
 40
0.0
 40
0.0
 40
0.0
 40
0.02210837
 40
0.0482653646
 40
0.0800828608
 40
0.118764966
 40
0.1650851096
 40
0.2189560566
 40
0.2799755272
 40
0.347666712
 40
0.4213902967
 40
0.4999633721
 40
0.666215616
 40
0.8358830184
 40
1.0
 40
1.0
 40
1.0
 40
1.0
 10
10.249273861
 20
9.3408652481
 30
0.0
 10
10.2492626777
 20
9.340372716
 30
0.0
 10
10.2494399403
 20
9.3392898581
 30
0.0
 10
10.25021949
 20
9.3376667376
 30
0.0
 10
10.2515379064
 20
9.3359491343
 30
0.0
 10
10.2534252949
 20
9.3341455403
 30
0.0
 10
10.2558960291
 20
9.332274127
 30
0.0
 10
10.2589318091
 20
9.3303476542
 30
0.0
 10
10.2625045234
 20
9.3283960088
 30
0.0
 10
10.2665774851
 20
9.3264523559
 30
0.0
 10
10.2710988657
 20
9.3245539862
 30
0.0
 10
10.2777469489
 20
9.3220620029
 30
0.0
 10
10.2865545539
 20
9.3192579087
 30
0.0
 10
10.2973514405
 20
9.3164849836
 30
0.0
 10
10.3046391656
 20
9.3149815687
 30
0.0
 10
10.3082374474
 20
9.3143280077
 30
0.0
  0
SPLINE
  5
42B
100
AcDbEntity
  8
0
100
AcDbSpline
 62
9
  6
CONTINUOUS
 70
0
 71
3
 72
9
 73
5
 74
0
 42
0.0000001
 43
0.0000001
 44
0.0000000001
 40
0.0
 40
0.0
 40
0.0
 40
0.0
 40
0.2525619948
 40
1.0
 40
1.0
 40
1.0
 40
1.0
 10
10.2868753054
 20
9.2068305108
 30
0.0
 10
10.2886013979
 20
9.2158945787
 30
0.0
 10
10.2954788595
 20
9.2517746333
 30
0.0
 10
10.3026089922
 20
9.2876078786
 30
0.0
 10
10.3082374427
 20
9.3143279857
 30
0.0
  0
LINE
  5
42C
100
AcDbEntity
  8
0
100
AcDbLine
 62
9
  6
CONTINUOUS
 10
10.3339282511
 20
9.4352431552
 11
10.334411075
 21
9.43749749
  0
SPLINE
  5
42D
100
AcDbEntity
  8
0
100
AcDbSpline
 62
9
  6
CONTINUOUS
 70
0
 71
3
 72
32
 73
28
 74
0
 42
0.0000001
 43
0.0000001
 44
0.0000000001
 40
0.0
 40
0.0
 40
0.0
 40
0.0
 40
0.2121262298
 40
0.3115932071
 40
0.4059991293
 40
0.4948841676
 40
0.5777885596
 40
0.6542529776
 40
0.7238628464
 40
0.7862899088
 40
0.8412162892
 40
0.888325209
 40
0.9088498348
 40
0.9273109552
 40
0.9436946155
 40
0.9579894008
 40
0.9701851031
 40
0.9802737548
 40
0.9845268344
 40
0.9882526511
 40
0.9914526782
 40
0.994130294
 40
0.9962926165
 40
0.9979550843
 40
0.998609954
 40
0.9991579627
 40
1.0
 40
1.0
 40
1.0
 40
1.0
 10
10.334411075
 20
9.43749749
 30
0.0
 10
10.3409569662
 20
9.4680565947
 30
0.0
 10
10.3506224077
 20
9.5129342731
 30
0.0
 10
10.3632881089
 20
9.5713933383
 30
0.0
 10
10.3721455052
 20
9.6120992399
 30
0.0
 10
10.3805249734
 20
9.6504118681
 30
0.0
 10
10.3883855675
 20
9.6861321683
 30
0.0
 10
10.3956869955
 20
9.7190677453
 30
0.0
 10
10.4023960729
 20
9.749044439
 30
0.0
 10
10.4084946644
 20
9.7759060001
 30
0.0
 10
10.4139666607
 20
9.7995101783
 30
0.0
 10
10.4181620167
 20
9.8170729238
 30
0.0
 10
10.4212109376
 20
9.8293853434
 30
0.0
 10
10.4232261755
 20
9.8372901027
 30
0.0
 10
10.4250770445
 20
9.8442893064
 30
0.0
 10
10.4267640025
 20
9.8503767085
 30
0.0
 10
10.4282878154
 20
9.8555462022
 30
0.0
 10
10.4294795146
 20
9.8592706165
 30
0.0
 10
10.430363446
 20
9.8617816341
 30
0.0
 10
10.4309476858
 20
9.8633217416
 30
0.0
 10
10.431491656
 20
9.8646281565
 30
0.0
 10
10.4319949255
 20
9.8657011712
 30
0.0
 10
10.4324580805
 20
9.866540551
 30
0.0
 10
10.4328337686
 20
9.8670859274
 30
0.0
 10
10.4331244698
 20
9.8673945266
 30
0.0
 10
10.4333571446
 20
9.8675838147
 30
0.0
 10
10.4335588293
 20
9.8676694695
 30
0.0
 10
10.4336828857
 20
9.8676695021
 30
0.0
  0
SPLINE
  5
42E
100
AcDbEntity
  8
0
100
AcDbSpline
 62
9
  6
CONTINUOUS
 70
0
 71
3
 72
32
 73
28
 74
0
 42
0.0000001
 43
0.0000001
 44
0.0000000001
 40
0.0
 40
0.0
 40
0.0
 40
0.0
 40
0.000848245
 40
0.0013983512
 40
0.0020546366
 40
0.003718115
 40
0.0058793735
 40
0.0085541102
 40
0.0117496016
 40
0.0154693297
 40
0.0197148401
 40
0.0297841114
 40
0.041955037
 40
0.0562198771
 40
0.072568608
 40
0.0909899752
 40
0.1114708923
 40
0.1584888374
 40
0.2133240146
 40
0.2756645739
 40
0.3451975409
 40
0.4216032985
 40
0.5044834909
 40
0.5933848008
 40
0.6878527283
 40
0.7874327345
 40
1.0
 40
1.0
 40
1.0
 40
1.0
 10
11.4417018943
 20
9.8676695021
 30
0.0
 10
11.441824277
 20
9.8676694605
 30
0.0
 10
11.4420231469
 20
9.8675861229
 30
0.0
 10
11.4422530868
 20
9.8674010045
 30
0.0
 10
11.4425396621
 20
9.8670997139
 30
0.0
 10
11.4429099825
 20
9.8665670107
 30
0.0
 10
11.4433661831
 20
9.8657469522
 30
0.0
 10
11.4438615644
 20
9.8646986939
 30
0.0
 10
11.4443966825
 20
9.8634224518
 30
0.0
 10
11.4449711292
 20
9.8619179248
 30
0.0
 10
11.4458398125
 20
9.8594650458
 30
0.0
 10
11.4470102745
 20
9.855826698
 30
0.0
 10
11.4485060395
 20
9.8507764531
 30
0.0
 10
11.450161069
 20
9.8448293858
 30
0.0
 10
11.451976085
 20
9.8379914175
 30
0.0
 10
11.4539515337
 20
9.8302685033
 30
0.0
 10
11.4569395809
 20
9.8182375851
 30
0.0
 10
11.4610500513
 20
9.8010725733
 30
0.0
 10
11.466410015
 20
9.7779973684
 30
0.0
 10
11.4723830718
 20
9.7517299973
 30
0.0
 10
11.4789537644
 20
9.7224071278
 30
0.0
 10
11.4861051829
 20
9.6901775783
 30
0.0
 10
11.4938071741
 20
9.6552078654
 30
0.0
 10
11.502020745
 20
9.6176824411
 30
0.0
 10
11.5107064802
 20
9.5777939429
 30
0.0
 10
11.5231360145
 20
9.5204603796
 30
0.0
 10
11.5326252834
 20
9.4764355936
 30
0.0
 10
11.5390553437
 20
9.4464485723
 30
0.0
  0
SPLINE
  5
42F
100
AcDbEntity
  8
0
100
AcDbSpline
 62
9
  6
CONTINUOUS
 70
0
 71
3
 72
9
 73
5
 74
0
 42
0.0000001
 43
0.0000001
 44
0.0000000001
 40
0.0
 40
0.0
 40
0.0
 40
0.0
 40
0.247109512
 40
1.0
 40
1.0
 40
1.0
 40
1.0
 10
11.5671472427
 20
9.3143279857
 30
0.0
 10
11.5690080855
 20
9.3054939528
 30
0.0
 10
11.5764046331
 20
9.2697162175
 30
0.0
 10
11.5833640493
 20
9.2338497218
 30
0.0
 10
11.588509627
 20
9.206829214
 30
0.0
  0
SPLINE
  5
430
100
AcDbEntity
  8
0
100
AcDbSpline
 62
9
  6
CONTINUOUS
 70
0
 71
3
 72
34
 73
30
 74
0
 42
0.0000001
 43
0.0000001
 44
0.0000000001
 40
0.0
 40
0.0
 40
0.0
 40
0.0
 40
0.1042885516
 40
0.2057509428
 40
0.3036318012
 40
0.3972856149
 40
0.4861014125
 40
0.5694904804
 40
0.6468804637
 40
0.7177274962
 40
0.7815119863
 40
0.8377860606
 40
0.8629729405
 40
0.8861322186
 40
0.9072269801
 40
0.9262205966
 40
0.9430770737
 40
0.9577680869
 40
0.9702730685
 40
0.9805733645
 40
0.9848919829
 40
0.9886551694
 40
0.9918642378
 40
0.9945220518
 40
0.9966345329
 40
0.9982148398
 40
0.9988154822
 40
0.999300455
 40
1.0
 40
1.0
 40
1.0
 40
1.0
 10
10.2492738609
 20
9.3408652481
 30
0.0
 10
10.2533263797
 20
9.3616515062
 30
0.0
 10
10.2613577921
 20
9.4026536763
 30
0.0
 10
10.2733002546
 20
9.4631438257
 30
0.0
 10
10.2848949865
 20
9.5215013238
 30
0.0
 10
10.2960497429
 20
9.5773278902
 30
0.0
 10
10.3066787764
 20
9.6302584933
 30
0.0
 10
10.3167082816
 20
9.6799408751
 30
0.0
 10
10.3260684498
 20
9.7260358694
 30
0.0
 10
10.334702215
 20
9.7682160264
 30
0.0
 10
10.3425569138
 20
9.8061787074
 30
0.0
 10
10.3486260933
 20
9.83504225
 30
0.0
 10
10.3530786718
 20
9.8558154171
 30
0.0
 10
10.3560785233
 20
9.8695938588
 30
0.0
 10
10.3588624657
 20
9.8821320978
 30
0.0
 10
10.3614290657
 20
9.8934073923
 30
0.0
 10
10.3637771266
 20
9.9033985422
 30
0.0
 10
10.3659057857
 20
9.9120874312
 30
0.0
 10
10.3678153764
 20
9.9194585912
 30
0.0
 10
10.3692975503
 20
9.9247641112
 30
0.0
 10
10.3703888336
 20
9.9283340304
 30
0.0
 10
10.3711040022
 20
9.9305126911
 30
0.0
 10
10.3717650165
 20
9.9323534318
 30
0.0
 10
10.3723708236
 20
9.9338570326
 30
0.0
 10
10.3729230941
 20
9.9350232636
 30
0.0
 10
10.3733661274
 20
9.9357769112
 30
0.0
 10
10.373710879
 20
9.9361983394
 30
0.0
 10
10.3739733022
 20
9.9364434485
 30
0.0
 10
10.3742164966
 20
9.9365530505
 30
0.0
 10
10.3743578696
 20
9.9365391481
 30
0.0
  0
SPLINE
  5
431
100
AcDbEntity
  8
0
100
AcDbSpline
 62
9
  6
CONTINUOUS
 70
0
 71
3
 72
17
 73
13
 74
0
 42
0.0000001
 43
0.0000001
 44
0.0000000001
 40
0.0
 40
0.0
 40
0.0
 40
0.0
 40
0.114987417
 40
0.2379461316
 40
0.3021293502
 40
0.3675904213
 40
0.5001178759
 40
0.6326289912
 40
0.6980676611
 40
0.7622189174
 40
0.8851016501
 40
1.0
 40
1.0
 40
1.0
 40
1.0
 10
10.3743578698
 20
9.9365391496
 30
0.0
 10
10.3737742204
 20
9.9326333023
 30
0.0
 10
10.3733742847
 20
9.924411709
 30
0.0
 10
10.3749712256
 20
9.9140742688
 30
0.0
 10
10.3777070774
 20
9.9058235431
 30
0.0
 10
10.3814564724
 20
9.8976220477
 30
0.0
 10
10.3878533473
 20
9.8881143082
 30
0.0
 10
10.3963194338
 20
9.8803927052
 30
0.0
 10
10.4038799988
 20
9.8754818339
 30
0.0
 10
10.4116363921
 20
9.8715677279
 30
0.0
 10
10.421621435
 20
9.8684744351
 30
0.0
 10
10.4298071118
 20
9.8676647847
 30
0.0
 10
10.4337532638
 20
9.8676695446
 30
0.0
  0
LINE
  5
432
100
AcDbEntity
  8
0
100
AcDbLine
 62
9
  6
CONTINUOUS
 10
10.3743407311
 20
9.936541712
 11
10.4445239762
 21
9.930420603
  0
SPLINE
  5
433
100
AcDbEntity
  8
0
100
AcDbSpline
 62
9
  6
CONTINUOUS
 70
0
 71
3
 72
15
 73
11
 74
0
 42
0.0000001
 43
0.0000001
 44
0.0000000001
 40
0.0
 40
0.0
 40
0.0
 40
0.0
 40
0.116692768
 40
0.2400637396
 40
0.3687006045
 40
0.4998950561
 40
0.6311073043
 40
0.7597924651
 40
0.8832319145
 40
1.0
 40
1.0
 40
1.0
 40
1.0
 10
11.4642766583
 20
9.4926695021
 30
0.0
 10
11.460637507
 20
9.4926694895
 30
0.0
 10
11.4531354459
 20
9.4933632953
 30
0.0
 10
11.4420084536
 20
9.4965314479
 30
0.0
 10
11.4313343053
 20
9.502079911
 30
0.0
 10
11.4217468618
 20
9.5097555985
 30
0.0
 10
11.4139966593
 20
9.5192848092
 30
0.0
 10
11.4083631178
 20
9.5299189339
 30
0.0
 10
11.4051043611
 20
9.5410258453
 30
0.0
 10
11.4043483338
 20
9.5485263005
 30
0.0
 10
11.4043178977
 20
9.5521676734
 30
0.0
  0
LINE
  5
434
100
AcDbEntity
  8
0
100
AcDbLine
 62
9
  6
CONTINUOUS
 10
11.4043166755
 20
9.5521676632
 11
11.4334610397
 21
9.5505272671
  0
LINE
  5
435
100
AcDbEntity
  8
0
100
AcDbLine
 62
9
  6
CONTINUOUS
 10
11.4308607101
 20
9.9304206031
 11
11.5010439534
 21
9.9365417119
  0
SPLINE
  5
436
100
AcDbEntity
  8
0
100
AcDbSpline
 62
9
  6
CONTINUOUS
 70
0
 71
3
 72
17
 73
13
 74
0
 42
0.0000001
 43
0.0000001
 44
0.0000000001
 40
0.0
 40
0.0
 40
0.0
 40
0.0
 40
0.114987126
 40
0.2379456034
 40
0.3021287335
 40
0.3675897382
 40
0.5001171349
 40
0.632628308
 40
0.6980670444
 40
0.7622183895
 40
0.8851013591
 40
1.0
 40
1.0
 40
1.0
 40
1.0
 10
11.5010268157
 20
9.9365391496
 30
0.0
 10
11.5016104636
 20
9.9326333122
 30
0.0
 10
11.5020104009
 20
9.9244117375
 30
0.0
 10
11.5004134701
 20
9.9140743176
 30
0.0
 10
11.4976776309
 20
9.9058236021
 30
0.0
 10
11.4939282484
 20
9.8976221091
 30
0.0
 10
11.4875313862
 20
9.8881143638
 30
0.0
 10
11.4790653072
 20
9.8803927491
 30
0.0
 10
11.4715047417
 20
9.8754818651
 30
0.0
 10
11.4637483402
 20
9.8715677452
 30
0.0
 10
11.4537632787
 20
9.8684744394
 30
0.0
 10
11.4455775837
 20
9.8676647847
 30
0.0
 10
11.4416314217
 20
9.8676695446
 30
0.0
  0
SPLINE
  5
437
100
AcDbEntity
  8
0
100
AcDbSpline
 62
9
  6
CONTINUOUS
 70
0
 71
3
 72
34
 73
30
 74
0
 42
0.0000001
 43
0.0000001
 44
0.0000000001
 40
0.0
 40
0.0
 40
0.0
 40
0.0
 40
0.0007008763
 40
0.0011866896
 40
0.0017880749
 40
0.0033694045
 40
0.0054822462
 40
0.0081398272
 40
0.0113481712
 40
0.0151102544
 40
0.0194275575
 40
0.0297272229
 40
0.042233748
 40
0.0569264808
 40
0.0737831224
 40
0.0927774522
 40
0.1138738384
 40
0.1370347329
 40
0.162222394
 40
0.2185003652
 40
0.2822896681
 40
0.3531424388
 40
0.4305411011
 40
0.5139371638
 40
0.6027552073
 40
0.6964009544
 40
0.7942660299
 40
0.8957146937
 40
1.0
 40
1.0
 40
1.0
 40
1.0
 10
11.5010268159
 20
9.9365391481
 30
0.0
 10
11.5011685319
 20
9.9365523
 30
0.0
 10
11.5014115553
 20
9.936441713
 30
0.0
 10
11.5016741575
 20
9.9361959307
 30
0.0
 10
11.5020189507
 20
9.935773867
 30
0.0
 10
11.5024621244
 20
9.935019826
 30
0.0
 10
11.5030145069
 20
9.9338533862
 30
0.0
 10
11.5036203878
 20
9.9323499533
 30
0.0
 10
11.5042814271
 20
9.9305096687
 30
0.0
 10
11.5049965934
 20
9.9283316839
 30
0.0
 10
11.5060880061
 20
9.9247624581
 30
0.0
 10
11.507570291
 20
9.9194570609
 30
0.0
 10
11.509480003
 20
9.9120853943
 30
0.0
 10
11.511608718
 20
9.9033958184
 30
0.0
 10
11.5139567083
 20
9.8934041291
 30
0.0
 10
11.5165232545
 20
9.8821283226
 30
0.0
 10
11.5193072352
 20
9.8695892933
 30
0.0
 10
11.5223071462
 20
9.8558100546
 30
0.0
 10
11.5267597865
 20
9.8350356328
 30
0.0
 10
11.5328294387
 20
9.8061702747
 30
0.0
 10
11.540684691
 20
9.7682047832
 30
0.0
 10
11.5493192552
 20
9.7260208831
 30
0.0
 10
11.5586804876
 20
9.6799217543
 30
0.0
 10
11.5687103261
 20
9.6302358205
 30
0.0
 10
11.579339441
 20
9.5773050897
 30
0.0
 10
11.5904932766
 20
9.5214829176
 30
0.0
 10
11.6020868031
 20
9.4631330689
 30
0.0
 10
11.61402779
 20
9.4026495212
 30
0.0
 10
11.6220585011
 20
9.3616508024
 30
0.0
 10
11.6261108305
 20
9.3408652177
 30
0.0
  0
SPLINE
  5
438
100
AcDbEntity
  8
0
100
AcDbSpline
 62
9
  6
CONTINUOUS
 70
0
 71
3
 72
20
 73
16
 74
0
 42
0.0000001
 43
0.0000001
 44
0.0000000001
 40
0.0
 40
0.0
 40
0.0
 40
0.0
 40
0.0227086521
 40
0.0496280262
 40
0.0823938755
 40
0.122175696
 40
0.1696820404
 40
0.2247218872
 40
0.2867729271
 40
0.3552333095
 40
0.4293558544
 40
0.5079280596
 40
0.6729372865
 40
0.8397586924
 40
1.0
 40
1.0
 40
1.0
 40
1.0
 10
11.6261108305
 20
9.3408652177
 30
0.0
 10
11.6261223172
 20
9.34035932
 30
0.0
 10
11.6259333706
 20
9.3392459053
 30
0.0
 10
11.6251142838
 20
9.3375841269
 30
0.0
 10
11.6237396803
 20
9.3358305822
 30
0.0
 10
11.6217829543
 20
9.3339953092
 30
0.0
 10
11.6192348015
 20
9.3320988332
 30
0.0
 10
11.6161211523
 20
9.3301545785
 30
0.0
 10
11.6124783644
 20
9.3281935647
 30
0.0
 10
11.6083513174
 20
9.3262498445
 30
0.0
 10
11.60379794
 20
9.3243609004
 30
0.0
 10
11.5971585116
 20
9.3219000289
 30
0.0
 10
11.5884306892
 20
9.3191474138
 30
0.0
 10
11.5778020459
 20
9.3164345774
 30
0.0
 10
11.5706603777
 20
9.3149660732
 30
0.0
 10
11.5671471219
 20
9.3143279575
 30
0.0
  0
SPLINE
  5
439
100
AcDbEntity
  8
0
100
AcDbSpline
 62
9
  6
CONTINUOUS
 70
0
 71
3
 72
9
 73
5
 74
0
 42
0.0000001
 43
0.0000001
 44
0.0000000001
 40
0.0
 40
0.0
 40
0.0
 40
0.0
 40
0.4960039063
 40
1.0
 40
1.0
 40
1.0
 40
1.0
 10
11.6261108823
 20
9.3408652339
 30
0.0
 10
11.6298801567
 20
9.3216493699
 30
0.0
 10
11.6371910785
 20
9.2828513642
 30
0.0
 10
11.6441408428
 20
9.243988002
 30
0.0
 10
11.6475961092
 20
9.2243927232
 30
0.0
  0
SPLINE
  5
43A
100
AcDbEntity
  8
0
100
AcDbSpline
 62
9
  6
CONTINUOUS
 70
0
 71
3
 72
22
 73
18
 74
0
 42
0.0000001
 43
0.0000001
 44
0.0000000001
 40
0.0
 40
0.0
 40
0.0
 40
0.0
 40
0.0051662447
 40
0.0111448343
 40
0.0184691758
 40
0.0274865076
 40
0.0514343267
 40
0.0842550019
 40
0.1266040645
 40
0.1782188108
 40
0.2385700675
 40
0.3070973827
 40
0.3830658839
 40
0.4650876603
 40
0.6410404091
 40
0.8228424159
 40
1.0
 40
1.0
 40
1.0
 40
1.0
 10
11.6475962892
 20
9.2243911126
 30
0.0
 10
11.6476149729
 20
9.2242851521
 30
0.0
 10
11.64760674
 20
9.2240465921
 30
0.0
 10
11.6474606037
 20
9.2236852214
 30
0.0
 10
11.6471879514
 20
9.2233051429
 30
0.0
 10
11.6465921753
 20
9.2227107273
 30
0.0
 10
11.6454595798
 20
9.2219256136
 30
0.0
 10
11.6436379396
 20
9.2209519819
 30
0.0
 10
11.6412193871
 20
9.2198868617
 30
0.0
 10
11.6382177631
 20
9.2187365542
 30
0.0
 10
11.6346601074
 20
9.2175203495
 30
0.0
 10
11.6305844058
 20
9.2162579588
 30
0.0
 10
11.6260449039
 20
9.2149725781
 30
0.0
 10
11.6193174565
 20
9.2132073148
 30
0.0
 10
11.6104023055
 20
9.2111010768
 30
0.0
 10
11.5994946519
 20
9.2088310279
 30
0.0
 10
11.592142892
 20
9.2074705875
 30
0.0
 10
11.588507823
 20
9.206838687
 30
0.0
  0
SPLINE
  5
43B
100
AcDbEntity
  8
0
100
AcDbSpline
 62
9
  6
CONTINUOUS
 70
0
 71
3
 72
20
 73
16
 74
0
 42
0.0000001
 43
0.0000001
 44
0.0000000001
 40
0.0
 40
0.0
 40
0.0
 40
0.0
 40
0.0176934177
 40
0.0283886736
 40
0.0406126717
 40
0.0700790446
 40
0.1065921795
 40
0.1502114658
 40
0.2008290753
 40
0.2582571721
 40
0.3222661645
 40
0.4684160994
 40
0.6342467333
 40
0.8137636387
 40
1.0
 40
1.0
 40
1.0
 40
1.0
 10
11.4043179131
 20
9.5521665134
 30
0.0
 10
11.4042426449
 20
9.5518090924
 30
0.0
 10
11.4039450776
 20
9.5512740616
 30
0.0
 10
11.4033693323
 20
9.5506658908
 30
0.0
 10
11.4025278645
 20
9.5499808781
 30
0.0
 10
11.4011264151
 20
9.549164974
 30
0.0
 10
11.3990484361
 20
9.5482631275
 30
0.0
 10
11.3964900856
 20
9.5473950626
 30
0.0
 10
11.3934687505
 20
9.5465688173
 30
0.0
 10
11.3900014602
 20
9.5457933241
 30
0.0
 10
11.3845672206
 20
9.5447954356
 30
0.0
 10
11.3768686837
 20
9.54377176
 30
0.0
 10
11.3667582616
 20
9.5428891788
 30
0.0
 10
11.3557949328
 20
9.5423556574
 30
0.0
 10
11.3482435907
 20
9.5422430791
 30
0.0
 10
11.3443989628
 20
9.5422504433
 30
0.0
  0
SPLINE
  5
43C
100
AcDbEntity
  8
0
100
AcDbSpline
 62
9
  6
CONTINUOUS
 70
0
 71
3
 72
22
 73
18
 74
0
 42
0.0000001
 43
0.0000001
 44
0.0000000001
 40
0.0
 40
0.0
 40
0.0
 40
0.0
 40
0.1873131653
 40
0.3679879886
 40
0.5347741816
 40
0.6111286674
 40
0.6818950988
 40
0.7464597667
 40
0.8042374266
 40
0.8547993361
 40
0.8978787769
 40
0.9333301393
 40
0.9613381025
 40
0.9728109144
 40
0.9828373435
 40
0.991742275
 40
1.0
 40
1.0
 40
1.0
 40
1.0
 10
11.3423049957
 20
10.5680880337
 30
0.0
 10
11.3461985927
 20
10.56809599
 30
0.0
 10
11.3538487557
 20
10.5679823768
 30
0.0
 10
11.3649534938
 20
10.5674339364
 30
0.0
 10
11.3737321042
 20
10.5666579376
 30
0.0
 10
11.3802069568
 20
10.5658446939
 30
0.0
 10
11.3845566964
 20
10.5651757067
 30
0.0
 10
11.3885031956
 20
10.5644378141
 30
0.0
 10
11.3920082911
 20
10.5636373592
 30
0.0
 10
11.3950389992
 20
10.5627824021
 30
0.0
 10
11.3975705854
 20
10.5618829737
 30
0.0
 10
11.3995811275
 20
10.5609470527
 30
0.0
 10
11.4008954621
 20
10.5600901289
 30
0.0
 10
11.4016378137
 20
10.5593726612
 30
0.0
 10
11.4020173241
 20
10.5588627321
 30
0.0
 10
11.4022541949
 20
10.558343999
 30
0.0
 10
11.4023124917
 20
10.5579864009
 30
0.0
 10
11.4023148434
 20
10.5578147669
 30
0.0
  0
LINE
  5
43D
100
AcDbEntity
  8
0
100
AcDbLine
 62
9
  6
CONTINUOUS
 10
11.4023148434
 20
10.5578147669
 11
11.4043193553
 21
9.5521671854
  0
SPLINE
  5
43E
100
AcDbEntity
  8
0
100
AcDbSpline
 62
9
  6
CONTINUOUS
 70
0
 71
3
 72
15
 73
11
 74
0
 42
0.0000001
 43
0.0000001
 44
0.0000000001
 40
0.0
 40
0.0
 40
0.0
 40
0.0
 40
0.1166927744
 40
0.2400636768
 40
0.3687004297
 40
0.4998947672
 40
0.6311069354
 40
0.75979211
 40
0.8832316735
 40
1.0
 40
1.0
 40
1.0
 40
1.0
 10
10.4111082302
 20
9.4926695021
 30
0.0
 10
10.4147473556
 20
9.4926695021
 30
0.0
 10
10.4222493583
 20
9.4933633228
 30
0.0
 10
10.4333762601
 20
9.4965314659
 30
0.0
 10
10.4440503235
 20
9.502079882
 30
0.0
 10
10.453637704
 20
9.5097554893
 30
0.0
 10
10.4613878799
 20
9.5192845991
 30
0.0
 10
10.4670214333
 20
9.5299186198
 30
0.0
 10
10.4702802416
 20
9.5410254407
 30
0.0
 10
10.4710363185
 20
9.5485258471
 30
0.0
 10
10.4710667838
 20
9.5521672012
 30
0.0
  0
SPLINE
  5
43F
100
AcDbEntity
  8
0
100
AcDbSpline
 62
9
  6
CONTINUOUS
 70
0
 71
3
 72
20
 73
16
 74
0
 42
0.0000001
 43
0.0000001
 44
0.0000000001
 40
0.0
 40
0.0
 40
0.0
 40
0.0
 40
0.1862269693
 40
0.3657321387
 40
0.531554933
 40
0.6777036185
 40
0.7417149252
 40
0.7991469124
 40
0.8497694243
 40
0.8933940487
 40
0.9299123633
 40
0.9593831411
 40
0.9716088523
 40
0.9823053997
 40
1.0
 40
1.0
 40
1.0
 40
1.0
 10
10.5309857227
 20
9.5422504161
 30
0.0
 10
10.5271412944
 20
9.5422430458
 30
0.0
 10
10.5195903994
 20
9.5423556003
 30
0.0
 10
10.5086276832
 20
9.5428890625
 30
0.0
 10
10.498517698
 20
9.5437715236
 30
0.0
 10
10.4908193022
 20
9.5447951144
 30
0.0
 10
10.4853849637
 20
9.545792986
 30
0.0
 10
10.4819174493
 20
9.5465685035
 30
0.0
 10
10.4788958284
 20
9.5473947916
 30
0.0
 10
10.4763371644
 20
9.5482629097
 30
0.0
 10
10.4742588781
 20
9.5491648123
 30
0.0
 10
10.4728571885
 20
9.5499807594
 30
0.0
 10
10.4720155539
 20
9.550665808
 30
0.0
 10
10.4714397018
 20
9.5512739917
 30
0.0
 10
10.4711420559
 20
9.5518090457
 30
0.0
 10
10.4710667717
 20
9.5521664877
 30
0.0
  0
LINE
  5
440
100
AcDbEntity
  8
0
100
AcDbLine
 62
9
  6
CONTINUOUS
 10
10.4710653772
 20
9.552167213
 11
10.4730695528
 21
10.5578143838
  0
LINE
  5
441
100
AcDbEntity
  8
0
100
AcDbLine
 62
9
  6
CONTINUOUS
 10
10.44192218
 20
9.5505272462
 11
10.4423548587
 21
9.5649650887
  0
LINE
  5
442
100
AcDbEntity
  8
0
100
AcDbLine
 62
9
  6
CONTINUOUS
 10
10.4462430843
 20
9.7353560785
 11
10.4464199214
 21
9.7468085157
  0
SPLINE
  5
443
100
AcDbEntity
  8
0
100
AcDbSpline
 62
9
  6
CONTINUOUS
 70
0
 71
3
 72
12
 73
8
 74
0
 42
0.0000001
 43
0.0000001
 44
0.0000000001
 40
0.0
 40
0.0
 40
0.0
 40
0.0
 40
0.3181409663
 40
0.5946017543
 40
0.823476019
 40
0.9184889726
 40
1.0
 40
1.0
 40
1.0
 40
1.0
 10
10.4464199214
 20
9.7468085157
 30
0.0
 10
10.4466644225
 20
9.7631717271
 30
0.0
 10
10.4470565776
 20
9.7937554375
 30
0.0
 10
10.4473774576
 20
9.8361136333
 30
0.0
 10
10.4474021878
 20
9.8669957941
 30
0.0
 10
10.4472328096
 20
9.8878487441
 30
0.0
 10
10.4470882043
 20
9.8969280811
 30
0.0
 10
10.446996103
 20
9.9011199625
 30
0.0
  0
SPLINE
  5
444
100
AcDbEntity
  8
0
100
AcDbSpline
 62
9
  6
CONTINUOUS
 70
0
 71
3
 72
17
 73
13
 74
0
 42
0.0000001
 43
0.0000001
 44
0.0000000001
 40
0.0
 40
0.0
 40
0.0
 40
0.0
 40
0.2296729446
 40
0.4299833915
 40
0.5999393775
 40
0.7385730653
 40
0.8456658546
 40
0.9230454178
 40
0.9513473694
 40
0.9731988841
 40
0.9891124468
 40
1.0
 40
1.0
 40
1.0
 40
1.0
 10
10.446996103
 20
9.9011199625
 30
0.0
 10
10.4469463825
 20
9.9033829301
 30
0.0
 10
10.4468392384
 20
9.907619266
 30
0.0
 10
10.4466340036
 20
9.9135284908
 30
0.0
 10
10.4463936601
 20
9.918538213
 30
0.0
 10
10.4461189572
 20
9.9226263961
 30
0.0
 10
10.4458049502
 20
9.9257952495
 30
0.0
 10
10.4454962955
 20
9.927872211
 30
0.0
 10
10.4452107242
 20
9.9290965897
 30
0.0
 10
10.4450109047
 20
9.9297183676
 30
0.0
 10
10.4448071665
 20
9.9301522242
 30
0.0
 10
10.4446327319
 20
9.9303627353
 30
0.0
 10
10.444541852
 20
9.930419782
 30
0.0
  0
SPLINE
  5
445
100
AcDbEntity
  8
0
100
AcDbSpline
 62
9
  6
CONTINUOUS
 70
0
 71
3
 72
8
 73
4
 74
0
 42
0.0000001
 43
0.0000001
 44
0.0000000001
 40
0.0
 40
0.0
 40
0.0
 40
0.0
 40
1.0
 40
1.0
 40
1.0
 40
1.0
 10
10.2492738077
 20
9.3408652331
 30
0.0
 10
10.3208064161
 20
9.7499942763
 30
0.0
 10
10.3926224459
 20
10.1590738674
 30
0.0
 10
10.4647223599
 20
10.5681033168
 30
0.0
  0
LINE
  5
446
100
AcDbEntity
  8
0
100
AcDbLine
 62
9
  6
CONTINUOUS
 10
10.4419236057
 20
9.550526757
 11
10.471068007
 21
9.5521671909
  0
SPLINE
  5
447
100
AcDbEntity
  8
0
100
AcDbSpline
 62
9
  6
CONTINUOUS
 70
0
 71
3
 72
9
 73
5
 74
0
 42
0.0000001
 43
0.0000001
 44
0.0000000001
 40
0.0
 40
0.0
 40
0.0
 40
0.0
 40
0.249882766
 40
1.0
 40
1.0
 40
1.0
 40
1.0
 10
10.3513652384
 20
9.4614228368
 30
0.0
 10
10.3518735988
 20
9.4624531241
 30
0.0
 10
10.3540241506
 20
9.4665176962
 30
0.0
 10
10.3566334834
 20
9.4703409188
 30
0.0
 10
10.3588203586
 20
9.4730077039
 30
0.0
  0
SPLINE
  5
448
100
AcDbEntity
  8
0
100
AcDbSpline
 62
9
  6
CONTINUOUS
 70
0
 71
3
 72
25
 73
21
 74
0
 42
0.0000001
 43
0.0000001
 44
0.0000000001
 40
0.0
 40
0.0
 40
0.0
 40
0.0
 40
0.1962087573
 40
0.3847763429
 40
0.4737508369
 40
0.5580104858
 40
0.6367288703
 40
0.7090820425
 40
0.7743044785
 40
0.8318533885
 40
0.8812496935
 40
0.9220335439
 40
0.9390742027
 40
0.9538668124
 40
0.9664307228
 40
0.9768028998
 40
0.9850563397
 40
0.9913469527
 40
0.9960425883
 40
1.0
 40
1.0
 40
1.0
 40
1.0
 10
10.0692133967
 20
7.9899596271
 30
0.0
 10
10.0653244825
 20
7.9896415318
 30
0.0
 10
10.0576932514
 20
7.989075704
 30
0.0
 10
10.0482875261
 20
7.9885266223
 30
0.0
 10
10.0410994353
 20
7.9882097659
 30
0.0
 10
10.0360917408
 20
7.9880406459
 30
0.0
 10
10.0314128688
 20
7.9879366957
 30
0.0
 10
10.0271115428
 20
7.9878991661
 30
0.0
 10
10.0232311218
 20
7.9879295008
 30
0.0
 10
10.0198083283
 20
7.9880257111
 30
0.0
 10
10.0168745526
 20
7.9881858326
 30
0.0
 10
10.0147501104
 20
7.9883785429
 30
0.0
 10
10.0133190377
 20
7.9885740278
 30
0.0
 10
10.0124491422
 20
7.9887264922
 30
0.0
 10
10.0117170321
 20
7.988892766
 30
0.0
 10
10.0111226389
 20
7.9890719194
 30
0.0
 10
10.0106639488
 20
7.9892637325
 30
0.0
 10
10.0103386198
 20
7.9894684309
 30
0.0
 10
10.0101368033
 20
7.9896995372
 30
0.0
 10
10.0101112893
 20
7.9898820999
 30
0.0
 10
10.0101248195
 20
7.9899596271
 30
0.0
  0
SPLINE
  5
449
100
AcDbEntity
  8
0
100
AcDbSpline
 62
9
  6
CONTINUOUS
 70
0
 71
3
 72
22
 73
18
 74
0
 42
0.0000001
 43
0.0000001
 44
0.0000000001
 40
0.0
 40
0.0
 40
0.0
 40
0.0
 40
0.0051662694
 40
0.0111449294
 40
0.0184693681
 40
0.0274868098
 40
0.0514348575
 40
0.0842557436
 40
0.1266049812
 40
0.1782198575
 40
0.2385711939
 40
0.3070985334
 40
0.3830670012
 40
0.4650886934
 40
0.6410411601
 40
0.8228427964
 40
1.0
 40
1.0
 40
1.0
 40
1.0
 10
10.2277883918
 20
9.2243910872
 30
0.0
 10
10.2277697111
 20
9.2242851257
 30
0.0
 10
10.2277779514
 20
9.2240465641
 30
0.0
 10
10.2279240968
 20
9.2236851932
 30
0.0
 10
10.2281967578
 20
9.2233051141
 30
0.0
 10
10.2287925456
 20
9.2227106979
 30
0.0
 10
10.2299251537
 20
9.2219255836
 30
0.0
 10
10.2317468074
 20
9.2209519511
 30
0.0
 10
10.2341653707
 20
9.2198868308
 30
0.0
 10
10.2371670027
 20
9.218736524
 30
0.0
 10
10.2407246629
 20
9.2175203208
 30
0.0
 10
10.2448003655
 20
9.2162579322
 30
0.0
 10
10.2493398647
 20
9.2149725543
 30
0.0
 10
10.2560673028
 20
9.2132072955
 30
0.0
 10
10.2649824368
 20
9.2111010632
 30
0.0
 10
10.2758900665
 20
9.2088310204
 30
0.0
 10
10.2832418091
 20
9.2074705835
 30
0.0
 10
10.2868768692
 20
9.2068386846
 30
0.0
  0
SPLINE
  5
44A
100
AcDbEntity
  8
0
100
AcDbSpline
 62
9
  6
CONTINUOUS
 70
0
 71
3
 72
21
 73
17
 74
0
 42
0.0000001
 43
0.0000001
 44
0.0000000001
 40
0.0
 40
0.0
 40
0.0
 40
0.0
 40
0.1754653437
 40
0.3541534457
 40
0.5264180451
 40
0.6812722243
 40
0.748830386
 40
0.8087200978
 40
0.8604372833
 40
0.9035392301
 40
0.9378904834
 40
0.9642809856
 40
0.9749324606
 40
0.984196991
 40
0.992410903
 40
1.0
 40
1.0
 40
1.0
 40
1.0
 10
10.2450948179
 20
8.9874333689
 30
0.0
 10
10.2416055219
 20
8.9880300736
 30
0.0
 10
10.2345440762
 20
8.9891270167
 30
0.0
 10
10.2240009679
 20
8.990424187
 30
0.0
 10
10.2138296294
 20
8.9912748461
 30
0.0
 10
10.2058679651
 20
8.9915805897
 30
0.0
 10
10.2001719579
 20
8.991494043
 30
0.0
 10
10.1965619121
 20
8.9912871667
 30
0.0
 10
10.193457831
 20
8.9909464645
 30
0.0
 10
10.1908897503
 20
8.9904829806
 30
0.0
 10
10.188873862
 20
8.9898993693
 30
0.0
 10
10.1875566298
 20
8.9892882231
 30
0.0
 10
10.1868016359
 20
8.9887325466
 30
0.0
 10
10.1864039376
 20
8.9883230783
 30
0.0
 10
10.1861318483
 20
8.9878917603
 30
0.0
 10
10.1860329395
 20
8.9875841501
 30
0.0
 10
10.1860063527
 20
8.9874333689
 30
0.0
  0
SPLINE
  5
44B
100
AcDbEntity
  8
0
100
AcDbSpline
 62
9
  6
CONTINUOUS
 70
0
 71
3
 72
8
 73
4
 74
0
 42
0.0000001
 43
0.0000001
 44
0.0000000001
 40
0.0
 40
0.0
 40
0.0
 40
0.0
 40
1.0
 40
1.0
 40
1.0
 40
1.0
 10
10.3935963087
 20
9.4938020174
 30
0.0
 10
10.3935831891
 20
9.4938037292
 30
0.0
 10
10.3935700694
 20
9.4938054411
 30
0.0
 10
10.3935569498
 20
9.4938071529
 30
0.0
  0
SPLINE
  5
44C
100
AcDbEntity
  8
0
100
AcDbSpline
 62
9
  6
CONTINUOUS
 70
0
 71
3
 72
25
 73
21
 74
0
 42
0.0000001
 43
0.0000001
 44
0.0000000001
 40
0.0
 40
0.0
 40
0.0
 40
0.0
 40
0.0039564945
 40
0.0086483188
 40
0.0149324446
 40
0.0231772215
 40
0.0335388781
 40
0.0460906238
 40
0.0608695894
 40
0.0778952666
 40
0.1186460245
 40
0.1680076568
 40
0.2255236463
 40
0.2907182858
 40
0.3630522533
 40
0.4417638078
 40
0.5260328677
 40
0.615036885
 40
0.8037131164
 40
1.0
 40
1.0
 40
1.0
 40
1.0
 10
11.8652598685
 20
7.9899596128
 30
0.0
 10
11.8652734293
 20
7.9898821091
 30
0.0
 10
11.8652480914
 20
7.9896996331
 30
0.0
 10
11.8650465989
 20
7.9894685295
 30
0.0
 10
11.8647216638
 20
7.9892638975
 30
0.0
 10
11.8642634923
 20
7.9890721638
 30
0.0
 10
11.8636697204
 20
7.9888930958
 30
0.0
 10
11.8629383304
 20
7.9887268994
 30
0.0
 10
11.8620692435
 20
7.9885744971
 30
0.0
 10
11.8606393969
 20
7.9883790599
 30
0.0
 10
11.858516601
 20
7.9881863191
 30
0.0
 10
11.855584824
 20
7.9880260785
 30
0.0
 10
11.8521639181
 20
7.9879296869
 30
0.0
 10
11.8482850709
 20
7.9878991392
 30
0.0
 10
11.8439847943
 20
7.9879364551
 30
0.0
 10
11.8393062281
 20
7.9880402252
 30
0.0
 10
11.8342978687
 20
7.9882092328
 30
0.0
 10
11.8271068084
 20
7.9885260993
 30
0.0
 10
11.8176967439
 20
7.9890753816
 30
0.0
 10
11.8100617684
 20
7.9896414009
 30
0.0
 10
11.8061712876
 20
7.9899596128
 30
0.0
  0
ENDSEC
  0
SECTION
  2
OBJECTS
  0
DICTIONARY
  5
C
100
AcDbDictionary
280
0
281
1
  3
ACAD_GROUP
350
D
  3
ACAD_MLINESTYLE
350
17
  3
ACAD_LAYOUT
350
1A
  3
ACAD_PLOTSETTINGS
350
19
  3
ACAD_PLOTSTYLENAME
350
E
  0
DICTIONARY
  5
D
102
{ACAD_REACTORS
330
C
102
}
100
AcDbDictionary
280
0
281
1
  0
ACDBDICTIONARYWDFLT
  5
E
102
{ACAD_REACTORS
330
C
102
}
100
AcDbDictionary
281
1
  3
Normal
350
F
100
AcDbDictionaryWithDefault
340
F
  0
DICTIONARY
  5
17
102
{ACAD_REACTORS
330
C
102
}
100
AcDbDictionary
280
0
281
1
  3
Standard
350
18
  0
DICTIONARY
  5
19
102
{ACAD_REACTORS
330
C
102
}
100
AcDbDictionary
281
1
  0
DICTIONARY
  5
1A
102
{ACAD_REACTORS
330
C
102
}
100
AcDbDictionary
281
1
  3
Model
350
44D
  3
Layout1
350
44E
  0
ACDBPLACEHOLDER
  5
F
102
{ACAD_REACTORS
330
E
102
}
  0
MLINESTYLE
  5
18
102
{ACAD_REACTORS
330
17
102
}
100
AcDbMlineStyle
  2
STANDARD
 70
0
  3

 62
256
 51
90.0
 52
90.0
 71
2
 49
0.5
 62
256
  6
BYLAYER
 49
-0.5
 62
256
  6
BYLAYER
  0
LAYOUT
  5
44D
102
{ACAD_REACTORS
330
1A
102
}
100
AcDbPlotSettings
  1

  2
none_device
  4
ANSI_C_(22.00_x_17.00_Inches)
  6

 40
0.0
 41
0.0
 42
0.0
 43
0.0
 44
558.8
 45
431.8
 46
0.0
 47
0.0
 48
0.0
 49
0.0
140
0.0
141
0.0
142
1.0
143
1.0
 70
1024
 72
0
 73
0
 74
0
  7

 75
0
147
1.0
148
0.0
149
0.0
100
AcDbLayout
  1
Model
 70
0
 71
0
 10
0.0
 20
0.0
 11
22.0
 21
17.0
 12
0.0
 22
0.0
 32
0.0
 14
0.0
 24
0.0
 34
0.0
 15
0.0
 25
0.0
 35
0.0
146
0.0
 13
0.0
 23
0.0
 33
0.0
 16
1.0
 26
0.0
 36
0.0
 17
0.0
 27
1.0
 37
0.0
 76
0
330
202
345
0
346
0
  0
LAYOUT
  5
44E
102
{ACAD_REACTORS
330
1A
102
}
100
AcDbPlotSettings
  1

  2
none_device
  4
ANSI_C_(22.00_x_17.00_Inches)
  6

 40
0.0
 41
0.0
 42
0.0
 43
0.0
 44
558.8
 45
431.8
 46
0.0
 47
0.0
 48
0.0
 49
0.0
140
0.0
141
0.0
142
1.0
143
1.0
 70
0
 72
0
 73
0
 74
0
  7

 75
0
147
1.0
148
0.0
149
0.0
100
AcDbLayout
  1
Layout1
 70
0
 71
1
 10
0.0
 20
0.0
 11
22.0
 21
17.0
 12
0.0
 22
0.0
 32
0.0
 14
0.0
 24
0.0
 34
0.0
 15
0.0
 25
0.0
 35
0.0
146
0.0
 13
0.0
 23
0.0
 33
0.0
 16
1.0
 26
0.0
 36
0.0
 17
0.0
 27
1.0
 37
0.0
 76
0
330
203
345
0
346
0
  0
ENDSEC
  0
EOF
