999
DXF file: E:\BT Custom\CADOUTPUT\_RIGHT.dxf
999
Pro/ENGINEER 2018400 by Parametric Technology Corporation
  0
SECTION
  2
HEADER
  9
$ACADVER
  1
AC1018
  9
$DWGCODEPAGE
  3
ANSI_1252
  9
$EXTMAX
 10
22.0
 20
17.0
 30
0.0
  9
$EXTMIN
 10
0.0
 20
0.0
 30
0.0
  9
$LIMMIN
 10
0.0
 20
0.0
  9
$LIMMAX
 10
22.0
 20
17.0
  9
$VIEWCTR
 10
11.0
 20
8.5
  9
$VIEWSIZE
 40
17.0
  9
$CLAYER
  8
0
  9
$LTSCALE
 40
1.21
  9
$CELTYPE
  6
BYLAYER
  9
$DIMSCALE
 40
1.0
  9
$DIMASZ
 40
0.1
  9
$DIMEXO
 40
0.0625
  9
$DIMDLI
 40
0.836
  9
$DIMEXE
 40
0.125
  9
$DIMCEN
 40
0.198
  9
$DIMLFAC
 40
1.0
  9
$DIMBLK
  1
_FILLED
  9
$DIMALT
 70
1
  9
$DIMALTD
 70
2
  9
$DIMALTTD
 70
2
  9
$DIMALTF
 40
25.4
  9
$DIMTXT
 40
0.08
  9
$DIMTOL
 70
1
  9
$DIMLIM
 70
0
  9
$DIMTFAC
 40
1.0
  9
$DIMTP
 40
0.001
  9
$DIMTM
 40
0.001
  9
$DIMGAP
 40
0.09
  9
$DIMDSEP
 70
46
  9
$AUNITS
 70
0
  9
$PDMODE
 70
3
  9
$PDSIZE
 40
0.06
  9
$HANDSEED
  5
34C
  9
$TILEMODE
 70
1
  9
$MEASUREMENT
 70
0
  9
$INSUNITS
 70
1
  0
ENDSEC
  0
SECTION
  2
CLASSES
  0
CLASS
  1
ACDBDICTIONARYWDFLT
  2
AcDbDictionaryWithDefault
  3
AutoCAD 2000
 90
0
 91
1
280
0
281
0
  0
CLASS
  1
ACDBPLACEHOLDER
  2
AcDbPlaceHolder
  3
AutoCAD 2000
 90
0
 91
1
280
0
281
0
  0
CLASS
  1
LAYOUT
  2
AcDbLayout
  3
AutoCAD 2000
 90
0
 91
0
280
0
281
0
  0
ENDSEC
  0
SECTION
  2
TABLES
  0
TABLE
  2
VPORT
  5
8
100
AcDbSymbolTable
 70
2
  0
VPORT
  5
1F4
100
AcDbSymbolTableRecord
100
AcDbViewportTableRecord
  2
*ACTIVE
 70
0
 10
0.0
 20
0.0
 11
1.0
 21
1.0
 12
11.0
 22
8.5
 13
0.0
 23
0.0
 14
1.0
 24
1.0
 15
0.0
 25
0.0
 16
0.0
 26
0.0
 36
1.0
 17
0.0
 27
0.0
 37
0.0
 40
17.0
 41
1.2941176471
 42
50.0
 43
0.0
 44
0.0
 50
0.0
 51
0.0
 71
0
 72
100
 73
1
 74
1
 75
0
 76
0
 77
0
 78
0
  0
ENDTAB
  0
TABLE
  2
LTYPE
  5
5
100
AcDbSymbolTable
 70
6
  0
LTYPE
  5
14
100
AcDbSymbolTableRecord
100
AcDbLinetypeTableRecord
  2
BYBLOCK
 70
0
  3

 72
65
 73
0
 40
0.0
  0
LTYPE
  5
15
100
AcDbSymbolTableRecord
100
AcDbLinetypeTableRecord
  2
BYLAYER
 70
0
  3

 72
65
 73
0
 40
0.0
  0
LTYPE
  5
16
100
AcDbSymbolTableRecord
100
AcDbLinetypeTableRecord
  2
CONTINUOUS
 70
64
  3
Solid line
 72
65
 73
0
 40
0.0
  0
LTYPE
  5
1F5
100
AcDbSymbolTableRecord
100
AcDbLinetypeTableRecord
  2
CENTER
 70
64
  3
____ _ ____ _ ____ _ ____ _ ____ _ ____ _ ____
 72
65
 73
4
 40
0.6
 49
0.375
 74
0
 49
-0.075
 74
0
 49
0.075
 74
0
 49
-0.075
 74
0
  0
LTYPE
  5
1F6
100
AcDbSymbolTableRecord
100
AcDbLinetypeTableRecord
  2
HIDDEN
 70
64
  3
- - - - - - - - - - - - - - - - - - - -
 72
65
 73
2
 40
0.2
 49
0.1
 74
0
 49
-0.1
 74
0
  0
LTYPE
  5
1F7
100
AcDbSymbolTableRecord
100
AcDbLinetypeTableRecord
  2
PHANTOM
 70
64
  3
_____ _ _ _____ _ _ _____ _ _ _____
 72
65
 73
6
 40
0.8
 49
0.45
 74
0
 49
-0.05
 74
0
 49
0.1
 74
0
 49
-0.05
 74
0
 49
0.1
 74
0
 49
-0.05
 74
0
  0
LTYPE
  5
1F8
100
AcDbSymbolTableRecord
100
AcDbLinetypeTableRecord
  2
DOT
 70
64
  3
. . . . . . . . . . . . . . . . . . . .
 72
65
 73
2
 40
0.2
 49
0.1
 74
0
 49
-0.1
 74
0
  0
LTYPE
  5
1F9
100
AcDbSymbolTableRecord
100
AcDbLinetypeTableRecord
  2
DASHED
 70
64
  3
- - - - - - - - - - - - - - - - - - - -
 72
65
 73
2
 40
0.2
 49
0.1
 74
0
 49
-0.1
 74
0
  0
ENDTAB
  0
TABLE
  2
LAYER
  5
2
100
AcDbSymbolTable
 70
36
  0
LAYER
  5
10
100
AcDbSymbolTableRecord
100
AcDbLayerTableRecord
  2
0
 70
0
 62
7
  6
CONTINUOUS
370
-3
390
F
  0
LAYER
  5
1FA
100
AcDbSymbolTableRecord
100
AcDbLayerTableRecord
  2
DEFAULT_1
 70
0
 62
7
  6
CENTER
370
-3
390
F
  0
LAYER
  5
1FB
100
AcDbSymbolTableRecord
100
AcDbLayerTableRecord
  2
DEFAULT_2
 70
0
 62
8
  6
HIDDEN
370
-3
390
F
  0
LAYER
  5
1FC
100
AcDbSymbolTableRecord
100
AcDbLayerTableRecord
  2
DEFAULT_3
 70
0
 62
7
  6
PHANTOM
370
-3
390
F
  0
LAYER
  5
1FD
100
AcDbSymbolTableRecord
100
AcDbLayerTableRecord
  2
ALL_FEATURES
 70
0
 62
7
  6
CONTINUOUS
370
-3
390
F
  0
LAYER
  5
1FE
100
AcDbSymbolTableRecord
100
AcDbLayerTableRecord
  2
AXES_FEATURES
 70
0
 62
7
  6
CONTINUOUS
370
-3
390
F
  0
LAYER
  5
1FF
100
AcDbSymbolTableRecord
100
AcDbLayerTableRecord
  2
DIMENSIONS
 70
0
 62
7
  6
CONTINUOUS
370
-3
390
F
  0
ENDTAB
  0
TABLE
  2
STYLE
  5
3
100
AcDbSymbolTable
 70
1
  0
STYLE
  5
11
100
AcDbSymbolTableRecord
100
AcDbTextStyleTableRecord
  2
STANDARD
 70
0
 40
0.0
 41
0.8
 50
0.0
 71
0
 42
0.2
  3
txt
  4

  0
STYLE
  5
200
100
AcDbSymbolTableRecord
100
AcDbTextStyleTableRecord
  2
TEXTSTYLE_1
 70
0
 40
0.0
 41
0.8
 50
0.0
 71
0
 42
0.2
  3
gdt
  4

  0
ENDTAB
  0
TABLE
  2
VIEW
  5
6
100
AcDbSymbolTable
 70
0
  0
ENDTAB
  0
TABLE
  2
UCS
  5
7
100
AcDbSymbolTable
 70
0
  0
ENDTAB
  0
TABLE
  2
APPID
  5
9
100
AcDbSymbolTable
 70
1
  0
APPID
  5
201
100
AcDbSymbolTableRecord
100
AcDbRegAppTableRecord
  2
ACAD
 70
0
  0
ENDTAB
  0
TABLE
  2
BLOCK_RECORD
  5
1
100
AcDbSymbolTable
 70
0
  0
BLOCK_RECORD
  5
202
100
AcDbSymbolTableRecord
100
AcDbBlockTableRecord
  2
*Model_Space
  0
BLOCK_RECORD
  5
203
100
AcDbSymbolTableRecord
100
AcDbBlockTableRecord
  2
*Paper_Space
  0
BLOCK_RECORD
  5
204
100
AcDbSymbolTableRecord
100
AcDbBlockTableRecord
  2
_FILLED
  0
ENDTAB
  0
TABLE
  2
DIMSTYLE
  5
A
100
AcDbSymbolTable
 70
1
100
AcDbDimStyleTable
 71
0
  0
DIMSTYLE
105
205
100
AcDbSymbolTableRecord
100
AcDbDimStyleTableRecord
  2
STANDARD
 70
0
  3

  4

 40
1.0
 41
0.1
 42
0.0625
 43
0.38
 44
0.125
 45
0.0
 46
0.0
 47
0.001
 48
0.001
140
0.08
141
0.09
142
0.0
143
25.4
144
1.0
145
0.0
146
1.0
147
0.09
 71
1.0
 72
0.0
 73
1
 74
1
 75
0
 76
0
 77
0
 78
4
 79
1
170
1
171
2
172
0
173
0
174
0
175
0
176
0
177
0
178
0
270
2
179
3
271
3
272
3
273
2
274
2
275
0
280
0
281
0
282
0
283
1
284
4
285
0
286
0
287
3
288
0
340
11
278
46
341
204
342
204
343
204
344
204
  0
ENDTAB
  0
ENDSEC
  0
SECTION
  2
BLOCKS
  0
BLOCK
  5
20
100
AcDbEntity
  8
0
100
AcDbBlockBegin
  2
*Model_Space
 70
0
 10
0.0
 20
0.0
 30
0.0
  3
*Model_Space
  1

  0
ENDBLK
  5
21
100
AcDbEntity
  8
0
100
AcDbBlockEnd
  0
BLOCK
  5
1C
100
AcDbEntity
  8
0
100
AcDbBlockBegin
  2
*Paper_Space
 70
0
 10
0.0
 20
0.0
 30
0.0
  3
*Paper_Space
  1

  0
ENDBLK
  5
1D
100
AcDbEntity
  8
0
100
AcDbBlockEnd
  0
BLOCK
  5
206
100
AcDbEntity
  8
0
100
AcDbBlockBegin
  2
_FILLED
 70
64
 10
0.0
 20
0.0
  3
_FILLED
  1

  0
SOLID
  5
207
100
AcDbEntity
  8
0
  6
BYBLOCK
 62
0
100
AcDbTrace
 10
0.0
 20
0.0
 11
-1.0
 21
0.2
 12
-1.0
 22
-0.2
 13
-1.0
 23
-0.2
  0
ENDBLK
  5
208
100
AcDbEntity
  8
0
  6
BYBLOCK
 62
0
100
AcDbBlockEnd
  0
ENDSEC
  0
SECTION
  2
ENTITIES
  0
LINE
  5
209
100
AcDbEntity
  8
0
100
AcDbLine
 62
7
  6
CONTINUOUS
 10
7.0072334891
 20
9.078891804
 11
7.0072334891
 21
9.174891804
  0
LINE
  5
20A
100
AcDbEntity
  8
0
100
AcDbLine
 62
9
  6
CONTINUOUS
 10
7.0672334891
 20
9.234891804
 11
7.0672334891
 21
9.078891804
  0
LINE
  5
20B
100
AcDbEntity
  8
0
100
AcDbLine
 62
9
  6
CONTINUOUS
 10
7.3649735216
 20
9.174891804
 11
7.3649735216
 21
9.234891804
  0
LINE
  5
20C
100
AcDbEntity
  8
0
100
AcDbLine
 62
7
  6
CONTINUOUS
 10
7.3243658642
 20
10.310310695
 11
7.1434829866
 21
9.2844729202
  0
LINE
  5
20D
100
AcDbEntity
  8
0
100
AcDbLine
 62
9
  6
CONTINUOUS
 10
8.00532344
 20
9.1771571353
 11
8.0049016641
 21
9.2360244075
  0
LINE
  5
20E
100
AcDbEntity
  8
0
100
AcDbLine
 62
9
  6
CONTINUOUS
 10
8.080746934
 20
9.1748921301
 11
8.080746934
 21
9.234891804
  0
LINE
  5
20F
100
AcDbEntity
  8
0
100
AcDbLine
 62
9
  6
CONTINUOUS
 10
8.1052334891
 20
9.078891804
 11
8.1052334891
 21
9.234891804
  0
LINE
  5
210
100
AcDbEntity
  8
0
100
AcDbLine
 62
7
  6
CONTINUOUS
 10
8.1652334891
 20
9.1776936205
 11
8.1652334891
 21
9.078891804
  0
LINE
  5
211
100
AcDbEntity
  8
0
100
AcDbLine
 62
7
  6
CONTINUOUS
 10
11.7252334891
 20
7.109891804
 11
14.2252334891
 21
7.109891804
  0
LINE
  5
212
100
AcDbEntity
  8
0
100
AcDbLine
 62
9
  6
CONTINUOUS
 10
14.1652334891
 20
7.2850389903
 11
14.1202334891
 21
7.2850389903
  0
LINE
  5
213
100
AcDbEntity
  8
0
100
AcDbLine
 62
9
  6
CONTINUOUS
 10
11.8302334891
 20
7.2850389903
 11
11.7852334891
 21
7.2850389903
  0
LINE
  5
214
100
AcDbEntity
  8
0
100
AcDbLine
 62
9
  6
CONTINUOUS
 10
14.0602334891
 20
7.2892692266
 11
11.8902334891
 21
7.2892692266
  0
LINE
  5
215
100
AcDbEntity
  8
0
100
AcDbLine
 62
9
  6
CONTINUOUS
 10
14.0602335564
 20
7.3623701839
 11
11.890233531
 21
7.3623701839
  0
LINE
  5
216
100
AcDbEntity
  8
0
100
AcDbLine
 62
9
  6
CONTINUOUS
 10
14.1652335087
 20
7.3629812761
 11
14.1583502002
 21
7.3629812761
  0
LINE
  5
217
100
AcDbEntity
  8
0
100
AcDbLine
 62
9
  6
CONTINUOUS
 10
11.7921167781
 20
7.3629812761
 11
11.7852335755
 21
7.3629812761
  0
LINE
  5
218
100
AcDbEntity
  8
0
100
AcDbLine
 62
9
  6
CONTINUOUS
 10
11.8902335449
 20
7.38673717
 11
14.0602334281
 21
7.38673717
  0
LINE
  5
219
100
AcDbEntity
  8
0
100
AcDbLine
 62
9
  6
CONTINUOUS
 10
14.2852334891
 20
7.489891804
 11
11.6652334891
 21
7.489891804
  0
LINE
  5
21A
100
AcDbEntity
  8
0
100
AcDbLine
 62
7
  6
CONTINUOUS
 10
11.6952334891
 20
7.519891804
 11
14.2552334891
 21
7.519891804
  0
LINE
  5
21B
100
AcDbEntity
  8
0
100
AcDbLine
 62
7
  6
CONTINUOUS
 10
12.1027334891
 20
7.529891804
 11
13.8477334891
 21
7.529891804
  0
LINE
  5
21C
100
AcDbEntity
  8
0
100
AcDbLine
 62
9
  6
CONTINUOUS
 10
13.9972334891
 20
7.677391804
 11
13.8477334891
 21
7.677391804
  0
LINE
  5
21D
100
AcDbEntity
  8
0
100
AcDbLine
 62
9
  6
CONTINUOUS
 10
12.1027334891
 20
7.677391804
 11
11.9532334891
 21
7.677391804
  0
LINE
  5
21E
100
AcDbEntity
  8
0
100
AcDbLine
 62
9
  6
CONTINUOUS
 10
13.8477334891
 20
7.687391804
 11
12.1027334891
 21
7.687391804
  0
LINE
  5
21F
100
AcDbEntity
  8
0
100
AcDbLine
 62
7
  6
CONTINUOUS
 10
11.9832334891
 20
7.707391804
 11
12.1107852424
 21
7.707391804
  0
LINE
  5
220
100
AcDbEntity
  8
0
100
AcDbLine
 62
7
  6
CONTINUOUS
 10
13.8396375565
 20
7.707391804
 11
13.9672334891
 21
7.707391804
  0
LINE
  5
221
100
AcDbEntity
  8
0
100
AcDbLine
 62
7
  6
CONTINUOUS
 10
12.1327334891
 20
7.717391804
 11
13.8177334891
 21
7.717391804
  0
LINE
  5
222
100
AcDbEntity
  8
0
100
AcDbLine
 62
9
  6
CONTINUOUS
 10
12.1067545067
 20
7.7321823587
 11
12.2282104391
 21
7.7321823587
  0
LINE
  5
223
100
AcDbEntity
  8
0
100
AcDbLine
 62
9
  6
CONTINUOUS
 10
13.7222590898
 20
7.7321823587
 11
13.8437124716
 21
7.7321823587
  0
LINE
  5
224
100
AcDbEntity
  8
0
100
AcDbLine
 62
9
  6
CONTINUOUS
 10
12.2912545068
 20
7.7421823587
 11
13.6592124714
 21
7.7421823587
  0
LINE
  5
225
100
AcDbEntity
  8
0
100
AcDbLine
 62
7
  6
CONTINUOUS
 10
7.0072334891
 20
9.078891804
 11
8.1652334891
 21
9.078891804
  0
LINE
  5
226
100
AcDbEntity
  8
0
100
AcDbLine
 62
9
  6
CONTINUOUS
 10
8.1652334891
 20
9.174891804
 11
8.080746889
 21
9.1748924561
  0
LINE
  5
227
100
AcDbEntity
  8
0
100
AcDbLine
 62
9
  6
CONTINUOUS
 10
7.3649735216
 20
9.174892484
 11
7.0072334891
 21
9.174891804
  0
LINE
  5
228
100
AcDbEntity
  8
0
100
AcDbLine
 62
7
  6
CONTINUOUS
 10
8.1052334891
 20
9.234891804
 11
8.0807471515
 21
9.234891804
  0
LINE
  5
229
100
AcDbEntity
  8
0
100
AcDbLine
 62
7
  6
CONTINUOUS
 10
7.0672334891
 20
9.234891804
 11
7.3649735216
 21
9.234891804
  0
LINE
  5
22A
100
AcDbEntity
  8
0
100
AcDbLine
 62
9
  6
CONTINUOUS
 10
13.3724743124
 20
9.3683531124
 11
12.5779905451
 21
9.3683564635
  0
LINE
  5
22B
100
AcDbEntity
  8
0
100
AcDbLine
 62
9
  6
CONTINUOUS
 10
12.577991017
 20
9.4698451644
 11
13.3724741513
 21
9.4698451644
  0
LINE
  5
22C
100
AcDbEntity
  8
0
100
AcDbLine
 62
9
  6
CONTINUOUS
 10
12.5779941006
 20
9.4984660507
 11
13.3724746927
 21
9.4984660506
  0
LINE
  5
22D
100
AcDbEntity
  8
0
100
AcDbLine
 62
7
  6
CONTINUOUS
 10
11.5377334891
 20
10.174891804
 11
11.5377334891
 21
10.614891804
  0
LINE
  5
22E
100
AcDbEntity
  8
0
100
AcDbLine
 62
9
  6
CONTINUOUS
 10
11.5677334891
 20
10.644891804
 11
11.5677334891
 21
10.144891804
  0
LINE
  5
22F
100
AcDbEntity
  8
0
100
AcDbLine
 62
7
  6
CONTINUOUS
 10
8.4402452194
 20
9.609891804
 11
11.4849416844
 21
9.609891804
  0
LINE
  5
230
100
AcDbEntity
  8
0
100
AcDbLine
 62
9
  6
CONTINUOUS
 10
13.5142334891
 20
9.625391804
 11
12.4362334891
 21
9.625391804
  0
LINE
  5
231
100
AcDbEntity
  8
0
100
AcDbLine
 62
7
  6
CONTINUOUS
 10
12.4662334891
 20
9.655391804
 11
13.4842334891
 21
9.655391804
  0
LINE
  5
232
100
AcDbEntity
  8
0
100
AcDbLine
 62
7
  6
CONTINUOUS
 10
12.66273408
 20
9.686391804
 11
13.2877328982
 21
9.686391804
  0
LINE
  5
233
100
AcDbEntity
  8
0
100
AcDbLine
 62
7
  6
CONTINUOUS
 10
11.6652334891
 20
7.3889620388
 11
11.6652334891
 21
7.489891804
  0
LINE
  5
234
100
AcDbEntity
  8
0
100
AcDbLine
 62
9
  6
CONTINUOUS
 10
11.7252334891
 20
7.519891804
 11
11.7252334893
 21
7.392856244
  0
LINE
  5
235
100
AcDbEntity
  8
0
100
AcDbLine
 62
7
  6
CONTINUOUS
 10
11.7252334891
 20
7.109891804
 11
11.7252334891
 21
7.2850389903
  0
LINE
  5
236
100
AcDbEntity
  8
0
100
AcDbLine
 62
7
  6
CONTINUOUS
 10
11.7802334891
 20
7.38673717
 11
11.7802334891
 21
7.489891804
  0
LINE
  5
237
100
AcDbEntity
  8
0
100
AcDbLine
 62
9
  6
CONTINUOUS
 10
11.7852334891
 20
7.109891804
 11
11.7852335755
 21
7.3705629098
  0
LINE
  5
238
100
AcDbEntity
  8
0
100
AcDbLine
 62
7
  6
CONTINUOUS
 10
11.8302334891
 20
7.109891804
 11
11.8302334891
 21
7.2892692266
  0
LINE
  5
239
100
AcDbEntity
  8
0
100
AcDbLine
 62
9
  6
CONTINUOUS
 10
11.8402334891
 20
7.519891804
 11
11.8402334892
 21
7.3894076569
  0
LINE
  5
23A
100
AcDbEntity
  8
0
100
AcDbLine
 62
9
  6
CONTINUOUS
 10
13.2877331441
 20
9.991391804
 11
12.6627334891
 21
9.991391804
  0
LINE
  5
23B
100
AcDbEntity
  8
0
100
AcDbLine
 62
7
  6
CONTINUOUS
 10
13.2887334891
 20
10.051391804
 11
13.1764149993
 21
10.051391804
  0
LINE
  5
23C
100
AcDbEntity
  8
0
100
AcDbLine
 62
7
  6
CONTINUOUS
 10
12.774051979
 20
10.051391804
 11
12.6617334891
 21
10.051391804
  0
LINE
  5
23D
100
AcDbEntity
  8
0
100
AcDbLine
 62
9
  6
CONTINUOUS
 10
12.6317334891
 20
10.081391804
 11
12.7740519788
 21
10.081391804
  0
LINE
  5
23E
100
AcDbEntity
  8
0
100
AcDbLine
 62
9
  6
CONTINUOUS
 10
13.1764149995
 20
10.081391804
 11
13.3187334891
 21
10.081391804
  0
LINE
  5
23F
100
AcDbEntity
  8
0
100
AcDbLine
 62
9
  6
CONTINUOUS
 10
13.1952334892
 20
10.0848918041
 11
12.7552334891
 21
10.0848918041
  0
LINE
  5
240
100
AcDbEntity
  8
0
100
AcDbLine
 62
7
  6
CONTINUOUS
 10
14.3827334891
 20
10.144891804
 11
13.3787334891
 21
10.144891804
  0
LINE
  5
241
100
AcDbEntity
  8
0
100
AcDbLine
 62
7
  6
CONTINUOUS
 10
13.1952334891
 20
10.144891804
 11
12.7552334891
 21
10.144891804
  0
LINE
  5
242
100
AcDbEntity
  8
0
100
AcDbLine
 62
7
  6
CONTINUOUS
 10
12.5717334891
 20
10.144891804
 11
11.5677334891
 21
10.144891804
  0
LINE
  5
243
100
AcDbEntity
  8
0
100
AcDbLine
 62
9
  6
CONTINUOUS
 10
11.8902334891
 20
7.109891804
 11
11.890233531
 21
7.38673717
  0
LINE
  5
244
100
AcDbEntity
  8
0
100
AcDbLine
 62
7
  6
CONTINUOUS
 10
11.9532334891
 20
7.519891804
 11
11.9532334891
 21
7.677391804
  0
LINE
  5
245
100
AcDbEntity
  8
0
100
AcDbLine
 62
9
  6
CONTINUOUS
 10
12.0132334891
 20
7.707391804
 11
12.0132334891
 21
7.519891804
  0
LINE
  5
246
100
AcDbEntity
  8
0
100
AcDbLine
 62
7
  6
CONTINUOUS
 10
12.1027334891
 20
7.529891804
 11
12.1027334891
 21
7.687391804
  0
LINE
  5
247
100
AcDbEntity
  8
0
100
AcDbLine
 62
9
  6
CONTINUOUS
 10
12.1067545032
 20
7.7321823587
 11
12.1067545032
 21
7.707391804
  0
LINE
  5
248
100
AcDbEntity
  8
0
100
AcDbLine
 62
9
  6
CONTINUOUS
 10
11.8463689372
 20
7.3626279458
 11
11.8484151809
 21
7.3883191656
  0
LINE
  5
249
100
AcDbEntity
  8
0
100
AcDbLine
 62
9
  6
CONTINUOUS
 10
11.7336713202
 20
7.3638295551
 11
11.7364840773
 21
7.3912378354
  0
LINE
  5
24A
100
AcDbEntity
  8
0
100
AcDbLine
 62
9
  6
CONTINUOUS
 10
11.7204484004
 20
7.3647569972
 11
11.7252334654
 21
7.3928562577
  0
LINE
  5
24B
100
AcDbEntity
  8
0
100
AcDbLine
 62
9
  6
CONTINUOUS
 10
11.835583124
 20
7.362946411
 11
11.8402334788
 21
7.3894076645
  0
LINE
  5
24C
100
AcDbEntity
  8
0
100
AcDbLine
 62
9
  6
CONTINUOUS
 10
11.5377334891
 20
10.174891804
 11
12.6317334891
 21
10.174891804
  0
LINE
  5
24D
100
AcDbEntity
  8
0
100
AcDbLine
 62
9
  6
CONTINUOUS
 10
12.6652334891
 20
10.174891804
 11
13.2852334891
 21
10.174891804
  0
LINE
  5
24E
100
AcDbEntity
  8
0
100
AcDbLine
 62
9
  6
CONTINUOUS
 10
13.3187334891
 20
10.174891804
 11
14.4127334891
 21
10.174891804
  0
LINE
  5
24F
100
AcDbEntity
  8
0
100
AcDbLine
 62
7
  6
CONTINUOUS
 10
11.5377334891
 20
10.359891804
 11
7.3834543291
 21
10.359891804
  0
LINE
  5
250
100
AcDbEntity
  8
0
100
AcDbLine
 62
9
  6
CONTINUOUS
 10
12.1627334891
 20
7.717391804
 11
12.1627334891
 21
7.529891804
  0
LINE
  5
251
100
AcDbEntity
  8
0
100
AcDbLine
 62
7
  6
CONTINUOUS
 10
12.2252334891
 20
7.519891804
 11
12.2252334891
 21
7.529891804
  0
LINE
  5
252
100
AcDbEntity
  8
0
100
AcDbLine
 62
9
  6
CONTINUOUS
 10
12.2912545069
 20
7.7421823587
 11
12.2912545069
 21
7.717391804
  0
LINE
  5
253
100
AcDbEntity
  8
0
100
AcDbLine
 62
9
  6
CONTINUOUS
 10
12.2891965287
 20
8.9666136802
 11
12.4767539242
 21
10.144891804
  0
LINE
  5
254
100
AcDbEntity
  8
0
100
AcDbLine
 62
7
  6
CONTINUOUS
 10
12.2235474991
 20
8.7296556708
 11
12.0476660417
 21
7.7321823587
  0
LINE
  5
255
100
AcDbEntity
  8
0
100
AcDbLine
 62
9
  6
CONTINUOUS
 10
12.1067545067
 20
7.7321823587
 11
12.2826368939
 21
8.7296609429
  0
LINE
  5
256
100
AcDbEntity
  8
0
100
AcDbLine
 62
9
  6
CONTINUOUS
 10
14.4127334891
 20
10.614891804
 11
13.3187334891
 21
10.614891804
  0
LINE
  5
257
100
AcDbEntity
  8
0
100
AcDbLine
 62
9
  6
CONTINUOUS
 10
13.2852334891
 20
10.614891804
 11
12.6652334891
 21
10.614891804
  0
LINE
  5
258
100
AcDbEntity
  8
0
100
AcDbLine
 62
9
  6
CONTINUOUS
 10
12.6317334891
 20
10.614891804
 11
11.5377334891
 21
10.614891804
  0
LINE
  5
259
100
AcDbEntity
  8
0
100
AcDbLine
 62
7
  6
CONTINUOUS
 10
11.5677334891
 20
10.644891804
 11
12.5717334891
 21
10.644891804
  0
LINE
  5
25A
100
AcDbEntity
  8
0
100
AcDbLine
 62
7
  6
CONTINUOUS
 10
12.7552334891
 20
10.644891804
 11
13.1952334891
 21
10.644891804
  0
LINE
  5
25B
100
AcDbEntity
  8
0
100
AcDbLine
 62
7
  6
CONTINUOUS
 10
13.3787334891
 20
10.644891804
 11
14.3827334891
 21
10.644891804
  0
LINE
  5
25C
100
AcDbEntity
  8
0
100
AcDbLine
 62
9
  6
CONTINUOUS
 10
12.755233489
 20
10.704891804
 11
13.1952334892
 21
10.704891804
  0
LINE
  5
25D
100
AcDbEntity
  8
0
100
AcDbLine
 62
9
  6
CONTINUOUS
 10
13.3187334891
 20
10.708391804
 11
12.6317334891
 21
10.708391804
  0
LINE
  5
25E
100
AcDbEntity
  8
0
100
AcDbLine
 62
7
  6
CONTINUOUS
 10
12.4362334891
 20
9.4984662139
 11
12.4362334891
 21
9.625391804
  0
LINE
  5
25F
100
AcDbEntity
  8
0
100
AcDbLine
 62
9
  6
CONTINUOUS
 10
12.4552334891
 20
7.529891804
 11
12.4552334891
 21
7.519891804
  0
LINE
  5
260
100
AcDbEntity
  8
0
100
AcDbLine
 62
9
  6
CONTINUOUS
 10
12.4962334891
 20
9.655391804
 11
12.4962334892
 21
9.5035972778
  0
LINE
  5
261
100
AcDbEntity
  8
0
100
AcDbLine
 62
9
  6
CONTINUOUS
 10
12.5717334891
 20
10.144891804
 11
12.5717334891
 21
10.644891804
  0
LINE
  5
262
100
AcDbEntity
  8
0
100
AcDbLine
 62
9
  6
CONTINUOUS
 10
12.5779943473
 20
9.4984660507
 11
12.577991017
 21
9.3683534681
  0
LINE
  5
263
100
AcDbEntity
  8
0
100
AcDbLine
 62
7
  6
CONTINUOUS
 10
12.6317334891
 20
10.0593392233
 11
12.6317334891
 21
10.708391804
  0
LINE
  5
264
100
AcDbEntity
  8
0
100
AcDbLine
 62
9
  6
CONTINUOUS
 10
12.6617334891
 20
10.738391804
 11
12.6617334891
 21
10.051391804
  0
LINE
  5
265
100
AcDbEntity
  8
0
100
AcDbLine
 62
7
  6
CONTINUOUS
 10
12.6627334891
 20
9.991391804
 11
12.6627334891
 21
9.686391804
  0
LINE
  5
266
100
AcDbEntity
  8
0
100
AcDbLine
 62
7
  6
CONTINUOUS
 10
12.6627334891
 20
10.738391804
 11
12.6627334891
 21
10.879891804
  0
LINE
  5
267
100
AcDbEntity
  8
0
100
AcDbLine
 62
9
  6
CONTINUOUS
 10
12.6652334891
 20
10.1748918039
 11
12.6652334891
 21
10.6148918041
  0
LINE
  5
268
100
AcDbEntity
  8
0
100
AcDbLine
 62
9
  6
CONTINUOUS
 10
12.4962335265
 20
9.5035972768
 11
12.4948255337
 21
9.4736933463
  0
LINE
  5
269
100
AcDbEntity
  8
0
100
AcDbLine
 62
7
  6
CONTINUOUS
 10
12.5189038636
 20
9.3683533554
 11
12.2321660417
 21
7.7421823587
  0
LINE
  5
26A
100
AcDbEntity
  8
0
100
AcDbLine
 62
9
  6
CONTINUOUS
 10
12.2912545068
 20
7.7421823587
 11
12.5779905451
 21
9.3683564635
  0
LINE
  5
26B
100
AcDbEntity
  8
0
100
AcDbLine
 62
7
  6
CONTINUOUS
 10
12.6617334891
 20
10.738391804
 11
13.2887334891
 21
10.738391804
  0
LINE
  5
26C
100
AcDbEntity
  8
0
100
AcDbLine
 62
9
  6
CONTINUOUS
 10
13.2877334891
 20
10.879891804
 11
12.6627334891
 21
10.879891804
  0
LINE
  5
26D
100
AcDbEntity
  8
0
100
AcDbLine
 62
7
  6
CONTINUOUS
 10
12.6927334891
 20
10.909891804
 11
13.2577334891
 21
10.909891804
  0
LINE
  5
26E
100
AcDbEntity
  8
0
100
AcDbLine
 62
7
  6
CONTINUOUS
 10
12.6420669583
 20
10.0367008223
 11
12.6420645423
 21
10.0367026004
  0
LINE
  5
26F
100
AcDbEntity
  8
0
100
AcDbLine
 62
7
  6
CONTINUOUS
 10
12.7222334891
 20
9.655391804
 11
12.7222334891
 21
9.686391804
  0
LINE
  5
270
100
AcDbEntity
  8
0
100
AcDbLine
 62
9
  6
CONTINUOUS
 10
12.7227334891
 20
10.909891804
 11
12.7227334891
 21
10.738391804
  0
LINE
  5
271
100
AcDbEntity
  8
0
100
AcDbLine
 62
7
  6
CONTINUOUS
 10
12.7252334891
 20
10.174891804
 11
12.7252334891
 21
10.614891804
  0
LINE
  5
272
100
AcDbEntity
  8
0
100
AcDbLine
 62
9
  6
CONTINUOUS
 10
12.7552334891
 20
10.704891804
 11
12.7552334891
 21
10.0848918041
  0
LINE
  5
273
100
AcDbEntity
  8
0
100
AcDbLine
 62
9
  6
CONTINUOUS
 10
12.7740522055
 20
10.051391804
 11
12.7740522055
 21
10.081391804
  0
LWPOLYLINE
  5
274
100
AcDbEntity
  8
0
100
AcDbPolyline
 62
7
  6
CONTINUOUS
 90
4
 70
0
 10
12.6317334891
 20
10.0593550356
 10
12.6335639154
 20
10.0490363582
 10
12.6388306918
 20
10.0399781984
 10
12.6420668232
 20
10.0367006281
  0
LINE
  5
275
100
AcDbEntity
  8
0
100
AcDbLine
 62
9
  6
CONTINUOUS
 10
12.9752336957
 20
10.0367006209
 11
12.9752336835
 21
10.0593555493
  0
LINE
  5
276
100
AcDbEntity
  8
0
100
AcDbLine
 62
9
  6
CONTINUOUS
 10
13.1764149993
 20
10.081391804
 11
13.1764149993
 21
10.051391804
  0
LINE
  5
277
100
AcDbEntity
  8
0
100
AcDbLine
 62
9
  6
CONTINUOUS
 10
13.1952334891
 20
10.0848918041
 11
13.1952334891
 21
10.704891804
  0
LINE
  5
278
100
AcDbEntity
  8
0
100
AcDbLine
 62
7
  6
CONTINUOUS
 10
13.2252334891
 20
10.614891804
 11
13.2252334891
 21
10.174891804
  0
LINE
  5
279
100
AcDbEntity
  8
0
100
AcDbLine
 62
9
  6
CONTINUOUS
 10
13.2277334891
 20
10.738391804
 11
13.2277334891
 21
10.909891804
  0
LINE
  5
27A
100
AcDbEntity
  8
0
100
AcDbLine
 62
7
  6
CONTINUOUS
 10
13.2282334891
 20
9.655391804
 11
13.2282334891
 21
9.686391804
  0
LINE
  5
27B
100
AcDbEntity
  8
0
100
AcDbLine
 62
9
  6
CONTINUOUS
 10
13.4542336293
 20
9.5035959962
 11
13.4556443181
 21
9.47369206
  0
LINE
  5
27C
100
AcDbEntity
  8
0
100
AcDbLine
 62
9
  6
CONTINUOUS
 10
13.2852334891
 20
10.6148918041
 11
13.2852334891
 21
10.174891804
  0
LINE
  5
27D
100
AcDbEntity
  8
0
100
AcDbLine
 62
7
  6
CONTINUOUS
 10
13.2877334891
 20
10.879891804
 11
13.2877334891
 21
10.738391804
  0
LINE
  5
27E
100
AcDbEntity
  8
0
100
AcDbLine
 62
7
  6
CONTINUOUS
 10
13.2877334891
 20
9.991391804
 11
13.2877334891
 21
9.686391804
  0
LINE
  5
27F
100
AcDbEntity
  8
0
100
AcDbLine
 62
9
  6
CONTINUOUS
 10
13.2887334891
 20
10.051391804
 11
13.2887334891
 21
10.738391804
  0
LINE
  5
280
100
AcDbEntity
  8
0
100
AcDbLine
 62
7
  6
CONTINUOUS
 10
13.3187334891
 20
10.708391804
 11
13.3187334891
 21
10.0593550294
  0
LINE
  5
281
100
AcDbEntity
  8
0
100
AcDbLine
 62
9
  6
CONTINUOUS
 10
13.3724748242
 20
9.4984660507
 11
13.3724741513
 21
9.3683534681
  0
LINE
  5
282
100
AcDbEntity
  8
0
100
AcDbLine
 62
9
  6
CONTINUOUS
 10
13.3787334891
 20
10.644891804
 11
13.3787334891
 21
10.144891804
  0
LINE
  5
283
100
AcDbEntity
  8
0
100
AcDbLine
 62
9
  6
CONTINUOUS
 10
13.4542334891
 20
9.5035959906
 11
13.4542334891
 21
9.655391804
  0
LINE
  5
284
100
AcDbEntity
  8
0
100
AcDbLine
 62
9
  6
CONTINUOUS
 10
13.4952334891
 20
7.519891804
 11
13.4952334891
 21
7.529891804
  0
LINE
  5
285
100
AcDbEntity
  8
0
100
AcDbLine
 62
7
  6
CONTINUOUS
 10
13.5142334891
 20
9.4984660526
 11
13.5142334891
 21
9.625391804
  0
LINE
  5
286
100
AcDbEntity
  8
0
100
AcDbLine
 62
9
  6
CONTINUOUS
 10
13.3724743124
 20
9.3683531124
 11
13.6592124714
 21
7.7421823587
  0
LINE
  5
287
100
AcDbEntity
  8
0
100
AcDbLine
 62
7
  6
CONTINUOUS
 10
13.7183009366
 20
7.7421823587
 11
13.4315625908
 21
9.3683563262
  0
LINE
  5
288
100
AcDbEntity
  8
0
100
AcDbLine
 62
9
  6
CONTINUOUS
 10
13.6592124762
 20
7.717391804
 11
13.6592124762
 21
7.7421823587
  0
LINE
  5
289
100
AcDbEntity
  8
0
100
AcDbLine
 62
7
  6
CONTINUOUS
 10
13.7252334891
 20
7.529891804
 11
13.7252334891
 21
7.519891804
  0
LINE
  5
28A
100
AcDbEntity
  8
0
100
AcDbLine
 62
9
  6
CONTINUOUS
 10
13.7877334891
 20
7.529891804
 11
13.7877334891
 21
7.717391804
  0
LINE
  5
28B
100
AcDbEntity
  8
0
100
AcDbLine
 62
9
  6
CONTINUOUS
 10
13.4182866996
 20
10.144891804
 11
13.5064138736
 21
9.6450977644
  0
LINE
  5
28C
100
AcDbEntity
  8
0
100
AcDbLine
 62
9
  6
CONTINUOUS
 10
13.5142334891
 20
9.6007505211
 11
13.8437124716
 21
7.7321823587
  0
LINE
  5
28D
100
AcDbEntity
  8
0
100
AcDbLine
 62
7
  6
CONTINUOUS
 10
13.9028009366
 20
7.7321823587
 11
13.4773751648
 21
10.144891804
  0
LINE
  5
28E
100
AcDbEntity
  8
0
100
AcDbLine
 62
9
  6
CONTINUOUS
 10
14.1148836252
 20
7.3629464602
 11
14.1102335524
 21
7.3894077011
  0
LINE
  5
28F
100
AcDbEntity
  8
0
100
AcDbLine
 62
9
  6
CONTINUOUS
 10
14.2167969708
 20
7.3638295502
 11
14.2139829697
 21
7.3912378019
  0
LINE
  5
290
100
AcDbEntity
  8
0
100
AcDbLine
 62
9
  6
CONTINUOUS
 10
14.1040992054
 20
7.362628008
 11
14.1020520653
 21
7.3883191823
  0
LINE
  5
291
100
AcDbEntity
  8
0
100
AcDbLine
 62
9
  6
CONTINUOUS
 10
13.8437124714
 20
7.707391804
 11
13.8437124714
 21
7.7321823587
  0
LINE
  5
292
100
AcDbEntity
  8
0
100
AcDbLine
 62
7
  6
CONTINUOUS
 10
13.8477334891
 20
7.687391804
 11
13.8477334891
 21
7.529891804
  0
LINE
  5
293
100
AcDbEntity
  8
0
100
AcDbLine
 62
9
  6
CONTINUOUS
 10
13.9372334891
 20
7.519891804
 11
13.9372334891
 21
7.707391804
  0
LINE
  5
294
100
AcDbEntity
  8
0
100
AcDbLine
 62
7
  6
CONTINUOUS
 10
13.9972334891
 20
7.677391804
 11
13.9972334891
 21
7.519891804
  0
LINE
  5
295
100
AcDbEntity
  8
0
100
AcDbLine
 62
9
  6
CONTINUOUS
 10
14.0602334891
 20
7.109891804
 11
14.0602335564
 21
7.38673717
  0
LINE
  5
296
100
AcDbEntity
  8
0
100
AcDbLine
 62
9
  6
CONTINUOUS
 10
14.2300181757
 20
7.3647570483
 11
14.225233498
 21
7.3928562794
  0
LINE
  5
297
100
AcDbEntity
  8
0
100
AcDbLine
 62
9
  6
CONTINUOUS
 10
14.1102334889
 20
7.3894076962
 11
14.1102334891
 21
7.519891804
  0
LINE
  5
298
100
AcDbEntity
  8
0
100
AcDbLine
 62
7
  6
CONTINUOUS
 10
14.1202334891
 20
7.2892692266
 11
14.1202334891
 21
7.109891804
  0
LINE
  5
299
100
AcDbEntity
  8
0
100
AcDbLine
 62
9
  6
CONTINUOUS
 10
14.1652334891
 20
7.109891804
 11
14.1652335087
 21
7.3705631164
  0
LINE
  5
29A
100
AcDbEntity
  8
0
100
AcDbLine
 62
7
  6
CONTINUOUS
 10
14.1702334891
 20
7.489891804
 11
14.1702334891
 21
7.38673717
  0
LINE
  5
29B
100
AcDbEntity
  8
0
100
AcDbLine
 62
7
  6
CONTINUOUS
 10
14.2252334891
 20
7.2850389903
 11
14.2252334891
 21
7.109891804
  0
LINE
  5
29C
100
AcDbEntity
  8
0
100
AcDbLine
 62
9
  6
CONTINUOUS
 10
14.2252334889
 20
7.3928562786
 11
14.2252334891
 21
7.519891804
  0
LINE
  5
29D
100
AcDbEntity
  8
0
100
AcDbLine
 62
7
  6
CONTINUOUS
 10
14.2852334891
 20
7.489891804
 11
14.2852334891
 21
7.3889620388
  0
LINE
  5
29E
100
AcDbEntity
  8
0
100
AcDbLine
 62
9
  6
CONTINUOUS
 10
14.3827334891
 20
10.144891804
 11
14.3827334891
 21
10.644891804
  0
LINE
  5
29F
100
AcDbEntity
  8
0
100
AcDbLine
 62
7
  6
CONTINUOUS
 10
14.4127334891
 20
10.614891804
 11
14.4127334891
 21
10.174891804
  0
ARC
  5
2A0
100
AcDbEntity
  8
0
100
AcDbCircle
 62
7
  6
CONTINUOUS
 10
8.4402452191
 20
9.234891804
 40
0.375
100
AcDbArc
 50
89.9999999793
 51
169.0198674852
  0
ARC
  5
2A1
100
AcDbEntity
  8
0
100
AcDbCircle
 62
7
  6
CONTINUOUS
 10
8.1052334891
 20
9.174891804
 40
0.06
100
AcDbArc
 50
0.0003235105
 51
90.0
  0
ARC
  5
2A2
100
AcDbEntity
  8
0
100
AcDbCircle
 62
7
  6
CONTINUOUS
 10
7.0843945203
 20
9.294891804
 40
0.06
100
AcDbArc
 50
269.9999999979
 51
350.0
  0
ARC
  5
2A3
100
AcDbEntity
  8
0
100
AcDbCircle
 62
7
  6
CONTINUOUS
 10
8.1310122972
 20
9.294891804
 40
0.06
100
AcDbArc
 50
169.0194245724
 51
257.5948879596
  0
ARC
  5
2A4
100
AcDbEntity
  8
0
100
AcDbCircle
 62
7
  6
CONTINUOUS
 10
7.3834543293
 20
10.299891804
 40
0.06
100
AcDbArc
 50
90.0000002735
 51
170.0
  0
ARC
  5
2A5
100
AcDbEntity
  8
0
100
AcDbCircle
 62
7
  6
CONTINUOUS
 10
7.0672334891
 20
9.174891804
 40
0.06
100
AcDbArc
 50
90.0
 51
180.0
  0
ARC
  5
2A6
100
AcDbEntity
  8
0
100
AcDbCircle
 62
7
  6
CONTINUOUS
 10
8.1052334891
 20
9.1776934549
 40
0.06
100
AcDbArc
 50
0.000164526
 51
77.5948331789
  0
ARC
  5
2A7
100
AcDbEntity
  8
0
100
AcDbCircle
 62
9
  6
CONTINUOUS
 10
7.3682173509
 20
188.1621473
 40
178.9272555253
100
AcDbArc
 50
269.9989612666
 51
270.2038784508
  0
ARC
  5
2A8
100
AcDbEntity
  8
0
100
AcDbCircle
 62
9
  6
CONTINUOUS
 10
7.3682790453
 20
98.7577992864
 40
89.5829068634
100
AcDbArc
 50
269.9978858405
 51
270.407436328
  0
ARC
  5
2A9
100
AcDbEntity
  8
0
100
AcDbCircle
 62
9
  6
CONTINUOUS
 10
11.4849447251
 20
8.870310863
 40
0.8099970347
100
AcDbArc
 50
350.0003296061
 51
6.8282073663
  0
ARC
  5
2AA
100
AcDbEntity
  8
0
100
AcDbCircle
 62
9
  6
CONTINUOUS
 10
11.5197472554
 20
8.8614423273
 40
0.7765935428
100
AcDbArc
 50
7.783383735
 51
16.5831765508
  0
ARC
  5
2AB
100
AcDbEntity
  8
0
100
AcDbCircle
 62
7
  6
CONTINUOUS
 10
11.4849416844
 20
8.859891804
 40
0.75
100
AcDbArc
 50
350.0
 51
90.0000000003
  0
ARC
  5
2AC
100
AcDbEntity
  8
0
100
AcDbCircle
 62
7
  6
CONTINUOUS
 10
11.6352334891
 20
7.2850389903
 40
0.09
100
AcDbArc
 50
0.0
 51
59.9999992572
  0
ARC
  5
2AD
100
AcDbEntity
  8
0
100
AcDbCircle
 62
7
  6
CONTINUOUS
 10
11.7402334891
 20
7.2892692266
 40
0.09
100
AcDbArc
 50
0.0
 51
54.3146649845
  0
ARC
  5
2AE
100
AcDbEntity
  8
0
100
AcDbCircle
 62
7
  6
CONTINUOUS
 10
11.6952334891
 20
7.489891804
 40
0.03
100
AcDbArc
 50
90.0
 51
180.0
  0
ARC
  5
2AF
100
AcDbEntity
  8
0
100
AcDbCircle
 62
7
  6
CONTINUOUS
 10
11.6952334891
 20
7.3889620388
 40
0.03
100
AcDbArc
 50
180.0
 51
240.0000022283
  0
ARC
  5
2B0
100
AcDbEntity
  8
0
100
AcDbCircle
 62
7
  6
CONTINUOUS
 10
11.8102334891
 20
7.489891804
 40
0.03
100
AcDbArc
 50
90.0
 51
180.0
  0
ARC
  5
2B1
100
AcDbEntity
  8
0
100
AcDbCircle
 62
7
  6
CONTINUOUS
 10
11.8102334891
 20
7.38673717
 40
0.03
100
AcDbArc
 50
180.0
 51
234.3146661959
  0
ARC
  5
2B2
100
AcDbEntity
  8
0
100
AcDbCircle
 62
7
  6
CONTINUOUS
 10
12.1327334891
 20
7.687391804
 40
0.03
100
AcDbArc
 50
90.0
 51
180.0
  0
ARC
  5
2B3
100
AcDbEntity
  8
0
100
AcDbCircle
 62
7
  6
CONTINUOUS
 10
12.2026218091
 20
7.747391804
 40
0.03
100
AcDbArc
 50
270.0
 51
350.0000000013
  0
ARC
  5
2B4
100
AcDbEntity
  8
0
100
AcDbCircle
 62
7
  6
CONTINUOUS
 10
12.0181218091
 20
7.737391804
 40
0.03
100
AcDbArc
 50
289.7998007581
 51
350.0
  0
ARC
  5
2B5
100
AcDbEntity
  8
0
100
AcDbCircle
 62
7
  6
CONTINUOUS
 10
11.9832334891
 20
7.677391804
 40
0.03
100
AcDbArc
 50
90.0
 51
180.0
  0
ARC
  5
2B6
100
AcDbEntity
  8
0
100
AcDbCircle
 62
7
  6
CONTINUOUS
 10
11.5677334891
 20
10.174891804
 40
0.03
100
AcDbArc
 50
180.0
 51
270.0
  0
ARC
  5
2B7
100
AcDbEntity
  8
0
100
AcDbCircle
 62
7
  6
CONTINUOUS
 10
11.5677334891
 20
10.614891804
 40
0.03
100
AcDbArc
 50
90.0
 51
180.0
  0
ARC
  5
2B8
100
AcDbEntity
  8
0
100
AcDbCircle
 62
7
  6
CONTINUOUS
 10
12.4302711857
 20
9.383981804
 40
0.09
100
AcDbArc
 50
350.0
 51
72.5611686335
  0
ARC
  5
2B9
100
AcDbEntity
  8
0
100
AcDbCircle
 62
7
  6
CONTINUOUS
 10
12.5717334891
 20
10.084891804
 40
0.06
100
AcDbArc
 50
0.0
 51
90.0
  0
ARC
  5
2BA
100
AcDbEntity
  8
0
100
AcDbCircle
 62
7
  6
CONTINUOUS
 10
12.6027334891
 20
9.991391804
 40
0.06
100
AcDbArc
 50
0.0
 51
49.0382154454
  0
ARC
  5
2BB
100
AcDbEntity
  8
0
100
AcDbCircle
 62
7
  6
CONTINUOUS
 10
12.6617334891
 20
10.081391804
 40
0.03
100
AcDbArc
 50
180.0
 51
270.0
  0
ARC
  5
2BC
100
AcDbEntity
  8
0
100
AcDbCircle
 62
7
  6
CONTINUOUS
 10
12.4662334891
 20
9.4984663564
 40
0.03
100
AcDbArc
 50
180.00045628
 51
252.5612637656
  0
ARC
  5
2BD
100
AcDbEntity
  8
0
100
AcDbCircle
 62
7
  6
CONTINUOUS
 10
12.4662334891
 20
9.625391804
 40
0.03
100
AcDbArc
 50
90.0
 51
180.0000000002
  0
ARC
  5
2BE
100
AcDbEntity
  8
0
100
AcDbCircle
 62
9
  6
CONTINUOUS
 10
12.4662230808
 20
9.5036229394
 40
0.0299914923
100
AcDbArc
 50
180.0513085152
 51
266.3101516968
  0
ARC
  5
2BF
100
AcDbEntity
  8
0
100
AcDbCircle
 62
9
  6
CONTINUOUS
 10
12.7552334891
 20
10.614891804
 40
0.09
100
AcDbArc
 50
90.0000000632
 51
179.9999999544
  0
ARC
  5
2C0
100
AcDbEntity
  8
0
100
AcDbCircle
 62
9
  6
CONTINUOUS
 10
12.7552334891
 20
10.174891804
 40
0.09
100
AcDbArc
 50
180.0000000632
 51
269.9999999544
  0
ARC
  5
2C1
100
AcDbEntity
  8
0
100
AcDbCircle
 62
7
  6
CONTINUOUS
 10
12.5717334891
 20
10.704891804
 40
0.06
100
AcDbArc
 50
270.0
 51
360.0
  0
ARC
  5
2C2
100
AcDbEntity
  8
0
100
AcDbCircle
 62
7
  6
CONTINUOUS
 10
12.6927334891
 20
10.879891804
 40
0.03
100
AcDbArc
 50
90.0
 51
180.0
  0
ARC
  5
2C3
100
AcDbEntity
  8
0
100
AcDbCircle
 62
7
  6
CONTINUOUS
 10
12.7552334891
 20
10.614891804
 40
0.03
100
AcDbArc
 50
90.0000000164
 51
180.0
  0
ARC
  5
2C4
100
AcDbEntity
  8
0
100
AcDbCircle
 62
7
  6
CONTINUOUS
 10
12.6617334891
 20
10.708391804
 40
0.03
100
AcDbArc
 50
90.0
 51
180.0
  0
ARC
  5
2C5
100
AcDbEntity
  8
0
100
AcDbCircle
 62
7
  6
CONTINUOUS
 10
12.7552334891
 20
10.174891804
 40
0.03
100
AcDbArc
 50
180.0000000164
 51
270.0
  0
ARC
  5
2C6
100
AcDbEntity
  8
0
100
AcDbCircle
 62
7
  6
CONTINUOUS
 10
14.3152334891
 20
7.2850389903
 40
0.09
100
AcDbArc
 50
120.0000007428
 51
180.0
  0
ARC
  5
2C7
100
AcDbEntity
  8
0
100
AcDbCircle
 62
7
  6
CONTINUOUS
 10
14.2102334891
 20
7.2892692266
 40
0.09
100
AcDbArc
 50
125.6853350155
 51
180.0
  0
ARC
  5
2C8
100
AcDbEntity
  8
0
100
AcDbCircle
 62
7
  6
CONTINUOUS
 10
14.2552334891
 20
7.489891804
 40
0.03
100
AcDbArc
 50
0.0
 51
90.0
  0
ARC
  5
2C9
100
AcDbEntity
  8
0
100
AcDbCircle
 62
7
  6
CONTINUOUS
 10
14.2552334891
 20
7.3889620388
 40
0.03
100
AcDbArc
 50
299.9999977717
 51
360.0
  0
ARC
  5
2CA
100
AcDbEntity
  8
0
100
AcDbCircle
 62
7
  6
CONTINUOUS
 10
14.1402334891
 20
7.489891804
 40
0.03
100
AcDbArc
 50
0.0
 51
90.0
  0
ARC
  5
2CB
100
AcDbEntity
  8
0
100
AcDbCircle
 62
7
  6
CONTINUOUS
 10
14.1402334891
 20
7.38673717
 40
0.03
100
AcDbArc
 50
305.6853338041
 51
360.0
  0
ARC
  5
2CC
100
AcDbEntity
  8
0
100
AcDbCircle
 62
7
  6
CONTINUOUS
 10
13.8177334891
 20
7.687391804
 40
0.03
100
AcDbArc
 50
0.0
 51
90.0
  0
ARC
  5
2CD
100
AcDbEntity
  8
0
100
AcDbCircle
 62
7
  6
CONTINUOUS
 10
13.7478451692
 20
7.747391804
 40
0.03
100
AcDbArc
 50
189.9999999987
 51
270.0
  0
ARC
  5
2CE
100
AcDbEntity
  8
0
100
AcDbCircle
 62
7
  6
CONTINUOUS
 10
13.9323451692
 20
7.737391804
 40
0.03
100
AcDbArc
 50
190.0
 51
249.8484739132
  0
ARC
  5
2CF
100
AcDbEntity
  8
0
100
AcDbCircle
 62
7
  6
CONTINUOUS
 10
13.9672334891
 20
7.677391804
 40
0.03
100
AcDbArc
 50
0.0
 51
90.0
  0
ARC
  5
2D0
100
AcDbEntity
  8
0
100
AcDbCircle
 62
7
  6
CONTINUOUS
 10
13.5201957925
 20
9.383981804
 40
0.09
100
AcDbArc
 50
107.4388004054
 51
190.0
  0
ARC
  5
2D1
100
AcDbEntity
  8
0
100
AcDbCircle
 62
7
  6
CONTINUOUS
 10
13.3477334891
 20
9.991391804
 40
0.06
100
AcDbArc
 50
130.9617885157
 51
180.0
  0
ARC
  5
2D2
100
AcDbEntity
  8
0
100
AcDbCircle
 62
7
  6
CONTINUOUS
 10
13.3787334891
 20
10.084891804
 40
0.06
100
AcDbArc
 50
90.0
 51
180.0
  0
ARC
  5
2D3
100
AcDbEntity
  8
0
100
AcDbCircle
 62
7
  6
CONTINUOUS
 10
13.288680636
 20
10.0593841155
 40
0.0300540507
100
AcDbArc
 50
311.0015232574
 51
359.9448147856
  0
ARC
  5
2D4
100
AcDbEntity
  8
0
100
AcDbCircle
 62
7
  6
CONTINUOUS
 10
13.2887334891
 20
10.081391804
 40
0.03
100
AcDbArc
 50
269.9999999934
 51
360.0
  0
ARC
  5
2D5
100
AcDbEntity
  8
0
100
AcDbCircle
 62
7
  6
CONTINUOUS
 10
13.4842334891
 20
9.4984663564
 40
0.03
100
AcDbArc
 50
287.4387362344
 51
359.999682285
  0
ARC
  5
2D6
100
AcDbEntity
  8
0
100
AcDbCircle
 62
7
  6
CONTINUOUS
 10
13.4842334891
 20
9.625391804
 40
0.03
100
AcDbArc
 50
0.0
 51
90.0
  0
ARC
  5
2D7
100
AcDbEntity
  8
0
100
AcDbCircle
 62
9
  6
CONTINUOUS
 10
13.48424374
 20
9.5036240116
 40
0.0299915425
100
AcDbArc
 50
273.6931982654
 51
359.9489998129
  0
ARC
  5
2D8
100
AcDbEntity
  8
0
100
AcDbCircle
 62
9
  6
CONTINUOUS
 10
13.1952334891
 20
10.614891804
 40
0.09
100
AcDbArc
 50
0.0000000632
 51
89.9999999544
  0
ARC
  5
2D9
100
AcDbEntity
  8
0
100
AcDbCircle
 62
9
  6
CONTINUOUS
 10
13.1952334891
 20
10.174891804
 40
0.09
100
AcDbArc
 50
270.0000000632
 51
359.9999999544
  0
ARC
  5
2DA
100
AcDbEntity
  8
0
100
AcDbCircle
 62
7
  6
CONTINUOUS
 10
13.3787334891
 20
10.704891804
 40
0.06
100
AcDbArc
 50
180.0
 51
270.0
  0
ARC
  5
2DB
100
AcDbEntity
  8
0
100
AcDbCircle
 62
7
  6
CONTINUOUS
 10
13.2577334891
 20
10.879891804
 40
0.03
100
AcDbArc
 50
0.0
 51
90.0
  0
ARC
  5
2DC
100
AcDbEntity
  8
0
100
AcDbCircle
 62
7
  6
CONTINUOUS
 10
13.1952334891
 20
10.174891804
 40
0.03
100
AcDbArc
 50
270.0000000164
 51
360.0
  0
ARC
  5
2DD
100
AcDbEntity
  8
0
100
AcDbCircle
 62
7
  6
CONTINUOUS
 10
13.1952334891
 20
10.614891804
 40
0.03
100
AcDbArc
 50
0.0000000164
 51
90.0
  0
ARC
  5
2DE
100
AcDbEntity
  8
0
100
AcDbCircle
 62
7
  6
CONTINUOUS
 10
13.2887334891
 20
10.708391804
 40
0.03
100
AcDbArc
 50
0.0
 51
90.0
  0
ARC
  5
2DF
100
AcDbEntity
  8
0
100
AcDbCircle
 62
7
  6
CONTINUOUS
 10
14.3827334891
 20
10.614891804
 40
0.03
100
AcDbArc
 50
0.0
 51
90.0
  0
ARC
  5
2E0
100
AcDbEntity
  8
0
100
AcDbCircle
 62
7
  6
CONTINUOUS
 10
14.3827334891
 20
10.174891804
 40
0.03
100
AcDbArc
 50
270.0
 51
360.0
  0
SPLINE
  5
2E1
100
AcDbEntity
  8
0
100
AcDbSpline
 62
9
  6
CONTINUOUS
 70
0
 71
3
 72
27
 73
23
 74
0
 42
0.0000001
 43
0.0000001
 44
0.0000000001
 40
0.0
 40
0.0
 40
0.0
 40
0.0
 40
0.1937035644
 40
0.3801171377
 40
0.4681883868
 40
0.5517534439
 40
0.6300310307
 40
0.7022563026
 40
0.7677033744
 40
0.8257762064
 40
0.8759142782
 40
0.9176510363
 40
0.9352804458
 40
0.9507136789
 40
0.9639339558
 40
0.9749487722
 40
0.9838156367
 40
0.9906642664
 40
0.9934226016
 40
0.9958192363
 40
0.9979618102
 40
1.0
 40
1.0
 40
1.0
 40
1.0
 10
11.7252334892
 20
7.392856244
 30
0.0
 10
11.7213417179
 20
7.3931857739
 30
0.0
 10
11.7136970052
 20
7.3937444502
 30
0.0
 10
11.7042694492
 20
7.3942445521
 30
0.0
 10
11.6970552142
 20
7.3945216116
 30
0.0
 10
11.692018141
 20
7.3946667804
 30
0.0
 10
11.6872992933
 20
7.3947545872
 30
0.0
 10
11.6829450326
 20
7.3947855242
 30
0.0
 10
11.6789981147
 20
7.394760269
 30
0.0
 10
11.675497307
 20
7.3946787594
 30
0.0
 10
11.6724767723
 20
7.3945408882
 30
0.0
 10
11.670274568
 20
7.3943718542
 30
0.0
 10
11.6687762633
 20
7.3941976873
 30
0.0
 10
11.6678531221
 20
7.3940592868
 30
0.0
 10
11.667067867
 20
7.3939057211
 30
0.0
 10
11.6664213289
 20
7.393736802
 30
0.0
 10
11.6659141013
 20
7.3935527617
 30
0.0
 10
11.665583108
 20
7.3933751481
 30
0.0
 10
11.6653975939
 20
7.3932181922
 30
0.0
 10
11.6653038106
 20
7.3931033862
 30
0.0
 10
11.6652462181
 20
7.3929822083
 30
0.0
 10
11.6652334983
 20
7.3928973752
 30
0.0
 10
11.6652334891
 20
7.3928562786
 30
0.0
  0
LINE
  5
2E2
100
AcDbEntity
  8
0
100
AcDbLine
 62
9
  6
CONTINUOUS
 10
14.2252334901
 20
7.3928562712
 11
14.213982897
 21
7.3912377944
  0
SPLINE
  5
2E3
100
AcDbEntity
  8
0
100
AcDbSpline
 62
9
  6
CONTINUOUS
 70
0
 71
3
 72
9
 73
5
 74
0
 42
0.0000001
 43
0.0000001
 44
0.0000000001
 40
0.0
 40
0.0
 40
0.0
 40
0.0
 40
0.4975762826
 40
1.0
 40
1.0
 40
1.0
 40
1.0
 10
14.2139828968
 20
7.3912377963
 30
0.0
 10
14.2067470871
 20
7.390495204
 30
0.0
 10
14.1921596516
 20
7.3894278869
 30
0.0
 10
14.1775420071
 20
7.3890410978
 30
0.0
 10
14.170197569
 20
7.388981831
 30
0.0
  0
SPLINE
  5
2E4
100
AcDbEntity
  8
0
100
AcDbSpline
 62
9
  6
CONTINUOUS
 70
0
 71
3
 72
16
 73
12
 74
0
 42
0.0000001
 43
0.0000001
 44
0.0000000001
 40
0.0
 40
0.0
 40
0.0
 40
0.0
 40
0.0874433482
 40
0.1344948294
 40
0.1840253221
 40
0.2906068776
 40
0.4076857693
 40
0.5357745952
 40
0.6762563029
 40
0.8306736853
 40
1.0
 40
1.0
 40
1.0
 40
1.0
 10
11.7302425528
 20
7.2816047301
 30
0.0
 10
11.7310596705
 20
7.2812004261
 30
0.0
 10
11.732413028
 20
7.2807720266
 30
0.0
 10
11.7343014379
 20
7.2804365756
 30
0.0
 10
11.7364076521
 20
7.2801978627
 30
0.0
 10
11.7392541315
 20
7.2800551112
 30
0.0
 10
11.7429215569
 20
7.2800288196
 30
0.0
 10
11.7469424788
 20
7.2800627792
 30
0.0
 10
11.7513496544
 20
7.280249199
 30
0.0
 10
11.7561733224
 20
7.2806754315
 30
0.0
 10
11.7595079624
 20
7.2812320844
 30
0.0
 10
11.7612335533
 20
7.2816047301
 30
0.0
  0
SPLINE
  5
2E5
100
AcDbEntity
  8
0
100
AcDbSpline
 62
9
  6
CONTINUOUS
 70
0
 71
3
 72
26
 73
22
 74
0
 42
0.0000001
 43
0.0000001
 44
0.0000000001
 40
0.0
 40
0.0
 40
0.0
 40
0.0
 40
0.0002719773
 40
0.0010862393
 40
0.002440341
 40
0.0043318481
 40
0.0097173935
 40
0.0172236316
 40
0.0268314998
 40
0.0385221236
 40
0.0522768195
 40
0.0680770987
 40
0.1057412976
 40
0.1513709433
 40
0.2048254877
 40
0.2659678405
 40
0.3346260283
 40
0.4104838135
 40
0.582474666
 40
0.7795940738
 40
1.0
 40
1.0
 40
1.0
 40
1.0
 10
11.7252334891
 20
7.2850389052
 30
0.0
 10
11.7252332698
 20
7.2850383985
 30
0.0
 10
11.7252363958
 20
7.2850372085
 30
0.0
 10
11.7252385673
 20
7.2850335335
 30
0.0
 10
11.7252454443
 20
7.2850281102
 30
0.0
 10
11.7252578446
 20
7.2850161459
 30
0.0
 10
11.7252803955
 20
7.2849960029
 30
0.0
 10
11.7253141348
 20
7.2849653665
 30
0.0
 10
11.7253578317
 20
7.2849264369
 30
0.0
 10
11.7254111522
 20
7.284879325
 30
0.0
 10
11.7254742293
 20
7.2848242394
 30
0.0
 10
11.7255775019
 20
7.2847350267
 30
0.0
 10
11.725730901
 20
7.2846048463
 30
0.0
 10
11.7259445827
 20
7.2844275798
 30
0.0
 10
11.7261973158
 20
7.2842227597
 30
0.0
 10
11.7264890755
 20
7.2839918791
 30
0.0
 10
11.7268195997
 20
7.2837367224
 30
0.0
 10
11.7273348325
 20
7.2833526786
 30
0.0
 10
11.7280765353
 20
7.2828362813
 30
0.0
 10
11.7290941389
 20
7.2822050556
 30
0.0
 10
11.7298415249
 20
7.2818034884
 30
0.0
 10
11.7302425742
 20
7.2816050007
 30
0.0
  0
SPLINE
  5
2E6
100
AcDbEntity
  8
0
100
AcDbSpline
 62
9
  6
CONTINUOUS
 70
0
 71
3
 72
9
 73
5
 74
0
 42
0.0000001
 43
0.0000001
 44
0.0000000001
 40
0.0
 40
0.0
 40
0.0
 40
0.0
 40
0.502280655
 40
1.0
 40
1.0
 40
1.0
 40
1.0
 10
11.7802279662
 20
7.3889821708
 30
0.0
 10
11.7728925253
 20
7.3890418507
 30
0.0
 10
11.7582886517
 20
7.389429269
 30
0.0
 10
11.7437149742
 20
7.3904959291
 30
0.0
 10
11.7364838694
 20
7.3912378567
 30
0.0
  0
SPLINE
  5
2E7
100
AcDbEntity
  8
0
100
AcDbSpline
 62
9
  6
CONTINUOUS
 70
0
 71
3
 72
9
 73
5
 74
0
 42
0.0000001
 43
0.0000001
 44
0.0000000001
 40
0.0
 40
0.0
 40
0.0
 40
0.0
 40
0.4976082381
 40
1.0
 40
1.0
 40
1.0
 40
1.0
 10
11.7612334493
 20
7.2816053031
 30
0.0
 10
11.7651706864
 20
7.2824557143
 30
0.0
 10
11.7730624838
 20
7.2842703211
 30
0.0
 10
11.7811667364
 20
7.2850392296
 30
0.0
 10
11.7852334891
 20
7.2850392156
 30
0.0
  0
LINE
  5
2E8
100
AcDbEntity
  8
0
100
AcDbLine
 62
9
  6
CONTINUOUS
 10
11.736483867
 20
7.3912378335
 11
11.7252334909
 21
7.3928562534
  0
SPLINE
  5
2E9
100
AcDbEntity
  8
0
100
AcDbSpline
 62
9
  6
CONTINUOUS
 70
0
 71
3
 72
16
 73
12
 74
0
 42
0.0000001
 43
0.0000001
 44
0.0000000001
 40
0.0
 40
0.0
 40
0.0
 40
0.0
 40
0.1693128717
 40
0.3237140902
 40
0.4641973819
 40
0.5922940612
 40
0.7093733632
 40
0.8159559794
 40
0.8654909511
 40
0.9125484846
 40
1.0
 40
1.0
 40
1.0
 40
1.0
 10
14.189233425
 20
7.2816047301
 30
0.0
 10
14.1909588786
 20
7.2812321112
 30
0.0
 10
14.1942932124
 20
7.2806754908
 30
0.0
 10
14.1991165955
 20
7.2802493433
 30
0.0
 10
14.2035236991
 20
7.2800629033
 30
0.0
 10
14.2075447228
 20
7.2800288261
 30
0.0
 10
14.2112122471
 20
7.2800549934
 30
0.0
 10
14.2140587925
 20
7.2801977129
 30
0.0
 10
14.2161651251
 20
7.2804364641
 30
0.0
 10
14.218053722
 20
7.2807719718
 30
0.0
 10
14.2194072298
 20
7.2812003914
 30
0.0
 10
14.2202244255
 20
7.2816047301
 30
0.0
  0
SPLINE
  5
2EA
100
AcDbEntity
  8
0
100
AcDbSpline
 62
9
  6
CONTINUOUS
 70
0
 71
3
 72
9
 73
5
 74
0
 42
0.0000001
 43
0.0000001
 44
0.0000000001
 40
0.0
 40
0.0
 40
0.0
 40
0.0
 40
0.502361269
 40
1.0
 40
1.0
 40
1.0
 40
1.0
 10
14.1652334891
 20
7.2850389052
 30
0.0
 10
14.169299974
 20
7.2850389022
 30
0.0
 10
14.1774040414
 20
7.284268825
 30
0.0
 10
14.1852960198
 20
7.2824554767
 30
0.0
 10
14.1892334741
 20
7.2816050007
 30
0.0
  0
SPLINE
  5
2EB
100
AcDbEntity
  8
0
100
AcDbSpline
 62
9
  6
CONTINUOUS
 70
0
 71
3
 72
14
 73
10
 74
0
 42
0.0000001
 43
0.0000001
 44
0.0000000001
 40
0.0
 40
0.0
 40
0.0
 40
0.0
 40
0.066007917
 40
0.139432187
 40
0.2280324031
 40
0.336272677
 40
0.4665468491
 40
0.6201653423
 40
1.0
 40
1.0
 40
1.0
 40
1.0
 10
14.2852334891
 20
7.392856244
 30
0.0
 10
14.2852334814
 20
7.3929132898
 30
0.0
 10
14.2852071833
 20
7.3930349912
 30
0.0
 10
14.2850930312
 20
7.3931998571
 30
0.0
 10
14.2849128471
 20
7.3933511639
 30
0.0
 10
14.2846672002
 20
7.3934929527
 30
0.0
 10
14.2843552499
 20
7.3936267509
 30
0.0
 10
14.2838105368
 20
7.3938079278
 30
0.0
 10
14.2833601335
 20
7.3939110715
 30
0.0
 10
14.2830381516
 20
7.3939749801
 30
0.0
  0
SPLINE
  5
2EC
100
AcDbEntity
  8
0
100
AcDbSpline
 62
9
  6
CONTINUOUS
 70
0
 71
3
 72
17
 73
13
 74
0
 42
0.0000001
 43
0.0000001
 44
0.0000000001
 40
0.0
 40
0.0
 40
0.0
 40
0.0
 40
0.0261416234
 40
0.0585461646
 40
0.0970660708
 40
0.141509945
 40
0.2470010103
 40
0.3723901443
 40
0.5142755952
 40
0.6689165067
 40
0.8323683686
 40
1.0
 40
1.0
 40
1.0
 40
1.0
 10
14.2830381516
 20
7.3939749801
 30
0.0
 10
14.2825433064
 20
7.3940731995
 30
0.0
 10
14.2814248744
 20
7.39424093
 30
0.0
 10
14.2795605915
 20
7.3944269225
 30
0.0
 10
14.2773386088
 20
7.3945734799
 30
0.0
 10
14.2737046621
 20
7.3947259841
 30
0.0
 10
14.268390893
 20
7.3948004566
 30
0.0
 10
14.2611969298
 20
7.3947387698
 30
0.0
 10
14.253056968
 20
7.3945234522
 30
0.0
 10
14.2441875047
 20
7.394150021
 30
0.0
 10
14.234829022
 20
7.3936070165
 30
0.0
 10
14.2284570151
 20
7.3931293045
 30
0.0
 10
14.2252334891
 20
7.3928562786
 30
0.0
  0
SPLINE
  5
2ED
100
AcDbEntity
  8
0
100
AcDbSpline
 62
9
  6
CONTINUOUS
 70
0
 71
3
 72
26
 73
22
 74
0
 42
0.0000001
 43
0.0000001
 44
0.0000000001
 40
0.0
 40
0.0
 40
0.0
 40
0.0
 40
0.2204383022
 40
0.4175625315
 40
0.5895445265
 40
0.6653961722
 40
0.734048618
 40
0.7951864393
 40
0.848637534
 40
0.8942645276
 40
0.9319266676
 40
0.9477260953
 40
0.9614800463
 40
0.9731700272
 40
0.9827773547
 40
0.9902831588
 40
0.9956683858
 40
0.9975597808
 40
0.9989138045
 40
0.9997280251
 40
1.0
 40
1.0
 40
1.0
 40
1.0
 10
14.2202243801
 20
7.2816053031
 30
0.0
 10
14.2206254888
 20
7.2818038112
 30
0.0
 10
14.2213729176
 20
7.2822054511
 30
0.0
 10
14.2223904576
 20
7.2828368748
 30
0.0
 10
14.2231320223
 20
7.2833534219
 30
0.0
 10
14.2236471488
 20
7.2837375292
 30
0.0
 10
14.2239776176
 20
7.2839926976
 30
0.0
 10
14.2242693608
 20
7.2842235492
 30
0.0
 10
14.2245221099
 20
7.2844283109
 30
0.0
 10
14.2247358328
 20
7.2846054982
 30
0.0
 10
14.2248892776
 20
7.2847356051
 30
0.0
 10
14.2249925967
 20
7.2848247501
 30
0.0
 10
14.2250556957
 20
7.2848798046
 30
0.0
 10
14.2251090709
 20
7.2849268419
 30
0.0
 10
14.2251527248
 20
7.2849658313
 30
0.0
 10
14.2251866692
 20
7.2849961895
 30
0.0
 10
14.22520886
 20
7.2850168254
 30
0.0
 10
14.2252217815
 20
7.2850280801
 30
0.0
 10
14.2252278236
 20
7.2850346435
 30
0.0
 10
14.2252314884
 20
7.285036282
 30
0.0
 10
14.2252330717
 20
7.285039577
 30
0.0
 10
14.2252334891
 20
7.2850392156
 30
0.0
  0
LINE
  5
2EE
100
AcDbEntity
  8
0
100
AcDbLine
 62
9
  6
CONTINUOUS
 10
11.6833646602
 20
7.3638295569
 11
11.6802334943
 21
7.3629812737
  0
SPLINE
  5
2EF
100
AcDbEntity
  8
0
100
AcDbSpline
 62
9
  6
CONTINUOUS
 70
0
 71
3
 72
9
 73
5
 74
0
 42
0.0000001
 43
0.0000001
 44
0.0000000001
 40
0.0
 40
0.0
 40
0.0
 40
0.0
 40
0.5201571009
 40
1.0
 40
1.0
 40
1.0
 40
1.0
 10
11.6858772094
 20
7.3647570478
 30
0.0
 10
11.6854702034
 20
7.3645291764
 30
0.0
 10
11.684664228
 20
7.3641316109
 30
0.0
 10
11.6837918482
 20
7.3638813543
 30
0.0
 10
11.683364676
 20
7.3638295502
 30
0.0
  0
SPLINE
  5
2F0
100
AcDbEntity
  8
0
100
AcDbSpline
 62
9
  6
CONTINUOUS
 70
0
 71
3
 72
13
 73
9
 74
0
 42
0.0000001
 43
0.0000001
 44
0.0000000001
 40
0.0
 40
0.0
 40
0.0
 40
0.0
 40
0.247308674
 40
0.3752643273
 40
0.5040629025
 40
0.6322920208
 40
0.7586231551
 40
1.0
 40
1.0
 40
1.0
 40
1.0
 10
11.683364676
 20
7.3638295502
 30
0.0
 10
11.6807333388
 20
7.3649571328
 30
0.0
 10
11.676957151
 20
7.3672600628
 30
0.0
 10
11.6727477837
 20
7.3713221353
 30
0.0
 10
11.6700151061
 20
7.3748648568
 30
0.0
 10
11.6678628784
 20
7.3787657632
 30
0.0
 10
11.6658434249
 20
7.3841550822
 30
0.0
 10
11.6652334898
 20
7.3884437096
 30
0.0
 10
11.6652334891
 20
7.3912378019
 30
0.0
  0
SPLINE
  5
2F1
100
AcDbEntity
  8
0
100
AcDbSpline
 62
9
  6
CONTINUOUS
 70
0
 71
3
 72
13
 73
9
 74
0
 42
0.0000001
 43
0.0000001
 44
0.0000000001
 40
0.0
 40
0.0
 40
0.0
 40
0.0
 40
0.244199758
 40
0.3719146838
 40
0.5010639986
 40
0.630044687
 40
0.7572852453
 40
1.0
 40
1.0
 40
1.0
 40
1.0
 10
11.6858772062
 20
7.3647570483
 30
0.0
 10
11.6829972278
 20
7.3656889822
 30
0.0
 10
11.6787886283
 20
7.3677885188
 30
0.0
 10
11.6740093115
 20
7.3717838836
 30
0.0
 10
11.670848632
 20
7.3754029985
 30
0.0
 10
11.668333818
 20
7.3794907739
 30
0.0
 10
11.6659564379
 20
7.3852203567
 30
0.0
 10
11.6652334892
 20
7.3898476791
 30
0.0
 10
11.6652334891
 20
7.3928562794
 30
0.0
  0
SPLINE
  5
2F2
100
AcDbEntity
  8
0
100
AcDbSpline
 62
9
  6
CONTINUOUS
 70
0
 71
3
 72
9
 73
5
 74
0
 42
0.0000001
 43
0.0000001
 44
0.0000000001
 40
0.0
 40
0.0
 40
0.0
 40
0.0
 40
0.2501389504
 40
1.0
 40
1.0
 40
1.0
 40
1.0
 10
11.7336713219
 20
7.3638295718
 30
0.0
 10
11.7325661578
 20
7.3638541231
 30
0.0
 10
11.7281493918
 20
7.3640202778
 30
0.0
 10
11.7237436132
 20
7.3644059968
 30
0.0
 10
11.7204484004
 20
7.3647569972
 30
0.0
  0
SPLINE
  5
2F3
100
AcDbEntity
  8
0
100
AcDbSpline
 62
9
  6
CONTINUOUS
 70
0
 71
3
 72
13
 73
9
 74
0
 42
0.0000001
 43
0.0000001
 44
0.0000000001
 40
0.0
 40
0.0
 40
0.0
 40
0.0
 40
0.2505944997
 40
0.3758371986
 40
0.5010015438
 40
0.6260471853
 40
0.7509317938
 40
1.0
 40
1.0
 40
1.0
 40
1.0
 10
11.7852335755
 20
7.3629812775
 30
0.0
 10
11.7809256446
 20
7.3629945881
 30
0.0
 10
11.7744646407
 20
7.3630037839
 30
0.0
 10
11.7658521379
 20
7.3630641642
 30
0.0
 10
11.7593981997
 20
7.3631414861
 30
0.0
 10
11.7529508359
 20
7.3632490697
 30
0.0
 10
11.744374541
 20
7.3634293828
 30
0.0
 10
11.7379485
 20
7.3636325781
 30
0.0
 10
11.7336713202
 20
7.3638295551
 30
0.0
  0
SPLINE
  5
2F4
100
AcDbEntity
  8
0
100
AcDbSpline
 62
9
  6
CONTINUOUS
 70
0
 71
3
 72
11
 73
7
 74
0
 42
0.0000001
 43
0.0000001
 44
0.0000000001
 40
0.0
 40
0.0
 40
0.0
 40
0.0
 40
0.2490652008
 40
0.4989894716
 40
0.7494007932
 40
1.0
 40
1.0
 40
1.0
 40
1.0
 10
14.2167969701
 20
7.3638295569
 30
0.0
 10
14.2125197877
 20
7.3636319887
 30
0.0
 10
14.2039449566
 20
7.3633622139
 30
0.0
 10
14.1910637944
 20
7.3631341309
 30
0.0
 10
14.1781548752
 20
7.3629995173
 30
0.0
 10
14.169541791
 20
7.3629720618
 30
0.0
 10
14.1652336865
 20
7.3629812737
 30
0.0
  0
SPLINE
  5
2F5
100
AcDbEntity
  8
0
100
AcDbSpline
 62
9
  6
CONTINUOUS
 70
0
 71
3
 72
9
 73
5
 74
0
 42
0.0000001
 43
0.0000001
 44
0.0000000001
 40
0.0
 40
0.0
 40
0.0
 40
0.0
 40
0.749859938
 40
1.0
 40
1.0
 40
1.0
 40
1.0
 10
14.2300181785
 20
7.3647570478
 30
0.0
 10
14.2267234838
 20
7.3644052556
 30
0.0
 10
14.2223181854
 20
7.3640201003
 30
0.0
 10
14.2179019914
 20
7.363854374
 30
0.0
 10
14.2167969708
 20
7.3638295502
 30
0.0
  0
SPLINE
  5
2F6
100
AcDbEntity
  8
0
100
AcDbSpline
 62
9
  6
CONTINUOUS
 70
0
 71
3
 72
18
 73
14
 74
0
 42
0.0000001
 43
0.0000001
 44
0.0000000001
 40
0.0
 40
0.0
 40
0.0
 40
0.0
 40
0.1803110419
 40
0.3519176502
 40
0.5107413897
 40
0.6527027947
 40
0.7741594542
 40
0.8265769758
 40
0.8732218202
 40
0.9139472278
 40
0.9486458706
 40
0.9772863669
 40
1.0
 40
1.0
 40
1.0
 40
1.0
 10
14.230017674
 20
7.3647574102
 30
0.0
 10
14.2320956951
 20
7.364979416
 30
0.0
 10
14.2361569175
 20
7.3653629351
 30
0.0
 10
14.2420624505
 20
7.3657784461
 30
0.0
 10
14.2475325134
 20
7.3660286315
 30
0.0
 10
14.252426158
 20
7.366118032
 30
0.0
 10
14.2560875928
 20
7.3660617998
 30
0.0
 10
14.2586399644
 20
7.3659221189
 30
0.0
 10
14.2602543999
 20
7.3657814319
 30
0.0
 10
14.261657963
 20
7.3655998246
 30
0.0
 10
14.2628445232
 20
7.365377263
 30
0.0
 10
14.2638074984
 20
7.3651141443
 30
0.0
 10
14.264361207
 20
7.3648860808
 30
0.0
 10
14.2645908483
 20
7.3647573614
 30
0.0
  0
SPLINE
  5
2F7
100
AcDbEntity
  8
0
100
AcDbSpline
 62
9
  6
CONTINUOUS
 70
0
 71
3
 72
18
 73
14
 74
0
 42
0.0000001
 43
0.0000001
 44
0.0000000001
 40
0.0
 40
0.0
 40
0.0
 40
0.0
 40
0.1401487224
 40
0.2835054526
 40
0.4262912048
 40
0.5642439371
 40
0.6932828757
 40
0.7534553184
 40
0.810234107
 40
0.8633290264
 40
0.9126611322
 40
0.9582148541
 40
1.0
 40
1.0
 40
1.0
 40
1.0
 10
14.1892334887
 20
7.2816050837
 30
0.0
 10
14.1895316474
 20
7.2857134542
 30
0.0
 10
14.1903643087
 20
7.2940092242
 30
0.0
 10
14.1923035799
 20
7.3063943873
 30
0.0
 10
14.1949796909
 20
7.3185770555
 30
0.0
 10
14.1983253017
 20
7.3301567847
 30
0.0
 10
14.2016977643
 20
7.3391750126
 30
0.0
 10
14.2046808137
 20
7.3457634474
 30
0.0
 10
14.206963124
 20
7.3502124192
 30
0.0
 10
14.2093277789
 20
7.354253279
 30
0.0
 10
14.2117504019
 20
7.3578691362
 30
0.0
 10
14.2142086976
 20
7.3610500356
 30
0.0
 10
14.2159318884
 20
7.3629574886
 30
0.0
 10
14.216796653
 20
7.3638295418
 30
0.0
  0
SPLINE
  5
2F8
100
AcDbEntity
  8
0
100
AcDbSpline
 62
9
  6
CONTINUOUS
 70
0
 71
3
 72
10
 73
6
 74
0
 42
0.0000001
 43
0.0000001
 44
0.0000000001
 40
0.0
 40
0.0
 40
0.0
 40
0.0
 40
0.2345994435
 40
0.4802667338
 40
1.0
 40
1.0
 40
1.0
 40
1.0
 10
14.2671026638
 20
7.3638295718
 30
0.0
 10
14.2668935484
 20
7.3638545772
 30
0.0
 10
14.2664694966
 20
7.3639414024
 30
0.0
 10
14.26561582
 20
7.3642232655
 30
0.0
 10
14.2649972771
 20
7.3645302267
 30
0.0
 10
14.2645895167
 20
7.3647569972
 30
0.0
  0
SPLINE
  5
2F9
100
AcDbEntity
  8
0
100
AcDbSpline
 62
9
  6
CONTINUOUS
 70
0
 71
3
 72
15
 73
11
 74
0
 42
0.0000001
 43
0.0000001
 44
0.0000000001
 40
0.0
 40
0.0
 40
0.0
 40
0.0
 40
0.1249083314
 40
0.2528385592
 40
0.3823233553
 40
0.511642867
 40
0.6392468737
 40
0.7638458028
 40
0.8842950259
 40
1.0
 40
1.0
 40
1.0
 40
1.0
 10
14.2202245029
 20
7.2816051358
 30
0.0
 10
14.2200927077
 20
7.2857661909
 30
0.0
 10
14.2203708902
 20
7.2942155568
 30
0.0
 10
14.2224439247
 20
7.3068264157
 30
0.0
 10
14.2262946452
 20
7.3191719359
 30
0.0
 10
14.2318300218
 20
7.3308510886
 30
0.0
 10
14.2389604598
 20
7.3414369223
 30
0.0
 10
14.2473749717
 20
7.3506379582
 30
0.0
 10
14.2567917271
 20
7.3581862415
 30
0.0
 10
14.2636288032
 20
7.3621548252
 30
0.0
 10
14.2671025592
 20
7.3638295858
 30
0.0
  0
SPLINE
  5
2FA
100
AcDbEntity
  8
0
100
AcDbSpline
 62
9
  6
CONTINUOUS
 70
0
 71
3
 72
13
 73
9
 74
0
 42
0.0000001
 43
0.0000001
 44
0.0000000001
 40
0.0
 40
0.0
 40
0.0
 40
0.0
 40
0.2448055207
 40
0.3726851972
 40
0.5018916543
 40
0.6308125535
 40
0.7578871089
 40
1.0
 40
1.0
 40
1.0
 40
1.0
 10
14.2645895167
 20
7.3647569972
 30
0.0
 10
14.2674766663
 20
7.3656912211
 30
0.0
 10
14.2716936817
 20
7.3677968689
 30
0.0
 10
14.2764774677
 20
7.3718030459
 30
0.0
 10
14.2796359057
 20
7.3754268666
 30
0.0
 10
14.282145528
 20
7.379515379
 30
0.0
 10
14.2845138899
 20
7.3852375664
 30
0.0
 10
14.2852334901
 20
7.389855099
 30
0.0
 10
14.2852334891
 20
7.3928562577
 30
0.0
  0
SPLINE
  5
2FB
100
AcDbEntity
  8
0
100
AcDbSpline
 62
9
  6
CONTINUOUS
 70
0
 71
3
 72
18
 73
14
 74
0
 42
0.0000001
 43
0.0000001
 44
0.0000000001
 40
0.0
 40
0.0
 40
0.0
 40
0.0
 40
0.1422849135
 40
0.28719814
 40
0.4308000296
 40
0.5688131892
 40
0.6972100969
 40
0.7568624697
 40
0.8130284849
 40
0.8654462997
 40
0.9140679151
 40
0.9589073529
 40
1.0
 40
1.0
 40
1.0
 40
1.0
 10
11.7612337308
 20
7.2816051358
 30
0.0
 10
11.7609310257
 20
7.28577612
 30
0.0
 10
11.7600836812
 20
7.2941796919
 30
0.0
 10
11.7581097919
 20
7.3066937756
 30
0.0
 10
11.755395938
 20
7.3189415412
 30
0.0
 10
11.7520218018
 20
7.330520274
 30
0.0
 10
11.7486366556
 20
7.3394991848
 30
0.0
 10
11.7456561591
 20
7.3460314526
 30
0.0
 10
11.7433855848
 20
7.3504265821
 30
0.0
 10
11.7410401522
 20
7.3544104769
 30
0.0
 10
11.7386437421
 20
7.3579694116
 30
0.0
 10
11.7362180608
 20
7.3610967196
 30
0.0
 10
11.7345211718
 20
7.3629719827
 30
0.0
 10
11.7336707442
 20
7.3638295858
 30
0.0
  0
SPLINE
  5
2FC
100
AcDbEntity
  8
0
100
AcDbSpline
 62
9
  6
CONTINUOUS
 70
0
 71
3
 72
15
 73
11
 74
0
 42
0.0000001
 43
0.0000001
 44
0.0000000001
 40
0.0
 40
0.0
 40
0.0
 40
0.0
 40
0.1230348766
 40
0.2495591369
 40
0.3781998153
 40
0.5072601555
 40
0.6352123994
 40
0.7606993859
 40
0.8825244332
 40
1.0
 40
1.0
 40
1.0
 40
1.0
 10
11.7302425806
 20
7.2816050837
 30
0.0
 10
11.7303723994
 20
7.2857037199
 30
0.0
 10
11.7301066273
 20
7.2940429656
 30
0.0
 10
11.7280887618
 20
7.306522299
 30
0.0
 10
11.7243132202
 20
7.3188025159
 30
0.0
 10
11.7188441851
 20
7.3304847138
 30
0.0
 10
11.7117476713
 20
7.3411326455
 30
0.0
 10
11.7033150715
 20
7.3504362554
 30
0.0
 10
11.6938154788
 20
7.3580983478
 30
0.0
 10
11.6868915251
 20
7.3621291543
 30
0.0
 10
11.6833646201
 20
7.3638295418
 30
0.0
  0
SPLINE
  5
2FD
100
AcDbEntity
  8
0
100
AcDbSpline
 62
9
  6
CONTINUOUS
 70
0
 71
3
 72
18
 73
14
 74
0
 42
0.0000001
 43
0.0000001
 44
0.0000000001
 40
0.0
 40
0.0
 40
0.0
 40
0.0
 40
0.0227200893
 40
0.0513813525
 40
0.0861108785
 40
0.1268725757
 40
0.1735543082
 40
0.2260045059
 40
0.347494744
 40
0.4894279635
 40
0.6481854381
 40
0.8197236629
 40
1.0
 40
1.0
 40
1.0
 40
1.0
 10
11.6858758629
 20
7.3647574102
 30
0.0
 10
11.6861055592
 20
7.3648861809
 30
0.0
 10
11.6866596127
 20
7.3651142577
 30
0.0
 10
11.6876232833
 20
7.3653773416
 30
0.0
 10
11.6888108771
 20
7.3655998822
 30
0.0
 10
11.6902156468
 20
7.3657814754
 30
0.0
 10
11.6918313033
 20
7.3659221504
 30
0.0
 10
11.6943848554
 20
7.3660617988
 30
0.0
 10
11.6980467047
 20
7.3661180356
 30
0.0
 10
11.7029396104
 20
7.3660286217
 30
0.0
 10
11.7084077441
 20
7.3657783897
 30
0.0
 10
11.714311264
 20
7.3653628213
 30
0.0
 10
11.7183712585
 20
7.3649793235
 30
0.0
 10
11.7204488652
 20
7.3647573614
 30
0.0
  0
LINE
  5
2FE
100
AcDbEntity
  8
0
100
AcDbLine
 62
9
  6
CONTINUOUS
 10
14.2702334905
 20
7.3629812775
 11
14.2671026248
 21
7.3638295551
  0
SPLINE
  5
2FF
100
AcDbEntity
  8
0
100
AcDbSpline
 62
9
  6
CONTINUOUS
 70
0
 71
3
 72
13
 73
9
 74
0
 42
0.0000001
 43
0.0000001
 44
0.0000000001
 40
0.0
 40
0.0
 40
0.0
 40
0.0
 40
0.2447834957
 40
0.3720633135
 40
0.5006314703
 40
0.629106823
 40
0.7561225741
 40
1.0
 40
1.0
 40
1.0
 40
1.0
 10
14.2671026248
 20
7.3638295551
 30
0.0
 10
14.2697070652
 20
7.364945653
 30
0.0
 10
14.2734529154
 20
7.3672226356
 30
0.0
 10
14.277647128
 20
7.3712428084
 30
0.0
 10
14.2803886772
 20
7.3747688328
 30
0.0
 10
14.2825598939
 20
7.3786685787
 30
0.0
 10
14.2846117144
 20
7.3840883428
 30
0.0
 10
14.2852334922
 20
7.3884148127
 30
0.0
 10
14.2852334891
 20
7.3912378354
 30
0.0
  0
SPLINE
  5
300
100
AcDbEntity
  8
0
100
AcDbSpline
 62
9
  6
CONTINUOUS
 70
0
 71
3
 72
26
 73
22
 74
0
 42
0.0000001
 43
0.0000001
 44
0.0000000001
 40
0.0
 40
0.0
 40
0.0
 40
0.0
 40
0.2207012436
 40
0.417209919
 40
0.5880415086
 40
0.6633442418
 40
0.7316355624
 40
0.7927090644
 40
0.8463543596
 40
0.8923572823
 40
0.9305000839
 40
0.9465550175
 40
0.9605617259
 40
0.9724920635
 40
0.9823176939
 40
0.9900100943
 40
0.9955405607
 40
0.9974860517
 40
0.9988802149
 40
0.9997194135
 40
1.0
 40
1.0
 40
1.0
 40
1.0
 10
14.1168020406
 20
7.2855549019
 30
0.0
 10
14.1170745733
 20
7.2858087492
 30
0.0
 10
14.1175829273
 20
7.2862960316
 30
0.0
 10
14.1182795135
 20
7.2870029553
 30
0.0
 10
14.1187893316
 20
7.2875490343
 30
0.0
 10
14.119143611
 20
7.2879440533
 30
0.0
 10
14.1193709946
 20
7.2882040398
 30
0.0
 10
14.1195714819
 20
7.2884389633
 30
0.0
 10
14.1197451069
 20
7.2886473382
 30
0.0
 10
14.1198919005
 20
7.2888276786
 30
0.0
 10
14.1199971851
 20
7.2889599998
 30
0.0
 10
14.1200680675
 20
7.28905068
 30
0.0
 10
14.1201114152
 20
7.2891067429
 30
0.0
 10
14.1201480557
 20
7.2891546863
 30
0.0
 10
14.1201780873
 20
7.2891943145
 30
0.0
 10
14.1202012602
 20
7.289225468
 30
0.0
 10
14.120216773
 20
7.2892460089
 30
0.0
 10
14.1202252578
 20
7.2892581126
 30
0.0
 10
14.1202300376
 20
7.2892637432
 30
0.0
 10
14.120231433
 20
7.2892672878
 30
0.0
 10
14.1202336819
 20
7.2892687015
 30
0.0
 10
14.1202334891
 20
7.2892691339
 30
0.0
  0
SPLINE
  5
301
100
AcDbEntity
  8
0
100
AcDbSpline
 62
9
  6
CONTINUOUS
 70
0
 71
3
 72
18
 73
14
 74
0
 42
0.0000001
 43
0.0000001
 44
0.0000000001
 40
0.0
 40
0.0
 40
0.0
 40
0.0
 40
0.1814314546
 40
0.3529121171
 40
0.5109521254
 40
0.6520725742
 40
0.7731389921
 40
0.8255658484
 40
0.8723463987
 40
0.9133113965
 40
0.9483089463
 40
0.9772205432
 40
1.0
 40
1.0
 40
1.0
 40
1.0
 10
14.1148838141
 20
7.3629472304
 30
0.0
 10
14.1172246416
 20
7.3631220272
 30
0.0
 10
14.1217804482
 20
7.3634291883
 30
0.0
 10
14.1283824369
 20
7.3637726902
 30
0.0
 10
14.1344682071
 20
7.3639853103
 30
0.0
 10
14.1399049059
 20
7.3640639325
 30
0.0
 10
14.1439758747
 20
7.3640139255
 30
0.0
 10
14.1468234637
 20
7.3638947888
 30
0.0
 10
14.1486333551
 20
7.3637763556
 30
0.0
 10
14.1502144683
 20
7.3636255193
 30
0.0
 10
14.1515596613
 20
7.3634433874
 30
0.0
 10
14.1526613988
 20
7.3632311128
 30
0.0
 10
14.1533071588
 20
7.3630499822
 30
0.0
 10
14.1535833359
 20
7.3629470973
 30
0.0
  0
SPLINE
  5
302
100
AcDbEntity
  8
0
100
AcDbSpline
 62
9
  6
CONTINUOUS
 70
0
 71
3
 72
13
 73
9
 74
0
 42
0.0000001
 43
0.0000001
 44
0.0000000001
 40
0.0
 40
0.0
 40
0.0
 40
0.0
 40
0.2424311775
 40
0.3682079594
 40
0.4956625204
 40
0.6237575983
 40
0.7513722117
 40
1.0
 40
1.0
 40
1.0
 40
1.0
 10
14.1555883285
 20
7.3626279538
 30
0.0
 10
14.1494275625
 20
7.3587314383
 30
0.0
 10
14.1408360784
 20
7.3514649969
 30
0.0
 10
14.1316302981
 20
7.3397047596
 30
0.0
 10
14.1258119146
 20
7.3297811431
 30
0.0
 10
14.1213720492
 20
7.3191113719
 30
0.0
 10
14.1173792681
 20
7.30445083
 30
0.0
 10
14.1164928195
 20
7.2930244881
 30
0.0
 10
14.1168020318
 20
7.2855549891
 30
0.0
  0
SPLINE
  5
303
100
AcDbEntity
  8
0
100
AcDbSpline
 62
9
  6
CONTINUOUS
 70
0
 71
3
 72
10
 73
6
 74
0
 42
0.0000001
 43
0.0000001
 44
0.0000000001
 40
0.0
 40
0.0
 40
0.0
 40
0.0
 40
0.2494820715
 40
0.6242815308
 40
1.0
 40
1.0
 40
1.0
 40
1.0
 10
14.1148836447
 20
7.3629464617
 30
0.0
 10
14.1139885724
 20
7.3628801549
 30
0.0
 10
14.1117472338
 20
7.3627346428
 30
0.0
 10
14.1081514366
 20
7.3626022191
 30
0.0
 10
14.1054505822
 20
7.3625999971
 30
0.0
 10
14.1040992054
 20
7.362628008
 30
0.0
  0
LINE
  5
304
100
AcDbEntity
  8
0
100
AcDbLine
 62
9
  6
CONTINUOUS
 10
14.1102334905
 20
7.3894076872
 11
14.1020519528
 21
7.3883191733
  0
SPLINE
  5
305
100
AcDbEntity
  8
0
100
AcDbSpline
 62
9
  6
CONTINUOUS
 70
0
 71
3
 72
9
 73
5
 74
0
 42
0.0000001
 43
0.0000001
 44
0.0000000001
 40
0.0
 40
0.0
 40
0.0
 40
0.0
 40
0.2489663416
 40
1.0
 40
1.0
 40
1.0
 40
1.0
 10
14.1020519525
 20
7.3883191774
 30
0.0
 10
14.098589417
 20
7.3880435775
 30
0.0
 10
14.0846692832
 20
7.3870950204
 30
0.0
 10
14.070711572
 20
7.3867372779
 30
0.0
 10
14.0602334281
 20
7.386737165
 30
0.0
  0
SPLINE
  5
306
100
AcDbEntity
  8
0
100
AcDbSpline
 62
9
  6
CONTINUOUS
 70
0
 71
3
 72
9
 73
5
 74
0
 42
0.0000001
 43
0.0000001
 44
0.0000000001
 40
0.0
 40
0.0
 40
0.0
 40
0.0
 40
0.2508227134
 40
1.0
 40
1.0
 40
1.0
 40
1.0
 10
11.8902335449
 20
7.3867371656
 30
0.0
 10
11.8867342102
 20
7.3867369831
 30
0.0
 10
11.872783383
 20
7.3868566201
 30
0.0
 10
11.858834198
 20
7.3874895397
 30
0.0
 10
11.8484150839
 20
7.3883191733
 30
0.0
  0
LINE
  5
307
100
AcDbEntity
  8
0
100
AcDbLine
 62
9
  6
CONTINUOUS
 10
11.8484150847
 20
7.3883191833
 11
11.8402334902
 21
7.3894076625
  0
LINE
  5
308
100
AcDbEntity
  8
0
100
AcDbLine
 62
9
  6
CONTINUOUS
 10
14.1040992036
 20
7.3626280305
 11
14.0602336582
 21
7.3623701835
  0
SPLINE
  5
309
100
AcDbEntity
  8
0
100
AcDbSpline
 62
9
  6
CONTINUOUS
 70
0
 71
3
 72
15
 73
11
 74
0
 42
0.0000001
 43
0.0000001
 44
0.0000000001
 40
0.0
 40
0.0
 40
0.0
 40
0.0
 40
0.0909414767
 40
0.1957429765
 40
0.3133919566
 40
0.4416688277
 40
0.5778526673
 40
0.718587852
 40
0.8603874738
 40
1.0
 40
1.0
 40
1.0
 40
1.0
 10
14.1040982791
 20
7.3626280219
 30
0.0
 10
14.1026969305
 20
7.3605991864
 30
0.0
 10
14.099939017
 20
7.3560526416
 30
0.0
 10
14.0961679186
 20
7.3484295704
 30
0.0
 10
14.0925774433
 20
7.3396161367
 30
0.0
 10
14.0892508942
 20
7.3297985548
 30
0.0
 10
14.0862949823
 20
7.3192123624
 30
0.0
 10
14.0837642944
 20
7.308140862
 30
0.0
 10
14.0817204825
 20
7.2968753206
 30
0.0
 10
14.0806734201
 20
7.2893148042
 30
0.0
 10
14.0802332054
 20
7.2855550824
 30
0.0
  0
LINE
  5
30A
100
AcDbEntity
  8
0
100
AcDbLine
 62
9
  6
CONTINUOUS
 10
11.890233531
 20
7.3623701841
 11
11.8463689372
 21
7.3626279458
  0
SPLINE
  5
30B
100
AcDbEntity
  8
0
100
AcDbSpline
 62
9
  6
CONTINUOUS
 70
0
 71
3
 72
18
 73
14
 74
0
 42
0.0000001
 43
0.0000001
 44
0.0000000001
 40
0.0
 40
0.0
 40
0.0
 40
0.0
 40
0.0227852494
 40
0.051715923
 40
0.0867417825
 40
0.1277399859
 40
0.1745542251
 40
0.2270108233
 40
0.3481071674
 40
0.4892001796
 40
0.6471781399
 40
0.8185965874
 40
1.0
 40
1.0
 40
1.0
 40
1.0
 10
11.7968836492
 20
7.3629472304
 30
0.0
 10
11.7971598884
 20
7.3630501746
 30
0.0
 10
11.7978059905
 20
7.3632313385
 30
0.0
 10
11.7989084431
 20
7.3634436057
 30
0.0
 10
11.8002547098
 20
7.3636257211
 30
0.0
 10
11.8018370833
 20
7.3637765321
 30
0.0
 10
11.8036482542
 20
7.3638949299
 30
0.0
 10
11.8064970929
 20
7.3640139922
 30
0.0
 10
11.8105685332
 20
7.3640639285
 30
0.0
 10
11.816004533
 20
7.3639852121
 30
0.0
 10
11.8220884171
 20
7.3637724931
 30
0.0
 10
11.8286885175
 20
7.3634289323
 30
0.0
 10
11.8332432176
 20
7.3631218271
 30
0.0
 10
11.8355837178
 20
7.3629470973
 30
0.0
  0
SPLINE
  5
30C
100
AcDbEntity
  8
0
100
AcDbSpline
 62
9
  6
CONTINUOUS
 70
0
 71
3
 72
16
 73
12
 74
0
 42
0.0000001
 43
0.0000001
 44
0.0000000001
 40
0.0
 40
0.0
 40
0.0
 40
0.0
 40
0.0443189184
 40
0.0921903982
 40
0.1981463363
 40
0.316695042
 40
0.4454497199
 40
0.581548312
 40
0.7216003178
 40
0.8621315036
 40
1.0
 40
1.0
 40
1.0
 40
1.0
 10
11.8463681546
 20
7.3626279538
 30
0.0
 10
11.8470511061
 20
7.3616392082
 30
0.0
 10
11.8484113244
 20
7.359540302
 30
0.0
 10
11.8511077214
 20
7.3548914092
 30
0.0
 10
11.8543764841
 20
7.3482586832
 30
0.0
 10
11.857978622
 20
7.3393764952
 30
0.0
 10
11.861301193
 20
7.3295199802
 30
0.0
 10
11.8642405577
 20
7.3189371634
 30
0.0
 10
11.866746815
 20
7.3079164616
 30
0.0
 10
11.8687649699
 20
7.2967478771
 30
0.0
 10
11.8697987601
 20
7.2892678515
 30
0.0
 10
11.8702334896
 20
7.2855549891
 30
0.0
  0
SPLINE
  5
30D
100
AcDbEntity
  8
0
100
AcDbSpline
 62
9
  6
CONTINUOUS
 70
0
 71
3
 72
9
 73
5
 74
0
 42
0.0000001
 43
0.0000001
 44
0.0000000001
 40
0.0
 40
0.0
 40
0.0
 40
0.0
 40
0.5304098927
 40
1.0
 40
1.0
 40
1.0
 40
1.0
 10
11.7968851139
 20
7.3629464617
 30
0.0
 10
11.7965456614
 20
7.3628216732
 30
0.0
 10
11.7958884182
 20
7.3626283742
 30
0.0
 10
11.7951963944
 20
7.3625888097
 30
0.0
 10
11.7948786101
 20
7.362628008
 30
0.0
  0
SPLINE
  5
30E
100
AcDbEntity
  8
0
100
AcDbSpline
 62
9
  6
CONTINUOUS
 70
0
 71
3
 72
13
 73
9
 74
0
 42
0.0000001
 43
0.0000001
 44
0.0000000001
 40
0.0
 40
0.0
 40
0.0
 40
0.0
 40
0.1228999029
 40
0.248621424
 40
0.5028834293
 40
0.7555647299
 40
0.8794884142
 40
1.0
 40
1.0
 40
1.0
 40
1.0
 10
11.7948786101
 20
7.362628008
 30
0.0
 10
11.7937912816
 20
7.3632737726
 30
0.0
 10
11.7916778808
 20
7.3647315588
 30
0.0
 10
11.7878151535
 20
7.3681885919
 30
0.0
 10
11.7838027295
 20
7.3734200737
 30
0.0
 10
11.7813769572
 20
7.3795301978
 30
0.0
 10
11.7804020247
 20
7.3845608708
 30
0.0
 10
11.7802334895
 20
7.3870791255
 30
0.0
 10
11.7802334891
 20
7.3883191823
 30
0.0
  0
SPLINE
  5
30F
100
AcDbEntity
  8
0
100
AcDbSpline
 62
9
  6
CONTINUOUS
 70
0
 71
3
 72
9
 73
5
 74
0
 42
0.0000001
 43
0.0000001
 44
0.0000000001
 40
0.0
 40
0.0
 40
0.0
 40
0.0
 40
0.4976192294
 40
1.0
 40
1.0
 40
1.0
 40
1.0
 10
14.0602334891
 20
7.2892692911
 30
0.0
 10
14.0636182659
 20
7.2892693031
 30
0.0
 10
14.0704262874
 20
7.2884687007
 30
0.0
 10
14.0769877966
 20
7.2866238702
 30
0.0
 10
14.0802335069
 20
7.2855550496
 30
0.0
  0
SPLINE
  5
310
100
AcDbEntity
  8
0
100
AcDbSpline
 62
9
  6
CONTINUOUS
 70
0
 71
3
 72
26
 73
22
 74
0
 42
0.0000001
 43
0.0000001
 44
0.0000000001
 40
0.0
 40
0.0
 40
0.0
 40
0.0
 40
0.0002804675
 40
0.0011194635
 40
0.0025133448
 40
0.0044584784
 40
0.0099880202
 40
0.0176792433
 40
0.0275034761
 40
0.0394322291
 40
0.0534371986
 40
0.0694902726
 40
0.1076291275
 40
0.1536280259
 40
0.2072694941
 40
0.2683396447
 40
0.3366283711
 40
0.4119295525
 40
0.5827623208
 40
0.7792798461
 40
1.0
 40
1.0
 40
1.0
 40
1.0
 10
11.8302334891
 20
7.2892692911
 30
0.0
 10
11.8302338618
 20
7.2892695828
 30
0.0
 10
11.8302347399
 20
7.2892664126
 30
0.0
 10
11.8302374569
 20
7.2892645626
 30
0.0
 10
11.830241492
 20
7.2892579789
 30
0.0
 10
11.8302504275
 20
7.2892464562
 30
0.0
 10
11.8302656059
 20
7.2892254923
 30
0.0
 10
11.8302889358
 20
7.2891945486
 30
0.0
 10
11.8303189021
 20
7.2891548471
 30
0.0
 10
11.8303555598
 20
7.2891069382
 30
0.0
 10
11.8303988943
 20
7.2890508719
 30
0.0
 10
11.8304697709
 20
7.2889602045
 30
0.0
 10
11.8305750411
 20
7.2888278913
 30
0.0
 10
11.8307218198
 20
7.2886475637
 30
0.0
 10
11.8308954289
 20
7.2884391989
 30
0.0
 10
11.8310959024
 20
7.2882042838
 30
0.0
 10
11.8313232748
 20
7.2879443026
 30
0.0
 10
11.8316775478
 20
7.2875492822
 30
0.0
 10
11.8321873748
 20
7.2870031883
 30
0.0
 10
11.8328839994
 20
7.2862962289
 30
0.0
 10
11.8333923932
 20
7.2858089167
 30
0.0
 10
11.8336649529
 20
7.2855550496
 30
0.0
  0
SPLINE
  5
311
100
AcDbEntity
  8
0
100
AcDbSpline
 62
9
  6
CONTINUOUS
 70
0
 71
3
 72
17
 73
13
 74
0
 42
0.0000001
 43
0.0000001
 44
0.0000000001
 40
0.0
 40
0.0
 40
0.0
 40
0.0
 40
0.0415220585
 40
0.0840592624
 40
0.1285827844
 40
0.1757093097
 40
0.2789503786
 40
0.3952628791
 40
0.5249723425
 40
0.6686282077
 40
0.8268986446
 40
1.0
 40
1.0
 40
1.0
 40
1.0
 10
11.8336648308
 20
7.2855538693
 30
0.0
 10
11.8340466735
 20
7.2851983385
 30
0.0
 10
11.8348854868
 20
7.2845465358
 30
0.0
 10
11.8363078536
 20
7.2837688485
 30
0.0
 10
11.8378853562
 20
7.2831620746
 30
0.0
 10
11.8402543323
 20
7.2825287303
 30
0.0
 10
11.843585253
 20
7.2820695715
 30
0.0
 10
11.8479754183
 20
7.2819295235
 30
0.0
 10
11.8528724395
 20
7.2821071542
 30
0.0
 10
11.85826914
 20
7.2826917165
 30
0.0
 10
11.8641468916
 20
7.2837630965
 30
0.0
 10
11.8681678386
 20
7.2848737198
 30
0.0
 10
11.8702338168
 20
7.2855538693
 30
0.0
  0
SPLINE
  5
312
100
AcDbEntity
  8
0
100
AcDbSpline
 62
9
  6
CONTINUOUS
 70
0
 71
3
 72
10
 73
6
 74
0
 42
0.0000001
 43
0.0000001
 44
0.0000000001
 40
0.0
 40
0.0
 40
0.0
 40
0.0
 40
0.251383889
 40
0.6272526092
 40
1.0
 40
1.0
 40
1.0
 40
1.0
 10
11.8702335146
 20
7.2855549019
 30
0.0
 10
11.8718584551
 20
7.2860900016
 30
0.0
 10
11.8759437686
 20
7.2873341679
 30
0.0
 10
11.8825973305
 20
7.2888202607
 30
0.0
 10
11.8876967783
 20
7.2892691294
 30
0.0
 10
11.8902334891
 20
7.2892691339
 30
0.0
  0
SPLINE
  5
313
100
AcDbEntity
  8
0
100
AcDbSpline
 62
9
  6
CONTINUOUS
 70
0
 71
3
 72
10
 73
6
 74
0
 42
0.0000001
 43
0.0000001
 44
0.0000000001
 40
0.0
 40
0.0
 40
0.0
 40
0.0
 40
0.2505941252
 40
0.625674464
 40
1.0
 40
1.0
 40
1.0
 40
1.0
 10
11.846368939
 20
7.3626279687
 30
0.0
 10
11.8454674856
 20
7.362609423
 30
0.0
 10
11.8432160419
 20
7.362595553
 30
0.0
 10
11.8396183399
 20
7.3626853915
 30
0.0
 10
11.836926278
 20
7.3628469304
 30
0.0
 10
11.835583124
 20
7.362946411
 30
0.0
  0
SPLINE
  5
314
100
AcDbEntity
  8
0
100
AcDbSpline
 62
9
  6
CONTINUOUS
 70
0
 71
3
 72
13
 73
9
 74
0
 42
0.0000001
 43
0.0000001
 44
0.0000000001
 40
0.0
 40
0.0
 40
0.0
 40
0.0
 40
0.121421987
 40
0.2463901855
 40
0.5003551255
 40
0.7540903988
 40
0.8788124992
 40
1.0
 40
1.0
 40
1.0
 40
1.0
 10
11.79688511
 20
7.3629464602
 30
0.0
 10
11.7956902361
 20
7.3635311583
 30
0.0
 10
11.7933476034
 20
7.3648936367
 30
0.0
 10
11.7890062579
 20
7.3682576182
 30
0.0
 10
11.7844016944
 20
7.3735749089
 30
0.0
 10
11.7815821571
 20
7.3800183589
 30
0.0
 10
11.7804346157
 20
7.3853820512
 30
0.0
 10
11.7802334894
 20
7.3880800086
 30
0.0
 10
11.7802334891
 20
7.3894077011
 30
0.0
  0
SPLINE
  5
315
100
AcDbEntity
  8
0
100
AcDbSpline
 62
9
  6
CONTINUOUS
 70
0
 71
3
 72
28
 73
24
 74
0
 42
0.0000001
 43
0.0000001
 44
0.0000000001
 40
0.0
 40
0.0
 40
0.0
 40
0.0
 40
0.1936302774
 40
0.3799770309
 40
0.4680185432
 40
0.5515543235
 40
0.6298029771
 40
0.7020004821
 40
0.7674225365
 40
0.825474043
 40
0.8755952476
 40
0.89752891
 40
0.9173259905
 40
0.9349560599
 40
0.9503942596
 40
0.9636252778
 40
0.974659336
 40
0.9835583853
 40
0.9904595013
 40
0.9932553807
 40
0.995698948
 40
0.9978980921
 40
1.0
 40
1.0
 40
1.0
 40
1.0
 10
11.8402334891
 20
7.3894076569
 30
0.0
 10
11.8363423668
 20
7.3897478537
 30
0.0
 10
11.8286983551
 20
7.3903246433
 30
0.0
 10
11.8192709002
 20
7.3908419821
 30
0.0
 10
11.812056362
 20
7.3911291168
 30
0.0
 10
11.8070189592
 20
7.3912795759
 30
0.0
 10
11.8022997864
 20
7.3913705507
 30
0.0
 10
11.7979452342
 20
7.391402553
 30
0.0
 10
11.7939980183
 20
7.3913763988
 30
0.0
 10
11.7904970489
 20
7.3912917143
 30
0.0
 10
11.7878750117
 20
7.3911682212
 30
0.0
 10
11.7860269681
 20
7.3910332474
 30
0.0
 10
11.7848346722
 20
7.3909211633
 30
0.0
 10
11.7837757659
 20
7.3907936053
 30
0.0
 10
11.7828525841
 20
7.3906504288
 30
0.0
 10
11.7820672714
 20
7.3904915842
 30
0.0
 10
11.7814206231
 20
7.3903168982
 30
0.0
 10
11.7809131503
 20
7.3901265841
 30
0.0
 10
11.7805823302
 20
7.3899429206
 30
0.0
 10
11.7803972396
 20
7.3897810321
 30
0.0
 10
11.7803035458
 20
7.3896624077
 30
0.0
 10
11.7802461411
 20
7.3895373822
 30
0.0
 10
11.7802335005
 20
7.3894500965
 30
0.0
 10
11.7802334891
 20
7.3894076962
 30
0.0
  0
LINE
  5
316
100
AcDbEntity
  8
0
100
AcDbLine
 62
9
  6
CONTINUOUS
 10
11.794878572
 20
7.3626280305
 11
11.79273349
 21
7.3623701835
  0
SPLINE
  5
317
100
AcDbEntity
  8
0
100
AcDbSpline
 62
9
  6
CONTINUOUS
 70
0
 71
3
 72
17
 73
13
 74
0
 42
0.0000001
 43
0.0000001
 44
0.0000000001
 40
0.0
 40
0.0
 40
0.0
 40
0.0
 40
0.1730928525
 40
0.3313542597
 40
0.475011009
 40
0.6047249937
 40
0.7210381284
 40
0.8242800646
 40
0.8714090922
 40
0.9159359593
 40
0.9584762369
 40
1.0
 40
1.0
 40
1.0
 40
1.0
 10
14.0802331615
 20
7.2855538693
 30
0.0
 10
14.0822990376
 20
7.2848737502
 30
0.0
 10
14.0863197678
 20
7.2837631663
 30
0.0
 10
14.092197319
 20
7.282691847
 30
0.0
 10
14.0975939711
 20
7.2821072723
 30
0.0
 10
14.1024910632
 20
7.2819295318
 30
0.0
 10
14.1068813097
 20
7.2820694572
 30
0.0
 10
14.1102122886
 20
7.2825285902
 30
0.0
 10
14.1125813455
 20
7.283161962
 30
0.0
 10
14.1141589534
 20
7.2837687746
 30
0.0
 10
14.1155814174
 20
7.2845464964
 30
0.0
 10
14.1164202881
 20
7.2851983248
 30
0.0
 10
14.1168021475
 20
7.2855538693
 30
0.0
  0
SPLINE
  5
318
100
AcDbEntity
  8
0
100
AcDbSpline
 62
9
  6
CONTINUOUS
 70
0
 71
3
 72
14
 73
10
 74
0
 42
0.0000001
 43
0.0000001
 44
0.0000000001
 40
0.0
 40
0.0
 40
0.0
 40
0.0
 40
0.2397006453
 40
0.364699863
 40
0.4918261464
 40
0.6200819823
 40
0.7483305642
 40
0.8753332609
 40
1.0
 40
1.0
 40
1.0
 40
1.0
 10
11.7948784633
 20
7.3626280219
 30
0.0
 10
11.8009727305
 20
7.3587735674
 30
0.0
 10
11.8094942371
 20
7.351588178
 30
0.0
 10
11.8186713984
 20
7.3399439903
 30
0.0
 10
11.824514731
 20
7.3300612439
 30
0.0
 10
11.8290003113
 20
7.319391923
 30
0.0
 10
11.8320743574
 20
7.3082382683
 30
0.0
 10
11.8336765849
 20
7.2968930538
 30
0.0
 10
11.8338199618
 20
7.2893022091
 30
0.0
 10
11.8336648463
 20
7.2855550824
 30
0.0
  0
SPLINE
  5
319
100
AcDbEntity
  8
0
100
AcDbSpline
 62
9
  6
CONTINUOUS
 70
0
 71
3
 72
14
 73
10
 74
0
 42
0.0000001
 43
0.0000001
 44
0.0000000001
 40
0.0
 40
0.0
 40
0.0
 40
0.0
 40
0.0676248677
 40
0.1422158888
 40
0.2314158417
 40
0.3397416881
 40
0.4696662612
 40
0.6225630236
 40
1.0
 40
1.0
 40
1.0
 40
1.0
 10
14.1702334891
 20
7.3894076569
 30
0.0
 10
14.1702334789
 20
7.3894663607
 30
0.0
 10
14.1702075962
 20
7.3895910198
 30
0.0
 10
14.170094297
 20
7.3897610439
 30
0.0
 10
14.1699147859
 20
7.3899173172
 30
0.0
 10
14.1696699999
 20
7.3900637035
 30
0.0
 10
14.1693591837
 20
7.3902018115
 30
0.0
 10
14.1688168657
 20
7.3903887194
 30
0.0
 10
14.1683678865
 20
7.3904953635
 30
0.0
 10
14.168046972
 20
7.3905614346
 30
0.0
  0
SPLINE
  5
31A
100
AcDbEntity
  8
0
100
AcDbSpline
 62
9
  6
CONTINUOUS
 70
0
 71
3
 72
17
 73
13
 74
0
 42
0.0000001
 43
0.0000001
 44
0.0000000001
 40
0.0
 40
0.0
 40
0.0
 40
0.0
 40
0.0261267458
 40
0.0585112341
 40
0.0970102544
 40
0.1414350303
 40
0.2468991239
 40
0.3722798474
 40
0.5141756077
 40
0.6688433443
 40
0.8323314738
 40
1.0
 40
1.0
 40
1.0
 40
1.0
 10
14.168046972
 20
7.3905614346
 30
0.0
 10
14.1675529878
 20
7.390663138
 30
0.0
 10
14.1664357983
 20
7.3908370095
 30
0.0
 10
14.1645727883
 20
7.3910300034
 30
0.0
 10
14.1623517281
 20
7.3911822011
 30
0.0
 10
14.1587183446
 20
7.3913406025
 30
0.0
 10
14.1534041913
 20
7.3914180401
 30
0.0
 10
14.1462087975
 20
7.3913542895
 30
0.0
 10
14.1380662984
 20
7.3911313015
 30
0.0
 10
14.1291936073
 20
7.3907445914
 30
0.0
 10
14.1198317683
 20
7.3901831316
 30
0.0
 10
14.1134578198
 20
7.3896896765
 30
0.0
 10
14.110233489
 20
7.3894076962
 30
0.0
  0
SPLINE
  5
31B
100
AcDbEntity
  8
0
100
AcDbSpline
 62
9
  6
CONTINUOUS
 70
0
 71
3
 72
9
 73
5
 74
0
 42
0.0000001
 43
0.0000001
 44
0.0000000001
 40
0.0
 40
0.0
 40
0.0
 40
0.0
 40
0.4695534772
 40
1.0
 40
1.0
 40
1.0
 40
1.0
 10
14.1555884579
 20
7.3626279687
 30
0.0
 10
14.1552706434
 20
7.3625889957
 30
0.0
 10
14.1545786037
 20
7.3626282222
 30
0.0
 10
14.1539212916
 20
7.3628216516
 30
0.0
 10
14.1535817687
 20
7.362946411
 30
0.0
  0
SPLINE
  5
31C
100
AcDbEntity
  8
0
100
AcDbSpline
 62
9
  6
CONTINUOUS
 70
0
 71
3
 72
13
 73
9
 74
0
 42
0.0000001
 43
0.0000001
 44
0.0000000001
 40
0.0
 40
0.0
 40
0.0
 40
0.0
 40
0.121989917
 40
0.2473846805
 40
0.5017263513
 40
0.7550802419
 40
0.8793768774
 40
1.0
 40
1.0
 40
1.0
 40
1.0
 10
14.1535817687
 20
7.362946411
 30
0.0
 10
14.1547822372
 20
7.3635338401
 30
0.0
 10
14.1571338744
 20
7.3649028489
 30
0.0
 10
14.1614837647
 20
7.3682804773
 30
0.0
 10
14.1660854055
 20
7.3736067451
 30
0.0
 10
14.1688954504
 20
7.3800489777
 30
0.0
 10
14.1700343191
 20
7.3853990879
 30
0.0
 10
14.1702334894
 20
7.3880861516
 30
0.0
 10
14.1702334891
 20
7.3894076645
 30
0.0
  0
LINE
  5
31D
100
AcDbEntity
  8
0
100
AcDbLine
 62
9
  6
CONTINUOUS
 10
14.1577334891
 20
7.3623701841
 11
14.1555884194
 21
7.3626279458
  0
SPLINE
  5
31E
100
AcDbEntity
  8
0
100
AcDbSpline
 62
9
  6
CONTINUOUS
 70
0
 71
3
 72
13
 73
9
 74
0
 42
0.0000001
 43
0.0000001
 44
0.0000000001
 40
0.0
 40
0.0
 40
0.0
 40
0.0
 40
0.121830811
 40
0.2467555524
 40
0.5003230112
 40
0.7537088843
 40
0.8784285775
 40
1.0
 40
1.0
 40
1.0
 40
1.0
 10
14.1555884194
 20
7.3626279458
 30
0.0
 10
14.1566662873
 20
7.3632680965
 30
0.0
 10
14.1587646876
 20
7.3647133702
 30
0.0
 10
14.1626136579
 20
7.3681460528
 30
0.0
 10
14.1666316322
 20
7.3733625969
 30
0.0
 10
14.1690730459
 20
7.379475822
 30
0.0
 10
14.1700618473
 20
7.384530768
 30
0.0
 10
14.1702334889
 20
7.3870682032
 30
0.0
 10
14.1702334891
 20
7.3883191656
 30
0.0
  0
SPLINE
  5
31F
100
AcDbEntity
  8
0
100
AcDbSpline
 62
9
  6
CONTINUOUS
 70
0
 71
3
 72
30
 73
26
 74
0
 42
0.0000001
 43
0.0000001
 44
0.0000000001
 40
0.0
 40
0.0
 40
0.0
 40
0.0
 40
0.00041015
 40
0.0016226216
 40
0.0036260794
 40
0.0064092113
 40
0.0099607322
 40
0.0142693852
 40
0.0251131871
 40
0.0388511662
 40
0.055394365
 40
0.0746543617
 40
0.096542919
 40
0.1209394775
 40
0.1476670375
 40
0.2073936821
 40
0.2743114258
 40
0.3470624723
 40
0.4243111737
 40
0.5047257695
 40
0.6702929769
 40
0.753611905
 40
0.8362243741
 40
0.9180678406
 40
1.0
 40
1.0
 40
1.0
 40
1.0
 10
12.6420668223
 20
10.0367006349
 30
0.0
 10
12.6420672286
 20
10.036704084
 30
0.0
 10
12.6420783373
 20
10.0367142862
 30
0.0
 10
12.6420919432
 20
10.0367410716
 30
0.0
 10
12.6421221415
 20
10.0367825818
 30
0.0
 10
12.6421608245
 20
10.0368413898
 30
0.0
 10
12.6422118558
 20
10.0369157793
 30
0.0
 10
12.6423012836
 20
10.0370464471
 30
0.0
 10
12.642440894
 20
10.0372473701
 30
0.0
 10
12.6426414929
 20
10.0375320124
 30
0.0
 10
12.6428857419
 20
10.0378730845
 30
0.0
 10
12.6431731846
 20
10.0382680898
 30
0.0
 10
12.6435032356
 20
10.0387143155
 30
0.0
 10
12.6438751306
 20
10.0392082186
 30
0.0
 10
12.644447728
 20
10.0399520136
 30
0.0
 10
12.6452595511
 20
10.0409659351
 30
0.0
 10
12.6463546832
 20
10.0422514479
 30
0.0
 10
12.6475961435
 20
10.0436057694
 30
0.0
 10
12.6489756747
 20
10.0449867438
 30
0.0
 10
12.6510069909
 20
10.0468218597
 30
0.0
 10
12.653246494
 20
10.0485032619
 30
0.0
 10
12.6556937102
 20
10.0498865325
 30
0.0
 10
12.657629008
 20
10.0507112819
 30
0.0
 10
12.6596501759
 20
10.0512583562
 30
0.0
 10
12.6610397109
 20
10.0513917997
 30
0.0
 10
12.6617334891
 20
10.051391804
 30
0.0
  0
SPLINE
  5
320
100
AcDbEntity
  8
0
100
AcDbSpline
 62
9
  6
CONTINUOUS
 70
0
 71
3
 72
15
 73
11
 74
0
 42
0.0000001
 43
0.0000001
 44
0.0000000001
 40
0.0
 40
0.0
 40
0.0
 40
0.0
 40
0.1280813147
 40
0.2552293895
 40
0.3813740153
 40
0.5066056921
 40
0.6309752174
 40
0.7545330373
 40
0.877462815
 40
1.0
 40
1.0
 40
1.0
 40
1.0
 10
13.1764149994
 20
10.081392324
 30
0.0
 10
13.1677644169
 20
10.0813922313
 30
0.0
 10
13.1505223764
 20
10.0806738357
 30
0.0
 10
13.1248943171
 20
10.0779959238
 30
0.0
 10
13.0995936751
 20
10.0742972287
 30
0.0
 10
13.0745645509
 20
10.0701042204
 30
0.0
 10
13.0497079796
 20
10.0659393706
 30
0.0
 10
13.0249107925
 20
10.0623684517
 30
0.0
 10
13.0000922863
 20
10.0599635752
 30
0.0
 10
12.9835098142
 20
10.0593555645
 30
0.0
 10
12.9752336809
 20
10.0593555493
 30
0.0
  0
SPLINE
  5
321
100
AcDbEntity
  8
0
100
AcDbSpline
 62
9
  6
CONTINUOUS
 70
0
 71
3
 72
15
 73
11
 74
0
 42
0.0000001
 43
0.0000001
 44
0.0000000001
 40
0.0
 40
0.0
 40
0.0
 40
0.0
 40
0.1225410341
 40
0.2454734126
 40
0.3690335893
 40
0.4934079473
 40
0.6186473862
 40
0.7447925987
 40
0.87192744
 40
1.0
 40
1.0
 40
1.0
 40
1.0
 10
12.9752336809
 20
10.0593550719
 30
0.0
 10
12.9669572716
 20
10.059355068
 30
0.0
 10
12.9503743296
 20
10.0599630301
 30
0.0
 10
12.9255551781
 20
10.0623679545
 30
0.0
 10
12.900757316
 20
10.0659391741
 30
0.0
 10
12.8758997207
 20
10.0701043101
 30
0.0
 10
12.8508696209
 20
10.0742971876
 30
0.0
 10
12.8255692407
 20
10.0779957029
 30
0.0
 10
12.7999425878
 20
10.0806736549
 30
0.0
 10
12.7827019868
 20
10.081391817
 30
0.0
 10
12.7740519788
 20
10.0813918466
 30
0.0
  0
SPLINE
  5
322
100
AcDbEntity
  8
0
100
AcDbSpline
 62
9
  6
CONTINUOUS
 70
0
 71
3
 72
17
 73
13
 74
0
 42
0.0000001
 43
0.0000001
 44
0.0000000001
 40
0.0
 40
0.0
 40
0.0
 40
0.0
 40
0.1257309967
 40
0.1885763075
 40
0.2513777214
 40
0.3768260995
 40
0.5020199657
 40
0.6269312208
 40
0.7515518924
 40
0.813759084
 40
0.8759082443
 40
1.0
 40
1.0
 40
1.0
 40
1.0
 10
12.975233693
 20
10.0367006209
 30
0.0
 10
12.9667752471
 20
10.0367006136
 30
0.0
 10
12.9540873546
 20
10.0369743138
 30
0.0
 10
12.9371965714
 20
10.0378159438
 30
0.0
 10
12.920341839
 20
10.0389530136
 30
0.0
 10
12.8993372301
 20
10.0408370304
 30
0.0
 10
12.8742174867
 20
10.0435460936
 30
0.0
 10
12.8491661287
 20
10.0463622507
 30
0.0
 10
12.8283023981
 20
10.048502594
 30
0.0
 10
12.8116090726
 20
10.0498865046
 30
0.0
 10
12.7949309217
 20
10.0509838406
 30
0.0
 10
12.7824001465
 20
10.0513917917
 30
0.0
 10
12.7740519792
 20
10.051391804
 30
0.0
  0
SPLINE
  5
323
100
AcDbEntity
  8
0
100
AcDbSpline
 62
9
  6
CONTINUOUS
 70
0
 71
3
 72
17
 73
13
 74
0
 42
0.0000001
 43
0.0000001
 44
0.0000000001
 40
0.0
 40
0.0
 40
0.0
 40
0.0
 40
0.1240911
 40
0.1862404378
 40
0.2484479592
 40
0.3730687113
 40
0.4979808048
 40
0.623174954
 40
0.7486237541
 40
0.8114247402
 40
0.8742693796
 40
1.0
 40
1.0
 40
1.0
 40
1.0
 10
13.176414999
 20
10.051391804
 30
0.0
 10
13.1680668884
 20
10.0513917767
 30
0.0
 10
13.1555361581
 20
10.0509841468
 30
0.0
 10
13.1388580337
 20
10.0498869105
 30
0.0
 10
13.1221646834
 20
10.0485031451
 30
0.0
 10
13.10130087
 20
10.0463630806
 30
0.0
 10
13.0762495147
 20
10.0435465161
 30
0.0
 10
13.0511297996
 20
10.0408365794
 30
0.0
 10
13.0301252374
 20
10.0389521758
 30
0.0
 10
13.0132705956
 20
10.0378148115
 30
0.0
 10
12.9963799125
 20
10.0369735447
 30
0.0
 10
12.9836921007
 20
10.0367006256
 30
0.0
 10
12.975233693
 20
10.036700621
 30
0.0
  0
SPLINE
  5
324
100
AcDbEntity
  8
0
100
AcDbSpline
 62
9
  6
CONTINUOUS
 70
0
 71
3
 72
19
 73
15
 74
0
 42
0.0000001
 43
0.0000001
 44
0.0000000001
 40
0.0
 40
0.0
 40
0.0
 40
0.0
 40
0.0067940579
 40
0.0257944705
 40
0.056398285
 40
0.0979207805
 40
0.2089333491
 40
0.3485971648
 40
0.5059339993
 40
0.6707532791
 40
0.7536521816
 40
0.8361766829
 40
0.9181055135
 40
1.0
 40
1.0
 40
1.0
 40
1.0
 10
13.308399908
 20
10.0367007212
 30
0.0
 10
13.3083676448
 20
10.0367483491
 30
0.0
 10
13.3082473259
 20
10.0369306362
 30
0.0
 10
13.3079755325
 20
10.0373233239
 30
0.0
 10
13.3075301694
 20
10.0379534134
 30
0.0
 10
13.3066144296
 20
10.0392049233
 30
0.0
 10
13.3050848527
 20
10.0411509242
 30
0.0
 10
13.3027899598
 20
10.0437373421
 30
0.0
 10
13.2999604016
 20
10.0464434765
 30
0.0
 10
13.2972127196
 20
10.0485201028
 30
0.0
 10
13.2947706896
 20
10.0498913413
 30
0.0
 10
13.2928373528
 20
10.0507107058
 30
0.0
 10
13.290816664
 20
10.0512571097
 30
0.0
 10
13.2894269074
 20
10.0513917977
 30
0.0
 10
13.2887334892
 20
10.051391804
 30
0.0
  0
SPLINE
  5
325
100
AcDbEntity
  8
0
100
AcDbSpline
 62
9
  6
CONTINUOUS
 70
0
 71
3
 72
11
 73
7
 74
0
 42
0.0000001
 43
0.0000001
 44
0.0000000001
 40
0.0
 40
0.0
 40
0.0
 40
0.0
 40
0.2455900088
 40
0.49330221
 40
0.7446718494
 40
1.0
 40
1.0
 40
1.0
 40
1.0
 10
12.5779941006
 20
9.4984660507
 30
0.0
 10
12.5712862041
 20
9.4984654587
 30
0.0
 10
12.5578114896
 20
9.4988813347
 30
0.0
 10
12.5375223155
 20
9.5003476825
 30
0.0
 10
12.5170051884
 20
9.5022451831
 30
0.0
 10
12.5031996522
 20
9.5032693284
 30
0.0
 10
12.4962334892
 20
9.5035972778
 30
0.0
  0
SPLINE
  5
326
100
AcDbEntity
  8
0
100
AcDbSpline
 62
9
  6
CONTINUOUS
 70
0
 71
3
 72
14
 73
10
 74
0
 42
0.0000001
 43
0.0000001
 44
0.0000000001
 40
0.0
 40
0.0
 40
0.0
 40
0.0
 40
0.1249993862
 40
0.2500183743
 40
0.37502567
 40
0.5000134738
 40
0.6250105013
 40
0.7500215992
 40
1.0
 40
1.0
 40
1.0
 40
1.0
 10
13.3724746927
 20
9.4984660506
 30
0.0
 10
13.3758888977
 20
9.4984662628
 30
0.0
 10
13.3827181319
 20
9.4985672956
 30
0.0
 10
13.3929540425
 20
9.4989812496
 30
0.0
 10
13.4031776274
 20
9.4996239775
 30
0.0
 10
13.4133877511
 20
9.5004399579
 30
0.0
 10
13.4235911099
 20
9.5013362019
 30
0.0
 10
13.4371954823
 20
9.5025233729
 30
0.0
 10
13.4474132268
 20
9.5032741109
 30
0.0
 10
13.4542334891
 20
9.5035959906
 30
0.0
  0
SPLINE
  5
327
100
AcDbEntity
  8
0
100
AcDbSpline
 62
9
  6
CONTINUOUS
 70
0
 71
3
 72
30
 73
26
 74
0
 42
0.0000001
 43
0.0000001
 44
0.0000000001
 40
0.0
 40
0.0
 40
0.0
 40
0.0
 40
0.1948935497
 40
0.2901015731
 40
0.3824412232
 40
0.4710737828
 40
0.5551770223
 40
0.6339606485
 40
0.7066540451
 40
0.772514622
 40
0.8309359079
 40
0.8813535403
 40
0.9033969217
 40
0.9232659473
 40
0.9409171464
 40
0.956307398
 40
0.9693942392
 40
0.9801443309
 40
0.9885459501
 40
0.9918653535
 40
0.9945984665
 40
0.9967494195
 40
0.9983291026
 40
0.9993698848
 40
1.0
 40
1.0
 40
1.0
 40
1.0
 10
13.4542334891
 20
9.5035959906
 30
0.0
 10
13.458133142
 20
9.5036874656
 30
0.0
 10
13.4639387499
 20
9.5037852074
 30
0.0
 10
13.4715927482
 20
9.5038659889
 30
0.0
 10
13.4771202605
 20
9.5039065214
 30
0.0
 10
13.4824255948
 20
9.5039318406
 30
0.0
 10
13.4874596466
 20
9.5039469807
 30
0.0
 10
13.4921746975
 20
9.503954627
 30
0.0
 10
13.4965246332
 20
9.5039563081
 30
0.0
 10
13.500467024
 20
9.5039541209
 30
0.0
 10
13.5039635661
 20
9.5039466109
 30
0.0
 10
13.5065831065
 20
9.5039342753
 30
0.0
 10
13.5084309993
 20
9.5039190514
 30
0.0
 10
13.5096230656
 20
9.5039051376
 30
0.0
 10
13.5106819123
 20
9.5038876515
 30
0.0
 10
13.5116049075
 20
9.503865988
 30
0.0
 10
13.5123896102
 20
9.5038396615
 30
0.0
 10
13.5130340987
 20
9.5038080592
 30
0.0
 10
13.5134827518
 20
9.5037751123
 30
0.0
 10
13.5137703448
 20
9.503743396
 30
0.0
 10
13.5139328324
 20
9.503719513
 30
0.0
 10
13.5140598675
 20
9.5036946822
 30
0.0
 10
13.5141515176
 20
9.5036665748
 30
0.0
 10
13.5142109229
 20
9.5036404373
 30
0.0
 10
13.5142334809
 20
9.5036099295
 30
0.0
 10
13.5142334891
 20
9.503597318
 30
0.0
  0
SPLINE
  5
328
100
AcDbEntity
  8
0
100
AcDbSpline
 62
9
  6
CONTINUOUS
 70
0
 71
3
 72
28
 73
24
 74
0
 42
0.0000001
 43
0.0000001
 44
0.0000000001
 40
0.0
 40
0.0
 40
0.0
 40
0.0
 40
0.1934381229
 40
0.3690233739
 40
0.4523841255
 40
0.5333690256
 40
0.6113520901
 40
0.6852222225
 40
0.7538568315
 40
0.8161327655
 40
0.8709320016
 40
0.8951708455
 40
0.9171064409
 40
0.9365912666
 40
0.9534793835
 40
0.9676299623
 40
0.9789155116
 40
0.9872457234
 40
0.9903090942
 40
0.9926812668
 40
0.9944814361
 40
0.9960080687
 40
1.0
 40
1.0
 40
1.0
 40
1.0
 10
13.486175683
 20
9.4736936147
 30
0.0
 10
13.4866865449
 20
9.4735743967
 30
0.0
 10
13.4876435002
 20
9.4732621985
 30
0.0
 10
13.4887412487
 20
9.4727084922
 30
0.0
 10
13.4895358298
 20
9.4722410641
 30
0.0
 10
13.4900958801
 20
9.4718971604
 30
0.0
 10
13.490630497
 20
9.4715611519
 30
0.0
 10
13.4911346666
 20
9.4712396638
 30
0.0
 10
13.4916027021
 20
9.4709407472
 30
0.0
 10
13.4920285319
 20
9.4706718132
 30
0.0
 10
13.4923559647
 20
9.4704726467
 30
0.0
 10
13.4925911616
 20
9.4703324091
 30
0.0
 10
13.492744192
 20
9.4702413723
 30
0.0
 10
13.4928798017
 20
9.4701600367
 30
0.0
 10
13.4929965337
 20
9.4700882982
 30
0.0
 10
13.4930930574
 20
9.4700261267
 30
0.0
 10
13.4931679118
 20
9.4699733867
 30
0.0
 10
13.4932156351
 20
9.4699342922
 30
0.0
 10
13.4932408276
 20
9.4699065764
 30
0.0
 10
13.4932515869
 20
9.469890096
 30
0.0
 10
13.4932564001
 20
9.4698748842
 30
0.0
 10
13.4932509088
 20
9.4698545318
 30
0.0
 10
13.4932347204
 20
9.4698479127
 30
0.0
 10
13.4932243795
 20
9.4698447092
 30
0.0
  0
SPLINE
  5
329
100
AcDbEntity
  8
0
100
AcDbSpline
 62
9
  6
CONTINUOUS
 70
0
 71
3
 72
11
 73
7
 74
0
 42
0.0000001
 43
0.0000001
 44
0.0000000001
 40
0.0
 40
0.0
 40
0.0
 40
0.0
 40
0.2592869058
 40
0.5142579238
 40
0.761431257
 40
1.0
 40
1.0
 40
1.0
 40
1.0
 10
13.3724738605
 20
9.4698446282
 30
0.0
 10
13.3796709374
 20
9.4698450798
 30
0.0
 10
13.3939458412
 20
9.4701491001
 30
0.0
 10
13.4150554517
 20
9.4712255423
 30
0.0
 10
13.4355663051
 20
9.4726418016
 30
0.0
 10
13.4490274279
 20
9.473438986
 30
0.0
 10
13.4556445887
 20
9.4736920703
 30
0.0
  0
SPLINE
  5
32A
100
AcDbEntity
  8
0
100
AcDbSpline
 62
9
  6
CONTINUOUS
 70
0
 71
3
 72
19
 73
15
 74
0
 42
0.0000001
 43
0.0000001
 44
0.0000000001
 40
0.0
 40
0.0
 40
0.0
 40
0.0
 40
0.1789430822
 40
0.3528914159
 40
0.516072077
 40
0.6626868375
 40
0.7874300725
 40
0.8405413355
 40
0.8870176265
 40
0.9265173446
 40
0.9587079124
 40
0.9832791438
 40
0.992629326
 40
1.0
 40
1.0
 40
1.0
 40
1.0
 10
13.455644633
 20
9.4736920936
 30
0.0
 10
13.4574654155
 20
9.473761673
 30
0.0
 10
13.4610575444
 20
9.4738636027
 30
0.0
 10
13.4663120764
 20
9.4739387622
 30
0.0
 10
13.4712378496
 20
9.4739628225
 30
0.0
 10
13.4756625967
 20
9.4739613005
 30
0.0
 10
13.4789665505
 20
9.473963565
 30
0.0
 10
13.4812508208
 20
9.4739529665
 30
0.0
 10
13.4826669978
 20
9.4739361925
 30
0.0
 10
13.4838699973
 20
9.4739073832
 30
0.0
 10
13.4848491709
 20
9.4738629941
 30
0.0
 10
13.4855206952
 20
9.4738087892
 30
0.0
 10
13.4859369142
 20
9.4737485651
 30
0.0
 10
13.48610382
 20
9.473713507
 30
0.0
 10
13.4861761343
 20
9.473693418
 30
0.0
  0
SPLINE
  5
32B
100
AcDbEntity
  8
0
100
AcDbSpline
 62
9
  6
CONTINUOUS
 70
0
 71
3
 72
19
 73
15
 74
0
 42
0.0000001
 43
0.0000001
 44
0.0000000001
 40
0.0
 40
0.0
 40
0.0
 40
0.0
 40
0.0074032635
 40
0.0167777532
 40
0.0413755725
 40
0.0735691821
 40
0.1130556948
 40
0.1595098563
 40
0.2125973737
 40
0.3373174317
 40
0.4839695603
 40
0.6472045628
 40
0.8211603314
 40
1.0
 40
1.0
 40
1.0
 40
1.0
 10
12.4642925487
 20
9.4736921801
 30
0.0
 10
12.4643652078
 20
9.4737122811
 30
0.0
 10
12.4645326959
 20
9.4737474034
 30
0.0
 10
12.4649497762
 20
9.473807758
 30
0.0
 10
12.4656218646
 20
9.4738621593
 30
0.0
 10
12.4666012456
 20
9.4739067404
 30
0.0
 10
12.4678039684
 20
9.4739357335
 30
0.0
 10
12.4692196094
 20
9.4739526757
 30
0.0
 10
12.471503284
 20
9.4739634955
 30
0.0
 10
12.4748072977
 20
9.473961457
 30
0.0
 10
12.4792329528
 20
9.4739631739
 30
0.0
 10
12.4841599705
 20
9.4739393198
 30
0.0
 10
12.489414332
 20
9.4738644613
 30
0.0
 10
12.4930056616
 20
9.4737628082
 30
0.0
 10
12.4948254826
 20
9.4736933769
 30
0.0
  0
SPLINE
  5
32C
100
AcDbEntity
  8
0
100
AcDbSpline
 62
9
  6
CONTINUOUS
 70
0
 71
3
 72
14
 73
10
 74
0
 42
0.0000001
 43
0.0000001
 44
0.0000000001
 40
0.0
 40
0.0
 40
0.0
 40
0.0
 40
0.2488748776
 40
0.3736437963
 40
0.4985431817
 40
0.6236320566
 40
0.7489641578
 40
0.8744615032
 40
1.0
 40
1.0
 40
1.0
 40
1.0
 10
12.4948255538
 20
9.4736936174
 30
0.0
 10
12.5017284741
 20
9.4734359424
 30
0.0
 10
12.5120825705
 20
9.4728160837
 30
0.0
 10
12.5258884526
 20
9.4718867971
 30
0.0
 10
12.5362686117
 20
9.4712161992
 30
0.0
 10
12.5466700267
 20
9.4706359051
 30
0.0
 10
12.5570959015
 20
9.4702150281
 30
0.0
 10
12.5675391903
 20
9.4699469512
 30
0.0
 10
12.5745066446
 20
9.4698637962
 30
0.0
 10
12.577991017
 20
9.4698447088
 30
0.0
  0
SPLINE
  5
32D
100
AcDbEntity
  8
0
100
AcDbSpline
 62
9
  6
CONTINUOUS
 70
0
 71
3
 72
26
 73
22
 74
0
 42
0.0000001
 43
0.0000001
 44
0.0000000001
 40
0.0
 40
0.0
 40
0.0
 40
0.0
 40
0.0003790063
 40
0.0014952565
 40
0.0033372237
 40
0.0058933812
 40
0.0131021916
 40
0.0230296279
 40
0.035583764
 40
0.0506728201
 40
0.0682051726
 40
0.0880893654
 40
0.1345482203
 40
0.1893216411
 40
0.2516853352
 40
0.3209191151
 40
0.3962255651
 40
0.476491415
 40
0.6472436723
 40
0.8243341084
 40
1.0
 40
1.0
 40
1.0
 40
1.0
 10
12.457242864
 20
9.4698445634
 30
0.0
 10
12.4572432785
 20
9.4698454947
 30
0.0
 10
12.457247428
 20
9.4698471817
 30
0.0
 10
12.4572537194
 20
9.4698532593
 30
0.0
 10
12.4572661182
 20
9.4698617211
 30
0.0
 10
12.4572909056
 20
9.469880533
 30
0.0
 10
12.4573337983
 20
9.4699117307
 30
0.0
 10
12.4573982225
 20
9.4699588489
 30
0.0
 10
12.4574801622
 20
9.470018001
 30
0.0
 10
12.4575789261
 20
9.470088758
 30
0.0
 10
12.457694093
 20
9.4701704788
 30
0.0
 10
12.4578786429
 20
9.4703002029
 30
0.0
 10
12.4581465013
 20
9.4704855749
 30
0.0
 10
12.4585107601
 20
9.4707323783
 30
0.0
 10
12.4589287039
 20
9.4710091037
 30
0.0
 10
12.4593961863
 20
9.4713109729
 30
0.0
 10
12.4599081903
 20
9.4716325967
 30
0.0
 10
12.460659638
 20
9.4720860644
 30
0.0
 10
12.461666296
 20
9.472646343
 30
0.0
 10
12.4629412958
 20
9.4732465409
 30
0.0
 10
12.4638376022
 20
9.4735660022
 30
0.0
 10
12.4642928987
 20
9.4736921551
 30
0.0
  0
SPLINE
  5
32E
100
AcDbEntity
  8
0
100
AcDbSpline
 62
9
  6
CONTINUOUS
 70
0
 71
3
 72
30
 73
26
 74
0
 42
0.0000001
 43
0.0000001
 44
0.0000000001
 40
0.0
 40
0.0
 40
0.0
 40
0.0
 40
0.0006307654
 40
0.0016726495
 40
0.003253691
 40
0.0054061572
 40
0.0081408518
 40
0.0114618212
 40
0.0198661921
 40
0.0306179732
 40
0.0437059863
 40
0.0590990933
 40
0.0767541702
 40
0.0966273042
 40
0.1186742362
 40
0.169099661
 40
0.2275332057
 40
0.293398072
 40
0.3660896268
 40
0.4448738119
 40
0.5289770556
 40
0.6176083753
 40
0.709939443
 40
0.8051281537
 40
1.0
 40
1.0
 40
1.0
 40
1.0
 10
12.4362334891
 20
9.5035960773
 30
0.0
 10
12.4362335029
 20
9.5036087019
 30
0.0
 10
12.4362560917
 20
9.5036392308
 30
0.0
 10
12.4363155365
 20
9.5036654198
 30
0.0
 10
12.4364072526
 20
9.5036935935
 30
0.0
 10
12.4365343608
 20
9.5037185095
 30
0.0
 10
12.4366969289
 20
9.5037424928
 30
0.0
 10
12.4369846226
 20
9.5037743758
 30
0.0
 10
12.4374333797
 20
9.5038075654
 30
0.0
 10
12.4380779662
 20
9.5038394908
 30
0.0
 10
12.4388627726
 20
9.5038661907
 30
0.0
 10
12.4397859186
 20
9.5038882613
 30
0.0
 10
12.4408449784
 20
9.503906133
 30
0.0
 10
12.4420372747
 20
9.503920364
 30
0.0
 10
12.4438854789
 20
9.5039358606
 30
0.0
 10
12.4465054986
 20
9.5039480733
 30
0.0
 10
12.4500025367
 20
9.5039551036
 30
0.0
 10
12.453945231
 20
9.5039563972
 30
0.0
 10
12.4582952359
 20
9.5039537969
 30
0.0
 10
12.4630102705
 20
9.5039455993
 30
0.0
 10
12.468044319
 20
9.5039302729
 30
0.0
 10
12.4733494706
 20
9.5039054836
 30
0.0
 10
12.478876418
 20
9.503865784
 30
0.0
 10
12.4865294504
 20
9.5037859445
 30
0.0
 10
12.4923342597
 20
9.5036886454
 30
0.0
 10
12.4962334891
 20
9.5035972778
 30
0.0
  0
SPLINE
  5
32F
100
AcDbEntity
  8
0
100
AcDbSpline
 62
9
  6
CONTINUOUS
 70
0
 71
3
 72
27
 73
23
 74
0
 42
0.0000001
 43
0.0000001
 44
0.0000000001
 40
0.0
 40
0.0
 40
0.0
 40
0.0
 40
0.0019895792
 40
0.0040027039
 40
0.0086955963
 40
0.0149810604
 40
0.0232279949
 40
0.0335928756
 40
0.0461490443
 40
0.0609337179
 40
0.0779664528
 40
0.0972482382
 40
0.1187380384
 40
0.1681215369
 40
0.2256616466
 40
0.2908810825
 40
0.3632377843
 40
0.4419625963
 40
0.5262268463
 40
0.6151993813
 40
0.8037484639
 40
1.0
 40
1.0
 40
1.0
 40
1.0
 10
13.7183009674
 20
7.7421821833
 30
0.0
 10
13.718307795
 20
7.7421432089
 30
0.0
 10
13.7183104878
 20
7.7420622331
 30
0.0
 10
13.7182620739
 20
7.7418935036
 30
0.0
 10
13.7180881814
 20
7.7416901368
 30
0.0
 10
13.7177625001
 20
7.7414864983
 30
0.0
 10
13.7173044121
 20
7.7412943489
 30
0.0
 10
13.7167103049
 20
7.741115452
 30
0.0
 10
13.7159786331
 20
7.7409492238
 30
0.0
 10
13.715109133
 20
7.7407969153
 30
0.0
 10
13.7141020858
 20
7.7406591905
 30
0.0
 10
13.7129589015
 20
7.7405368336
 30
0.0
 10
13.7111720473
 20
7.7403874625
 30
0.0
 10
13.7086214905
 20
7.7402487863
 30
0.0
 10
13.7051991033
 20
7.7401522215
 30
0.0
 10
13.7013186115
 20
7.7401218486
 30
0.0
 10
13.6970169283
 20
7.7401592914
 30
0.0
 10
13.6923375153
 20
7.7402632107
 30
0.0
 10
13.6873293749
 20
7.7404322961
 30
0.0
 10
13.6801412154
 20
7.7407490823
 30
0.0
 10
13.6707345442
 20
7.7412981368
 30
0.0
 10
13.6631024312
 20
7.741864081
 30
0.0
 10
13.6592124645
 20
7.7421822768
 30
0.0
  0
SPLINE
  5
330
100
AcDbEntity
  8
0
100
AcDbSpline
 62
9
  6
CONTINUOUS
 70
0
 71
3
 72
26
 73
22
 74
0
 42
0.0000001
 43
0.0000001
 44
0.0000000001
 40
0.0
 40
0.0
 40
0.0
 40
0.0
 40
0.1960471608
 40
0.3819018705
 40
0.4688079932
 40
0.5506189982
 40
0.6265772727
 40
0.695947991
 40
0.7580960263
 40
0.8126835337
 40
0.8595181795
 40
0.8800196908
 40
0.8985972094
 40
0.91531219
 40
0.9302971118
 40
0.9437444859
 40
0.9559177258
 40
0.9671678308
 40
0.9779342805
 40
0.9887138834
 40
1.0
 40
1.0
 40
1.0
 40
1.0
 10
13.372474996
 20
9.368354405
 30
0.0
 10
13.3764473672
 20
9.3674068409
 30
0.0
 10
13.384224
 20
9.3657181237
 30
0.0
 10
13.3938525811
 20
9.3640629826
 30
0.0
 10
13.4011775717
 20
9.3631083501
 30
0.0
 10
13.4062497682
 20
9.3625997093
 30
0.0
 10
13.4109719493
 20
9.3622864793
 30
0.0
 10
13.4152937504
 20
9.3621729351
 30
0.0
 10
13.419171518
 20
9.3622638302
 30
0.0
 10
13.4225687519
 20
9.362554239
 30
0.0
 10
13.4250784672
 20
9.3629726233
 30
0.0
 10
13.4268121025
 20
9.3634214013
 30
0.0
 10
13.4279154103
 20
9.3637904095
 30
0.0
 10
13.4288780841
 20
9.3642068014
 30
0.0
 10
13.4296992438
 20
9.3646695214
 30
0.0
 10
13.4303787501
 20
9.3651780485
 30
0.0
 10
13.4309157843
 20
9.3657325659
 30
0.0
 10
13.431307867
 20
9.3663331022
 30
0.0
 10
13.4315509527
 20
9.3669777999
 30
0.0
 10
13.4316421142
 20
9.367661223
 30
0.0
 10
13.4316034163
 20
9.368122922
 30
0.0
 10
13.4315626601
 20
9.3683544614
 30
0.0
  0
SPLINE
  5
331
100
AcDbEntity
  8
0
100
AcDbSpline
 62
9
  6
CONTINUOUS
 70
0
 71
3
 72
27
 73
23
 74
0
 42
0.0000001
 43
0.0000001
 44
0.0000000001
 40
0.0
 40
0.0
 40
0.0
 40
0.0
 40
0.1962611806
 40
0.3848237218
 40
0.4738035901
 40
0.5580742186
 40
0.6368030324
 40
0.7091599364
 40
0.7743749516
 40
0.8319074634
 40
0.8812821694
 40
0.9027677451
 40
0.9220457503
 40
0.9390753476
 40
0.9538574939
 40
0.9664116472
 40
0.9767749304
 40
0.9850206039
 40
0.9913050956
 40
0.9959973547
 40
0.998010364
 40
1.0
 40
1.0
 40
1.0
 40
1.0
 10
12.2912533417
 20
7.742182181
 30
0.0
 10
12.2873632529
 20
7.7418639827
 30
0.0
 10
12.2797308175
 20
7.7412980271
 30
0.0
 10
12.2703237088
 20
7.7407489738
 30
0.0
 10
12.2631351364
 20
7.7404322108
 30
0.0
 10
12.2581267325
 20
7.7402631496
 30
0.0
 10
12.2534471921
 20
7.7401592595
 30
0.0
 10
12.2491455901
 20
7.7401218471
 30
0.0
 10
12.2452654029
 20
7.7401522499
 30
0.0
 10
12.2418434918
 20
7.7402488428
 30
0.0
 10
12.2392933926
 20
7.740387541
 30
0.0
 10
12.2375069069
 20
7.7405369257
 30
0.0
 10
12.2363639669
 20
7.7406592896
 30
0.0
 10
12.2353571281
 20
7.7407970178
 30
0.0
 10
12.2344877993
 20
7.740949327
 30
0.0
 10
12.2337562662
 20
7.7411155542
 30
0.0
 10
12.2331622709
 20
7.7412944486
 30
0.0
 10
12.2327042741
 20
7.7414865954
 30
0.0
 10
12.2323786656
 20
7.7416902322
 30
0.0
 10
12.2322048347
 20
7.7418936043
 30
0.0
 10
12.2321564722
 20
7.7420623317
 30
0.0
 10
12.2321591889
 20
7.742143304
 30
0.0
 10
12.2321660272
 20
7.7421822768
 30
0.0
  0
SPLINE
  5
332
100
AcDbEntity
  8
0
100
AcDbSpline
 62
9
  6
CONTINUOUS
 70
0
 71
3
 72
26
 73
22
 74
0
 42
0.0000001
 43
0.0000001
 44
0.0000000001
 40
0.0
 40
0.0
 40
0.0
 40
0.0
 40
0.0112858338
 40
0.0220638465
 40
0.0328278424
 40
0.0440749988
 40
0.0562449867
 40
0.0696888003
 40
0.0846696992
 40
0.101379949
 40
0.1199517924
 40
0.1404467397
 40
0.187266424
 40
0.241838216
 40
0.3039720487
 40
0.3733322492
 40
0.4492852655
 40
0.5310977701
 40
0.6180136764
 40
0.8039104421
 40
1.0
 40
1.0
 40
1.0
 40
1.0
 10
12.5189043537
 20
9.3683543974
 30
0.0
 10
12.5188635344
 20
9.3681228734
 30
0.0
 10
12.5188247131
 20
9.3676612194
 30
0.0
 10
12.5189157179
 20
9.3669778582
 30
0.0
 10
12.519158673
 20
9.3663332583
 30
0.0
 10
12.5195506299
 20
9.3657328471
 30
0.0
 10
12.520087521
 20
9.3651784665
 30
0.0
 10
12.5207668489
 20
9.3646700693
 30
0.0
 10
12.5215877803
 20
9.3642074559
 30
0.0
 10
12.5225501622
 20
9.3637911316
 30
0.0
 10
12.5236531091
 20
9.3634221362
 30
0.0
 10
12.5253861601
 20
9.3629733137
 30
0.0
 10
12.5278950787
 20
9.3625547661
 30
0.0
 10
12.5312913759
 20
9.3622640797
 30
0.0
 10
12.535168322
 20
9.362172862
 30
0.0
 10
12.5394895389
 20
9.3622860833
 30
0.0
 10
12.5442114752
 20
9.3625990394
 30
0.0
 10
12.5492838528
 20
9.3631075085
 30
0.0
 10
12.5566100173
 20
9.3640621554
 30
0.0
 10
12.5662405953
 20
9.3657177004
 30
0.0
 10
12.5740190158
 20
9.3674067308
 30
0.0
 10
12.5779922935
 20
9.3683544282
 30
0.0
  0
LINE
  5
333
100
AcDbEntity
  8
0
100
AcDbLine
 62
9
  6
CONTINUOUS
 10
7.3834543291
 20
10.3598917189
 11
7.3833345729
 21
10.3000369252
  0
SPLINE
  5
334
100
AcDbEntity
  8
0
100
AcDbSpline
 62
9
  6
CONTINUOUS
 70
0
 71
3
 72
11
 73
7
 74
0
 42
0.0000001
 43
0.0000001
 44
0.0000000001
 40
0.0
 40
0.0
 40
0.0
 40
0.0
 40
0.2426103045
 40
0.4882347562
 40
0.7404508387
 40
1.0
 40
1.0
 40
1.0
 40
1.0
 10
8.0053071736
 20
9.1771570185
 30
0.0
 10
8.0114111437
 20
9.1772009462
 30
0.0
 10
8.0236971236
 20
9.177026869
 30
0.0
 10
8.0423117838
 20
9.1762515869
 30
0.0
 10
8.0613409856
 20
9.1752521267
 30
0.0
 10
8.0742165754
 20
9.1748925081
 30
0.0
 10
8.080746889
 20
9.1748924335
 30
0.0
  0
LINE
  5
335
100
AcDbEntity
  8
0
100
AcDbLine
 62
9
  6
CONTINUOUS
 10
8.4388455553
 20
9.672642905
 11
11.4835683175
 21
9.6787640138
  0
SPLINE
  5
336
100
AcDbEntity
  8
0
100
AcDbSpline
 62
9
  6
CONTINUOUS
 70
0
 71
3
 72
25
 73
21
 74
0
 42
0.0000001
 43
0.0000001
 44
0.0000000001
 40
0.0
 40
0.0
 40
0.0
 40
0.0
 40
0.1716453127
 40
0.3532121584
 40
0.4443015053
 40
0.5332909868
 40
0.6182529769
 40
0.6972601082
 40
0.7685833336
 40
0.8312708727
 40
0.884562085
 40
0.9276975606
 40
0.9452532902
 40
0.9601763867
 40
0.9725593995
 40
0.982496001
 40
0.9900822606
 40
0.9954204125
 40
0.9986344809
 40
1.0
 40
1.0
 40
1.0
 40
1.0
 10
11.4835687162
 20
9.6787614515
 30
0.0
 10
11.4835550754
 20
9.6748170544
 30
0.0
 10
11.4835462067
 20
9.6667001899
 30
0.0
 10
11.4835817437
 20
9.6564901269
 30
0.0
 10
11.4836450301
 20
9.648179716
 30
0.0
 10
11.4837090215
 20
9.6420893869
 30
0.0
 10
11.483788654
 20
9.6362769163
 30
0.0
 10
11.4838830028
 20
9.6308706876
 30
0.0
 10
11.4839918727
 20
9.625976716
 30
0.0
 10
11.4841118255
 20
9.6216741329
 30
0.0
 10
11.4842396743
 20
9.6180199179
 30
0.0
 10
11.4843560705
 20
9.6154030217
 30
0.0
 10
11.4844547571
 20
9.6136683047
 30
0.0
 10
11.4845241556
 20
9.6126394123
 30
0.0
 10
11.4845928053
 20
9.6117870953
 30
0.0
 10
11.4846624567
 20
9.6111011589
 30
0.0
 10
11.4847267241
 20
9.6105851699
 30
0.0
 10
11.484798032
 20
9.6102083381
 30
0.0
 10
11.4848466326
 20
9.6100085999
 30
0.0
 10
11.4849119785
 20
9.6098902133
 30
0.0
 10
11.4849433157
 20
9.6098918466
 30
0.0
  0
SPLINE
  5
337
100
AcDbEntity
  8
0
100
AcDbSpline
 62
9
  6
CONTINUOUS
 70
0
 71
3
 72
18
 73
14
 74
0
 42
0.0000001
 43
0.0000001
 44
0.0000000001
 40
0.0
 40
0.0
 40
0.0
 40
0.0
 40
0.1259165854
 40
0.2516636183
 40
0.3771774845
 40
0.4398850166
 40
0.502509683
 40
0.5650389944
 40
0.6274667804
 40
0.6897867071
 40
0.752007357
 40
0.8761191036
 40
1.0
 40
1.0
 40
1.0
 40
1.0
 10
11.4835687162
 20
9.67876145
 30
0.0
 10
11.5278419849
 20
9.6788552378
 30
0.0
 10
11.6165203736
 20
9.6717556618
 30
0.0
 10
11.7457362722
 20
9.6395258375
 30
0.0
 10
11.8475430924
 20
9.5954380534
 30
0.0
 10
11.9236219882
 20
9.550656897
 30
0.0
 10
11.9776822915
 20
9.5125668411
 30
0.0
 10
12.0283538534
 20
9.4702328362
 30
0.0
 10
12.0753226226
 20
9.4239777626
 30
0.0
 10
12.1182828953
 20
9.3741166101
 30
0.0
 10
12.1698114796
 20
9.3033849745
 30
0.0
 10
12.223067584
 20
9.2076222598
 30
0.0
 10
12.2526931896
 20
9.1251413666
 30
0.0
 10
12.2640394953
 20
9.0830875196
 30
0.0
  0
SPLINE
  5
338
100
AcDbEntity
  8
0
100
AcDbSpline
 62
9
  6
CONTINUOUS
 70
0
 71
3
 72
20
 73
16
 74
0
 42
0.0000001
 43
0.0000001
 44
0.0000000001
 40
0.0
 40
0.0
 40
0.0
 40
0.0
 40
0.1787918745
 40
0.3603041045
 40
0.5338905842
 40
0.6141891251
 40
0.6882526888
 40
0.7548556065
 40
0.8134776324
 40
0.8637976639
 40
0.905557481
 40
0.9388026613
 40
0.9644774954
 40
0.9841109246
 40
1.0
 40
1.0
 40
1.0
 40
1.0
 10
12.2640394953
 20
9.0830875196
 30
0.0
 10
12.2604148656
 20
9.0821069826
 30
0.0
 10
12.2531445027
 20
9.0800027395
 30
0.0
 10
12.2424894605
 20
9.0765028888
 30
0.0
 10
12.233929874
 20
9.0732748919
 30
0.0
 10
12.2275860238
 20
9.0705909806
 30
0.0
 10
12.2233690691
 20
9.0686515275
 30
0.0
 10
12.2196361885
 20
9.0667559206
 30
0.0
 10
12.2164278141
 20
9.0649366125
 30
0.0
 10
12.213766228
 20
9.0632200226
 30
0.0
 10
12.211664879
 20
9.0616294909
 30
0.0
 10
12.2101246846
 20
9.0601716613
 30
0.0
 10
12.2091204387
 20
9.0588502812
 30
0.0
 10
12.2086091012
 20
9.0576484068
 30
0.0
 10
12.2086120502
 20
9.0568722786
 30
0.0
 10
12.2086995527
 20
9.0565502594
 30
0.0
  0
SPLINE
  5
339
100
AcDbEntity
  8
0
100
AcDbSpline
 62
9
  6
CONTINUOUS
 70
0
 71
3
 72
22
 73
18
 74
0
 42
0.0000001
 43
0.0000001
 44
0.0000000001
 40
0.0
 40
0.0
 40
0.0
 40
0.0
 40
0.1740357704
 40
0.3527297341
 40
0.525921442
 40
0.6068159239
 40
0.6818984068
 40
0.7498444523
 40
0.8099695093
 40
0.8617702412
 40
0.9048022459
 40
0.9389372778
 40
0.9650154661
 40
0.9754912414
 40
0.984573692
 40
0.9926015953
 40
1.0
 40
1.0
 40
1.0
 40
1.0
 10
12.2891964861
 20
8.9666134145
 30
0.0
 10
12.2855313797
 20
8.9661877824
 30
0.0
 10
12.2781163592
 20
8.965206177
 30
0.0
 10
12.2671143541
 20
8.9633819859
 30
0.0
 10
12.2581254821
 20
8.9615248722
 30
0.0
 10
12.2513457277
 20
8.9598675655
 30
0.0
 10
12.2467669269
 20
8.9586105003
 30
0.0
 10
12.2426556115
 20
8.9573233504
 30
0.0
 10
12.2390658635
 20
8.956032118
 30
0.0
 10
12.2360350874
 20
8.9547601712
 30
0.0
 10
12.2335893743
 20
8.9535292138
 30
0.0
 10
12.2317425705
 20
8.9523471872
 30
0.0
 10
12.2306085555
 20
8.9513486201
 30
0.0
 10
12.2300226723
 20
8.9505744082
 30
0.0
 10
12.2297502771
 20
8.9500529713
 30
0.0
 10
12.2296095082
 20
8.9495482003
 30
0.0
 10
12.2296034077
 20
8.9492167302
 30
0.0
 10
12.2296220564
 20
8.9490609889
 30
0.0
  0
SPLINE
  5
33A
100
AcDbEntity
  8
0
100
AcDbSpline
 62
9
  6
CONTINUOUS
 70
0
 71
3
 72
25
 73
21
 74
0
 42
0.0000001
 43
0.0000001
 44
0.0000000001
 40
0.0
 40
0.0
 40
0.0
 40
0.0
 40
0.0019069698
 40
0.0034230124
 40
0.0054043608
 40
0.0108790153
 40
0.018491145
 40
0.0283414314
 40
0.0405148155
 40
0.0721410247
 40
0.1137796475
 40
0.1650511614
 40
0.2253757263
 40
0.2941700474
 40
0.3706893911
 40
0.4535482842
 40
0.5412002258
 40
0.6320980632
 40
0.8177917133
 40
1.0
 40
1.0
 40
1.0
 40
1.0
 10
7.2017234747
 20
9.234891804
 30
0.0
 10
7.2017613969
 20
9.2348918004
 30
0.0
 10
7.2018212451
 20
9.2349447211
 30
0.0
 10
7.2018745058
 20
9.2350348487
 30
0.0
 10
7.2019480163
 20
9.235199278
 30
0.0
 10
7.2020322687
 20
9.235486761
 30
0.0
 10
7.2021300716
 20
9.2359327352
 30
0.0
 10
7.2022283724
 20
9.2365138886
 30
0.0
 10
7.2023739146
 20
9.2375709489
 30
0.0
 10
7.2025462547
 20
9.2392616109
 30
0.0
 10
7.2027373171
 20
9.2417308625
 30
0.0
 10
7.2029232151
 20
9.2447725405
 30
0.0
 10
7.2031002844
 20
9.2483554825
 30
0.0
 10
7.2032643901
 20
9.2524415807
 30
0.0
 10
7.2034116221
 20
9.256976687
 30
0.0
 10
7.2035413704
 20
9.2618874632
 30
0.0
 10
7.2036521684
 20
9.2670847001
 30
0.0
 10
7.2037735909
 20
9.2743270835
 30
0.0
 10
7.2038684301
 20
9.2834504224
 30
0.0
 10
7.2038948359
 20
9.2907665642
 30
0.0
 10
7.2038959333
 20
9.2943899753
 30
0.0
  0
LINE
  5
33B
100
AcDbEntity
  8
0
100
AcDbLine
 62
9
  6
CONTINUOUS
 10
7.2038959776
 20
9.2943899651
 11
8.0066557089
 21
9.292749569
  0
SPLINE
  5
33C
100
AcDbEntity
  8
0
100
AcDbSpline
 62
9
  6
CONTINUOUS
 70
0
 71
3
 72
11
 73
7
 74
0
 42
0.0000001
 43
0.0000001
 44
0.0000000001
 40
0.0
 40
0.0
 40
0.0
 40
0.0
 40
0.2454287168
 40
0.4941223192
 40
0.7462420438
 40
1.0
 40
1.0
 40
1.0
 40
1.0
 10
8.0807471515
 20
9.2348919789
 30
0.0
 10
8.0745414429
 20
9.2348919837
 30
0.0
 10
8.0620482858
 20
9.2351248755
 30
0.0
 10
8.0431863739
 20
9.2356196561
 30
0.0
 10
8.0241099798
 20
9.2359870152
 30
0.0
 10
8.011318263
 20
9.2360489
 30
0.0
 10
8.0049019953
 20
9.2360242699
 30
0.0
  0
SPLINE
  5
33D
100
AcDbEntity
  8
0
100
AcDbSpline
 62
9
  6
CONTINUOUS
 70
0
 71
3
 72
16
 73
12
 74
0
 42
0.0000001
 43
0.0000001
 44
0.0000000001
 40
0.0
 40
0.0
 40
0.0
 40
0.0
 40
0.0209017537
 40
0.0493322341
 40
0.0852755298
 40
0.1287033678
 40
0.2369563232
 40
0.3692011132
 40
0.5192272591
 40
0.6792983233
 40
1.0
 40
1.0
 40
1.0
 40
1.0
 10
8.0049019966
 20
9.2360242765
 30
0.0
 10
8.0049735732
 20
9.2364133315
 30
0.0
 10
8.0051038983
 20
9.2373384458
 30
0.0
 10
8.0052738046
 20
9.2389434242
 30
0.0
 10
8.0054418859
 20
9.240976916
 30
0.0
 10
8.0056776201
 20
9.2445201138
 30
0.0
 10
8.0059348861
 20
9.2498878845
 30
0.0
 10
8.0061903793
 20
9.2572745775
 30
0.0
 10
8.0063920684
 20
9.265644005
 30
0.0
 10
8.0065878558
 20
9.2775808981
 30
0.0
 10
8.0066478335
 20
9.2866800411
 30
0.0
 10
8.0066556971
 20
9.2927496014
 30
0.0
  0
SPLINE
  5
33E
100
AcDbEntity
  8
0
100
AcDbSpline
 62
9
  6
CONTINUOUS
 70
0
 71
3
 72
19
 73
15
 74
0
 42
0.0000001
 43
0.0000001
 44
0.0000000001
 40
0.0
 40
0.0
 40
0.0
 40
0.0
 40
0.0074953147
 40
0.0224159413
 40
0.0450958044
 40
0.0758042031
 40
0.1148025837
 40
0.1623387267
 40
0.2182916094
 40
0.2821574398
 40
0.4315557504
 40
0.6063646465
 40
0.7994856174
 40
1.0
 40
1.0
 40
1.0
 40
1.0
 10
8.1181230262
 20
9.236292958
 30
0.0
 10
8.1180913512
 20
9.2362999265
 30
0.0
 10
8.1179926681
 20
9.2362857435
 30
0.0
 10
8.1178013669
 20
9.2362590421
 30
0.0
 10
8.1175097757
 20
9.2362045724
 30
0.0
 10
8.1171169323
 20
9.2361329678
 30
0.0
 10
8.1166175587
 20
9.2360425871
 30
0.0
 10
8.1160100235
 20
9.2359378571
 30
0.0
 10
8.1152953205
 20
9.2358210746
 30
0.0
 10
8.114143913
 20
9.2356441514
 30
0.0
 10
8.1124801481
 20
9.2354159444
 30
0.0
 10
8.1102560225
 20
9.2351606094
 30
0.0
 10
8.1078046317
 20
9.234953266
 30
0.0
 10
8.1061011696
 20
9.2348920469
 30
0.0
 10
8.1052335363
 20
9.2348920482
 30
0.0
  0
SPLINE
  5
33F
100
AcDbEntity
  8
0
100
AcDbSpline
 62
9
  6
CONTINUOUS
 70
0
 71
3
 72
26
 73
22
 74
0
 42
0.0000001
 43
0.0000001
 44
0.0000000001
 40
0.0
 40
0.0
 40
0.0
 40
0.0
 40
0.0010661753
 40
0.0026347344
 40
0.0075120382
 40
0.0148034457
 40
0.0245092443
 40
0.0366010996
 40
0.0510414133
 40
0.0677887681
 40
0.0867999361
 40
0.1313793393
 40
0.1841401707
 40
0.2443838845
 40
0.3114134885
 40
0.3845211051
 40
0.4629443403
 40
0.5459060482
 40
0.632629199
 40
0.8140529354
 40
1.0
 40
1.0
 40
1.0
 40
1.0
 10
8.0721107835
 20
9.3063173422
 30
0.0
 10
8.0721061776
 20
9.3062939636
 30
0.0
 10
8.0720738146
 20
9.3062417209
 30
0.0
 10
8.0719503349
 20
9.306128243
 30
0.0
 10
8.0716845491
 20
9.3059692247
 30
0.0
 10
8.0712455068
 20
9.3057558402
 30
0.0
 10
8.0706453329
 20
9.3055042947
 30
0.0
 10
8.0698883025
 20
9.3052167092
 30
0.0
 10
8.0689757088
 20
9.3048957509
 30
0.0
 10
8.0679104961
 20
9.3045435576
 30
0.0
 10
8.0661972363
 20
9.3040062567
 30
0.0
 10
8.0637006961
 20
9.3032780056
 30
0.0
 10
8.060300675
 20
9.3023590324
 30
0.0
 10
8.0563983916
 20
9.3013777118
 30
0.0
 10
8.0520377114
 20
9.3003571604
 30
0.0
 10
8.0472641618
 20
9.299320589
 30
0.0
 10
8.042127265
 20
9.2982820075
 30
0.0
 10
8.0366778852
 20
9.2972559916
 30
0.0
 10
8.0289480635
 20
9.2959042096
 30
0.0
 10
8.0189182943
 20
9.2943496041
 30
0.0
 10
8.0107798297
 20
9.2932609256
 30
0.0
 10
8.0066556179
 20
9.2927500753
 30
0.0
  0
SPLINE
  5
340
100
AcDbEntity
  8
0
100
AcDbSpline
 62
9
  6
CONTINUOUS
 70
0
 71
3
 72
25
 73
21
 74
0
 42
0.0000001
 43
0.0000001
 44
0.0000000001
 40
0.0
 40
0.0
 40
0.0
 40
0.0
 40
0.1789924358
 40
0.3636488756
 40
0.4547584261
 40
0.5429798539
 40
0.6266352619
 40
0.7040470214
 40
0.773713612
 40
0.8348229518
 40
0.8867324778
 40
0.9288010108
 40
0.9459734766
 40
0.9606081214
 40
0.9727844434
 40
0.9825831949
 40
0.9900878034
 40
0.9953885628
 40
0.99859992
 40
1.0
 40
1.0
 40
1.0
 40
1.0
 10
8.4388459702
 20
9.6726420845
 30
0.0
 10
8.438841955
 20
9.6688938409
 30
0.0
 10
8.4388506214
 20
9.6612787197
 30
0.0
 10
8.4389037819
 20
9.6517558181
 30
0.0
 10
8.4389777543
 20
9.6441339779
 30
0.0
 10
8.4390473098
 20
9.6386272616
 30
0.0
 10
8.4391302744
 20
9.6334076069
 30
0.0
 10
8.439225683
 20
9.6285767815
 30
0.0
 10
8.4393332069
 20
9.6242184732
 30
0.0
 10
8.43944994
 20
9.6203946344
 30
0.0
 10
8.4395732234
 20
9.6171493181
 30
0.0
 10
8.4396848684
 20
9.6148242738
 30
0.0
 10
8.4397791622
 20
9.6132802083
 30
0.0
 10
8.4398454873
 20
9.6123613079
 30
0.0
 10
8.4399110912
 20
9.6115980816
 30
0.0
 10
8.4399776636
 20
9.6109825597
 30
0.0
 10
8.4400391432
 20
9.6105175473
 30
0.0
 10
8.4401074859
 20
9.6101786434
 30
0.0
 10
8.4401541602
 20
9.6099952614
 30
0.0
 10
8.4402175786
 20
9.6098903346
 30
0.0
 10
8.4402468584
 20
9.6098918465
 30
0.0
  0
LINE
  5
341
100
AcDbEntity
  8
0
100
AcDbLine
 62
9
  6
CONTINUOUS
 10
12.4694316617
 20
10.1448957749
 11
12.2640394912
 21
9.0830875358
  0
SPLINE
  5
342
100
AcDbEntity
  8
0
100
AcDbSpline
 62
9
  6
CONTINUOUS
 70
0
 71
3
 72
23
 73
19
 74
0
 42
0.0000001
 43
0.0000001
 44
0.0000000001
 40
0.0
 40
0.0
 40
0.0
 40
0.0
 40
0.0625084448
 40
0.0937807826
 40
0.1250426612
 40
0.1562998419
 40
0.1875634474
 40
0.2500985814
 40
0.3126285497
 40
0.3751373732
 40
0.4376497123
 40
0.5001713676
 40
0.6250798909
 40
0.7499778685
 40
0.8124962851
 40
0.875001827
 40
0.9375159128
 40
1.0
 40
1.0
 40
1.0
 40
1.0
 10
8.438845978
 20
9.672642084
 30
0.0
 10
8.4257692239
 20
9.6723874249
 30
0.0
 10
8.4061501227
 20
9.6713916003
 30
0.0
 10
8.3801368961
 20
9.6685332691
 30
0.0
 10
8.3607331601
 20
9.6655484536
 30
0.0
 10
8.3414961436
 20
9.6616346185
 30
0.0
 10
8.3161301516
 20
9.6551766418
 30
0.0
 10
8.2850282793
 20
9.6448891906
 30
0.0
 10
8.2489504319
 20
9.6293133577
 30
0.0
 10
8.2143888528
 20
9.6106147547
 30
0.0
 10
8.181658694
 20
9.5888660314
 30
0.0
 10
8.1408269383
 20
9.5560955395
 30
0.0
 10
8.0955349782
 20
9.5084635441
 30
0.0
 10
8.0595186515
 20
9.4534883618
 30
0.0
 10
8.0368970511
 20
9.4062767802
 30
0.0
 10
8.0232368802
 20
9.3694251589
 30
0.0
 10
8.0131139561
 20
9.3314681042
 30
0.0
 10
8.0084885289
 20
9.3056946451
 30
0.0
 10
8.0066556554
 20
9.2927496217
 30
0.0
  0
LINE
  5
343
100
AcDbEntity
  8
0
100
AcDbLine
 62
9
  6
CONTINUOUS
 10
11.5377334383
 20
10.3084163451
 11
7.3833345729
 21
10.3000369252
  0
LINE
  5
344
100
AcDbEntity
  8
0
100
AcDbLine
 62
9
  6
CONTINUOUS
 10
7.2038960888
 20
9.2943888153
 11
7.1434829558
 21
9.2844727452
  0
SPLINE
  5
345
100
AcDbEntity
  8
0
100
AcDbSpline
 62
9
  6
CONTINUOUS
 70
0
 71
3
 72
25
 73
21
 74
0
 42
0.0000001
 43
0.0000001
 44
0.0000000001
 40
0.0
 40
0.0
 40
0.0
 40
0.0
 40
0.1962100447
 40
0.3847796231
 40
0.4737548414
 40
0.5580148642
 40
0.6367331929
 40
0.7090857995
 40
0.7743071496
 40
0.8318547245
 40
0.8812497885
 40
0.9220328373
 40
0.9390733539
 40
0.9538659757
 40
0.9664300105
 40
0.9768023803
 40
0.9850560358
 40
0.9913468373
 40
0.9960425806
 40
1.0
 40
1.0
 40
1.0
 40
1.0
 10
12.1067545442
 20
7.7321819147
 30
0.0
 10
12.1028656048
 20
7.7318638172
 30
0.0
 10
12.0952343091
 20
7.7312979844
 30
0.0
 10
12.0858285049
 20
7.7307488984
 30
0.0
 10
12.0786403529
 20
7.7304320439
 30
0.0
 10
12.0736326379
 20
7.7302629273
 30
0.0
 10
12.0689537711
 20
7.7301589805
 30
0.0
 10
12.0646524793
 20
7.7301214526
 30
0.0
 10
12.060772118
 20
7.7301517856
 30
0.0
 10
12.0573493974
 20
7.7302479928
 30
0.0
 10
12.0544156891
 20
7.7304081117
 30
0.0
 10
12.0522912906
 20
7.7306008216
 30
0.0
 10
12.0508602368
 20
7.7307963069
 30
0.0
 10
12.0499903416
 20
7.7309487726
 30
0.0
 10
12.0492582253
 20
7.7311150482
 30
0.0
 10
12.0486638217
 20
7.7312942036
 30
0.0
 10
12.0482051193
 20
7.7314860182
 30
0.0
 10
12.0478797794
 20
7.7316907173
 30
0.0
 10
12.0476779521
 20
7.7319218219
 30
0.0
 10
12.0476524332
 20
7.7321043874
 30
0.0
 10
12.0476659634
 20
7.7321819147
 30
0.0
  0
SPLINE
  5
346
100
AcDbEntity
  8
0
100
AcDbSpline
 62
9
  6
CONTINUOUS
 70
0
 71
3
 72
22
 73
18
 74
0
 42
0.0000001
 43
0.0000001
 44
0.0000000001
 40
0.0
 40
0.0
 40
0.0
 40
0.0
 40
0.1787051086
 40
0.3596495723
 40
0.5327600932
 40
0.6129780397
 40
0.6871224925
 40
0.7539871909
 40
0.8129932086
 40
0.8637406196
 40
0.9058891069
 40
0.939394378
 40
0.9651022931
 40
0.9754846815
 40
0.9845291644
 40
0.9925649127
 40
1.0
 40
1.0
 40
1.0
 40
1.0
 10
12.2826359642
 20
8.7296556708
 30
0.0
 10
12.2790821531
 20
8.7302634083
 30
0.0
 10
12.2719104683
 20
8.7313752931
 30
0.0
 10
12.2612392745
 20
8.7326788866
 30
0.0
 10
12.2525041994
 20
8.7333991018
 30
0.0
 10
12.245903683
 20
8.7337019297
 30
0.0
 10
12.2414402827
 20
8.7337795486
 30
0.0
 10
12.2374046442
 20
8.7337052423
 30
0.0
 10
12.233846574
 20
8.7334881298
 30
0.0
 10
12.2308002635
 20
8.7331393623
 30
0.0
 10
12.2282897549
 20
8.732671335
 30
0.0
 10
12.2263258801
 20
8.7320879936
 30
0.0
 10
12.2250468848
 20
8.7314809345
 30
0.0
 10
12.2243163531
 20
8.7309320421
 30
0.0
 10
12.2239320159
 20
8.7305285282
 30
0.0
 10
12.2236693285
 20
8.7301046945
 30
0.0
 10
12.223573547
 20
8.7298033959
 30
0.0
 10
12.2235474991
 20
8.7296556708
 30
0.0
  0
SPLINE
  5
347
100
AcDbEntity
  8
0
100
AcDbSpline
 62
9
  6
CONTINUOUS
 70
0
 71
3
 72
25
 73
21
 74
0
 42
0.0000001
 43
0.0000001
 44
0.0000000001
 40
0.0
 40
0.0
 40
0.0
 40
0.0
 40
0.0039564846
 40
0.0086483013
 40
0.014932404
 40
0.0231771233
 40
0.0335386709
 40
0.0460902402
 40
0.0608689462
 40
0.0778942653
 40
0.1186440416
 40
0.1680046685
 40
0.2255200669
 40
0.2907149696
 40
0.3630503039
 40
0.4417638132
 40
0.5260347082
 40
0.6150397333
 40
0.8037146107
 40
1.0
 40
1.0
 40
1.0
 40
1.0
 10
13.9028010124
 20
7.732181929
 30
0.0
 10
13.9028145726
 20
7.7321044255
 30
0.0
 10
13.9027892332
 20
7.7319219501
 30
0.0
 10
13.90258774
 20
7.7316908485
 30
0.0
 10
13.9022628059
 20
7.7314862182
 30
0.0
 10
13.9018046379
 20
7.7312944865
 30
0.0
 10
13.9012108727
 20
7.7311154203
 30
0.0
 10
13.9004794936
 20
7.7309492254
 30
0.0
 10
13.8996104227
 20
7.7307968242
 30
0.0
 10
13.8981806083
 20
7.7306013877
 30
0.0
 10
13.8960578598
 20
7.7304086443
 30
0.0
 10
13.8931261348
 20
7.7302484001
 30
0.0
 10
13.8897052559
 20
7.7301520053
 30
0.0
 10
13.8858263885
 20
7.7301214566
 30
0.0
 10
13.8815260413
 20
7.7301587744
 30
0.0
 10
13.8768473733
 20
7.7302625473
 30
0.0
 10
13.8718389192
 20
7.7304315571
 30
0.0
 10
13.8646478302
 20
7.7307484219
 30
0.0
 10
13.8552378035
 20
7.7312977006
 30
0.0
 10
13.8476028859
 20
7.7318637195
 30
0.0
 10
13.8437124353
 20
7.732181929
 30
0.0
  0
LINE
  5
348
100
AcDbEntity
  8
0
100
AcDbLine
 62
9
  6
CONTINUOUS
 10
7.3243678041
 20
10.3103103356
 11
7.38333482
 21
10.3000370688
  0
LINE
  5
349
100
AcDbEntity
  8
0
100
AcDbLine
 62
9
  6
CONTINUOUS
 10
7.38333482
 20
10.3000370688
 11
7.2038959269
 21
9.2943894873
  0
ENDSEC
  0
SECTION
  2
OBJECTS
  0
DICTIONARY
  5
C
100
AcDbDictionary
280
0
281
1
  3
ACAD_GROUP
350
D
  3
ACAD_MLINESTYLE
350
17
  3
ACAD_LAYOUT
350
1A
  3
ACAD_PLOTSETTINGS
350
19
  3
ACAD_PLOTSTYLENAME
350
E
  0
DICTIONARY
  5
D
102
{ACAD_REACTORS
330
C
102
}
100
AcDbDictionary
280
0
281
1
  0
ACDBDICTIONARYWDFLT
  5
E
102
{ACAD_REACTORS
330
C
102
}
100
AcDbDictionary
281
1
  3
Normal
350
F
100
AcDbDictionaryWithDefault
340
F
  0
DICTIONARY
  5
17
102
{ACAD_REACTORS
330
C
102
}
100
AcDbDictionary
280
0
281
1
  3
Standard
350
18
  0
DICTIONARY
  5
19
102
{ACAD_REACTORS
330
C
102
}
100
AcDbDictionary
281
1
  0
DICTIONARY
  5
1A
102
{ACAD_REACTORS
330
C
102
}
100
AcDbDictionary
281
1
  3
Model
350
34A
  3
Layout1
350
34B
  0
ACDBPLACEHOLDER
  5
F
102
{ACAD_REACTORS
330
E
102
}
  0
MLINESTYLE
  5
18
102
{ACAD_REACTORS
330
17
102
}
100
AcDbMlineStyle
  2
STANDARD
 70
0
  3

 62
256
 51
90.0
 52
90.0
 71
2
 49
0.5
 62
256
  6
BYLAYER
 49
-0.5
 62
256
  6
BYLAYER
  0
LAYOUT
  5
34A
102
{ACAD_REACTORS
330
1A
102
}
100
AcDbPlotSettings
  1

  2
none_device
  4
ANSI_C_(22.00_x_17.00_Inches)
  6

 40
0.0
 41
0.0
 42
0.0
 43
0.0
 44
558.8
 45
431.8
 46
0.0
 47
0.0
 48
0.0
 49
0.0
140
0.0
141
0.0
142
1.0
143
1.0
 70
1024
 72
0
 73
0
 74
0
  7

 75
0
147
1.0
148
0.0
149
0.0
100
AcDbLayout
  1
Model
 70
0
 71
0
 10
0.0
 20
0.0
 11
22.0
 21
17.0
 12
0.0
 22
0.0
 32
0.0
 14
0.0
 24
0.0
 34
0.0
 15
0.0
 25
0.0
 35
0.0
146
0.0
 13
0.0
 23
0.0
 33
0.0
 16
1.0
 26
0.0
 36
0.0
 17
0.0
 27
1.0
 37
0.0
 76
0
330
202
345
0
346
0
  0
LAYOUT
  5
34B
102
{ACAD_REACTORS
330
1A
102
}
100
AcDbPlotSettings
  1

  2
none_device
  4
ANSI_C_(22.00_x_17.00_Inches)
  6

 40
0.0
 41
0.0
 42
0.0
 43
0.0
 44
558.8
 45
431.8
 46
0.0
 47
0.0
 48
0.0
 49
0.0
140
0.0
141
0.0
142
1.0
143
1.0
 70
0
 72
0
 73
0
 74
0
  7

 75
0
147
1.0
148
0.0
149
0.0
100
AcDbLayout
  1
Layout1
 70
0
 71
1
 10
0.0
 20
0.0
 11
22.0
 21
17.0
 12
0.0
 22
0.0
 32
0.0
 14
0.0
 24
0.0
 34
0.0
 15
0.0
 25
0.0
 35
0.0
146
0.0
 13
0.0
 23
0.0
 33
0.0
 16
1.0
 26
0.0
 36
0.0
 17
0.0
 27
1.0
 37
0.0
 76
0
330
203
345
0
346
0
  0
ENDSEC
  0
EOF
