999
DXF file: E:\BT Custom\CADOUTPUT\_FRONT.dxf
999
Pro/ENGINEER 2018400 by Parametric Technology Corporation
  0
SECTION
  2
HEADER
  9
$ACADVER
  1
AC1018
  9
$DWGCODEPAGE
  3
ANSI_1252
  9
$EXTMAX
 10
22.0
 20
17.0
 30
0.0
  9
$EXTMIN
 10
0.0
 20
0.0
 30
0.0
  9
$LIMMIN
 10
0.0
 20
0.0
  9
$LIMMAX
 10
22.0
 20
17.0
  9
$VIEWCTR
 10
11.0
 20
8.5
  9
$VIEWSIZE
 40
17.0
  9
$CLAYER
  8
0
  9
$LTSCALE
 40
1.21
  9
$CELTYPE
  6
BYLAYER
  9
$DIMSCALE
 40
1.0
  9
$DIMASZ
 40
0.1
  9
$DIMEXO
 40
0.0625
  9
$DIMDLI
 40
0.836
  9
$DIMEXE
 40
0.125
  9
$DIMCEN
 40
0.198
  9
$DIMLFAC
 40
1.0
  9
$DIMBLK
  1
_FILLED
  9
$DIMALT
 70
1
  9
$DIMALTD
 70
2
  9
$DIMALTTD
 70
2
  9
$DIMALTF
 40
25.4
  9
$DIMTXT
 40
0.08
  9
$DIMTOL
 70
1
  9
$DIMLIM
 70
0
  9
$DIMTFAC
 40
1.0
  9
$DIMTP
 40
0.001
  9
$DIMTM
 40
0.001
  9
$DIMGAP
 40
0.09
  9
$DIMDSEP
 70
46
  9
$AUNITS
 70
0
  9
$PDMODE
 70
3
  9
$PDSIZE
 40
0.06
  9
$HANDSEED
  5
3E1
  9
$TILEMODE
 70
1
  9
$MEASUREMENT
 70
0
  9
$INSUNITS
 70
1
  0
ENDSEC
  0
SECTION
  2
CLASSES
  0
CLASS
  1
ACDBDICTIONARYWDFLT
  2
AcDbDictionaryWithDefault
  3
AutoCAD 2000
 90
0
 91
1
280
0
281
0
  0
CLASS
  1
ACDBPLACEHOLDER
  2
AcDbPlaceHolder
  3
AutoCAD 2000
 90
0
 91
1
280
0
281
0
  0
CLASS
  1
LAYOUT
  2
AcDbLayout
  3
AutoCAD 2000
 90
0
 91
0
280
0
281
0
  0
ENDSEC
  0
SECTION
  2
TABLES
  0
TABLE
  2
VPORT
  5
8
100
AcDbSymbolTable
 70
2
  0
VPORT
  5
1F4
100
AcDbSymbolTableRecord
100
AcDbViewportTableRecord
  2
*ACTIVE
 70
0
 10
0.0
 20
0.0
 11
1.0
 21
1.0
 12
11.0
 22
8.5
 13
0.0
 23
0.0
 14
1.0
 24
1.0
 15
0.0
 25
0.0
 16
0.0
 26
0.0
 36
1.0
 17
0.0
 27
0.0
 37
0.0
 40
17.0
 41
1.2941176471
 42
50.0
 43
0.0
 44
0.0
 50
0.0
 51
0.0
 71
0
 72
100
 73
1
 74
1
 75
0
 76
0
 77
0
 78
0
  0
ENDTAB
  0
TABLE
  2
LTYPE
  5
5
100
AcDbSymbolTable
 70
6
  0
LTYPE
  5
14
100
AcDbSymbolTableRecord
100
AcDbLinetypeTableRecord
  2
BYBLOCK
 70
0
  3

 72
65
 73
0
 40
0.0
  0
LTYPE
  5
15
100
AcDbSymbolTableRecord
100
AcDbLinetypeTableRecord
  2
BYLAYER
 70
0
  3

 72
65
 73
0
 40
0.0
  0
LTYPE
  5
16
100
AcDbSymbolTableRecord
100
AcDbLinetypeTableRecord
  2
CONTINUOUS
 70
64
  3
Solid line
 72
65
 73
0
 40
0.0
  0
LTYPE
  5
1F5
100
AcDbSymbolTableRecord
100
AcDbLinetypeTableRecord
  2
CENTER
 70
64
  3
____ _ ____ _ ____ _ ____ _ ____ _ ____ _ ____
 72
65
 73
4
 40
0.6
 49
0.375
 74
0
 49
-0.075
 74
0
 49
0.075
 74
0
 49
-0.075
 74
0
  0
LTYPE
  5
1F6
100
AcDbSymbolTableRecord
100
AcDbLinetypeTableRecord
  2
HIDDEN
 70
64
  3
- - - - - - - - - - - - - - - - - - - -
 72
65
 73
2
 40
0.2
 49
0.1
 74
0
 49
-0.1
 74
0
  0
LTYPE
  5
1F7
100
AcDbSymbolTableRecord
100
AcDbLinetypeTableRecord
  2
PHANTOM
 70
64
  3
_____ _ _ _____ _ _ _____ _ _ _____
 72
65
 73
6
 40
0.8
 49
0.45
 74
0
 49
-0.05
 74
0
 49
0.1
 74
0
 49
-0.05
 74
0
 49
0.1
 74
0
 49
-0.05
 74
0
  0
LTYPE
  5
1F8
100
AcDbSymbolTableRecord
100
AcDbLinetypeTableRecord
  2
DOT
 70
64
  3
. . . . . . . . . . . . . . . . . . . .
 72
65
 73
2
 40
0.2
 49
0.1
 74
0
 49
-0.1
 74
0
  0
LTYPE
  5
1F9
100
AcDbSymbolTableRecord
100
AcDbLinetypeTableRecord
  2
DASHED
 70
64
  3
- - - - - - - - - - - - - - - - - - - -
 72
65
 73
2
 40
0.2
 49
0.1
 74
0
 49
-0.1
 74
0
  0
ENDTAB
  0
TABLE
  2
LAYER
  5
2
100
AcDbSymbolTable
 70
36
  0
LAYER
  5
10
100
AcDbSymbolTableRecord
100
AcDbLayerTableRecord
  2
0
 70
0
 62
7
  6
CONTINUOUS
370
-3
390
F
  0
LAYER
  5
1FA
100
AcDbSymbolTableRecord
100
AcDbLayerTableRecord
  2
DEFAULT_1
 70
0
 62
7
  6
CENTER
370
-3
390
F
  0
LAYER
  5
1FB
100
AcDbSymbolTableRecord
100
AcDbLayerTableRecord
  2
DEFAULT_2
 70
0
 62
8
  6
HIDDEN
370
-3
390
F
  0
LAYER
  5
1FC
100
AcDbSymbolTableRecord
100
AcDbLayerTableRecord
  2
DEFAULT_3
 70
0
 62
7
  6
PHANTOM
370
-3
390
F
  0
LAYER
  5
1FD
100
AcDbSymbolTableRecord
100
AcDbLayerTableRecord
  2
ALL_FEATURES
 70
0
 62
7
  6
CONTINUOUS
370
-3
390
F
  0
LAYER
  5
1FE
100
AcDbSymbolTableRecord
100
AcDbLayerTableRecord
  2
AXES_FEATURES
 70
0
 62
7
  6
CONTINUOUS
370
-3
390
F
  0
LAYER
  5
1FF
100
AcDbSymbolTableRecord
100
AcDbLayerTableRecord
  2
DIMENSIONS
 70
0
 62
7
  6
CONTINUOUS
370
-3
390
F
  0
ENDTAB
  0
TABLE
  2
STYLE
  5
3
100
AcDbSymbolTable
 70
1
  0
STYLE
  5
11
100
AcDbSymbolTableRecord
100
AcDbTextStyleTableRecord
  2
STANDARD
 70
0
 40
0.0
 41
0.8
 50
0.0
 71
0
 42
0.2
  3
txt
  4

  0
STYLE
  5
200
100
AcDbSymbolTableRecord
100
AcDbTextStyleTableRecord
  2
TEXTSTYLE_1
 70
0
 40
0.0
 41
0.8
 50
0.0
 71
0
 42
0.2
  3
gdt
  4

  0
ENDTAB
  0
TABLE
  2
VIEW
  5
6
100
AcDbSymbolTable
 70
0
  0
ENDTAB
  0
TABLE
  2
UCS
  5
7
100
AcDbSymbolTable
 70
0
  0
ENDTAB
  0
TABLE
  2
APPID
  5
9
100
AcDbSymbolTable
 70
1
  0
APPID
  5
201
100
AcDbSymbolTableRecord
100
AcDbRegAppTableRecord
  2
ACAD
 70
0
  0
ENDTAB
  0
TABLE
  2
BLOCK_RECORD
  5
1
100
AcDbSymbolTable
 70
0
  0
BLOCK_RECORD
  5
202
100
AcDbSymbolTableRecord
100
AcDbBlockTableRecord
  2
*Model_Space
  0
BLOCK_RECORD
  5
203
100
AcDbSymbolTableRecord
100
AcDbBlockTableRecord
  2
*Paper_Space
  0
BLOCK_RECORD
  5
204
100
AcDbSymbolTableRecord
100
AcDbBlockTableRecord
  2
_FILLED
  0
ENDTAB
  0
TABLE
  2
DIMSTYLE
  5
A
100
AcDbSymbolTable
 70
1
100
AcDbDimStyleTable
 71
0
  0
DIMSTYLE
105
205
100
AcDbSymbolTableRecord
100
AcDbDimStyleTableRecord
  2
STANDARD
 70
0
  3

  4

 40
1.0
 41
0.1
 42
0.0625
 43
0.38
 44
0.125
 45
0.0
 46
0.0
 47
0.001
 48
0.001
140
0.08
141
0.09
142
0.0
143
25.4
144
1.0
145
0.0
146
1.0
147
0.09
 71
1.0
 72
0.0
 73
1
 74
1
 75
0
 76
0
 77
0
 78
4
 79
1
170
1
171
2
172
0
173
0
174
0
175
0
176
0
177
0
178
0
270
2
179
3
271
3
272
3
273
2
274
2
275
0
280
0
281
0
282
0
283
1
284
4
285
0
286
0
287
3
288
0
340
11
278
46
341
204
342
204
343
204
344
204
  0
ENDTAB
  0
ENDSEC
  0
SECTION
  2
BLOCKS
  0
BLOCK
  5
20
100
AcDbEntity
  8
0
100
AcDbBlockBegin
  2
*Model_Space
 70
0
 10
0.0
 20
0.0
 30
0.0
  3
*Model_Space
  1

  0
ENDBLK
  5
21
100
AcDbEntity
  8
0
100
AcDbBlockEnd
  0
BLOCK
  5
1C
100
AcDbEntity
  8
0
100
AcDbBlockBegin
  2
*Paper_Space
 70
0
 10
0.0
 20
0.0
 30
0.0
  3
*Paper_Space
  1

  0
ENDBLK
  5
1D
100
AcDbEntity
  8
0
100
AcDbBlockEnd
  0
BLOCK
  5
206
100
AcDbEntity
  8
0
100
AcDbBlockBegin
  2
_FILLED
 70
64
 10
0.0
 20
0.0
  3
_FILLED
  1

  0
SOLID
  5
207
100
AcDbEntity
  8
0
  6
BYBLOCK
 62
0
100
AcDbTrace
 10
0.0
 20
0.0
 11
-1.0
 21
0.2
 12
-1.0
 22
-0.2
 13
-1.0
 23
-0.2
  0
ENDBLK
  5
208
100
AcDbEntity
  8
0
  6
BYBLOCK
 62
0
100
AcDbBlockEnd
  0
ENDSEC
  0
SECTION
  2
ENTITIES
  0
LINE
  5
209
100
AcDbEntity
  8
0
100
AcDbLine
 62
7
  6
CONTINUOUS
 10
5.5001923427
 20
9.6561695021
 11
5.5001923427
 21
10.0961695021
  0
LINE
  5
20A
100
AcDbEntity
  8
0
100
AcDbLine
 62
9
  6
CONTINUOUS
 10
5.5301923427
 20
10.1261695021
 11
5.5301923427
 21
9.6261695021
  0
LINE
  5
20B
100
AcDbEntity
  8
0
100
AcDbLine
 62
7
  6
CONTINUOUS
 10
5.7426923427
 20
6.8680148681
 11
5.7426923427
 21
6.870226978
  0
LINE
  5
20C
100
AcDbEntity
  8
0
100
AcDbLine
 62
7
  6
CONTINUOUS
 10
5.7426923427
 20
6.8706853943
 11
5.7426923427
 21
6.9711695021
  0
LINE
  5
20D
100
AcDbEntity
  8
0
100
AcDbLine
 62
7
  6
CONTINUOUS
 10
5.7926923427
 20
6.5911695021
 11
5.7926923427
 21
6.7705469247
  0
LINE
  5
20E
100
AcDbEntity
  8
0
100
AcDbLine
 62
9
  6
CONTINUOUS
 10
5.8026923427
 20
7.0011695021
 11
5.8026923428
 21
6.870685355
  0
LINE
  5
20F
100
AcDbEntity
  8
0
100
AcDbLine
 62
9
  6
CONTINUOUS
 10
5.8526923427
 20
6.5911695021
 11
5.8526923846
 21
6.8680148681
  0
LINE
  5
210
100
AcDbEntity
  8
0
100
AcDbLine
 62
7
  6
CONTINUOUS
 10
6.0651923427
 20
7.0111695021
 11
6.0651923427
 21
7.1686695021
  0
LINE
  5
211
100
AcDbEntity
  8
0
100
AcDbLine
 62
9
  6
CONTINUOUS
 10
6.1251923427
 20
7.1986695021
 11
6.1251923427
 21
7.0111695021
  0
LINE
  5
212
100
AcDbEntity
  8
0
100
AcDbLine
 62
9
  6
CONTINUOUS
 10
5.8088277908
 20
6.8439056439
 11
5.8108740345
 21
6.8695968637
  0
LINE
  5
213
100
AcDbEntity
  8
0
100
AcDbLine
 62
7
  6
CONTINUOUS
 10
6.1876923427
 20
7.0011695021
 11
6.1876923427
 21
7.0111695021
  0
LINE
  5
214
100
AcDbEntity
  8
0
100
AcDbLine
 62
9
  6
CONTINUOUS
 10
6.2537133605
 20
7.2234600568
 11
6.2537133605
 21
7.1986695021
  0
LINE
  5
215
100
AcDbEntity
  8
0
100
AcDbLine
 62
7
  6
CONTINUOUS
 10
6.3986923427
 20
8.9797440489
 11
6.3986923427
 21
9.1066695021
  0
LINE
  5
216
100
AcDbEntity
  8
0
100
AcDbLine
 62
9
  6
CONTINUOUS
 10
6.4176923427
 20
7.0111695021
 11
6.4176923427
 21
7.0011695021
  0
LINE
  5
217
100
AcDbEntity
  8
0
100
AcDbLine
 62
9
  6
CONTINUOUS
 10
6.4586923427
 20
9.1366695021
 11
6.4586923428
 21
8.9848738288
  0
LINE
  5
218
100
AcDbEntity
  8
0
100
AcDbLine
 62
9
  6
CONTINUOUS
 10
6.5341923427
 20
9.6261695021
 11
6.5341923427
 21
10.1261695021
  0
LINE
  5
219
100
AcDbEntity
  8
0
100
AcDbLine
 62
9
  6
CONTINUOUS
 10
6.5404468608
 20
8.9797438156
 11
6.5404521678
 21
8.8496311662
  0
LINE
  5
21A
100
AcDbEntity
  8
0
100
AcDbLine
 62
9
  6
CONTINUOUS
 10
6.4586923766
 20
8.984873828
 11
6.4572791489
 21
8.9549698872
  0
LINE
  5
21B
100
AcDbEntity
  8
0
100
AcDbLine
 62
9
  6
CONTINUOUS
 10
5.7980419776
 20
6.8442241091
 11
5.8026923324
 21
6.8706853626
  0
LINE
  5
21C
100
AcDbEntity
  8
0
100
AcDbLine
 62
7
  6
CONTINUOUS
 10
6.5941923427
 20
9.5406327549
 11
6.5941923427
 21
10.1896695021
  0
LINE
  5
21D
100
AcDbEntity
  8
0
100
AcDbLine
 62
9
  6
CONTINUOUS
 10
6.6241923427
 20
10.2196695021
 11
6.6241923427
 21
9.5326695021
  0
LINE
  5
21E
100
AcDbEntity
  8
0
100
AcDbLine
 62
7
  6
CONTINUOUS
 10
6.6251923427
 20
9.1676695021
 11
6.6251923427
 21
9.4726695021
  0
LINE
  5
21F
100
AcDbEntity
  8
0
100
AcDbLine
 62
9
  6
CONTINUOUS
 10
6.6276923427
 20
9.6561695018
 11
6.6276923427
 21
10.0961695023
  0
LINE
  5
220
100
AcDbEntity
  8
0
100
AcDbLine
 62
7
  6
CONTINUOUS
 10
6.6846923427
 20
9.1676695021
 11
6.6846923427
 21
9.1366695021
  0
LINE
  5
221
100
AcDbEntity
  8
0
100
AcDbLine
 62
7
  6
CONTINUOUS
 10
6.6876923427
 20
9.6561695021
 11
6.6876923427
 21
10.0961695021
  0
LINE
  5
222
100
AcDbEntity
  8
0
100
AcDbLine
 62
9
  6
CONTINUOUS
 10
6.7176923427
 20
10.1861695021
 11
6.7176923427
 21
9.5661695021
  0
LINE
  5
223
100
AcDbEntity
  8
0
100
AcDbLine
 62
9
  6
CONTINUOUS
 10
6.7365108327
 20
9.5326695021
 11
6.7365108327
 21
9.5626695021
  0
LINE
  5
224
100
AcDbEntity
  8
0
100
AcDbLine
 62
7
  6
CONTINUOUS
 10
6.4813626182
 20
8.8496304917
 11
6.1946248953
 21
7.2234600568
  0
LINE
  5
225
100
AcDbEntity
  8
0
100
AcDbLine
 62
9
  6
CONTINUOUS
 10
6.2537133604
 20
7.2234600568
 11
6.5404536772
 21
8.8496302295
  0
LWPOLYLINE
  5
226
100
AcDbEntity
  8
0
100
AcDbPolyline
 62
7
  6
CONTINUOUS
 90
4
 70
0
 10
6.5941923427
 20
9.5406327747
 10
6.5960961755
 20
9.5301158711
 10
6.6015500913
 20
9.5209521241
 10
6.6045256818
 20
9.5179783743
  0
LINE
  5
227
100
AcDbEntity
  8
0
100
AcDbLine
 62
9
  6
CONTINUOUS
 10
7.1388738589
 20
9.5626695021
 11
7.1388738589
 21
9.5326695021
  0
LINE
  5
228
100
AcDbEntity
  8
0
100
AcDbLine
 62
9
  6
CONTINUOUS
 10
7.1576923427
 20
9.5661695021
 11
7.1576923427
 21
10.1861695021
  0
LINE
  5
229
100
AcDbEntity
  8
0
100
AcDbLine
 62
7
  6
CONTINUOUS
 10
7.1876923427
 20
10.0961695021
 11
7.1876923427
 21
9.6561695021
  0
LINE
  5
22A
100
AcDbEntity
  8
0
100
AcDbLine
 62
7
  6
CONTINUOUS
 10
7.1906923427
 20
9.1676695021
 11
7.1906923427
 21
9.1366695021
  0
LINE
  5
22B
100
AcDbEntity
  8
0
100
AcDbLine
 62
9
  6
CONTINUOUS
 10
7.2476923427
 20
10.0961695025
 11
7.2476923427
 21
9.656169502
  0
LINE
  5
22C
100
AcDbEntity
  8
0
100
AcDbLine
 62
7
  6
CONTINUOUS
 10
7.2501923427
 20
9.1676695021
 11
7.2501923427
 21
9.4726695021
  0
LINE
  5
22D
100
AcDbEntity
  8
0
100
AcDbLine
 62
9
  6
CONTINUOUS
 10
7.2511923427
 20
9.5326695021
 11
7.2511923427
 21
10.2196695021
  0
LINE
  5
22E
100
AcDbEntity
  8
0
100
AcDbLine
 62
7
  6
CONTINUOUS
 10
7.2811923427
 20
9.5406327275
 11
7.2811923427
 21
10.1896695021
  0
LINE
  5
22F
100
AcDbEntity
  8
0
100
AcDbLine
 62
9
  6
CONTINUOUS
 10
7.3349335865
 20
8.8496311662
 11
7.3349314288
 21
8.9797438156
  0
LINE
  5
230
100
AcDbEntity
  8
0
100
AcDbLine
 62
9
  6
CONTINUOUS
 10
7.3411923427
 20
10.1261695021
 11
7.3411923427
 21
9.6261695021
  0
LINE
  5
231
100
AcDbEntity
  8
0
100
AcDbLine
 62
9
  6
CONTINUOUS
 10
7.3349342534
 20
8.8496310535
 11
7.621671325
 21
7.2234600568
  0
LINE
  5
232
100
AcDbEntity
  8
0
100
AcDbLine
 62
9
  6
CONTINUOUS
 10
7.4166925024
 20
8.9848737818
 11
7.4181026363
 21
8.9549698449
  0
LINE
  5
233
100
AcDbEntity
  8
0
100
AcDbLine
 62
9
  6
CONTINUOUS
 10
7.4166923427
 20
8.9848737754
 11
7.4166923427
 21
9.1366695021
  0
LINE
  5
234
100
AcDbEntity
  8
0
100
AcDbLine
 62
9
  6
CONTINUOUS
 10
7.4576923427
 20
7.0011695021
 11
7.4576923427
 21
7.0111695021
  0
LINE
  5
235
100
AcDbEntity
  8
0
100
AcDbLine
 62
7
  6
CONTINUOUS
 10
7.4766923427
 20
8.9797437488
 11
7.4766923427
 21
9.1066695021
  0
LINE
  5
236
100
AcDbEntity
  8
0
100
AcDbLine
 62
9
  6
CONTINUOUS
 10
7.6216713298
 20
7.1986695021
 11
7.6216713298
 21
7.2234600568
  0
LINE
  5
237
100
AcDbEntity
  8
0
100
AcDbLine
 62
7
  6
CONTINUOUS
 10
7.6876923427
 20
7.0111695021
 11
7.6876923427
 21
7.0011695021
  0
LINE
  5
238
100
AcDbEntity
  8
0
100
AcDbLine
 62
9
  6
CONTINUOUS
 10
7.7501923427
 20
7.0111695021
 11
7.7501923427
 21
7.1986695021
  0
LINE
  5
239
100
AcDbEntity
  8
0
100
AcDbLine
 62
7
  6
CONTINUOUS
 10
7.6807597902
 20
7.2234600568
 11
7.3940214202
 21
8.8496341616
  0
LINE
  5
23A
100
AcDbEntity
  8
0
100
AcDbLine
 62
9
  6
CONTINUOUS
 10
8.0773424788
 20
6.8442241583
 11
8.072692406
 21
6.8706853991
  0
LINE
  5
23B
100
AcDbEntity
  8
0
100
AcDbLine
 62
9
  6
CONTINUOUS
 10
8.066558059
 20
6.8439057061
 11
8.064510919
 21
6.8695968804
  0
LINE
  5
23C
100
AcDbEntity
  8
0
100
AcDbLine
 62
7
  6
CONTINUOUS
 10
7.8101923427
 20
7.1686695021
 11
7.8101923427
 21
7.0111695021
  0
LINE
  5
23D
100
AcDbEntity
  8
0
100
AcDbLine
 62
9
  6
CONTINUOUS
 10
8.0226923427
 20
6.5911695021
 11
8.02269241
 21
6.8680148681
  0
LINE
  5
23E
100
AcDbEntity
  8
0
100
AcDbLine
 62
9
  6
CONTINUOUS
 10
8.0726923425
 20
6.8706853943
 11
8.0726923427
 21
7.0011695021
  0
LINE
  5
23F
100
AcDbEntity
  8
0
100
AcDbLine
 62
7
  6
CONTINUOUS
 10
8.0826923427
 20
6.7705469247
 11
8.0826923427
 21
6.5911695021
  0
LINE
  5
240
100
AcDbEntity
  8
0
100
AcDbLine
 62
7
  6
CONTINUOUS
 10
8.1326923427
 20
6.8680148681
 11
8.1326923427
 21
6.9711695021
  0
LINE
  5
241
100
AcDbEntity
  8
0
100
AcDbLine
 62
9
  6
CONTINUOUS
 10
8.3451923427
 20
9.6261695021
 11
8.3451923427
 21
10.1261695021
  0
LINE
  5
242
100
AcDbEntity
  8
0
100
AcDbLine
 62
7
  6
CONTINUOUS
 10
8.3751923427
 20
10.0961695021
 11
8.3751923427
 21
9.6561695021
  0
LINE
  5
243
100
AcDbEntity
  8
0
100
AcDbLine
 62
7
  6
CONTINUOUS
 10
5.7926923427
 20
6.5911695021
 11
8.0826923427
 21
6.5911695021
  0
LINE
  5
244
100
AcDbEntity
  8
0
100
AcDbLine
 62
7
  6
CONTINUOUS
 10
9.9251923427
 20
6.5911695021
 11
11.9501923427
 21
6.5911695021
  0
LINE
  5
245
100
AcDbEntity
  8
0
100
AcDbLine
 62
7
  6
CONTINUOUS
 10
13.7926923427
 20
6.5911695021
 11
16.0826923427
 21
6.5911695021
  0
LINE
  5
246
100
AcDbEntity
  8
0
100
AcDbLine
 62
9
  6
CONTINUOUS
 10
16.0226923427
 20
6.7705469247
 11
13.8526923427
 21
6.7705469247
  0
LINE
  5
247
100
AcDbEntity
  8
0
100
AcDbLine
 62
9
  6
CONTINUOUS
 10
8.0226923427
 20
6.7705469247
 11
5.8526923427
 21
6.7705469247
  0
LINE
  5
248
100
AcDbEntity
  8
0
100
AcDbLine
 62
9
  6
CONTINUOUS
 10
11.9501923427
 20
6.8401369698
 11
11.6344325794
 21
6.8401369698
  0
LINE
  5
249
100
AcDbEntity
  8
0
100
AcDbLine
 62
9
  6
CONTINUOUS
 10
10.240952106
 20
6.8401369698
 11
9.9251923427
 21
6.8401369698
  0
LINE
  5
24A
100
AcDbEntity
  8
0
100
AcDbLine
 62
9
  6
CONTINUOUS
 10
16.02269241
 20
6.843647882
 11
13.8526923846
 21
6.843647882
  0
LINE
  5
24B
100
AcDbEntity
  8
0
100
AcDbLine
 62
9
  6
CONTINUOUS
 10
8.02269241
 20
6.843647882
 11
5.8526923846
 21
6.843647882
  0
LINE
  5
24C
100
AcDbEntity
  8
0
100
AcDbLine
 62
9
  6
CONTINUOUS
 10
5.8526923985
 20
6.8680148681
 11
8.0226922817
 21
6.8680148681
  0
LINE
  5
24D
100
AcDbEntity
  8
0
100
AcDbLine
 62
9
  6
CONTINUOUS
 10
13.8526923985
 20
6.8680148681
 11
16.0226922817
 21
6.8680148681
  0
LINE
  5
24E
100
AcDbEntity
  8
0
100
AcDbLine
 62
7
  6
CONTINUOUS
 10
11.9126923427
 20
6.9111695021
 11
11.5924278532
 21
6.9111695021
  0
LINE
  5
24F
100
AcDbEntity
  8
0
100
AcDbLine
 62
7
  6
CONTINUOUS
 10
10.2829568323
 20
6.9111695021
 11
9.9626923427
 21
6.9111695021
  0
LINE
  5
250
100
AcDbEntity
  8
0
100
AcDbLine
 62
9
  6
CONTINUOUS
 10
16.1326923427
 20
6.9711695021
 11
13.7426923427
 21
6.9711695021
  0
LINE
  5
251
100
AcDbEntity
  8
0
100
AcDbLine
 62
9
  6
CONTINUOUS
 10
8.1326923427
 20
6.9711695021
 11
5.7426923427
 21
6.9711695021
  0
LINE
  5
252
100
AcDbEntity
  8
0
100
AcDbLine
 62
7
  6
CONTINUOUS
 10
5.7726923427
 20
7.0011695021
 11
8.1026923427
 21
7.0011695021
  0
LINE
  5
253
100
AcDbEntity
  8
0
100
AcDbLine
 62
7
  6
CONTINUOUS
 10
13.7726923427
 20
7.0011695021
 11
16.1026923427
 21
7.0011695021
  0
LINE
  5
254
100
AcDbEntity
  8
0
100
AcDbLine
 62
7
  6
CONTINUOUS
 10
6.0651923427
 20
7.0111695021
 11
7.8101923427
 21
7.0111695021
  0
LINE
  5
255
100
AcDbEntity
  8
0
100
AcDbLine
 62
7
  6
CONTINUOUS
 10
14.0651923427
 20
7.0111695021
 11
15.8101923427
 21
7.0111695021
  0
LINE
  5
256
100
AcDbEntity
  8
0
100
AcDbLine
 62
7
  6
CONTINUOUS
 10
11.4326923427
 20
7.0911695021
 11
10.4426923427
 21
7.0911695021
  0
LINE
  5
257
100
AcDbEntity
  8
0
100
AcDbLine
 62
9
  6
CONTINUOUS
 10
15.8101923427
 20
7.1686695021
 11
14.0651923427
 21
7.1686695021
  0
LINE
  5
258
100
AcDbEntity
  8
0
100
AcDbLine
 62
9
  6
CONTINUOUS
 10
7.8101923427
 20
7.1686695021
 11
6.0651923427
 21
7.1686695021
  0
LINE
  5
259
100
AcDbEntity
  8
0
100
AcDbLine
 62
9
  6
CONTINUOUS
 10
11.4001923427
 20
7.1711695021
 11
10.4751923427
 21
7.1711695021
  0
LINE
  5
25A
100
AcDbEntity
  8
0
100
AcDbLine
 62
7
  6
CONTINUOUS
 10
6.0951923427
 20
7.1986695021
 11
7.7801923427
 21
7.1986695021
  0
LINE
  5
25B
100
AcDbEntity
  8
0
100
AcDbLine
 62
7
  6
CONTINUOUS
 10
14.0951923427
 20
7.1986695021
 11
15.7801923427
 21
7.1986695021
  0
LINE
  5
25C
100
AcDbEntity
  8
0
100
AcDbLine
 62
9
  6
CONTINUOUS
 10
6.2537133604
 20
7.2234600568
 11
7.621671325
 21
7.2234600568
  0
LINE
  5
25D
100
AcDbEntity
  8
0
100
AcDbLine
 62
9
  6
CONTINUOUS
 10
14.2537133604
 20
7.2234600568
 11
15.621671325
 21
7.2234600568
  0
LINE
  5
25E
100
AcDbEntity
  8
0
100
AcDbLine
 62
9
  6
CONTINUOUS
 10
10.5104042555
 20
7.3352720659
 11
11.3649804299
 21
7.3352720659
  0
LINE
  5
25F
100
AcDbEntity
  8
0
100
AcDbLine
 62
7
  6
CONTINUOUS
 10
11.3558607285
 20
7.3411695021
 11
10.51952844
 21
7.3411695021
  0
LINE
  5
260
100
AcDbEntity
  8
0
100
AcDbLine
 62
9
  6
CONTINUOUS
 10
11.3126923427
 20
7.4011695021
 11
10.5626923427
 21
7.4011695021
  0
LINE
  5
261
100
AcDbEntity
  8
0
100
AcDbLine
 62
7
  6
CONTINUOUS
 10
10.6026923427
 20
7.4411695021
 11
11.2726923427
 21
7.4411695021
  0
LINE
  5
262
100
AcDbEntity
  8
0
100
AcDbLine
 62
9
  6
CONTINUOUS
 10
10.2295001484
 20
7.7519146465
 11
11.6458845371
 21
7.7519146465
  0
LINE
  5
263
100
AcDbEntity
  8
0
100
AcDbLine
 62
9
  6
CONTINUOUS
 10
10.2808217394
 20
7.8945102752
 11
11.5945629461
 21
7.8945102752
  0
LINE
  5
264
100
AcDbEntity
  8
0
100
AcDbLine
 62
7
  6
CONTINUOUS
 10
9.8723147386
 20
11.0591695021
 11
9.8723147386
 21
11.6691695021
  0
LINE
  5
265
100
AcDbEntity
  8
0
100
AcDbLine
 62
7
  6
CONTINUOUS
 10
9.9251923427
 20
6.8401369698
 11
9.9251923427
 21
6.5911695021
  0
LINE
  5
266
100
AcDbEntity
  8
0
100
AcDbLine
 62
7
  6
CONTINUOUS
 10
10.0703899294
 20
11.0591695021
 11
10.0703899294
 21
11.6691695021
  0
LINE
  5
267
100
AcDbEntity
  8
0
100
AcDbLine
 62
7
  6
CONTINUOUS
 10
10.1776923427
 20
10.693430271
 11
10.1776923427
 21
10.1340026499
  0
LINE
  5
268
100
AcDbEntity
  8
0
100
AcDbLine
 62
7
  6
CONTINUOUS
 10
10.2983232992
 20
11.0591695021
 11
10.2983232992
 21
11.6691695021
  0
LINE
  5
269
100
AcDbEntity
  8
0
100
AcDbLine
 62
7
  6
CONTINUOUS
 10
10.4751923427
 20
7.0911695021
 11
10.4751923427
 21
7.1711695021
  0
LINE
  5
26A
100
AcDbEntity
  8
0
100
AcDbLine
 62
7
  6
CONTINUOUS
 10
10.5626923427
 20
7.3411695021
 11
10.5626923427
 21
7.4011695021
  0
LINE
  5
26B
100
AcDbEntity
  8
0
100
AcDbLine
 62
7
  6
CONTINUOUS
 10
10.3621034099
 20
10.0591695021
 11
10.2808217394
 21
7.8945102752
  0
LINE
  5
26C
100
AcDbEntity
  8
0
100
AcDbLine
 62
7
  6
CONTINUOUS
 10
11.9276923427
 20
10.969602573
 11
11.7261611127
 21
10.7633107627
  0
LINE
  5
26D
100
AcDbEntity
  8
0
100
AcDbLine
 62
9
  6
CONTINUOUS
 10
7.3349342534
 20
8.8496310535
 11
6.5404536772
 21
8.8496302295
  0
LINE
  5
26E
100
AcDbEntity
  8
0
100
AcDbLine
 62
9
  6
CONTINUOUS
 10
15.3349315493
 20
8.8496300067
 11
14.5404494299
 21
8.8496340243
  0
LINE
  5
26F
100
AcDbEntity
  8
0
100
AcDbLine
 62
9
  6
CONTINUOUS
 10
10.6026923427
 20
7.4411695021
 11
10.6026923427
 21
7.3411695021
  0
LINE
  5
270
100
AcDbEntity
  8
0
100
AcDbLine
 62
7
  6
CONTINUOUS
 10
10.7765191113
 20
11.0591695021
 11
10.7765191113
 21
11.6691695021
  0
LINE
  5
271
100
AcDbEntity
  8
0
100
AcDbLine
 62
9
  6
CONTINUOUS
 10
6.5404521678
 20
8.9511228716
 11
7.3349335865
 21
8.9511228716
  0
LINE
  5
272
100
AcDbEntity
  8
0
100
AcDbLine
 62
9
  6
CONTINUOUS
 10
14.5404499168
 20
8.9511228862
 11
15.3349321806
 21
8.9511228862
  0
LINE
  5
273
100
AcDbEntity
  8
0
100
AcDbLine
 62
9
  6
CONTINUOUS
 10
14.5404529588
 20
8.9797437507
 11
15.3349368012
 21
8.9797440257
  0
LINE
  5
274
100
AcDbEntity
  8
0
100
AcDbLine
 62
9
  6
CONTINUOUS
 10
6.5404469704
 20
8.979743912
 11
7.3349314073
 21
8.9797437193
  0
LINE
  5
275
100
AcDbEntity
  8
0
100
AcDbLine
 62
9
  6
CONTINUOUS
 10
15.4766923427
 20
9.1066695021
 11
14.3986923427
 21
9.1066695021
  0
LINE
  5
276
100
AcDbEntity
  8
0
100
AcDbLine
 62
9
  6
CONTINUOUS
 10
7.4766923427
 20
9.1066695021
 11
6.3986923427
 21
9.1066695021
  0
LINE
  5
277
100
AcDbEntity
  8
0
100
AcDbLine
 62
7
  6
CONTINUOUS
 10
6.4286923427
 20
9.1366695021
 11
7.4466923427
 21
9.1366695021
  0
LINE
  5
278
100
AcDbEntity
  8
0
100
AcDbLine
 62
7
  6
CONTINUOUS
 10
14.4286923427
 20
9.1366695021
 11
15.4466923427
 21
9.1366695021
  0
LINE
  5
279
100
AcDbEntity
  8
0
100
AcDbLine
 62
7
  6
CONTINUOUS
 10
6.6251923427
 20
9.1676695021
 11
7.2501923427
 21
9.1676695021
  0
LINE
  5
27A
100
AcDbEntity
  8
0
100
AcDbLine
 62
7
  6
CONTINUOUS
 10
14.6251923427
 20
9.1676695021
 11
15.2501923427
 21
9.1676695021
  0
LINE
  5
27B
100
AcDbEntity
  8
0
100
AcDbLine
 62
7
  6
CONTINUOUS
 10
11.0988655742
 20
11.0591695021
 11
11.0988655742
 21
11.6691695021
  0
LINE
  5
27C
100
AcDbEntity
  8
0
100
AcDbLine
 62
9
  6
CONTINUOUS
 10
11.2726923427
 20
7.3411695021
 11
11.2726923427
 21
7.4411695021
  0
LINE
  5
27D
100
AcDbEntity
  8
0
100
AcDbLine
 62
7
  6
CONTINUOUS
 10
11.3126923427
 20
7.4011695021
 11
11.3126923427
 21
7.3411695021
  0
LINE
  5
27E
100
AcDbEntity
  8
0
100
AcDbLine
 62
9
  6
CONTINUOUS
 10
15.2501923427
 20
9.4726695021
 11
14.6251923427
 21
9.4726695021
  0
LINE
  5
27F
100
AcDbEntity
  8
0
100
AcDbLine
 62
9
  6
CONTINUOUS
 10
7.2501923427
 20
9.4726695021
 11
6.6251923427
 21
9.4726695021
  0
LINE
  5
280
100
AcDbEntity
  8
0
100
AcDbLine
 62
7
  6
CONTINUOUS
 10
15.2511923427
 20
9.5326695021
 11
15.1388738528
 21
9.5326695021
  0
LINE
  5
281
100
AcDbEntity
  8
0
100
AcDbLine
 62
7
  6
CONTINUOUS
 10
14.7365108326
 20
9.5326695021
 11
14.6241923427
 21
9.5326695021
  0
LINE
  5
282
100
AcDbEntity
  8
0
100
AcDbLine
 62
7
  6
CONTINUOUS
 10
7.2511923427
 20
9.5326695021
 11
7.1388738528
 21
9.5326695021
  0
LINE
  5
283
100
AcDbEntity
  8
0
100
AcDbLine
 62
7
  6
CONTINUOUS
 10
6.7365108326
 20
9.5326695021
 11
6.6241923427
 21
9.5326695021
  0
LINE
  5
284
100
AcDbEntity
  8
0
100
AcDbLine
 62
9
  6
CONTINUOUS
 10
6.5941923427
 20
9.5626695021
 11
6.7365108327
 21
9.5626695021
  0
LINE
  5
285
100
AcDbEntity
  8
0
100
AcDbLine
 62
9
  6
CONTINUOUS
 10
7.1388738528
 20
9.5626695021
 11
7.2811923427
 21
9.5626695021
  0
LINE
  5
286
100
AcDbEntity
  8
0
100
AcDbLine
 62
9
  6
CONTINUOUS
 10
14.5941923427
 20
9.5626695021
 11
14.7365108324
 21
9.5626695021
  0
LINE
  5
287
100
AcDbEntity
  8
0
100
AcDbLine
 62
9
  6
CONTINUOUS
 10
15.1388738528
 20
9.5626695021
 11
15.2811923427
 21
9.5626695021
  0
LINE
  5
288
100
AcDbEntity
  8
0
100
AcDbLine
 62
9
  6
CONTINUOUS
 10
15.1576923429
 20
9.5661695021
 11
14.7176923424
 21
9.5661695021
  0
LINE
  5
289
100
AcDbEntity
  8
0
100
AcDbLine
 62
9
  6
CONTINUOUS
 10
7.1576923431
 20
9.5661695021
 11
6.7176923425
 21
9.5661695021
  0
LINE
  5
28A
100
AcDbEntity
  8
0
100
AcDbLine
 62
7
  6
CONTINUOUS
 10
16.3451923427
 20
9.6261695021
 11
15.3411923427
 21
9.6261695021
  0
LINE
  5
28B
100
AcDbEntity
  8
0
100
AcDbLine
 62
7
  6
CONTINUOUS
 10
15.1576923427
 20
9.6261695021
 11
14.7176923427
 21
9.6261695021
  0
LINE
  5
28C
100
AcDbEntity
  8
0
100
AcDbLine
 62
7
  6
CONTINUOUS
 10
14.5341923427
 20
9.6261695021
 11
13.5301923427
 21
9.6261695021
  0
LINE
  5
28D
100
AcDbEntity
  8
0
100
AcDbLine
 62
7
  6
CONTINUOUS
 10
8.3451923427
 20
9.6261695021
 11
7.3411923427
 21
9.6261695021
  0
LINE
  5
28E
100
AcDbEntity
  8
0
100
AcDbLine
 62
7
  6
CONTINUOUS
 10
7.1576923427
 20
9.6261695021
 11
6.7176923427
 21
9.6261695021
  0
LINE
  5
28F
100
AcDbEntity
  8
0
100
AcDbLine
 62
7
  6
CONTINUOUS
 10
6.5341923427
 20
9.6261695021
 11
5.5301923427
 21
9.6261695021
  0
LINE
  5
290
100
AcDbEntity
  8
0
100
AcDbLine
 62
9
  6
CONTINUOUS
 10
5.5001923427
 20
9.6561695021
 11
6.5941923427
 21
9.6561695021
  0
LINE
  5
291
100
AcDbEntity
  8
0
100
AcDbLine
 62
9
  6
CONTINUOUS
 10
6.6276923427
 20
9.6561695021
 11
7.2476923427
 21
9.6561695021
  0
LINE
  5
292
100
AcDbEntity
  8
0
100
AcDbLine
 62
9
  6
CONTINUOUS
 10
7.2811923427
 20
9.6561695021
 11
8.3751923427
 21
9.6561695021
  0
LINE
  5
293
100
AcDbEntity
  8
0
100
AcDbLine
 62
9
  6
CONTINUOUS
 10
13.5001923427
 20
9.6561695021
 11
14.5941923427
 21
9.6561695021
  0
LINE
  5
294
100
AcDbEntity
  8
0
100
AcDbLine
 62
9
  6
CONTINUOUS
 10
14.6276923427
 20
9.6561695021
 11
15.2476923427
 21
9.6561695021
  0
LINE
  5
295
100
AcDbEntity
  8
0
100
AcDbLine
 62
9
  6
CONTINUOUS
 10
15.2811923427
 20
9.6561695021
 11
16.3751923427
 21
9.6561695021
  0
LINE
  5
296
100
AcDbEntity
  8
0
100
AcDbLine
 62
7
  6
CONTINUOUS
 10
11.5132812755
 20
10.0591695021
 11
11.5945629461
 21
7.8945102752
  0
LINE
  5
297
100
AcDbEntity
  8
0
100
AcDbLine
 62
7
  6
CONTINUOUS
 10
11.4001923427
 20
7.0911695021
 11
11.4001923427
 21
7.1711695021
  0
LINE
  5
298
100
AcDbEntity
  8
0
100
AcDbLine
 62
7
  6
CONTINUOUS
 10
11.5770613863
 20
11.0591695021
 11
11.5770613863
 21
11.6691695021
  0
LINE
  5
299
100
AcDbEntity
  8
0
100
AcDbLine
 62
7
  6
CONTINUOUS
 10
11.6976923427
 20
10.693430271
 11
11.6976923427
 21
10.1340026499
  0
LINE
  5
29A
100
AcDbEntity
  8
0
100
AcDbLine
 62
7
  6
CONTINUOUS
 10
10.1976923427
 20
10.0591695021
 11
11.6776923427
 21
10.0591695021
  0
LINE
  5
29B
100
AcDbEntity
  8
0
100
AcDbLine
 62
9
  6
CONTINUOUS
 10
16.3751923427
 20
10.0961695021
 11
15.2811923427
 21
10.0961695021
  0
LINE
  5
29C
100
AcDbEntity
  8
0
100
AcDbLine
 62
9
  6
CONTINUOUS
 10
15.2476923427
 20
10.0961695021
 11
14.6276923427
 21
10.0961695021
  0
LINE
  5
29D
100
AcDbEntity
  8
0
100
AcDbLine
 62
9
  6
CONTINUOUS
 10
14.5941923427
 20
10.0961695021
 11
13.5001923427
 21
10.0961695021
  0
LINE
  5
29E
100
AcDbEntity
  8
0
100
AcDbLine
 62
9
  6
CONTINUOUS
 10
8.3751923427
 20
10.0961695021
 11
7.2811923427
 21
10.0961695021
  0
LINE
  5
29F
100
AcDbEntity
  8
0
100
AcDbLine
 62
9
  6
CONTINUOUS
 10
7.2476923427
 20
10.0961695021
 11
6.6276923427
 21
10.0961695021
  0
LINE
  5
2A0
100
AcDbEntity
  8
0
100
AcDbLine
 62
9
  6
CONTINUOUS
 10
6.5941923427
 20
10.0961695021
 11
5.5001923427
 21
10.0961695021
  0
LINE
  5
2A1
100
AcDbEntity
  8
0
100
AcDbLine
 62
7
  6
CONTINUOUS
 10
5.5301923427
 20
10.1261695021
 11
6.5341923427
 21
10.1261695021
  0
LINE
  5
2A2
100
AcDbEntity
  8
0
100
AcDbLine
 62
7
  6
CONTINUOUS
 10
6.7176923427
 20
10.1261695021
 11
7.1576923427
 21
10.1261695021
  0
LINE
  5
2A3
100
AcDbEntity
  8
0
100
AcDbLine
 62
7
  6
CONTINUOUS
 10
7.3411923427
 20
10.1261695021
 11
8.3451923427
 21
10.1261695021
  0
LINE
  5
2A4
100
AcDbEntity
  8
0
100
AcDbLine
 62
7
  6
CONTINUOUS
 10
13.5301923427
 20
10.1261695021
 11
14.5341923427
 21
10.1261695021
  0
LINE
  5
2A5
100
AcDbEntity
  8
0
100
AcDbLine
 62
7
  6
CONTINUOUS
 10
14.7176923427
 20
10.1261695021
 11
15.1576923427
 21
10.1261695021
  0
LINE
  5
2A6
100
AcDbEntity
  8
0
100
AcDbLine
 62
7
  6
CONTINUOUS
 10
15.3411923427
 20
10.1261695021
 11
16.3451923427
 21
10.1261695021
  0
LINE
  5
2A7
100
AcDbEntity
  8
0
100
AcDbLine
 62
7
  6
CONTINUOUS
 10
9.9476923427
 20
10.969602573
 11
10.1492235728
 21
10.7633107627
  0
LINE
  5
2A8
100
AcDbEntity
  8
0
100
AcDbLine
 62
7
  6
CONTINUOUS
 10
11.8049947561
 20
11.0591695021
 11
11.8049947561
 21
11.6691695021
  0
LINE
  5
2A9
100
AcDbEntity
  8
0
100
AcDbLine
 62
7
  6
CONTINUOUS
 10
11.9501923427
 20
6.8401369698
 11
11.9501923427
 21
6.5911695021
  0
LINE
  5
2AA
100
AcDbEntity
  8
0
100
AcDbLine
 62
7
  6
CONTINUOUS
 10
12.0030699469
 20
11.0591695021
 11
12.0030699469
 21
11.6691695021
  0
LINE
  5
2AB
100
AcDbEntity
  8
0
100
AcDbLine
 62
9
  6
CONTINUOUS
 10
10.1776923427
 20
10.1340026499
 11
11.6976923427
 21
10.1340026499
  0
LINE
  5
2AC
100
AcDbEntity
  8
0
100
AcDbLine
 62
9
  6
CONTINUOUS
 10
6.7176923424
 20
10.1861695021
 11
7.1576923429
 21
10.1861695021
  0
LINE
  5
2AD
100
AcDbEntity
  8
0
100
AcDbLine
 62
9
  6
CONTINUOUS
 10
14.7176923425
 20
10.1861695021
 11
15.1576923431
 21
10.1861695021
  0
LINE
  5
2AE
100
AcDbEntity
  8
0
100
AcDbLine
 62
9
  6
CONTINUOUS
 10
15.2811923427
 20
10.1896695021
 11
14.5941923427
 21
10.1896695021
  0
LINE
  5
2AF
100
AcDbEntity
  8
0
100
AcDbLine
 62
9
  6
CONTINUOUS
 10
7.2811923427
 20
10.1896695021
 11
6.5941923427
 21
10.1896695021
  0
LINE
  5
2B0
100
AcDbEntity
  8
0
100
AcDbLine
 62
7
  6
CONTINUOUS
 10
6.6241923427
 20
10.2196695021
 11
7.2511923427
 21
10.2196695021
  0
LINE
  5
2B1
100
AcDbEntity
  8
0
100
AcDbLine
 62
7
  6
CONTINUOUS
 10
14.6241923427
 20
10.2196695021
 11
15.2511923427
 21
10.2196695021
  0
LINE
  5
2B2
100
AcDbEntity
  8
0
100
AcDbLine
 62
9
  6
CONTINUOUS
 10
11.6976923427
 20
10.693430271
 11
10.1777068276
 21
10.693430271
  0
LINE
  5
2B3
100
AcDbEntity
  8
0
100
AcDbLine
 62
9
  6
CONTINUOUS
 10
10.1492235728
 20
10.7633107627
 11
11.7261611127
 21
10.7633107627
  0
LINE
  5
2B4
100
AcDbEntity
  8
0
100
AcDbLine
 62
7
  6
CONTINUOUS
 10
9.8723147386
 20
11.0591695021
 11
10.0703899294
 21
11.0591695021
  0
LINE
  5
2B5
100
AcDbEntity
  8
0
100
AcDbLine
 62
7
  6
CONTINUOUS
 10
10.2983232992
 20
11.0591695021
 11
10.7765191113
 21
11.0591695021
  0
LINE
  5
2B6
100
AcDbEntity
  8
0
100
AcDbLine
 62
7
  6
CONTINUOUS
 10
11.0988655742
 20
11.0591695021
 11
11.5770613863
 21
11.0591695021
  0
LINE
  5
2B7
100
AcDbEntity
  8
0
100
AcDbLine
 62
7
  6
CONTINUOUS
 10
11.8049947561
 20
11.0591695021
 11
12.0030699469
 21
11.0591695021
  0
LINE
  5
2B8
100
AcDbEntity
  8
0
100
AcDbLine
 62
9
  6
CONTINUOUS
 10
12.0030699469
 20
11.6691695021
 11
11.8049947561
 21
11.6691695021
  0
LINE
  5
2B9
100
AcDbEntity
  8
0
100
AcDbLine
 62
9
  6
CONTINUOUS
 10
11.5770613863
 20
11.6691695021
 11
11.0988655742
 21
11.6691695021
  0
LINE
  5
2BA
100
AcDbEntity
  8
0
100
AcDbLine
 62
9
  6
CONTINUOUS
 10
10.7765191113
 20
11.6691695021
 11
10.2983232992
 21
11.6691695021
  0
LINE
  5
2BB
100
AcDbEntity
  8
0
100
AcDbLine
 62
9
  6
CONTINUOUS
 10
10.0703899294
 20
11.6691695021
 11
9.8723147386
 21
11.6691695021
  0
LINE
  5
2BC
100
AcDbEntity
  8
0
100
AcDbLine
 62
7
  6
CONTINUOUS
 10
13.5001923427
 20
9.6561695021
 11
13.5001923427
 21
10.0961695021
  0
LINE
  5
2BD
100
AcDbEntity
  8
0
100
AcDbLine
 62
9
  6
CONTINUOUS
 10
13.5301923427
 20
10.1261695021
 11
13.5301923427
 21
9.6261695021
  0
LINE
  5
2BE
100
AcDbEntity
  8
0
100
AcDbLine
 62
7
  6
CONTINUOUS
 10
13.7426923427
 20
6.8680148681
 11
13.7426923427
 21
6.870226978
  0
LINE
  5
2BF
100
AcDbEntity
  8
0
100
AcDbLine
 62
7
  6
CONTINUOUS
 10
13.7426923427
 20
6.8706853943
 11
13.7426923427
 21
6.9711695021
  0
LINE
  5
2C0
100
AcDbEntity
  8
0
100
AcDbLine
 62
7
  6
CONTINUOUS
 10
13.7926923427
 20
6.5911695021
 11
13.7926923427
 21
6.7705469247
  0
LINE
  5
2C1
100
AcDbEntity
  8
0
100
AcDbLine
 62
9
  6
CONTINUOUS
 10
13.8026923427
 20
7.0011695021
 11
13.8026923428
 21
6.870685355
  0
LINE
  5
2C2
100
AcDbEntity
  8
0
100
AcDbLine
 62
7
  6
CONTINUOUS
 10
11.8651923427
 20
11.8191695021
 11
10.0101923427
 21
11.8191695021
  0
LINE
  5
2C3
100
AcDbEntity
  8
0
100
AcDbLine
 62
9
  6
CONTINUOUS
 10
10.0285559097
 20
11.8791695021
 11
11.8468287758
 21
11.8791695021
  0
LINE
  5
2C4
100
AcDbEntity
  8
0
100
AcDbLine
 62
9
  6
CONTINUOUS
 10
13.8526923427
 20
6.5911695021
 11
13.8526923846
 21
6.8680148681
  0
LINE
  5
2C5
100
AcDbEntity
  8
0
100
AcDbLine
 62
7
  6
CONTINUOUS
 10
14.0651923427
 20
7.0111695021
 11
14.0651923427
 21
7.1686695021
  0
LINE
  5
2C6
100
AcDbEntity
  8
0
100
AcDbLine
 62
9
  6
CONTINUOUS
 10
14.1251923427
 20
7.1986695021
 11
14.1251923427
 21
7.0111695021
  0
LINE
  5
2C7
100
AcDbEntity
  8
0
100
AcDbLine
 62
7
  6
CONTINUOUS
 10
14.1876923427
 20
7.0011695021
 11
14.1876923427
 21
7.0111695021
  0
LINE
  5
2C8
100
AcDbEntity
  8
0
100
AcDbLine
 62
9
  6
CONTINUOUS
 10
13.8088277908
 20
6.8439056439
 11
13.8108740345
 21
6.8695968637
  0
LINE
  5
2C9
100
AcDbEntity
  8
0
100
AcDbLine
 62
9
  6
CONTINUOUS
 10
13.7980419776
 20
6.8442241091
 11
13.8026923324
 21
6.8706853626
  0
LWPOLYLINE
  5
2CA
100
AcDbEntity
  8
0
100
AcDbPolyline
 62
7
  6
CONTINUOUS
 90
4
 70
0
 10
15.2708590037
 20
9.5179783743
 10
15.2738345942
 20
9.5209521241
 10
15.2792885099
 20
9.5301158711
 10
15.2811923427
 20
9.5406327747
  0
LINE
  5
2CB
100
AcDbEntity
  8
0
100
AcDbLine
 62
9
  6
CONTINUOUS
 10
14.2537133605
 20
7.2234600568
 11
14.2537133605
 21
7.1986695021
  0
LINE
  5
2CC
100
AcDbEntity
  8
0
100
AcDbLine
 62
7
  6
CONTINUOUS
 10
14.3986923427
 20
8.9797437488
 11
14.3986923427
 21
9.1066695021
  0
LINE
  5
2CD
100
AcDbEntity
  8
0
100
AcDbLine
 62
9
  6
CONTINUOUS
 10
14.4176923427
 20
7.0111695021
 11
14.4176923427
 21
7.0011695021
  0
LINE
  5
2CE
100
AcDbEntity
  8
0
100
AcDbLine
 62
9
  6
CONTINUOUS
 10
14.4586923427
 20
9.1366695021
 11
14.4586923428
 21
8.9848750161
  0
LINE
  5
2CF
100
AcDbEntity
  8
0
100
AcDbLine
 62
9
  6
CONTINUOUS
 10
14.5341923427
 20
9.6261695021
 11
14.5341923427
 21
10.1261695021
  0
LINE
  5
2D0
100
AcDbEntity
  8
0
100
AcDbLine
 62
9
  6
CONTINUOUS
 10
14.540453205
 20
8.9797438882
 11
14.5404499168
 21
8.8496311662
  0
LINE
  5
2D1
100
AcDbEntity
  8
0
100
AcDbLine
 62
7
  6
CONTINUOUS
 10
14.5941923427
 20
9.5406327275
 11
14.5941923427
 21
10.1896695021
  0
LINE
  5
2D2
100
AcDbEntity
  8
0
100
AcDbLine
 62
9
  6
CONTINUOUS
 10
14.6241923427
 20
10.2196695021
 11
14.6241923427
 21
9.5326695021
  0
LINE
  5
2D3
100
AcDbEntity
  8
0
100
AcDbLine
 62
7
  6
CONTINUOUS
 10
14.6251923427
 20
9.1676695021
 11
14.6251923427
 21
9.4726695021
  0
LINE
  5
2D4
100
AcDbEntity
  8
0
100
AcDbLine
 62
9
  6
CONTINUOUS
 10
14.6276923427
 20
9.656169502
 11
14.6276923427
 21
10.0961695025
  0
LINE
  5
2D5
100
AcDbEntity
  8
0
100
AcDbLine
 62
9
  6
CONTINUOUS
 10
14.4586923804
 20
8.9848750152
 11
14.4572842553
 21
8.9549710847
  0
LINE
  5
2D6
100
AcDbEntity
  8
0
100
AcDbLine
 62
7
  6
CONTINUOUS
 10
14.4813626744
 20
8.8496308105
 11
14.1946248953
 21
7.2234600568
  0
LINE
  5
2D7
100
AcDbEntity
  8
0
100
AcDbLine
 62
9
  6
CONTINUOUS
 10
14.2537133604
 20
7.2234600568
 11
14.5404494299
 21
8.8496340243
  0
LINE
  5
2D8
100
AcDbEntity
  8
0
100
AcDbLine
 62
7
  6
CONTINUOUS
 10
14.6846923427
 20
9.1676695021
 11
14.6846923427
 21
9.1366695021
  0
LINE
  5
2D9
100
AcDbEntity
  8
0
100
AcDbLine
 62
7
  6
CONTINUOUS
 10
14.6876923427
 20
9.6561695021
 11
14.6876923427
 21
10.0961695021
  0
LINE
  5
2DA
100
AcDbEntity
  8
0
100
AcDbLine
 62
9
  6
CONTINUOUS
 10
14.7176923427
 20
10.1861695021
 11
14.7176923427
 21
9.5661695021
  0
LINE
  5
2DB
100
AcDbEntity
  8
0
100
AcDbLine
 62
9
  6
CONTINUOUS
 10
14.7365110532
 20
9.5326695021
 11
14.7365110532
 21
9.5626695021
  0
LINE
  5
2DC
100
AcDbEntity
  8
0
100
AcDbLine
 62
9
  6
CONTINUOUS
 10
14.9376977123
 20
9.5179783191
 11
14.9376973953
 21
9.5406328677
  0
LINE
  5
2DD
100
AcDbEntity
  8
0
100
AcDbLine
 62
9
  6
CONTINUOUS
 10
15.4166919857
 20
8.9848748436
 11
15.4181062854
 21
8.9549709149
  0
LINE
  5
2DE
100
AcDbEntity
  8
0
100
AcDbLine
 62
9
  6
CONTINUOUS
 10
15.1388738528
 20
9.5626695021
 11
15.1388738528
 21
9.5326695021
  0
LINE
  5
2DF
100
AcDbEntity
  8
0
100
AcDbLine
 62
9
  6
CONTINUOUS
 10
15.1576923427
 20
9.5661695021
 11
15.1576923427
 21
10.1861695021
  0
LINE
  5
2E0
100
AcDbEntity
  8
0
100
AcDbLine
 62
7
  6
CONTINUOUS
 10
15.1876923427
 20
10.0961695021
 11
15.1876923427
 21
9.6561695021
  0
LINE
  5
2E1
100
AcDbEntity
  8
0
100
AcDbLine
 62
7
  6
CONTINUOUS
 10
15.1906923427
 20
9.1676695021
 11
15.1906923427
 21
9.1366695021
  0
LINE
  5
2E2
100
AcDbEntity
  8
0
100
AcDbLine
 62
9
  6
CONTINUOUS
 10
15.2476923427
 20
10.0961695023
 11
15.2476923427
 21
9.6561695018
  0
LINE
  5
2E3
100
AcDbEntity
  8
0
100
AcDbLine
 62
7
  6
CONTINUOUS
 10
15.2501923427
 20
9.1676695021
 11
15.2501923427
 21
9.4726695021
  0
LINE
  5
2E4
100
AcDbEntity
  8
0
100
AcDbLine
 62
9
  6
CONTINUOUS
 10
15.2511923427
 20
9.5326695021
 11
15.2511923427
 21
10.2196695021
  0
LINE
  5
2E5
100
AcDbEntity
  8
0
100
AcDbLine
 62
7
  6
CONTINUOUS
 10
15.2811923427
 20
9.5406327549
 11
15.2811923427
 21
10.1896695021
  0
LINE
  5
2E6
100
AcDbEntity
  8
0
100
AcDbLine
 62
9
  6
CONTINUOUS
 10
15.3349370205
 20
8.9797438882
 11
15.3349321806
 21
8.8496311662
  0
LINE
  5
2E7
100
AcDbEntity
  8
0
100
AcDbLine
 62
9
  6
CONTINUOUS
 10
15.3411923427
 20
10.1261695021
 11
15.3411923427
 21
9.6261695021
  0
LINE
  5
2E8
100
AcDbEntity
  8
0
100
AcDbLine
 62
9
  6
CONTINUOUS
 10
15.4166923427
 20
8.9848748581
 11
15.4166923427
 21
9.1366695021
  0
LINE
  5
2E9
100
AcDbEntity
  8
0
100
AcDbLine
 62
9
  6
CONTINUOUS
 10
15.3349315493
 20
8.8496300067
 11
15.621671325
 21
7.2234600568
  0
LINE
  5
2EA
100
AcDbEntity
  8
0
100
AcDbLine
 62
7
  6
CONTINUOUS
 10
15.6807597902
 20
7.2234600568
 11
15.3940221394
 21
8.8496300828
  0
LINE
  5
2EB
100
AcDbEntity
  8
0
100
AcDbLine
 62
9
  6
CONTINUOUS
 10
15.4576923427
 20
7.0011695021
 11
15.4576923427
 21
7.0111695021
  0
LINE
  5
2EC
100
AcDbEntity
  8
0
100
AcDbLine
 62
7
  6
CONTINUOUS
 10
15.4766923427
 20
8.9797440231
 11
15.4766923427
 21
9.1066695021
  0
LINE
  5
2ED
100
AcDbEntity
  8
0
100
AcDbLine
 62
9
  6
CONTINUOUS
 10
15.6216713298
 20
7.1986695021
 11
15.6216713298
 21
7.2234600568
  0
LINE
  5
2EE
100
AcDbEntity
  8
0
100
AcDbLine
 62
7
  6
CONTINUOUS
 10
15.6876923427
 20
7.0111695021
 11
15.6876923427
 21
7.0011695021
  0
LINE
  5
2EF
100
AcDbEntity
  8
0
100
AcDbLine
 62
9
  6
CONTINUOUS
 10
15.7501923427
 20
7.0111695021
 11
15.7501923427
 21
7.1986695021
  0
LINE
  5
2F0
100
AcDbEntity
  8
0
100
AcDbLine
 62
7
  6
CONTINUOUS
 10
15.8101923427
 20
7.1686695021
 11
15.8101923427
 21
7.0111695021
  0
LINE
  5
2F1
100
AcDbEntity
  8
0
100
AcDbLine
 62
9
  6
CONTINUOUS
 10
16.0773424788
 20
6.8442241583
 11
16.072692406
 21
6.8706853991
  0
LINE
  5
2F2
100
AcDbEntity
  8
0
100
AcDbLine
 62
9
  6
CONTINUOUS
 10
16.066558059
 20
6.8439057061
 11
16.064510919
 21
6.8695968804
  0
LINE
  5
2F3
100
AcDbEntity
  8
0
100
AcDbLine
 62
9
  6
CONTINUOUS
 10
16.0226923427
 20
6.5911695021
 11
16.02269241
 21
6.8680148681
  0
LINE
  5
2F4
100
AcDbEntity
  8
0
100
AcDbLine
 62
9
  6
CONTINUOUS
 10
16.0726923425
 20
6.8706853943
 11
16.0726923427
 21
7.0011695021
  0
LINE
  5
2F5
100
AcDbEntity
  8
0
100
AcDbLine
 62
7
  6
CONTINUOUS
 10
16.0826923427
 20
6.7705469247
 11
16.0826923427
 21
6.5911695021
  0
LINE
  5
2F6
100
AcDbEntity
  8
0
100
AcDbLine
 62
7
  6
CONTINUOUS
 10
16.1326923427
 20
6.8680148681
 11
16.1326923427
 21
6.9711695021
  0
LINE
  5
2F7
100
AcDbEntity
  8
0
100
AcDbLine
 62
9
  6
CONTINUOUS
 10
16.3451923427
 20
9.6261695021
 11
16.3451923427
 21
10.1261695021
  0
LINE
  5
2F8
100
AcDbEntity
  8
0
100
AcDbLine
 62
7
  6
CONTINUOUS
 10
16.3751923427
 20
10.0961695021
 11
16.3751923427
 21
9.6561695021
  0
ARC
  5
2F9
100
AcDbEntity
  8
0
100
AcDbCircle
 62
7
  6
CONTINUOUS
 10
5.7026923427
 20
6.7705469247
 40
0.09
100
AcDbArc
 50
0.0
 51
54.3146649845
  0
ARC
  5
2FA
100
AcDbEntity
  8
0
100
AcDbCircle
 62
7
  6
CONTINUOUS
 10
8.1726923427
 20
6.7705469247
 40
0.09
100
AcDbArc
 50
125.6853350155
 51
180.0
  0
ARC
  5
2FB
100
AcDbEntity
  8
0
100
AcDbCircle
 62
7
  6
CONTINUOUS
 10
5.7726923427
 20
6.8680148681
 40
0.03
100
AcDbArc
 50
180.0
 51
234.3146661957
  0
ARC
  5
2FC
100
AcDbEntity
  8
0
100
AcDbCircle
 62
7
  6
CONTINUOUS
 10
8.1026923427
 20
6.8680148681
 40
0.03
100
AcDbArc
 50
305.6853338043
 51
360.0
  0
ARC
  5
2FD
100
AcDbEntity
  8
0
100
AcDbCircle
 62
7
  6
CONTINUOUS
 10
8.1026923427
 20
6.9711695021
 40
0.03
100
AcDbArc
 50
0.0
 51
90.0
  0
ARC
  5
2FE
100
AcDbEntity
  8
0
100
AcDbCircle
 62
7
  6
CONTINUOUS
 10
5.7726923427
 20
6.9711695021
 40
0.03
100
AcDbArc
 50
90.0
 51
180.0
  0
ARC
  5
2FF
100
AcDbEntity
  8
0
100
AcDbCircle
 62
9
  6
CONTINUOUS
 10
8.1044391256
 20
6.8707387263
 40
0.0282542994
100
AcDbArc
 50
354.5925901037
 51
357.7487351119
  0
ARC
  5
300
100
AcDbEntity
  8
0
100
AcDbCircle
 62
9
  6
CONTINUOUS
 10
5.7709176521
 20
6.8707388528
 40
0.0282263952
100
AcDbArc
 50
182.2537586373
 51
185.4130925104
  0
ARC
  5
301
100
AcDbEntity
  8
0
100
AcDbCircle
 62
9
  6
CONTINUOUS
 10
8.1055950748
 20
6.8706884562
 40
0.0270972681
100
AcDbArc
 50
357.7589341085
 51
359.9934586837
  0
ARC
  5
302
100
AcDbEntity
  8
0
100
AcDbCircle
 62
9
  6
CONTINUOUS
 10
5.769761698
 20
6.8706884968
 40
0.0270693555
100
AcDbArc
 50
180.0065566704
 51
182.2434746203
  0
ARC
  5
303
100
AcDbEntity
  8
0
100
AcDbCircle
 62
7
  6
CONTINUOUS
 10
7.7103040228
 20
7.2286695021
 40
0.03
100
AcDbArc
 50
189.9999999983
 51
270.0
  0
ARC
  5
304
100
AcDbEntity
  8
0
100
AcDbCircle
 62
7
  6
CONTINUOUS
 10
6.1650806627
 20
7.2286695021
 40
0.03
100
AcDbArc
 50
270.0
 51
350.0000000017
  0
ARC
  5
305
100
AcDbEntity
  8
0
100
AcDbCircle
 62
7
  6
CONTINUOUS
 10
6.0951923427
 20
7.1686695021
 40
0.03
100
AcDbArc
 50
90.0
 51
180.0000000002
  0
ARC
  5
306
100
AcDbEntity
  8
0
100
AcDbCircle
 62
7
  6
CONTINUOUS
 10
7.7801923427
 20
7.1686695021
 40
0.03
100
AcDbArc
 50
0.0
 51
90.0
  0
ARC
  5
307
100
AcDbEntity
  8
0
100
AcDbCircle
 62
7
  6
CONTINUOUS
 10
10.6136723347
 20
6.9616374993
 40
1.3
100
AcDbArc
 50
357.7751307226
 51
37.4382104157
  0
ARC
  5
308
100
AcDbEntity
  8
0
100
AcDbCircle
 62
7
  6
CONTINUOUS
 10
10.8464719365
 20
6.4082744624
 40
0.9
100
AcDbArc
 50
11.7251268757
 51
49.3560828237
  0
ARC
  5
309
100
AcDbEntity
  8
0
100
AcDbCircle
 62
7
  6
CONTINUOUS
 10
10.0112172848
 20
6.8401369698
 40
0.0860249421
100
AcDbArc
 50
124.338423378
 51
180.0
  0
ARC
  5
30A
100
AcDbEntity
  8
0
100
AcDbCircle
 62
7
  6
CONTINUOUS
 10
10.8751923427
 20
7.1711695021
 40
0.4
100
AcDbArc
 50
155.7790569454
 51
180.0
  0
ARC
  5
30B
100
AcDbEntity
  8
0
100
AcDbCircle
 62
7
  6
CONTINUOUS
 10
10.0309977979
 20
7.9038910159
 40
0.25
100
AcDbArc
 50
322.5617910347
 51
357.8495877782
  0
ARC
  5
30C
100
AcDbEntity
  8
0
100
AcDbCircle
 62
7
  6
CONTINUOUS
 10
10.6026923427
 20
7.4011695021
 40
0.04
100
AcDbArc
 50
90.0
 51
180.0
  0
ARC
  5
30D
100
AcDbEntity
  8
0
100
AcDbCircle
 62
7
  6
CONTINUOUS
 10
10.5195239579
 20
7.3311695021
 40
0.01
100
AcDbArc
 50
90.0000052638
 51
155.7790590688
  0
ARC
  5
30E
100
AcDbEntity
  8
0
100
AcDbCircle
 62
7
  6
CONTINUOUS
 10
6.3927300393
 20
8.8652595021
 40
0.09
100
AcDbArc
 50
350.0
 51
72.5612501748
  0
ARC
  5
30F
100
AcDbEntity
  8
0
100
AcDbCircle
 62
7
  6
CONTINUOUS
 10
6.5651923427
 20
9.4726695021
 40
0.06
100
AcDbArc
 50
0.0
 51
49.0382420891
  0
ARC
  5
310
100
AcDbEntity
  8
0
100
AcDbCircle
 62
7
  6
CONTINUOUS
 10
6.4286923427
 20
9.1066695021
 40
0.03
100
AcDbArc
 50
90.0
 51
180.0
  0
ARC
  5
311
100
AcDbEntity
  8
0
100
AcDbCircle
 62
7
  6
CONTINUOUS
 10
6.4286923427
 20
8.9797440545
 40
0.03
100
AcDbArc
 50
180.0000353986
 51
252.5612637656
  0
ARC
  5
312
100
AcDbEntity
  8
0
100
AcDbCircle
 62
9
  6
CONTINUOUS
 10
6.4286826182
 20
8.9849020296
 40
0.0299920204
100
AcDbArc
 50
180.0513924342
 51
266.3120291657
  0
ARC
  5
313
100
AcDbEntity
  8
0
100
AcDbCircle
 62
7
  6
CONTINUOUS
 10
6.5341923427
 20
9.5661695021
 40
0.06
100
AcDbArc
 50
0.0000000107
 51
90.0
  0
ARC
  5
314
100
AcDbEntity
  8
0
100
AcDbCircle
 62
7
  6
CONTINUOUS
 10
6.5341923427
 20
10.1861695021
 40
0.06
100
AcDbArc
 50
270.0
 51
359.9999999893
  0
ARC
  5
315
100
AcDbEntity
  8
0
100
AcDbCircle
 62
7
  6
CONTINUOUS
 10
5.5301923427
 20
9.6561695021
 40
0.03
100
AcDbArc
 50
180.0
 51
270.0
  0
ARC
  5
316
100
AcDbEntity
  8
0
100
AcDbCircle
 62
7
  6
CONTINUOUS
 10
5.5301923427
 20
10.0961695021
 40
0.03
100
AcDbArc
 50
90.0
 51
180.0
  0
ARC
  5
317
100
AcDbEntity
  8
0
100
AcDbCircle
 62
7
  6
CONTINUOUS
 10
6.6241923427
 20
10.1896695021
 40
0.03
100
AcDbArc
 50
90.0
 51
180.0
  0
ARC
  5
318
100
AcDbEntity
  8
0
100
AcDbCircle
 62
7
  6
CONTINUOUS
 10
6.6241923427
 20
9.5626695021
 40
0.03
100
AcDbArc
 50
180.0
 51
270.0
  0
ARC
  5
319
100
AcDbEntity
  8
0
100
AcDbCircle
 62
7
  6
CONTINUOUS
 10
7.7763594905
 20
9.2187570236
 40
2.7892913962
100
AcDbArc
 50
38.8808295053
 51
41.2856606311
  0
ARC
  5
31A
100
AcDbEntity
  8
0
100
AcDbCircle
 62
7
  6
CONTINUOUS
 10
7.4826546461
 20
8.8652595021
 40
0.09
100
AcDbArc
 50
107.4388507291
 51
190.0
  0
ARC
  5
31B
100
AcDbEntity
  8
0
100
AcDbCircle
 62
7
  6
CONTINUOUS
 10
7.3101923427
 20
9.4726695021
 40
0.06
100
AcDbArc
 50
130.9617885268
 51
180.0
  0
ARC
  5
31C
100
AcDbEntity
  8
0
100
AcDbCircle
 62
7
  6
CONTINUOUS
 10
7.4466923427
 20
9.1066695021
 40
0.03
100
AcDbArc
 50
0.0
 51
90.0
  0
ARC
  5
31D
100
AcDbEntity
  8
0
100
AcDbCircle
 62
7
  6
CONTINUOUS
 10
7.4466923427
 20
8.9797440545
 40
0.03
100
AcDbArc
 50
287.4387362344
 51
359.9994160165
  0
ARC
  5
31E
100
AcDbEntity
  8
0
100
AcDbCircle
 62
9
  6
CONTINUOUS
 10
7.4467019064
 20
8.9849017254
 40
0.0299921364
100
AcDbArc
 50
273.6946802187
 51
359.9488941222
  0
ARC
  5
31F
100
AcDbEntity
  8
0
100
AcDbCircle
 62
9
  6
CONTINUOUS
 10
6.7176923427
 20
10.0961695021
 40
0.09
100
AcDbArc
 50
90.0000002049
 51
179.999999878
  0
ARC
  5
320
100
AcDbEntity
  8
0
100
AcDbCircle
 62
9
  6
CONTINUOUS
 10
6.7176923427
 20
9.6561695021
 40
0.09
100
AcDbArc
 50
180.0000002049
 51
269.999999878
  0
ARC
  5
321
100
AcDbEntity
  8
0
100
AcDbCircle
 62
9
  6
CONTINUOUS
 10
7.1576923427
 20
9.6561695021
 40
0.09
100
AcDbArc
 50
270.0000002049
 51
359.999999878
  0
ARC
  5
322
100
AcDbEntity
  8
0
100
AcDbCircle
 62
9
  6
CONTINUOUS
 10
7.1576923427
 20
10.0961695021
 40
0.09
100
AcDbArc
 50
0.0000002049
 51
89.999999878
  0
ARC
  5
323
100
AcDbEntity
  8
0
100
AcDbCircle
 62
7
  6
CONTINUOUS
 10
7.3411923427
 20
10.1861695021
 40
0.06
100
AcDbArc
 50
180.0000000108
 51
270.0
  0
ARC
  5
324
100
AcDbEntity
  8
0
100
AcDbCircle
 62
7
  6
CONTINUOUS
 10
7.3411923427
 20
9.5661695021
 40
0.06
100
AcDbArc
 50
90.0
 51
179.9999999892
  0
ARC
  5
325
100
AcDbEntity
  8
0
100
AcDbCircle
 62
7
  6
CONTINUOUS
 10
7.2511394876
 20
9.5406618145
 40
0.0300540526
100
AcDbArc
 50
311.001524993
 51
359.9455370105
  0
ARC
  5
326
100
AcDbEntity
  8
0
100
AcDbCircle
 62
7
  6
CONTINUOUS
 10
7.2511923427
 20
10.1896695021
 40
0.03
100
AcDbArc
 50
0.0
 51
90.0
  0
ARC
  5
327
100
AcDbEntity
  8
0
100
AcDbCircle
 62
7
  6
CONTINUOUS
 10
7.2511923427
 20
9.5626695021
 40
0.03
100
AcDbArc
 50
269.9999999927
 51
360.0
  0
ARC
  5
328
100
AcDbEntity
  8
0
100
AcDbCircle
 62
7
  6
CONTINUOUS
 10
6.7176923427
 20
9.6561695021
 40
0.03
100
AcDbArc
 50
180.0
 51
269.9999999837
  0
ARC
  5
329
100
AcDbEntity
  8
0
100
AcDbCircle
 62
7
  6
CONTINUOUS
 10
7.1576923427
 20
9.6561695021
 40
0.03
100
AcDbArc
 50
270.0
 51
359.9999999837
  0
ARC
  5
32A
100
AcDbEntity
  8
0
100
AcDbCircle
 62
7
  6
CONTINUOUS
 10
7.1576923427
 20
10.0961695021
 40
0.03
100
AcDbArc
 50
0.0
 51
89.9999999837
  0
ARC
  5
32B
100
AcDbEntity
  8
0
100
AcDbCircle
 62
7
  6
CONTINUOUS
 10
6.7176923427
 20
10.0961695021
 40
0.03
100
AcDbArc
 50
90.0
 51
179.9999999837
  0
ARC
  5
32C
100
AcDbEntity
  8
0
100
AcDbCircle
 62
7
  6
CONTINUOUS
 10
10.3276923427
 20
10.1340026499
 40
0.15
100
AcDbArc
 50
180.0
 51
209.9264348665
  0
ARC
  5
32D
100
AcDbEntity
  8
0
100
AcDbCircle
 62
7
  6
CONTINUOUS
 10
8.3451923427
 20
9.6561695021
 40
0.03
100
AcDbArc
 50
270.0
 51
360.0
  0
ARC
  5
32E
100
AcDbEntity
  8
0
100
AcDbCircle
 62
7
  6
CONTINUOUS
 10
8.3451923427
 20
10.0961695021
 40
0.03
100
AcDbArc
 50
0.0
 51
90.0
  0
ARC
  5
32F
100
AcDbEntity
  8
0
100
AcDbCircle
 62
7
  6
CONTINUOUS
 10
10.0101923427
 20
11.6691695021
 40
0.15
100
AcDbArc
 50
90.0
 51
114.6243183522
  0
ARC
  5
330
100
AcDbEntity
  8
0
100
AcDbCircle
 62
7
  6
CONTINUOUS
 10
10.0776923427
 20
10.693430271
 40
0.1
100
AcDbArc
 50
0.0
 51
44.3312008135
  0
ARC
  5
331
100
AcDbEntity
  8
0
100
AcDbCircle
 62
7
  6
CONTINUOUS
 10
10.0328456949
 20
11.8493228543
 40
0.0301533521
100
AcDbArc
 50
98.1789688979
 51
270.0
  0
ARC
  5
332
100
AcDbEntity
  8
0
100
AcDbCircle
 62
7
  6
CONTINUOUS
 10
10.9376923427
 20
5.553753703
 40
6.3904157991
100
AcDbArc
 50
81.821031102
 51
98.178968898
  0
ARC
  5
333
100
AcDbEntity
  8
0
100
AcDbCircle
 62
7
  6
CONTINUOUS
 10
11.028912749
 20
6.4082744624
 40
0.9
100
AcDbArc
 50
130.6439171763
 51
168.2748731243
  0
ARC
  5
334
100
AcDbEntity
  8
0
100
AcDbCircle
 62
7
  6
CONTINUOUS
 10
11.2617123508
 20
6.9616374993
 40
1.3
100
AcDbArc
 50
142.5617895843
 51
182.2248692774
  0
ARC
  5
335
100
AcDbEntity
  8
0
100
AcDbCircle
 62
7
  6
CONTINUOUS
 10
11.0001923427
 20
7.1711695021
 40
0.4
100
AcDbArc
 50
0.0
 51
24.2209430546
  0
ARC
  5
336
100
AcDbEntity
  8
0
100
AcDbCircle
 62
7
  6
CONTINUOUS
 10
11.8443868875
 20
7.9038910159
 40
0.25
100
AcDbArc
 50
182.1504122218
 51
217.4382089653
  0
ARC
  5
337
100
AcDbEntity
  8
0
100
AcDbCircle
 62
7
  6
CONTINUOUS
 10
11.8641674007
 20
6.8401369698
 40
0.0860249421
100
AcDbArc
 50
0.0
 51
55.661576622
  0
ARC
  5
338
100
AcDbEntity
  8
0
100
AcDbCircle
 62
7
  6
CONTINUOUS
 10
11.2726923427
 20
7.4011695021
 40
0.04
100
AcDbArc
 50
0.0
 51
90.0
  0
ARC
  5
339
100
AcDbEntity
  8
0
100
AcDbCircle
 62
7
  6
CONTINUOUS
 10
11.3558607276
 20
7.3311695021
 40
0.01
100
AcDbArc
 50
24.2209409311
 51
89.9999947362
  0
ARC
  5
33A
100
AcDbEntity
  8
0
100
AcDbCircle
 62
7
  6
CONTINUOUS
 10
16.1726923427
 20
6.7705469247
 40
0.09
100
AcDbArc
 50
125.6853350155
 51
180.0
  0
ARC
  5
33B
100
AcDbEntity
  8
0
100
AcDbCircle
 62
7
  6
CONTINUOUS
 10
13.7026923427
 20
6.7705469247
 40
0.09
100
AcDbArc
 50
0.0
 51
54.3146649845
  0
ARC
  5
33C
100
AcDbEntity
  8
0
100
AcDbCircle
 62
7
  6
CONTINUOUS
 10
14.1650806627
 20
7.2286695021
 40
0.03
100
AcDbArc
 50
270.0
 51
350.0000000017
  0
ARC
  5
33D
100
AcDbEntity
  8
0
100
AcDbCircle
 62
7
  6
CONTINUOUS
 10
15.7103040228
 20
7.2286695021
 40
0.03
100
AcDbArc
 50
189.9999999983
 51
270.0
  0
ARC
  5
33E
100
AcDbEntity
  8
0
100
AcDbCircle
 62
7
  6
CONTINUOUS
 10
14.0951923427
 20
7.1686695021
 40
0.03
100
AcDbArc
 50
90.0
 51
180.0000000002
  0
ARC
  5
33F
100
AcDbEntity
  8
0
100
AcDbCircle
 62
7
  6
CONTINUOUS
 10
15.7801923427
 20
7.1686695021
 40
0.03
100
AcDbArc
 50
0.0
 51
90.0
  0
ARC
  5
340
100
AcDbEntity
  8
0
100
AcDbCircle
 62
7
  6
CONTINUOUS
 10
16.1026923427
 20
6.8680148681
 40
0.03
100
AcDbArc
 50
305.6853338043
 51
360.0
  0
ARC
  5
341
100
AcDbEntity
  8
0
100
AcDbCircle
 62
7
  6
CONTINUOUS
 10
13.7726923427
 20
6.8680148681
 40
0.03
100
AcDbArc
 50
180.0
 51
234.3146661957
  0
ARC
  5
342
100
AcDbEntity
  8
0
100
AcDbCircle
 62
7
  6
CONTINUOUS
 10
13.7726923427
 20
6.9711695021
 40
0.03
100
AcDbArc
 50
90.0
 51
180.0
  0
ARC
  5
343
100
AcDbEntity
  8
0
100
AcDbCircle
 62
7
  6
CONTINUOUS
 10
16.1026923427
 20
6.9711695021
 40
0.03
100
AcDbArc
 50
0.0
 51
90.0
  0
ARC
  5
344
100
AcDbEntity
  8
0
100
AcDbCircle
 62
9
  6
CONTINUOUS
 10
16.1044391256
 20
6.8707387263
 40
0.0282542994
100
AcDbArc
 50
354.5925901035
 51
357.748735112
  0
ARC
  5
345
100
AcDbEntity
  8
0
100
AcDbCircle
 62
9
  6
CONTINUOUS
 10
13.7709176521
 20
6.8707388528
 40
0.0282263952
100
AcDbArc
 50
182.2537586373
 51
185.4130925104
  0
ARC
  5
346
100
AcDbEntity
  8
0
100
AcDbCircle
 62
9
  6
CONTINUOUS
 10
16.1055950748
 20
6.8706884562
 40
0.0270972681
100
AcDbArc
 50
357.7589341082
 51
359.9934586838
  0
ARC
  5
347
100
AcDbEntity
  8
0
100
AcDbCircle
 62
9
  6
CONTINUOUS
 10
13.769761698
 20
6.8706884968
 40
0.0270693555
100
AcDbArc
 50
180.0065566701
 51
182.2434746206
  0
ARC
  5
348
100
AcDbEntity
  8
0
100
AcDbCircle
 62
7
  6
CONTINUOUS
 10
11.5476923427
 20
10.1340026499
 40
0.15
100
AcDbArc
 50
330.0735651335
 51
360.0
  0
ARC
  5
349
100
AcDbEntity
  8
0
100
AcDbCircle
 62
7
  6
CONTINUOUS
 10
13.5301923427
 20
9.6561695021
 40
0.03
100
AcDbArc
 50
180.0
 51
270.0
  0
ARC
  5
34A
100
AcDbEntity
  8
0
100
AcDbCircle
 62
7
  6
CONTINUOUS
 10
13.5301923427
 20
10.0961695021
 40
0.03
100
AcDbArc
 50
90.0
 51
180.0
  0
ARC
  5
34B
100
AcDbEntity
  8
0
100
AcDbCircle
 62
7
  6
CONTINUOUS
 10
11.8651923427
 20
11.6691695021
 40
0.15
100
AcDbArc
 50
65.3756816478
 51
90.0
  0
ARC
  5
34C
100
AcDbEntity
  8
0
100
AcDbCircle
 62
7
  6
CONTINUOUS
 10
11.7976923427
 20
10.693430271
 40
0.1
100
AcDbArc
 50
135.6687991865
 51
180.0
  0
ARC
  5
34D
100
AcDbEntity
  8
0
100
AcDbCircle
 62
7
  6
CONTINUOUS
 10
11.8425389906
 20
11.8493228543
 40
0.0301533521
100
AcDbArc
 50
270.0
 51
81.8210311021
  0
ARC
  5
34E
100
AcDbEntity
  8
0
100
AcDbCircle
 62
7
  6
CONTINUOUS
 10
14.0990266983
 20
9.2187557584
 40
2.7892933607
100
AcDbArc
 50
138.7143402159
 51
141.1191696477
  0
ARC
  5
34F
100
AcDbEntity
  8
0
100
AcDbCircle
 62
7
  6
CONTINUOUS
 10
14.3927300393
 20
8.8652595021
 40
0.09
100
AcDbArc
 50
350.0
 51
72.5611492709
  0
ARC
  5
350
100
AcDbEntity
  8
0
100
AcDbCircle
 62
7
  6
CONTINUOUS
 10
14.5651923427
 20
9.4726695021
 40
0.06
100
AcDbArc
 50
0.0
 51
49.0382114732
  0
ARC
  5
351
100
AcDbEntity
  8
0
100
AcDbCircle
 62
7
  6
CONTINUOUS
 10
14.4286923427
 20
9.1066695021
 40
0.03
100
AcDbArc
 50
90.0
 51
180.0
  0
ARC
  5
352
100
AcDbEntity
  8
0
100
AcDbCircle
 62
7
  6
CONTINUOUS
 10
14.4286923427
 20
8.9797440545
 40
0.03
100
AcDbArc
 50
180.0005839835
 51
252.5612637656
  0
ARC
  5
353
100
AcDbEntity
  8
0
100
AcDbCircle
 62
9
  6
CONTINUOUS
 10
14.4286826791
 20
8.9849005464
 40
0.0299920769
100
AcDbArc
 50
180.0513001785
 51
266.3094754134
  0
ARC
  5
354
100
AcDbEntity
  8
0
100
AcDbCircle
 62
9
  6
CONTINUOUS
 10
14.7176923427
 20
10.0961695021
 40
0.09
100
AcDbArc
 50
90.000000122
 51
179.9999997949
  0
ARC
  5
355
100
AcDbEntity
  8
0
100
AcDbCircle
 62
9
  6
CONTINUOUS
 10
14.7176923427
 20
9.6561695021
 40
0.09
100
AcDbArc
 50
180.000000122
 51
269.9999997949
  0
ARC
  5
356
100
AcDbEntity
  8
0
100
AcDbCircle
 62
9
  6
CONTINUOUS
 10
15.1576923427
 20
9.6561695021
 40
0.09
100
AcDbArc
 50
270.000000122
 51
359.9999997949
  0
ARC
  5
357
100
AcDbEntity
  8
0
100
AcDbCircle
 62
9
  6
CONTINUOUS
 10
15.1576923427
 20
10.0961695021
 40
0.09
100
AcDbArc
 50
0.000000122
 51
89.9999997949
  0
ARC
  5
358
100
AcDbEntity
  8
0
100
AcDbCircle
 62
7
  6
CONTINUOUS
 10
14.5341923427
 20
9.5661695021
 40
0.06
100
AcDbArc
 50
0.0000000108
 51
90.0
  0
ARC
  5
359
100
AcDbEntity
  8
0
100
AcDbCircle
 62
7
  6
CONTINUOUS
 10
14.5341923427
 20
10.1861695021
 40
0.06
100
AcDbArc
 50
270.0
 51
359.9999999892
  0
ARC
  5
35A
100
AcDbEntity
  8
0
100
AcDbCircle
 62
7
  6
CONTINUOUS
 10
14.6242452064
 20
9.5406618175
 40
0.0300540622
100
AcDbArc
 50
180.0544688815
 51
228.9984666293
  0
ARC
  5
35B
100
AcDbEntity
  8
0
100
AcDbCircle
 62
7
  6
CONTINUOUS
 10
15.1576923427
 20
9.6561695021
 40
0.03
100
AcDbArc
 50
270.0000000164
 51
360.0
  0
ARC
  5
35C
100
AcDbEntity
  8
0
100
AcDbCircle
 62
7
  6
CONTINUOUS
 10
15.1576923427
 20
10.0961695021
 40
0.03
100
AcDbArc
 50
0.0000000164
 51
90.0
  0
ARC
  5
35D
100
AcDbEntity
  8
0
100
AcDbCircle
 62
7
  6
CONTINUOUS
 10
14.7176923427
 20
10.0961695021
 40
0.03
100
AcDbArc
 50
90.0000000164
 51
180.0
  0
ARC
  5
35E
100
AcDbEntity
  8
0
100
AcDbCircle
 62
7
  6
CONTINUOUS
 10
14.7176923427
 20
9.6561695021
 40
0.03
100
AcDbArc
 50
180.0000000164
 51
270.0
  0
ARC
  5
35F
100
AcDbEntity
  8
0
100
AcDbCircle
 62
7
  6
CONTINUOUS
 10
14.6241923427
 20
10.1896695021
 40
0.03
100
AcDbArc
 50
90.0
 51
180.0
  0
ARC
  5
360
100
AcDbEntity
  8
0
100
AcDbCircle
 62
7
  6
CONTINUOUS
 10
14.6241923427
 20
9.5626695021
 40
0.03
100
AcDbArc
 50
180.0
 51
270.0000000071
  0
ARC
  5
361
100
AcDbEntity
  8
0
100
AcDbCircle
 62
7
  6
CONTINUOUS
 10
15.4826546461
 20
8.8652595021
 40
0.09
100
AcDbArc
 50
107.4387498252
 51
190.0
  0
ARC
  5
362
100
AcDbEntity
  8
0
100
AcDbCircle
 62
7
  6
CONTINUOUS
 10
15.3101923427
 20
9.4726695021
 40
0.06
100
AcDbArc
 50
130.9617579109
 51
180.0
  0
ARC
  5
363
100
AcDbEntity
  8
0
100
AcDbCircle
 62
7
  6
CONTINUOUS
 10
15.4466923427
 20
9.1066695021
 40
0.03
100
AcDbArc
 50
0.0
 51
90.0
  0
ARC
  5
364
100
AcDbEntity
  8
0
100
AcDbCircle
 62
7
  6
CONTINUOUS
 10
15.4466923427
 20
8.9797440545
 40
0.03
100
AcDbArc
 50
287.4387362344
 51
359.9999646014
  0
ARC
  5
365
100
AcDbEntity
  8
0
100
AcDbCircle
 62
9
  6
CONTINUOUS
 10
15.4467020926
 20
8.9849011092
 40
0.0299919636
100
AcDbArc
 50
273.6847823834
 51
359.9485775206
  0
ARC
  5
366
100
AcDbEntity
  8
0
100
AcDbCircle
 62
7
  6
CONTINUOUS
 10
15.3411923427
 20
10.1861695021
 40
0.06
100
AcDbArc
 50
180.0000000107
 51
270.0
  0
ARC
  5
367
100
AcDbEntity
  8
0
100
AcDbCircle
 62
7
  6
CONTINUOUS
 10
15.3411923427
 20
9.5661695021
 40
0.06
100
AcDbArc
 50
90.0
 51
179.9999999893
  0
ARC
  5
368
100
AcDbEntity
  8
0
100
AcDbCircle
 62
7
  6
CONTINUOUS
 10
15.2511923427
 20
10.1896695021
 40
0.03
100
AcDbArc
 50
0.0
 51
90.0
  0
ARC
  5
369
100
AcDbEntity
  8
0
100
AcDbCircle
 62
7
  6
CONTINUOUS
 10
16.3451923427
 20
10.0961695021
 40
0.03
100
AcDbArc
 50
0.0
 51
90.0
  0
ARC
  5
36A
100
AcDbEntity
  8
0
100
AcDbCircle
 62
7
  6
CONTINUOUS
 10
16.3451923427
 20
9.6561695021
 40
0.03
100
AcDbArc
 50
270.0
 51
360.0
  0
ARC
  5
36B
100
AcDbEntity
  8
0
100
AcDbCircle
 62
7
  6
CONTINUOUS
 10
15.2511923427
 20
9.5626695021
 40
0.03
100
AcDbArc
 50
270.0
 51
360.0
  0
SPLINE
  5
36C
100
AcDbEntity
  8
0
100
AcDbSpline
 62
7
  6
CONTINUOUS
 70
0
 71
3
 72
9
 73
5
 74
0
 42
0.0000001
 43
0.0000001
 44
0.0000000001
 40
0.0
 40
0.0
 40
0.0
 40
0.0
 40
0.2458541196
 40
1.0
 40
1.0
 40
1.0
 40
1.0
 10
10.2991642053
 20
11.0432434958
 30
0.0
 10
10.2991642053
 20
11.0445507968
 30
0.0
 10
10.2990899467
 20
11.0498680663
 30
0.0
 10
10.2987309279
 20
11.0551801896
 30
0.0
 10
10.2983232992
 20
11.0591695021
 30
0.0
  0
SPLINE
  5
36D
100
AcDbEntity
  8
0
100
AcDbSpline
 62
7
  6
CONTINUOUS
 70
0
 71
3
 72
9
 73
5
 74
0
 42
0.0000001
 43
0.0000001
 44
0.0000000001
 40
0.0
 40
0.0
 40
0.0
 40
0.0
 40
0.2542123282
 40
1.0
 40
1.0
 40
1.0
 40
1.0
 10
11.5770613863
 20
11.0591695021
 30
0.0
 10
11.5769239832
 20
11.0578247887
 30
0.0
 10
11.5764450172
 20
11.0525291105
 30
0.0
 10
11.5762204802
 20
11.0472092075
 30
0.0
 10
11.5762204802
 20
11.0432436545
 30
0.0
  0
SPLINE
  5
36E
100
AcDbEntity
  8
0
100
AcDbSpline
 62
7
  6
CONTINUOUS
 70
0
 71
3
 72
11
 73
7
 74
0
 42
0.0000001
 43
0.0000001
 44
0.0000000001
 40
0.0
 40
0.0
 40
0.0
 40
0.0
 40
0.262010386
 40
0.5196606882
 40
0.7673148639
 40
1.0
 40
1.0
 40
1.0
 40
1.0
 10
10.2983232992
 20
11.6691695021
 30
0.0
 10
10.2983232992
 20
11.6749802737
 30
0.0
 10
10.2984026179
 20
11.6865051493
 30
0.0
 10
10.2986763145
 20
11.7035203494
 30
0.0
 10
10.2990260324
 20
11.7198833083
 30
0.0
 10
10.2991654583
 20
11.730535862
 30
0.0
 10
10.2991642464
 20
11.7356962686
 30
0.0
  0
SPLINE
  5
36F
100
AcDbEntity
  8
0
100
AcDbSpline
 62
7
  6
CONTINUOUS
 70
0
 71
3
 72
19
 73
15
 74
0
 42
0.0000001
 43
0.0000001
 44
0.0000000001
 40
0.0
 40
0.0
 40
0.0
 40
0.0
 40
0.0984512484
 40
0.1964074112
 40
0.2929235781
 40
0.3871236764
 40
0.4780479714
 40
0.5645117276
 40
0.6452535879
 40
0.7190915224
 40
0.7850214149
 40
0.8424507873
 40
0.9304339389
 40
1.0
 40
1.0
 40
1.0
 40
1.0
 10
9.8723147386
 20
11.6691695021
 30
0.0
 10
9.8723147386
 20
11.6745211755
 30
0.0
 10
9.8728361353
 20
11.6852042481
 30
0.0
 10
9.8751176423
 20
11.7009861658
 30
0.0
 10
9.8788452765
 20
11.7162533443
 30
0.0
 10
9.8838555922
 20
11.7307436259
 30
0.0
 10
9.8899720961
 20
11.7442027618
 30
0.0
 10
9.896894304
 20
11.7564288383
 30
0.0
 10
9.9043243204
 20
11.7672402261
 30
0.0
 10
9.9118997625
 20
11.7765459288
 30
0.0
 10
9.9193033504
 20
11.7843120879
 30
0.0
 10
9.9277956157
 20
11.7920594566
 30
0.0
 10
9.9370923783
 20
11.7991811446
 30
0.0
 10
9.9443852775
 20
11.8036914571
 30
0.0
 10
9.9476923427
 20
11.8055284036
 30
0.0
  0
SPLINE
  5
370
100
AcDbEntity
  8
0
100
AcDbSpline
 62
7
  6
CONTINUOUS
 70
0
 71
3
 72
23
 73
19
 74
0
 42
0.0000001
 43
0.0000001
 44
0.0000000001
 40
0.0
 40
0.0
 40
0.0
 40
0.0
 40
0.0043137575
 40
0.017297301
 40
0.0390234941
 40
0.0695722936
 40
0.1090733965
 40
0.1576269867
 40
0.2150025225
 40
0.2809892197
 40
0.354843194
 40
0.4355646599
 40
0.5220545046
 40
0.6129715476
 40
0.7071719406
 40
0.8036837534
 40
0.9016087789
 40
1.0
 40
1.0
 40
1.0
 40
1.0
 10
11.9276923427
 20
11.8055284036
 30
0.0
 10
11.9278985293
 20
11.8054166706
 30
0.0
 10
11.9287221228
 20
11.8049629365
 30
0.0
 10
11.9305562427
 20
11.8038965229
 30
0.0
 10
11.9335911665
 20
11.8020591435
 30
0.0
 10
11.9377732069
 20
11.7993359215
 30
0.0
 10
11.9430072452
 20
11.795566505
 30
0.0
 10
11.9491777007
 20
11.7906172401
 30
0.0
 10
11.9560864448
 20
11.7843127827
 30
0.0
 10
11.9634787133
 20
11.7765346769
 30
0.0
 10
11.971067727
 20
11.7672357923
 30
0.0
 10
11.9784953913
 20
11.7564200393
 30
0.0
 10
11.9854185966
 20
11.7441940211
 30
0.0
 10
11.9915328022
 20
11.7307316561
 30
0.0
 10
11.9965395679
 20
11.7162401743
 30
0.0
 10
12.000269434
 20
11.7009746975
 30
0.0
 10
12.0025482262
 20
11.6851967521
 30
0.0
 10
12.0030699469
 20
11.6745181845
 30
0.0
 10
12.0030699469
 20
11.6691695021
 30
0.0
  0
SPLINE
  5
371
100
AcDbEntity
  8
0
100
AcDbSpline
 62
7
  6
CONTINUOUS
 70
0
 71
3
 72
11
 73
7
 74
0
 42
0.0000001
 43
0.0000001
 44
0.0000000001
 40
0.0
 40
0.0
 40
0.0
 40
0.0
 40
0.2326793306
 40
0.4803207162
 40
0.7379720893
 40
1.0
 40
1.0
 40
1.0
 40
1.0
 10
11.5762205814
 20
11.73569621
 30
0.0
 10
11.5762197245
 20
11.7305359368
 30
0.0
 10
11.5763588854
 20
11.719883809
 30
0.0
 10
11.5767082622
 20
11.703521244
 30
0.0
 10
11.5769822484
 20
11.6865059363
 30
0.0
 10
11.5770613863
 20
11.674980657
 30
0.0
 10
11.5770613863
 20
11.6691695021
 30
0.0
  0
SPLINE
  5
372
100
AcDbEntity
  8
0
100
AcDbSpline
 62
7
  6
CONTINUOUS
 70
0
 71
3
 72
38
 73
34
 74
0
 42
0.0000001
 43
0.0000001
 44
0.0000000001
 40
0.0
 40
0.0
 40
0.0
 40
0.0
 40
0.0323269224
 40
0.0619917077
 40
0.0887497422
 40
0.1126237762
 40
0.133952278
 40
0.1533358834
 40
0.1716885279
 40
0.1899997239
 40
0.2091147427
 40
0.2296116372
 40
0.251842153
 40
0.2759552577
 40
0.3019819753
 40
0.3298906055
 40
0.3595918194
 40
0.3909824794
 40
0.4582943995
 40
0.4939124918
 40
0.5306381735
 40
0.5682449485
 40
0.6065475412
 40
0.6453925562
 40
0.6845626639
 40
0.7042268451
 40
0.7239257696
 40
0.7633710275
 40
0.8028350699
 40
0.8422840434
 40
0.8817417665
 40
0.9212257171
 40
1.0
 40
1.0
 40
1.0
 40
1.0
 10
10.2991642464
 20
11.7356962686
 30
0.0
 10
10.2991633552
 20
11.7394905652
 30
0.0
 10
10.2990901328
 20
11.7467673593
 30
0.0
 10
10.2985940317
 20
11.7571761495
 30
0.0
 10
10.2975629549
 20
11.7665534564
 30
0.0
 10
10.2958618802
 20
11.7748430514
 30
0.0
 10
10.2933873357
 20
11.7820395501
 30
0.0
 10
10.2899955649
 20
11.7881352581
 30
0.0
 10
10.2856639178
 20
11.7931503727
 30
0.0
 10
10.2804154493
 20
11.7971362692
 30
0.0
 10
10.2743091198
 20
11.8001957064
 30
0.0
 10
10.2673935734
 20
11.8024644955
 30
0.0
 10
10.259701833
 20
11.8040692127
 30
0.0
 10
10.2512602701
 20
11.8050852971
 30
0.0
 10
10.2421062641
 20
11.8055577733
 30
0.0
 10
10.2322856647
 20
11.8055394929
 30
0.0
 10
10.2218485847
 20
11.805007932
 30
0.0
 10
10.2068461317
 20
11.803537581
 30
0.0
 10
10.1912679486
 20
11.8009154119
 30
0.0
 10
10.1753725783
 20
11.796880193
 30
0.0
 10
10.1630731297
 20
11.7929419184
 30
0.0
 10
10.1507815759
 20
11.7880419207
 30
0.0
 10
10.1386890363
 20
11.782073742
 30
0.0
 10
10.1270113445
 20
11.7749656168
 30
0.0
 10
10.117806663
 20
11.7680964435
 30
0.0
 10
10.1108642407
 20
11.7620268009
 30
0.0
 10
10.1042368535
 20
11.7555684067
 30
0.0
 10
10.0966133868
 20
11.7468272061
 30
0.0
 10
10.0886686177
 20
11.7353962164
 30
0.0
 10
10.0820693005
 20
11.7231369718
 30
0.0
 10
10.0768741939
 20
11.7102155729
 30
0.0
 10
10.0719022035
 20
11.6923575858
 30
0.0
 10
10.0703899294
 20
11.6784154489
 30
0.0
 10
10.0703899294
 20
11.6691695021
 30
0.0
  0
SPLINE
  5
373
100
AcDbEntity
  8
0
100
AcDbSpline
 62
7
  6
CONTINUOUS
 70
0
 71
3
 72
38
 73
34
 74
0
 42
0.0000001
 43
0.0000001
 44
0.0000000001
 40
0.0
 40
0.0
 40
0.0
 40
0.0
 40
0.0787771536
 40
0.118266186
 40
0.1577299279
 40
0.1971818228
 40
0.2366437746
 40
0.2760850616
 40
0.2957811432
 40
0.3154412669
 40
0.3545984863
 40
0.3934249035
 40
0.4317123837
 40
0.4693080841
 40
0.5415829046
 40
0.575953658
 40
0.6089064905
 40
0.6402941855
 40
0.6700032485
 40
0.6979163293
 40
0.7239531376
 40
0.7480790061
 40
0.7703167615
 40
0.790828168
 40
0.809954991
 40
0.8282696531
 40
0.846629359
 40
0.866023865
 40
0.8873640066
 40
0.9112437663
 40
0.9380036316
 40
0.9676720066
 40
1.0
 40
1.0
 40
1.0
 40
1.0
 10
11.8049947561
 20
11.6691695021
 30
0.0
 10
11.8049947561
 20
11.6784156518
 30
0.0
 10
11.8034825085
 20
11.6923585363
 30
0.0
 10
11.7985097269
 20
11.7102177858
 30
0.0
 10
11.7933129089
 20
11.7231400287
 30
0.0
 10
11.7867139497
 20
11.7354000979
 30
0.0
 10
11.7787693558
 20
11.7468306247
 30
0.0
 10
11.7711455496
 20
11.7555698747
 30
0.0
 10
11.7645195761
 20
11.7620276594
 30
0.0
 10
11.7575799894
 20
11.7680967933
 30
0.0
 10
11.748379618
 20
11.7749646163
 30
0.0
 10
11.7367062877
 20
11.78206893
 30
0.0
 10
11.7246171427
 20
11.7880325962
 30
0.0
 10
11.7084526193
 20
11.7944796429
 30
0.0
 10
11.692119613
 20
11.7991301269
 30
0.0
 10
11.6760345395
 20
11.8022716808
 30
0.0
 10
11.6645636311
 20
11.8039336371
 30
0.0
 10
11.6535733365
 20
11.8050071507
 30
0.0
 10
11.6431355572
 20
11.8055319448
 30
0.0
 10
11.6333124646
 20
11.8055640843
 30
0.0
 10
11.6241552516
 20
11.8050874188
 30
0.0
 10
11.615711195
 20
11.804066894
 30
0.0
 10
11.608013249
 20
11.8024730677
 30
0.0
 10
11.6010930285
 20
11.8002051746
 30
0.0
 10
11.5949833662
 20
11.7971446359
 30
0.0
 10
11.5897325361
 20
11.7931582189
 30
0.0
 10
11.5853940843
 20
11.7881457278
 30
0.0
 10
11.58200045
 20
11.7820466705
 30
0.0
 10
11.5795260464
 20
11.7748468713
 30
0.0
 10
11.5778229002
 20
11.7665555822
 30
0.0
 10
11.5767900835
 20
11.7571772412
 30
0.0
 10
11.5762940142
 20
11.7467678175
 30
0.0
 10
11.5762212115
 20
11.7394905774
 30
0.0
 10
11.5762205814
 20
11.73569621
 30
0.0
  0
SPLINE
  5
374
100
AcDbEntity
  8
0
100
AcDbSpline
 62
7
  6
CONTINUOUS
 70
0
 71
3
 72
40
 73
36
 74
0
 42
0.0000001
 43
0.0000001
 44
0.0000000001
 40
0.0
 40
0.0
 40
0.0
 40
0.0
 40
0.0330427047
 40
0.0658481904
 40
0.0980722476
 40
0.1295166109
 40
0.1601221493
 40
0.1899781699
 40
0.2193105013
 40
0.2484718629
 40
0.2778317167
 40
0.3077089358
 40
0.3382690963
 40
0.3695611847
 40
0.4015183045
 40
0.4340167859
 40
0.4668927168
 40
0.4999560453
 40
0.5330217531
 40
0.5658998198
 40
0.5984013486
 40
0.6303686872
 40
0.6616669598
 40
0.6922364136
 40
0.722123399
 40
0.7368639208
 40
0.7515108556
 40
0.7806839656
 40
0.8100234885
 40
0.8398838735
 40
0.8704915581
 40
0.9019346352
 40
0.934155388
 40
0.9669581872
 40
1.0
 40
1.0
 40
1.0
 40
1.0
 10
11.0988655742
 20
11.6691695021
 30
0.0
 10
11.0988655742
 20
11.6745181562
 30
0.0
 10
11.0984401959
 20
11.6851822688
 30
0.0
 10
11.0965009104
 20
11.7009568358
 30
0.0
 10
11.0932227792
 20
11.7162488395
 30
0.0
 10
11.0885273407
 20
11.7308005392
 30
0.0
 10
11.0823206594
 20
11.7443623358
 30
0.0
 10
11.0745828161
 20
11.7567214479
 30
0.0
 10
11.0652895975
 20
11.7676594812
 30
0.0
 10
11.0545540663
 20
11.7770648423
 30
0.0
 10
11.042498049
 20
11.784856843
 30
0.0
 10
11.0293529014
 20
11.7911390649
 30
0.0
 10
11.0153160809
 20
11.7960549201
 30
0.0
 10
11.0005758999
 20
11.7997706258
 30
0.0
 10
10.9853017599
 20
11.8024642412
 30
0.0
 10
10.9696419408
 20
11.8042640824
 30
0.0
 10
10.9537359599
 20
11.8052992896
 30
0.0
 10
10.9377087474
 20
11.8056462718
 30
0.0
 10
10.9216812919
 20
11.8053025295
 30
0.0
 10
10.9057732224
 20
11.8042771151
 30
0.0
 10
10.8901122687
 20
11.8024647529
 30
0.0
 10
10.8748344547
 20
11.7997760811
 30
0.0
 10
10.8600886651
 20
11.7960636958
 30
0.0
 10
10.8460485004
 20
11.7911484367
 30
0.0
 10
10.8350368122
 20
11.7858874701
 30
0.0
 10
10.8268114659
 20
11.7809343931
 30
0.0
 10
10.8190419977
 20
11.7754921928
 30
0.0
 10
10.8100989208
 20
11.7676599956
 30
0.0
 10
10.8008006591
 20
11.7567221292
 30
0.0
 10
10.7930624982
 20
11.744360141
 30
0.0
 10
10.7868565438
 20
11.7307972392
 30
0.0
 10
10.7821610252
 20
11.7162459658
 30
0.0
 10
10.7788836879
 20
11.7009549901
 30
0.0
 10
10.776944596
 20
11.6851815435
 30
0.0
 10
10.7765191113
 20
11.6745180119
 30
0.0
 10
10.7765191113
 20
11.6691695021
 30
0.0
  0
SPLINE
  5
375
100
AcDbEntity
  8
0
100
AcDbSpline
 62
7
  6
CONTINUOUS
 70
0
 71
3
 72
30
 73
26
 74
0
 42
0.0000001
 43
0.0000001
 44
0.0000000001
 40
0.0
 40
0.0
 40
0.0
 40
0.0
 40
0.0503474523
 40
0.0983962281
 40
0.1444136696
 40
0.1668865742
 40
0.1891620588
 40
0.2114335893
 40
0.2339415965
 40
0.2569715044
 40
0.2808302124
 40
0.3058179254
 40
0.3321961218
 40
0.3601542035
 40
0.389791509
 40
0.421116593
 40
0.4540563736
 40
0.4884771771
 40
0.524211233
 40
0.5988638164
 40
0.6766479891
 40
0.7564120398
 40
0.8372856803
 40
0.9186424338
 40
1.0
 40
1.0
 40
1.0
 40
1.0
 10
11.5762204802
 20
11.0432436545
 30
0.0
 10
11.5762204802
 20
11.0381790177
 30
0.0
 10
11.5767530609
 20
11.0282668556
 30
0.0
 10
11.5794632084
 20
11.0139459643
 30
0.0
 10
11.5835374132
 20
11.0028728178
 30
0.0
 10
11.5879840353
 20
10.9948796695
 30
0.0
 10
11.5919151588
 20
10.9893829561
 30
0.0
 10
11.5964962433
 20
10.9844070854
 30
0.0
 10
11.6017496285
 20
10.9800240198
 30
0.0
 10
11.607686506
 20
10.9763101499
 30
0.0
 10
11.6143028953
 20
10.9733399894
 30
0.0
 10
11.6215765105
 20
10.9711775158
 30
0.0
 10
11.6294680009
 20
10.9698725046
 30
0.0
 10
11.6379214521
 20
10.9694544434
 30
0.0
 10
11.6468675218
 20
10.9699289362
 30
0.0
 10
11.6562277351
 20
10.9712800485
 30
0.0
 10
11.6659190161
 20
10.9734721759
 30
0.0
 10
11.6758599172
 20
10.9764518633
 30
0.0
 10
11.6895443443
 20
10.9814650031
 30
0.0
 10
11.7067768584
 20
10.9893696315
 30
0.0
 10
11.7271825884
 20
11.0007721858
 30
0.0
 10
11.7473513045
 20
11.0137750582
 30
0.0
 10
11.767113989
 20
11.0280035771
 30
0.0
 10
11.7863693534
 20
11.0431678612
 30
0.0
 10
11.7988461649
 20
11.0537682385
 30
0.0
 10
11.8049947561
 20
11.0591695021
 30
0.0
  0
SPLINE
  5
376
100
AcDbEntity
  8
0
100
AcDbSpline
 62
7
  6
CONTINUOUS
 70
0
 71
3
 72
21
 73
17
 74
0
 42
0.0000001
 43
0.0000001
 44
0.0000000001
 40
0.0
 40
0.0
 40
0.0
 40
0.0
 40
0.1143906868
 40
0.1741402898
 40
0.2357516013
 40
0.2993207646
 40
0.3648124087
 40
0.4319266588
 40
0.4999999321
 40
0.5680732632
 40
0.6351872137
 40
0.7006787991
 40
0.7642480182
 40
0.8258592937
 40
0.8856090147
 40
1.0
 40
1.0
 40
1.0
 40
1.0
 10
11.0988655742
 20
11.0591695021
 30
0.0
 10
11.0902486273
 20
11.0474088172
 30
0.0
 10
11.075557887
 20
11.0305687869
 30
0.0
 10
11.0528155197
 20
11.0108751567
 30
0.0
 10
11.0334589801
 20
10.9973403965
 30
0.0
 10
11.0120287729
 20
10.9857568043
 30
0.0
 10
10.9886301536
 20
10.9767323263
 30
0.0
 10
10.9636240445
 20
10.970936802
 30
0.0
 10
10.9376923614
 20
10.968931074
 30
0.0
 10
10.9117607143
 20
10.970936789
 30
0.0
 10
10.8867546447
 20
10.9767323067
 30
0.0
 10
10.8633560481
 20
10.9857567347
 30
0.0
 10
10.8419258375
 20
10.9973403124
 30
0.0
 10
10.8225692746
 20
11.010875069
 30
0.0
 10
10.7998268545
 20
11.0305687132
 30
0.0
 10
10.7851360807
 20
11.0474087865
 30
0.0
 10
10.7765191113
 20
11.0591695021
 30
0.0
  0
SPLINE
  5
377
100
AcDbEntity
  8
0
100
AcDbSpline
 62
7
  6
CONTINUOUS
 70
0
 71
3
 72
30
 73
26
 74
0
 42
0.0000001
 43
0.0000001
 44
0.0000000001
 40
0.0
 40
0.0
 40
0.0
 40
0.0
 40
0.0813574979
 40
0.1627142367
 40
0.243587888
 40
0.323351992
 40
0.4011362126
 40
0.4757888217
 40
0.5115229651
 40
0.5459439144
 40
0.5788838212
 40
0.6102088038
 40
0.6398460989
 40
0.6678042582
 40
0.694182278
 40
0.7191699238
 40
0.7430286535
 40
0.766058536
 40
0.7885665374
 40
0.8108380847
 40
0.8331135617
 40
0.855586412
 40
0.9016038955
 40
0.9496527133
 40
1.0
 40
1.0
 40
1.0
 40
1.0
 10
10.0703899294
 20
11.0591695021
 30
0.0
 10
10.0765385059
 20
11.0537682514
 30
0.0
 10
10.0890152925
 20
11.0431678967
 30
0.0
 10
10.1082706181
 20
11.0280036363
 30
0.0
 10
10.1280332734
 20
11.0137751326
 30
0.0
 10
10.148201963
 20
11.0007722668
 30
0.0
 10
10.1686076673
 20
10.9893697143
 30
0.0
 10
10.1858401634
 20
10.9814650786
 30
0.0
 10
10.1995245882
 20
10.9764519225
 30
0.0
 10
10.2094655062
 20
10.9734722199
 30
0.0
 10
10.2191567868
 20
10.9712800867
 30
0.0
 10
10.2285169825
 20
10.9699289394
 30
0.0
 10
10.2374630356
 20
10.9694544605
 30
0.0
 10
10.2459164633
 20
10.9698724768
 30
0.0
 10
10.2538079323
 20
10.9711774472
 30
0.0
 10
10.2610815169
 20
10.9733399022
 30
0.0
 10
10.2676979095
 20
10.9763100064
 30
0.0
 10
10.2736348061
 20
10.9800238263
 30
0.0
 10
10.2788881964
 20
10.9844068662
 30
0.0
 10
10.2834693178
 20
10.9893826888
 30
0.0
 10
10.2874004582
 20
10.9948793725
 30
0.0
 10
10.2918471249
 20
11.0028724769
 30
0.0
 10
10.2959213804
 20
11.0139455906
 30
0.0
 10
10.2986315783
 20
11.0282664411
 30
0.0
 10
10.2991641942
 20
11.0381785741
 30
0.0
 10
10.2991642053
 20
11.0432431864
 30
0.0
  0
SPLINE
  5
378
100
AcDbEntity
  8
0
100
AcDbSpline
 62
9
  6
CONTINUOUS
 70
0
 71
3
 72
22
 73
18
 74
0
 42
0.0000001
 43
0.0000001
 44
0.0000000001
 40
0.0
 40
0.0
 40
0.0
 40
0.0
 40
0.0112872377
 40
0.0220664732
 40
0.0328318234
 40
0.0440806781
 40
0.0696179363
 40
0.1012704272
 40
0.1403194809
 40
0.1871463548
 40
0.2417270134
 40
0.3038721695
 40
0.3732465577
 40
0.4492155034
 40
0.6179558362
 40
0.8038768718
 40
1.0
 40
1.0
 40
1.0
 40
1.0
 10
6.4813626777
 20
8.8496307194
 30
0.0
 10
6.481321819
 20
8.849399207
 30
0.0
 10
6.48128293
 20
8.8489375674
 30
0.0
 10
6.4813738909
 20
8.8482542134
 30
0.0
 10
6.4816168037
 20
8.8476096103
 30
0.0
 10
6.482162189
 20
8.8467745062
 30
0.0
 10
6.4832782447
 20
8.845843693
 30
0.0
 10
6.4851016071
 20
8.8449843875
 30
0.0
 10
6.4874638171
 20
8.8443137241
 30
0.0
 10
6.4903531158
 20
8.8438309855
 30
0.0
 10
6.4937499873
 20
8.8435404924
 30
0.0
 10
6.4976269284
 20
8.8434493001
 30
0.0
 10
6.5019484562
 20
8.8435625239
 30
0.0
 10
6.5084771469
 20
8.8439959232
 30
0.0
 10
6.5173901619
 20
8.8450512578
 30
0.0
 10
6.5287000185
 20
8.8469936313
 30
0.0
 10
6.5364787087
 20
8.8486831141
 30
0.0
 10
6.5404520611
 20
8.8496309758
 30
0.0
  0
SPLINE
  5
379
100
AcDbEntity
  8
0
100
AcDbSpline
 62
9
  6
CONTINUOUS
 70
0
 71
3
 72
25
 73
21
 74
0
 42
0.0000001
 43
0.0000001
 44
0.0000000001
 40
0.0
 40
0.0
 40
0.0
 40
0.0
 40
0.196268121
 40
0.3848385554
 40
0.4738225102
 40
0.5580971945
 40
0.6368299674
 40
0.7091906671
 40
0.7744092167
 40
0.8319449212
 40
0.8813224376
 40
0.9220855735
 40
0.9391161879
 40
0.9538992228
 40
0.9664541353
 40
0.9768180477
 40
0.9850642193
 40
0.9913490776
 40
0.9960415753
 40
1.0
 40
1.0
 40
1.0
 40
1.0
 10
6.2537146675
 20
7.2234603704
 30
0.0
 10
6.2498244677
 20
7.2231421495
 30
0.0
 10
6.2421917898
 20
7.2225761514
 30
0.0
 10
6.2327843685
 20
7.2220270501
 30
0.0
 10
6.2255955258
 20
7.2217102532
 30
0.0
 10
6.2205869138
 20
7.2215411671
 30
0.0
 10
6.2159071725
 20
7.2214372646
 30
0.0
 10
6.2116053646
 20
7.221399812
 30
0.0
 10
6.207725024
 20
7.221430278
 30
0.0
 10
6.2043028507
 20
7.2215266272
 30
0.0
 10
6.201370046
 20
7.2216868392
 30
0.0
 10
6.1992465337
 20
7.2218795483
 30
0.0
 10
6.1978162168
 20
7.2220749387
 30
0.0
 10
6.1969468564
 20
7.2222273053
 30
0.0
 10
6.1962152478
 20
7.2223934727
 30
0.0
 10
6.1956213135
 20
7.2225725249
 30
0.0
 10
6.1951630371
 20
7.2227642679
 30
0.0
 10
6.1948380461
 20
7.2229689382
 30
0.0
 10
6.1946365568
 20
7.2232001691
 30
0.0
 10
6.1946113276
 20
7.2233827251
 30
0.0
 10
6.1946249315
 20
7.2234602621
 30
0.0
  0
SPLINE
  5
37A
100
AcDbEntity
  8
0
100
AcDbSpline
 62
9
  6
CONTINUOUS
 70
0
 71
3
 72
23
 73
19
 74
0
 42
0.0000001
 43
0.0000001
 44
0.0000000001
 40
0.0
 40
0.0
 40
0.0
 40
0.0
 40
0.0640361062
 40
0.1276034084
 40
0.1906767594
 40
0.2532966626
 40
0.3154826615
 40
0.3772641048
 40
0.43873526
 40
0.4999990541
 40
0.5612629087
 40
0.6227342167
 40
0.6845158809
 40
0.7467021943
 40
0.8093225015
 40
0.8723961995
 40
0.9359636807
 40
1.0
 40
1.0
 40
1.0
 40
1.0
 10
7.1388738528
 20
9.5626695021
 30
0.0
 10
7.1302238765
 20
9.562669476
 30
0.0
 10
7.1129833302
 20
9.56195133
 30
0.0
 10
7.0873566434
 20
9.5592733593
 30
0.0
 10
7.0620561705
 20
9.5555748686
 30
0.0
 10
7.0370261403
 20
9.551381997
 30
0.0
 10
7.0121685091
 20
9.5472166579
 30
0.0
 10
6.9873701361
 20
9.5436454083
 30
0.0
 10
6.9625504003
 20
9.541240897
 30
0.0
 10
6.9376927176
 20
9.5403291821
 30
0.0
 10
6.9128350117
 20
9.541240832
 30
0.0
 10
6.8880152122
 20
9.5436453032
 30
0.0
 10
6.8632167468
 20
9.5472165658
 30
0.0
 10
6.8383589921
 20
9.5513819349
 30
0.0
 10
6.8133288172
 20
9.5555748146
 30
0.0
 10
6.78802822
 20
9.5592733213
 30
0.0
 10
6.7624014385
 20
9.5619513426
 30
0.0
 10
6.7451608378
 20
9.562669491
 30
0.0
 10
6.7365108327
 20
9.5626695021
 30
0.0
  0
SPLINE
  5
37B
100
AcDbEntity
  8
0
100
AcDbSpline
 62
9
  6
CONTINUOUS
 70
0
 71
3
 72
22
 73
18
 74
0
 42
0.0000001
 43
0.0000001
 44
0.0000000001
 40
0.0
 40
0.0
 40
0.0
 40
0.0
 40
0.2207018847
 40
0.417211131
 40
0.588043217
 40
0.7316348937
 40
0.7927085733
 40
0.8463540244
 40
0.8923570809
 40
0.9304999935
 40
0.9605616143
 40
0.9724919867
 40
0.9823176456
 40
0.9900100684
 40
0.9955405509
 40
0.9988802123
 40
1.0
 40
1.0
 40
1.0
 40
1.0
 10
8.0792608942
 20
6.7668326006
 30
0.0
 10
8.0795334269
 20
6.7670864479
 30
0.0
 10
8.0800417794
 20
6.7675737302
 30
0.0
 10
8.0807383715
 20
6.7682806542
 30
0.0
 10
8.081326824
 20
6.7689109785
 30
0.0
 10
8.0817473535
 20
6.7693850823
 30
0.0
 10
8.0820303376
 20
6.7697166613
 30
0.0
 10
8.0822039551
 20
6.7699250377
 30
0.0
 10
8.0823507697
 20
6.7701053754
 30
0.0
 10
8.0824707126
 20
6.7702562003
 30
0.0
 10
8.0825538932
 20
6.7703629115
 30
0.0
 10
8.0826068138
 20
6.7704323948
 30
0.0
 10
8.0826372103
 20
6.7704719854
 30
0.0
 10
8.0826594318
 20
6.7705032371
 30
0.0
 10
8.0826785412
 20
6.770525442
 30
0.0
 10
8.0826841382
 20
6.7705394887
 30
0.0
 10
8.0826931121
 20
6.7705451067
 30
0.0
 10
8.0826923427
 20
6.7705468327
 30
0.0
  0
SPLINE
  5
37C
100
AcDbEntity
  8
0
100
AcDbSpline
 62
9
  6
CONTINUOUS
 70
0
 71
3
 72
17
 73
13
 74
0
 42
0.0000001
 43
0.0000001
 44
0.0000000001
 40
0.0
 40
0.0
 40
0.0
 40
0.0
 40
0.1730928525
 40
0.3313542597
 40
0.4750110091
 40
0.6047249937
 40
0.7210381284
 40
0.8242800646
 40
0.8714090922
 40
0.9159359593
 40
0.9584762369
 40
1.0
 40
1.0
 40
1.0
 40
1.0
 10
8.0426920151
 20
6.7668315674
 30
0.0
 10
8.0447578912
 20
6.7661514483
 30
0.0
 10
8.0487786214
 20
6.7650408644
 30
0.0
 10
8.0546561726
 20
6.7639695451
 30
0.0
 10
8.0600528247
 20
6.7633849704
 30
0.0
 10
8.0649499168
 20
6.7632072299
 30
0.0
 10
8.0693401633
 20
6.7633471553
 30
0.0
 10
8.0726711423
 20
6.7638062883
 30
0.0
 10
8.0750401991
 20
6.76443966
 30
0.0
 10
8.076617807
 20
6.7650464727
 30
0.0
 10
8.078040271
 20
6.7658241945
 30
0.0
 10
8.0788791417
 20
6.7664760229
 30
0.0
 10
8.0792610011
 20
6.7668315674
 30
0.0
  0
SPLINE
  5
37D
100
AcDbEntity
  8
0
100
AcDbSpline
 62
9
  6
CONTINUOUS
 70
0
 71
3
 72
9
 73
5
 74
0
 42
0.0000001
 43
0.0000001
 44
0.0000000001
 40
0.0
 40
0.0
 40
0.0
 40
0.0
 40
0.2485843604
 40
1.0
 40
1.0
 40
1.0
 40
1.0
 10
8.0226923427
 20
6.7705469991
 30
0.0
 10
8.0243825103
 20
6.770547005
 30
0.0
 10
8.0311843665
 20
6.770148389
 30
0.0
 10
8.0378397011
 20
6.768430752
 30
0.0
 10
8.0426923632
 20
6.766832757
 30
0.0
  0
SPLINE
  5
37E
100
AcDbEntity
  8
0
100
AcDbSpline
 62
9
  6
CONTINUOUS
 70
0
 71
3
 72
11
 73
7
 74
0
 42
0.0000001
 43
0.0000001
 44
0.0000000001
 40
0.0
 40
0.0
 40
0.0
 40
0.0
 40
0.2385823579
 40
0.4857843816
 40
0.740756046
 40
1.0
 40
1.0
 40
1.0
 40
1.0
 10
6.4572790844
 20
8.9549698959
 30
0.0
 10
6.4638967915
 20
8.9547163462
 30
0.0
 10
6.4773594366
 20
8.9539187791
 30
0.0
 10
6.4978721013
 20
8.9525030228
 30
0.0
 10
6.5189819601
 20
8.9514272589
 30
0.0
 10
6.5332560813
 20
8.9511232769
 30
0.0
 10
6.5404521678
 20
8.9511226544
 30
0.0
  0
SPLINE
  5
37F
100
AcDbEntity
  8
0
100
AcDbSpline
 62
9
  6
CONTINUOUS
 70
0
 71
3
 72
22
 73
18
 74
0
 42
0.0000001
 43
0.0000001
 44
0.0000000001
 40
0.0
 40
0.0
 40
0.0
 40
0.0
 40
0.0014707171
 40
0.0058454545
 40
0.0130326064
 40
0.0229406951
 40
0.0354783857
 40
0.0505544962
 40
0.0879579784
 40
0.1344252207
 40
0.1892334476
 40
0.2516635787
 40
0.3210008056
 40
0.4768648778
 40
0.647869257
 40
0.8249267468
 40
1.0
 40
1.0
 40
1.0
 40
1.0
 10
6.4197016914
 20
8.951122929
 30
0.0
 10
6.4196977485
 20
8.9511226077
 30
0.0
 10
6.419727503
 20
8.9511386313
 30
0.0
 10
6.4197392328
 20
8.9511532091
 30
0.0
 10
6.4197949641
 20
8.9511909687
 30
0.0
 10
6.419855379
 20
8.9512363993
 30
0.0
 10
6.4199386907
 20
8.9512961027
 30
0.0
 10
6.4200801757
 20
8.9513976652
 30
0.0
 10
6.4202981005
 20
8.951551269
 30
0.0
 10
6.4206047286
 20
8.9517633738
 30
0.0
 10
6.4209694866
 20
8.9520101963
 30
0.0
 10
6.4213881461
 20
8.9522869284
 30
0.0
 10
6.4220385283
 20
8.9527060051
 30
0.0
 10
6.4229459508
 20
8.9532652917
 30
0.0
 10
6.4241315732
 20
8.9539238512
 30
0.0
 10
6.4254056231
 20
8.9545240724
 30
0.0
 10
6.4262998651
 20
8.9548445268
 30
0.0
 10
6.4267534261
 20
8.954971218
 30
0.0
  0
SPLINE
  5
380
100
AcDbEntity
  8
0
100
AcDbSpline
 62
9
  6
CONTINUOUS
 70
0
 71
3
 72
18
 73
14
 74
0
 42
0.0000001
 43
0.0000001
 44
0.0000000001
 40
0.0
 40
0.0
 40
0.0
 40
0.0
 40
0.0167185518
 40
0.0413072823
 40
0.0735228615
 40
0.1130517481
 40
0.1595577276
 40
0.2126954635
 40
0.3374669233
 40
0.4840614089
 40
0.647191201
 40
0.8210857074
 40
1.0
 40
1.0
 40
1.0
 40
1.0
 10
6.4267539333
 20
8.9549711819
 30
0.0
 10
6.4269178652
 20
8.9550169557
 30
0.0
 10
6.4273356392
 20
8.9550794834
 30
0.0
 10
6.4280810054
 20
8.9551418955
 30
0.0
 10
6.4290612151
 20
8.9551853723
 30
0.0
 10
6.4302646305
 20
8.9552143005
 30
0.0
 10
6.4316814403
 20
8.9552307193
 30
0.0
 10
6.4339660572
 20
8.9552409862
 30
0.0
 10
6.4372696718
 20
8.9552383719
 30
0.0
 10
6.4416930315
 20
8.9552400944
 30
0.0
 10
6.446616485
 20
8.9552164322
 30
0.0
 10
6.4518685412
 20
8.9551415804
 30
0.0
 10
6.4554590624
 20
8.9550395848
 30
0.0
 10
6.457279157
 20
8.9549698577
 30
0.0
  0
SPLINE
  5
381
100
AcDbEntity
  8
0
100
AcDbSpline
 62
9
  6
CONTINUOUS
 70
0
 71
3
 72
12
 73
8
 74
0
 42
0.0000001
 43
0.0000001
 44
0.0000000001
 40
0.0
 40
0.0
 40
0.0
 40
0.0
 40
0.2499836562
 40
0.5000010325
 40
0.624991671
 40
0.7499974792
 40
1.0
 40
1.0
 40
1.0
 40
1.0
 10
6.4586923428
 20
8.9848738288
 30
0.0
 10
6.4655122406
 20
8.984551568
 30
0.0
 10
6.4791350607
 20
8.9835504967
 30
0.0
 10
6.4961325868
 20
8.9819911752
 30
0.0
 10
6.5097460625
 20
8.9809031435
 30
0.0
 10
6.5233751438
 20
8.9800439071
 30
0.0
 10
6.5336189478
 20
8.9797445957
 30
0.0
 10
6.5404469704
 20
8.979743912
 30
0.0
  0
SPLINE
  5
382
100
AcDbEntity
  8
0
100
AcDbSpline
 62
9
  6
CONTINUOUS
 70
0
 71
3
 72
15
 73
11
 74
0
 42
0.0000001
 43
0.0000001
 44
0.0000000001
 40
0.0
 40
0.0
 40
0.0
 40
0.0
 40
0.0234871059
 40
0.0445872333
 40
0.0728940786
 40
0.1518638138
 40
0.2610691061
 40
0.4005841765
 40
0.5703363101
 40
1.0
 40
1.0
 40
1.0
 40
1.0
 10
6.3986923427
 20
8.9848751537
 30
0.0
 10
6.3986923601
 20
8.9848983958
 30
0.0
 10
6.3987382127
 20
8.9849302915
 30
0.0
 10
6.3988022682
 20
8.9849537739
 30
0.0
 10
6.3989269782
 20
8.9849873326
 30
0.0
 10
6.3991376564
 20
8.985020074
 30
0.0
 10
6.3994607264
 20
8.9850544782
 30
0.0
 10
6.399873612
 20
8.9850841309
 30
0.0
 10
6.4006039747
 20
8.9851220521
 30
0.0
 10
6.4011968842
 20
8.9851399769
 30
0.0
 10
6.4016219302
 20
8.9851506906
 30
0.0
  0
SPLINE
  5
383
100
AcDbEntity
  8
0
100
AcDbSpline
 62
9
  6
CONTINUOUS
 70
0
 71
3
 72
13
 73
9
 74
0
 42
0.0000001
 43
0.0000001
 44
0.0000000001
 40
0.0
 40
0.0
 40
0.0
 40
0.0
 40
0.0631191138
 40
0.1492895252
 40
0.256501208
 40
0.3819643748
 40
0.6750968008
 40
1.0
 40
1.0
 40
1.0
 40
1.0
 10
6.4016219302
 20
8.9851506906
 30
0.0
 10
6.4028223503
 20
8.9851809482
 30
0.0
 10
6.4056624958
 20
8.9852118885
 30
0.0
 10
6.4105421822
 20
8.9852297297
 30
0.0
 10
6.4166080379
 20
8.9852354048
 30
0.0
 10
6.4266111831
 20
8.985225857
 30
0.0
 10
6.4407556906
 20
8.985175244
 30
0.0
 10
6.4525129729
 20
8.985019167
 30
0.0
 10
6.4586923427
 20
8.9848738288
 30
0.0
  0
SPLINE
  5
384
100
AcDbEntity
  8
0
100
AcDbSpline
 62
9
  6
CONTINUOUS
 70
0
 71
3
 72
18
 73
14
 74
0
 42
0.0000001
 43
0.0000001
 44
0.0000000001
 40
0.0
 40
0.0
 40
0.0
 40
0.0
 40
0.1789439155
 40
0.3528977044
 40
0.5160844529
 40
0.6627019972
 40
0.7874422707
 40
0.8405509037
 40
0.8870246366
 40
0.9265224981
 40
0.9587125368
 40
0.9832851757
 40
1.0
 40
1.0
 40
1.0
 40
1.0
 10
7.4181027862
 20
8.9549698168
 30
0.0
 10
7.4199235564
 20
8.9550393694
 30
0.0
 10
7.4235157064
 20
8.9551412822
 30
0.0
 10
7.4287703001
 20
8.955216482
 30
0.0
 10
7.4336961616
 20
8.9552406079
 30
0.0
 10
7.4381209097
 20
8.955239113
 30
0.0
 10
7.441424811
 20
8.9552413699
 30
0.0
 10
7.4437089444
 20
8.9552306767
 30
0.0
 10
7.4451250948
 20
8.9552139655
 30
0.0
 10
7.4463278448
 20
8.9551848127
 30
0.0
 10
7.4473074996
 20
8.9551412228
 30
0.0
 10
7.4480525707
 20
8.9550788802
 30
0.0
 10
7.4484702251
 20
8.9550165492
 30
0.0
 10
7.4486342195
 20
8.9549710136
 30
0.0
  0
SPLINE
  5
385
100
AcDbEntity
  8
0
100
AcDbSpline
 62
9
  6
CONTINUOUS
 70
0
 71
3
 72
25
 73
21
 74
0
 42
0.0000001
 43
0.0000001
 44
0.0000000001
 40
0.0
 40
0.0
 40
0.0
 40
0.0
 40
0.1911527061
 40
0.367608301
 40
0.4516980752
 40
0.5332000069
 40
0.6114019142
 40
0.6852895366
 40
0.7538361679
 40
0.8160131605
 40
0.8707842162
 40
0.9169917178
 40
0.9365017313
 40
0.9534131892
 40
0.9675798804
 40
0.9788698128
 40
0.9871908417
 40
0.992592401
 40
0.9958537583
 40
1.0
 40
1.0
 40
1.0
 40
1.0
 10
7.4486346296
 20
8.9549713155
 30
0.0
 10
7.4491385639
 20
8.9548496457
 30
0.0
 10
7.4500893869
 20
8.9545327193
 30
0.0
 10
7.4511871241
 20
8.9539838277
 30
0.0
 10
7.4519897885
 20
8.9535187329
 30
0.0
 10
7.4525549224
 20
8.9531754595
 30
0.0
 10
7.4530919068
 20
8.9528393148
 30
0.0
 10
7.4535964577
 20
8.9525176234
 30
0.0
 10
7.4540638593
 20
8.9522185231
 30
0.0
 10
7.4544890623
 20
8.9519496382
 30
0.0
 10
7.4548673569
 20
8.9517200685
 30
0.0
 10
7.4551487479
 20
8.9515539196
 30
0.0
 10
7.4553410677
 20
8.9514389285
 30
0.0
 10
7.4554581361
 20
8.9513672944
 30
0.0
 10
7.4555545354
 20
8.9513049538
 30
0.0
 10
7.455630106
 20
8.9512525828
 30
0.0
 10
7.4556809086
 20
8.9512082607
 30
0.0
 10
7.455714228
 20
8.9511748686
 30
0.0
 10
7.4557168251
 20
8.9511345683
 30
0.0
 10
7.4556939814
 20
8.9511257344
 30
0.0
 10
7.4556832405
 20
8.9511224059
 30
0.0
  0
SPLINE
  5
386
100
AcDbEntity
  8
0
100
AcDbSpline
 62
9
  6
CONTINUOUS
 70
0
 71
3
 72
11
 73
7
 74
0
 42
0.0000001
 43
0.0000001
 44
0.0000000001
 40
0.0
 40
0.0
 40
0.0
 40
0.0
 40
0.2592942675
 40
0.5142593168
 40
0.7614294042
 40
1.0
 40
1.0
 40
1.0
 40
1.0
 10
7.3349336161
 20
8.9511222615
 30
0.0
 10
7.3421307699
 20
8.951122554
 30
0.0
 10
7.3564054676
 20
8.9514265297
 30
0.0
 10
7.3775146323
 20
8.9525033639
 30
0.0
 10
7.3980249001
 20
8.9539198338
 30
0.0
 10
7.4114857551
 20
8.9547169098
 30
0.0
 10
7.4181028554
 20
8.9549698532
 30
0.0
  0
SPLINE
  5
387
100
AcDbEntity
  8
0
100
AcDbSpline
 62
9
  6
CONTINUOUS
 70
0
 71
3
 72
27
 73
23
 74
0
 42
0.0000001
 43
0.0000001
 44
0.0000000001
 40
0.0
 40
0.0
 40
0.0
 40
0.0
 40
0.1947910726
 40
0.3824661466
 40
0.471115386
 40
0.5552113327
 40
0.6339589089
 40
0.7066233481
 40
0.7725179363
 40
0.8309584343
 40
0.8813541298
 40
0.9232770579
 40
0.9409331245
 40
0.956317784
 40
0.9693908077
 40
0.9801344882
 40
0.9885366799
 40
0.9945925601
 40
0.9967460709
 40
0.9983279727
 40
0.9993700916
 40
1.0
 40
1.0
 40
1.0
 40
1.0
 10
7.4166923427
 20
8.9848737754
 30
0.0
 10
7.420589937
 20
8.984965166
 30
0.0
 10
7.4282439481
 20
8.9850937999
 30
0.0
 10
7.4376728322
 20
8.9851746296
 30
0.0
 10
7.444886418
 20
8.9852100137
 30
0.0
 10
7.4499199264
 20
8.9852246817
 30
0.0
 10
7.4546335188
 20
8.985232377
 30
0.0
 10
7.4589828243
 20
8.9852348204
 30
0.0
 10
7.462925691
 20
8.9852318507
 30
0.0
 10
7.466422852
 20
8.9852240724
 30
0.0
 10
7.4694402068
 20
8.9852107109
 30
0.0
 10
7.4716412387
 20
8.9851906216
 30
0.0
 10
7.473141405
 20
8.985165642
 30
0.0
 10
7.4740641103
 20
8.985143856
 30
0.0
 10
7.4748482731
 20
8.9851174587
 30
0.0
 10
7.4754924181
 20
8.9850858829
 30
0.0
 10
7.4759954414
 20
8.9850486056
 30
0.0
 10
7.4763259865
 20
8.98500982
 30
0.0
 10
7.4765184332
 20
8.9849722954
 30
0.0
 10
7.4766102158
 20
8.9849441713
 30
0.0
 10
7.4766696865
 20
8.9849180754
 30
0.0
 10
7.4766923345
 20
8.9848875832
 30
0.0
 10
7.4766923427
 20
8.9848749759
 30
0.0
  0
SPLINE
  5
388
100
AcDbEntity
  8
0
100
AcDbSpline
 62
9
  6
CONTINUOUS
 70
0
 71
3
 72
12
 73
8
 74
0
 42
0.0000001
 43
0.0000001
 44
0.0000000001
 40
0.0
 40
0.0
 40
0.0
 40
0.0
 40
0.2500029255
 40
0.3750145053
 40
0.5000049454
 40
0.7500160468
 40
1.0
 40
1.0
 40
1.0
 40
1.0
 10
7.3349314073
 20
8.9797437193
 30
0.0
 10
7.3417599673
 20
8.9797439229
 30
0.0
 10
7.3520046442
 20
8.9800455966
 30
0.0
 10
7.3656351258
 20
8.9809016047
 30
0.0
 10
7.3792496726
 20
8.9819894618
 30
0.0
 10
7.3962481463
 20
8.9835509339
 30
0.0
 10
7.4098718864
 20
8.9845520147
 30
0.0
 10
7.4166923427
 20
8.9848737754
 30
0.0
  0
SPLINE
  5
389
100
AcDbEntity
  8
0
100
AcDbSpline
 62
9
  6
CONTINUOUS
 70
0
 71
3
 72
9
 73
5
 74
0
 42
0.0000001
 43
0.0000001
 44
0.0000000001
 40
0.0
 40
0.0
 40
0.0
 40
0.0
 40
0.2517963015
 40
1.0
 40
1.0
 40
1.0
 40
1.0
 10
5.8326923681
 20
6.7668326006
 30
0.0
 10
5.8343173086
 20
6.7673677003
 30
0.0
 10
5.8408089865
 20
6.7693464523
 30
0.0
 10
5.8476088255
 20
6.7705468235
 30
0.0
 10
5.8526923427
 20
6.7705468327
 30
0.0
  0
SPLINE
  5
38A
100
AcDbEntity
  8
0
100
AcDbSpline
 62
9
  6
CONTINUOUS
 70
0
 71
3
 72
17
 73
13
 74
0
 42
0.0000001
 43
0.0000001
 44
0.0000000001
 40
0.0
 40
0.0
 40
0.0
 40
0.0
 40
0.0415220585
 40
0.0840592624
 40
0.1285827844
 40
0.1757093097
 40
0.2789503786
 40
0.3952628791
 40
0.5249723425
 40
0.6686282077
 40
0.8268986446
 40
1.0
 40
1.0
 40
1.0
 40
1.0
 10
5.7961236844
 20
6.7668315674
 30
0.0
 10
5.7965055271
 20
6.7664760365
 30
0.0
 10
5.7973443404
 20
6.7658242339
 30
0.0
 10
5.7987667072
 20
6.7650465466
 30
0.0
 10
5.8003442098
 20
6.7644397727
 30
0.0
 10
5.8027131859
 20
6.7638064284
 30
0.0
 10
5.8060441066
 20
6.7633472696
 30
0.0
 10
5.8104342719
 20
6.7632072216
 30
0.0
 10
5.8153312931
 20
6.7633848523
 30
0.0
 10
5.8207279936
 20
6.7639694146
 30
0.0
 10
5.8266057452
 20
6.7650407946
 30
0.0
 10
5.8306266922
 20
6.7661514179
 30
0.0
 10
5.8326926704
 20
6.7668315674
 30
0.0
  0
SPLINE
  5
38B
100
AcDbEntity
  8
0
100
AcDbSpline
 62
9
  6
CONTINUOUS
 70
0
 71
3
 72
23
 73
19
 74
0
 42
0.0000001
 43
0.0000001
 44
0.0000000001
 40
0.0
 40
0.0
 40
0.0
 40
0.0
 40
0.0011194629
 40
0.0044584742
 40
0.0099880141
 40
0.0176792346
 40
0.0275034646
 40
0.0394322142
 40
0.0694901424
 40
0.10762899
 40
0.1536278821
 40
0.2072693456
 40
0.2683394939
 40
0.3366282211
 40
0.4119294074
 40
0.5827621995
 40
0.7792797718
 40
1.0
 40
1.0
 40
1.0
 40
1.0
 10
5.7926923427
 20
6.7705469991
 30
0.0
 10
5.7926938303
 20
6.7705481636
 30
0.0
 10
5.792697334
 20
6.7705355394
 30
0.0
 10
5.7927081881
 20
6.7705282314
 30
0.0
 10
5.7927243212
 20
6.7705022198
 30
0.0
 10
5.7927478441
 20
6.7704726439
 30
0.0
 10
5.7927777363
 20
6.7704324177
 30
0.0
 10
5.792830886
 20
6.770363245
 30
0.0
 10
5.7929139033
 20
6.7702563489
 30
0.0
 10
5.7930338972
 20
6.7701056206
 30
0.0
 10
5.7931806728
 20
6.7699252648
 30
0.0
 10
5.7933542831
 20
6.7697169096
 30
0.0
 10
5.7935547562
 20
6.7694819914
 30
0.0
 10
5.7937821288
 20
6.7692220112
 30
0.0
 10
5.7941364019
 20
6.7688269904
 30
0.0
 10
5.7946462291
 20
6.7682808966
 30
0.0
 10
5.7953428539
 20
6.7675739368
 30
0.0
 10
5.7958512478
 20
6.7670866243
 30
0.0
 10
5.7961238075
 20
6.766832757
 30
0.0
  0
SPLINE
  5
38C
100
AcDbEntity
  8
0
100
AcDbSpline
 62
9
  6
CONTINUOUS
 70
0
 71
3
 72
13
 73
9
 74
0
 42
0.0000001
 43
0.0000001
 44
0.0000000001
 40
0.0
 40
0.0
 40
0.0
 40
0.0
 40
0.2398135075
 40
0.364871583
 40
0.492057728
 40
0.6203739596
 40
0.7486829365
 40
1.0
 40
1.0
 40
1.0
 40
1.0
 10
5.757337307
 20
6.8439057271
 30
0.0
 10
5.7634315741
 20
6.8400512742
 30
0.0
 10
5.7719530666
 20
6.8328659657
 30
0.0
 10
5.7811302696
 20
6.8212215649
 30
0.0
 10
5.7869734784
 20
6.8113394926
 30
0.0
 10
5.7914595365
 20
6.8006676231
 30
0.0
 10
5.7955267459
 20
6.785914521
 30
0.0
 10
5.7964362527
 20
6.7743831186
 30
0.0
 10
5.7961237024
 20
6.7668328001
 30
0.0
  0
SPLINE
  5
38D
100
AcDbEntity
  8
0
100
AcDbSpline
 62
9
  6
CONTINUOUS
 70
0
 71
3
 72
13
 73
9
 74
0
 42
0.0000001
 43
0.0000001
 44
0.0000000001
 40
0.0
 40
0.0
 40
0.0
 40
0.0
 40
0.2424311774
 40
0.3682079594
 40
0.4956625204
 40
0.6237575983
 40
0.7513722116
 40
1.0
 40
1.0
 40
1.0
 40
1.0
 10
8.1180471821
 20
6.8439056519
 30
0.0
 10
8.1118864161
 20
6.8400091364
 30
0.0
 10
8.103294932
 20
6.832742695
 30
0.0
 10
8.0940891517
 20
6.8209824577
 30
0.0
 10
8.0882707682
 20
6.8110588412
 30
0.0
 10
8.0838309028
 20
6.80038907
 30
0.0
 10
8.0798381217
 20
6.7857285281
 30
0.0
 10
8.0789516731
 20
6.7743021862
 30
0.0
 10
8.0792608854
 20
6.7668326872
 30
0.0
  0
SPLINE
  5
38E
100
AcDbEntity
  8
0
100
AcDbSpline
 62
9
  6
CONTINUOUS
 70
0
 71
3
 72
17
 73
13
 74
0
 42
0.0000001
 43
0.0000001
 44
0.0000000001
 40
0.0
 40
0.0
 40
0.0
 40
0.0
 40
0.1814327411
 40
0.3529146196
 40
0.5109557486
 40
0.6520771981
 40
0.7731444745
 40
0.8723454935
 40
0.9133107818
 40
0.9483085797
 40
0.9772203817
 40
1.0
 40
1.0
 40
1.0
 40
1.0
 10
8.0773426677
 20
6.8442249285
 30
0.0
 10
8.0796834952
 20
6.8443997253
 30
0.0
 10
8.0842392983
 20
6.8447068766
 30
0.0
 10
8.0908413017
 20
6.8450504197
 30
0.0
 10
8.0969270244
 20
6.8452629065
 30
0.0
 10
8.1023638722
 20
6.8453419466
 30
0.0
 10
8.107039628
 20
6.845283266
 30
0.0
 10
8.1104169269
 20
6.8451181023
 30
0.0
 10
8.1126733272
 20
6.8449032693
 30
0.0
 10
8.1140185138
 20
6.8447210749
 30
0.0
 10
8.1151202526
 20
6.8445088131
 30
0.0
 10
8.1157660124
 20
6.8443276803
 30
0.0
 10
8.1160421895
 20
6.8442247954
 30
0.0
  0
SPLINE
  5
38F
100
AcDbEntity
  8
0
100
AcDbSpline
 62
9
  6
CONTINUOUS
 70
0
 71
3
 72
15
 73
11
 74
0
 42
0.0000001
 43
0.0000001
 44
0.0000000001
 40
0.0
 40
0.0
 40
0.0
 40
0.0
 40
0.0909414657
 40
0.1957429549
 40
0.3133919267
 40
0.441668793
 40
0.5778526328
 40
0.7185878233
 40
0.8603874566
 40
1.0
 40
1.0
 40
1.0
 40
1.0
 10
8.066557147
 20
6.8439057271
 30
0.0
 10
8.0651557981
 20
6.8418768925
 30
0.0
 10
8.0623978841
 20
6.8373303493
 30
0.0
 10
8.058626785
 20
6.8297072804
 30
0.0
 10
8.0550363089
 20
6.820893849
 30
0.0
 10
8.0517097588
 20
6.8110762691
 30
0.0
 10
8.0487538459
 20
6.8004900782
 30
0.0
 10
8.0462231569
 20
6.7894185789
 30
0.0
 10
8.044179344
 20
6.778153038
 30
0.0
 10
8.0431322809
 20
6.7705925218
 30
0.0
 10
8.042692066
 20
6.7668328001
 30
0.0
  0
SPLINE
  5
390
100
AcDbEntity
  8
0
100
AcDbSpline
 62
9
  6
CONTINUOUS
 70
0
 71
3
 72
28
 73
24
 74
0
 42
0.0000001
 43
0.0000001
 44
0.0000000001
 40
0.0
 40
0.0
 40
0.0
 40
0.0
 40
0.0819576558
 40
0.1638554218
 40
0.2464635157
 40
0.3296451168
 40
0.4951677976
 40
0.5756179314
 40
0.6528762019
 40
0.7256561131
 40
0.7925755582
 40
0.8522440579
 40
0.9033896465
 40
0.9253672522
 40
0.9447309335
 40
0.96132503
 40
0.9750558057
 40
0.9858561345
 40
0.9936587074
 40
0.9964147286
 40
0.9983959457
 40
0.9995938703
 40
1.0
 40
1.0
 40
1.0
 40
1.0
 10
6.6241923427
 20
9.5326695021
 30
0.0
 10
6.6234983905
 20
9.5326694981
 30
0.0
 10
6.622108283
 20
9.5325339223
 30
0.0
 10
6.620087762
 20
9.5319828152
 30
0.0
 10
6.6181537031
 20
9.5311581179
 30
0.0
 10
6.6157038042
 20
9.5297832199
 30
0.0
 10
6.613465614
 20
9.5281015382
 30
0.0
 10
6.6114353869
 20
9.5262655911
 30
0.0
 10
6.6100555886
 20
9.5248841547
 30
0.0
 10
6.6088140702
 20
9.5235295829
 30
0.0
 10
6.6077188506
 20
9.5222445938
 30
0.0
 10
6.6067772848
 20
9.5210703887
 30
0.0
 10
6.6060963274
 20
9.5201755407
 30
0.0
 10
6.6056320754
 20
9.5195448774
 30
0.0
 10
6.6053446236
 20
9.5191473626
 30
0.0
 10
6.6051002178
 20
9.5188049144
 30
0.0
 10
6.6048993825
 20
9.5185204308
 30
0.0
 10
6.6047429941
 20
9.5182957621
 30
0.0
 10
6.6046398768
 20
9.5181470949
 30
0.0
 10
6.6045806134
 20
9.5180591145
 30
0.0
 10
6.6045513593
 20
9.5180180352
 30
0.0
 10
6.6045362139
 20
9.5179919795
 30
0.0
 10
6.6045267367
 20
9.5179816268
 30
0.0
 10
6.6045256448
 20
9.517978366
 30
0.0
  0
SPLINE
  5
391
100
AcDbEntity
  8
0
100
AcDbSpline
 62
9
  6
CONTINUOUS
 70
0
 71
3
 72
15
 73
11
 74
0
 42
0.0000001
 43
0.0000001
 44
0.0000000001
 40
0.0
 40
0.0
 40
0.0
 40
0.0
 40
0.0921645006
 40
0.1981234613
 40
0.316675549
 40
0.4454338999
 40
0.5815363746
 40
0.7215923757
 40
0.8621275706
 40
1.0
 40
1.0
 40
1.0
 40
1.0
 10
5.8088270082
 20
6.8439056519
 30
0.0
 10
5.8102472164
 20
6.8418495403
 30
0.0
 10
5.8130351278
 20
6.8372452792
 30
0.0
 10
5.8168353128
 20
6.8295371367
 30
0.0
 10
5.8204374833
 20
6.8206539615
 30
0.0
 10
5.8237600443
 20
6.8107977466
 30
0.0
 10
5.8266994119
 20
6.8002148421
 30
0.0
 10
5.8292056684
 20
6.789194165
 30
0.0
 10
5.8312238236
 20
6.7780255737
 30
0.0
 10
5.8322576137
 20
6.7705455496
 30
0.0
 10
5.8326923432
 20
6.7668326872
 30
0.0
  0
SPLINE
  5
392
100
AcDbEntity
  8
0
100
AcDbSpline
 62
9
  6
CONTINUOUS
 70
0
 71
3
 72
17
 73
13
 74
0
 42
0.0000001
 43
0.0000001
 44
0.0000000001
 40
0.0
 40
0.0
 40
0.0
 40
0.0
 40
0.0227854108
 40
0.0517162893
 40
0.0867423969
 40
0.1277408907
 40
0.227005348
 40
0.3481025498
 40
0.4891965614
 40
0.6471756407
 40
0.8185953024
 40
1.0
 40
1.0
 40
1.0
 40
1.0
 10
5.7593425028
 20
6.8442249285
 30
0.0
 10
5.759618742
 20
6.8443278727
 30
0.0
 10
5.7602648439
 20
6.8445090388
 30
0.0
 10
5.7613672977
 20
6.8447212932
 30
0.0
 10
5.7627135581
 20
6.8449034711
 30
0.0
 10
5.7649716165
 20
6.8451182546
 30
0.0
 10
5.7683506023
 20
6.845283339
 30
0.0
 10
5.7730272744
 20
6.8453419423
 30
0.0
 10
5.7784634229
 20
6.8452628084
 30
0.0
 10
5.7845472596
 20
6.8450502225
 30
0.0
 10
5.7911473746
 20
6.8447066205
 30
0.0
 10
5.7957020712
 20
6.8443995252
 30
0.0
 10
5.7980425714
 20
6.8442247954
 30
0.0
  0
SPLINE
  5
393
100
AcDbEntity
  8
0
100
AcDbSpline
 62
9
  6
CONTINUOUS
 70
0
 71
3
 72
11
 73
7
 74
0
 42
0.0000001
 43
0.0000001
 44
0.0000000001
 40
0.0
 40
0.0
 40
0.0
 40
0.0
 40
0.2483623777
 40
0.5028760592
 40
0.7558074712
 40
1.0
 40
1.0
 40
1.0
 40
1.0
 10
5.7573374637
 20
6.8439057061
 30
0.0
 10
5.7551423078
 20
6.8452094097
 30
0.0
 10
5.7510426072
 20
6.8484614556
 30
0.0
 10
5.7462628953
 20
6.8546984728
 30
0.0
 10
5.74337667
 20
6.8619605384
 30
0.0
 10
5.7426923435
 20
6.867086639
 30
0.0
 10
5.7426923427
 20
6.8695968804
 30
0.0
  0
SPLINE
  5
394
100
AcDbEntity
  8
0
100
AcDbSpline
 62
9
  6
CONTINUOUS
 70
0
 71
3
 72
10
 73
6
 74
0
 42
0.0000001
 43
0.0000001
 44
0.0000000001
 40
0.0
 40
0.0
 40
0.0
 40
0.0
 40
0.2729346741
 40
0.6532070391
 40
1.0
 40
1.0
 40
1.0
 40
1.0
 10
5.7593439636
 20
6.8442241583
 30
0.0
 10
5.7591690933
 20
6.8441598747
 30
0.0
 10
5.7587453036
 20
6.8440194853
 30
0.0
 10
5.758073678
 20
6.843883739
 30
0.0
 10
5.7575724103
 20
6.8438767112
 30
0.0
 10
5.7573374637
 20
6.8439057061
 30
0.0
  0
LINE
  5
395
100
AcDbEntity
  8
0
100
AcDbLine
 62
9
  6
CONTINUOUS
 10
5.7573374256
 20
6.8439057286
 11
5.7551923436
 21
6.8436478816
  0
SPLINE
  5
396
100
AcDbEntity
  8
0
100
AcDbSpline
 62
9
  6
CONTINUOUS
 70
0
 71
3
 72
17
 73
13
 74
0
 42
0.0000001
 43
0.0000001
 44
0.0000000001
 40
0.0
 40
0.0
 40
0.0
 40
0.0
 40
0.1241009636
 40
0.1862545305
 40
0.248461222
 40
0.3730733041
 40
0.4979830485
 40
0.6231783154
 40
0.7486281668
 40
0.8114276304
 40
0.8742698166
 40
1.0
 40
1.0
 40
1.0
 40
1.0
 10
6.7365108327
 20
9.5326695021
 30
0.0
 10
6.7448391359
 20
9.5326694955
 30
0.0
 10
6.7573400525
 20
9.5322616627
 30
0.0
 10
6.773978193
 20
9.5311677014
 30
0.0
 10
6.7906305192
 20
9.5297906232
 30
0.0
 10
6.8114429846
 20
9.5276616818
 30
0.0
 10
6.8364324695
 20
9.5248539307
 30
0.0
 10
6.8614900293
 20
9.5221457141
 30
0.0
 10
6.8824423895
 20
9.5202581243
 30
0.0
 10
6.8992548484
 20
9.5191139841
 30
0.0
 10
6.9161033277
 20
9.5182647226
 30
0.0
 10
6.9287596343
 20
9.5179853047
 30
0.0
 10
6.9371972702
 20
9.5179785204
 30
0.0
  0
SPLINE
  5
397
100
AcDbEntity
  8
0
100
AcDbSpline
 62
9
  6
CONTINUOUS
 70
0
 71
3
 72
17
 73
13
 74
0
 42
0.0000001
 43
0.0000001
 44
0.0000000001
 40
0.0
 40
0.0
 40
0.0
 40
0.0
 40
0.1257225593
 40
0.2513920423
 40
0.3141441559
 40
0.3768075749
 40
0.4393924515
 40
0.5019199796
 40
0.6268659121
 40
0.7517073306
 40
0.8761719603
 40
1.0
 40
1.0
 40
1.0
 40
1.0
 10
6.9371972702
 20
9.5179785204
 30
0.0
 10
6.9456753465
 20
9.5180515217
 30
0.0
 10
6.962626587
 20
9.5184756094
 30
0.0
 10
6.9837819138
 20
9.5196546532
 30
0.0
 10
7.0006645936
 20
9.5209589219
 30
0.0
 10
7.0132905013
 20
9.5221137728
 30
0.0
 10
7.0258877969
 20
9.5234044714
 30
0.0
 10
7.0426512304
 20
9.5252373639
 30
0.0
 10
7.0635778977
 20
9.5276172039
 30
0.0
 10
7.0886832226
 20
9.5302206366
 30
0.0
 10
7.1137773665
 20
9.5321404329
 30
0.0
 10
7.1305232234
 20
9.5326695021
 30
0.0
 10
7.1388738527
 20
9.5326695021
 30
0.0
  0
SPLINE
  5
398
100
AcDbEntity
  8
0
100
AcDbSpline
 62
9
  6
CONTINUOUS
 70
0
 71
3
 72
31
 73
27
 74
0
 42
0.0000001
 43
0.0000001
 44
0.0000000001
 40
0.0
 40
0.0
 40
0.0
 40
0.0
 40
0.0004009608
 40
0.0015976768
 40
0.0035806546
 40
0.006340428
 40
0.0098675588
 40
0.014152637
 40
0.0249591262
 40
0.0386852258
 40
0.0552567569
 40
0.0745930092
 40
0.0965554232
 40
0.1209778567
 40
0.1476957541
 40
0.2073686999
 40
0.2742965494
 40
0.347106481
 40
0.424366595
 40
0.5047314725
 40
0.5869666794
 40
0.6700072584
 40
0.7530935624
 40
0.8358079001
 40
0.9179231792
 40
1.0
 40
1.0
 40
1.0
 40
1.0
 10
7.2708590094
 20
9.517978319
 30
0.0
 10
7.2708589033
 20
9.517974925
 30
0.0
 10
7.27084719
 20
9.5180013526
 30
0.0
 10
7.270834533
 20
9.5180120788
 30
0.0
 10
7.270804278
 20
9.5180621505
 30
0.0
 10
7.2707662135
 20
9.5181166551
 30
0.0
 10
7.270715608
 20
9.5181921708
 30
0.0
 10
7.2706269088
 20
9.5183217583
 30
0.0
 10
7.2704880875
 20
9.5185229958
 30
0.0
 10
7.2702882753
 20
9.5188078331
 30
0.0
 10
7.2700443928
 20
9.5191502794
 30
0.0
 10
7.2697571096
 20
9.5195473317
 30
0.0
 10
7.2694268017
 20
9.5199953331
 30
0.0
 10
7.2690541783
 20
9.5204897573
 30
0.0
 10
7.2684805748
 20
9.5212325535
 30
0.0
 10
7.2676663831
 20
9.5222442509
 30
0.0
 10
7.2665682089
 20
9.5235276264
 30
0.0
 10
7.265324463
 20
9.5248811669
 30
0.0
 10
7.2639445593
 20
9.5262621096
 30
0.0
 10
7.2624389376
 20
9.527627196
 30
0.0
 10
7.2608169611
 20
9.5289322309
 30
0.0
 10
7.259083305
 20
9.530127471
 30
0.0
 10
7.2572435459
 20
9.5311624354
 30
0.0
 10
7.2553060443
 20
9.5319852871
 30
0.0
 10
7.2532806245
 20
9.5325341565
 30
0.0
 10
7.2518874474
 20
9.532669496
 30
0.0
 10
7.2511923428
 20
9.5326695021
 30
0.0
  0
SPLINE
  5
399
100
AcDbEntity
  8
0
100
AcDbSpline
 62
9
  6
CONTINUOUS
 70
0
 71
3
 72
22
 73
18
 74
0
 42
0.0000001
 43
0.0000001
 44
0.0000000001
 40
0.0
 40
0.0
 40
0.0
 40
0.0
 40
0.1960837467
 40
0.3819660537
 40
0.5506908673
 40
0.6266617638
 40
0.69604408
 40
0.7582023374
 40
0.8127987416
 40
0.8596411354
 40
0.898702922
 40
0.9303643296
 40
0.9559089092
 40
0.967161292
 40
0.9779298923
 40
0.9887116278
 40
1.0
 40
1.0
 40
1.0
 40
1.0
 10
7.3349337131
 20
8.8496320955
 30
0.0
 10
7.3389061695
 20
8.8486845297
 30
0.0
 10
7.3466830254
 20
8.8469953941
 30
0.0
 10
7.3579905804
 20
8.8450531389
 30
0.0
 10
7.3669022191
 20
8.8439977127
 30
0.0
 10
7.3734305815
 20
8.8435640562
 30
0.0
 10
7.3777524536
 20
8.8434505851
 30
0.0
 10
7.3816300521
 20
8.8435414948
 30
0.0
 10
7.3850277728
 20
8.8438317191
 30
0.0
 10
7.3879179456
 20
8.8443142632
 30
0.0
 10
7.3902809121
 20
8.844984853
 30
0.0
 10
7.392104814
 20
8.8458443337
 30
0.0
 10
7.3932211345
 20
8.8467754101
 30
0.0
 10
7.3937667094
 20
8.8476107015
 30
0.0
 10
7.3940097893
 20
8.8482554211
 30
0.0
 10
7.3941009742
 20
8.848938864
 30
0.0
 10
7.3940622758
 20
8.8494005791
 30
0.0
 10
7.3940215182
 20
8.8496321263
 30
0.0
  0
SPLINE
  5
39A
100
AcDbEntity
  8
0
100
AcDbSpline
 62
9
  6
CONTINUOUS
 70
0
 71
3
 72
11
 73
7
 74
0
 42
0.0000001
 43
0.0000001
 44
0.0000000001
 40
0.0
 40
0.0
 40
0.0
 40
0.0
 40
0.2465063439
 40
0.5003247437
 40
0.7539613781
 40
1.0
 40
1.0
 40
1.0
 40
1.0
 10
8.118047273
 20
6.8439056439
 30
0.0
 10
8.1202260205
 20
6.8451996121
 30
0.0
 10
8.1243083698
 20
6.8484291671
 30
0.0
 10
8.129089208
 20
6.854641053
 30
0.0
 10
8.1319974834
 20
6.8619151646
 30
0.0
 10
8.1326923424
 20
6.8670676445
 30
0.0
 10
8.1326923427
 20
6.8695968637
 30
0.0
  0
LINE
  5
39B
100
AcDbEntity
  8
0
100
AcDbLine
 62
9
  6
CONTINUOUS
 10
8.1201923427
 20
6.8436478822
 11
8.118047273
 21
6.8439056439
  0
SPLINE
  5
39C
100
AcDbEntity
  8
0
100
AcDbSpline
 62
9
  6
CONTINUOUS
 70
0
 71
3
 72
14
 73
10
 74
0
 42
0.0000001
 43
0.0000001
 44
0.0000000001
 40
0.0
 40
0.0
 40
0.0
 40
0.0
 40
0.245291175
 40
0.371684802
 40
0.4988108684
 40
0.6258794778
 40
0.7523826692
 40
0.8774729131
 40
1.0
 40
1.0
 40
1.0
 40
1.0
 10
8.1160406223
 20
6.8442241091
 30
0.0
 10
8.1182650131
 20
6.8453125773
 30
0.0
 10
8.1214326231
 20
6.847417656
 30
0.0
 10
8.1250696361
 20
6.8509117214
 30
0.0
 10
8.127493311
 20
6.8539090487
 30
0.0
 10
8.1294825964
 20
6.857211782
 30
0.0
 10
8.1310015112
 20
6.8607319068
 30
0.0
 10
8.1320553019
 20
6.8643684147
 30
0.0
 10
8.1324512245
 20
6.8668446028
 30
0.0
 10
8.1325676873
 20
6.868076124
 30
0.0
  0
SPLINE
  5
39D
100
AcDbEntity
  8
0
100
AcDbSpline
 62
9
  6
CONTINUOUS
 70
0
 71
3
 72
9
 73
5
 74
0
 42
0.0000001
 43
0.0000001
 44
0.0000000001
 40
0.0
 40
0.0
 40
0.0
 40
0.0
 40
0.2285966381
 40
1.0
 40
1.0
 40
1.0
 40
1.0
 10
8.1180473116
 20
6.8439056668
 30
0.0
 10
8.1178927604
 20
6.8438867065
 30
0.0
 10
8.1172088492
 20
6.8438651014
 30
0.0
 10
8.1165338259
 20
6.8440428817
 30
0.0
 10
8.1160406223
 20
6.8442241091
 30
0.0
  0
SPLINE
  5
39E
100
AcDbEntity
  8
0
100
AcDbSpline
 62
9
  6
CONTINUOUS
 70
0
 71
3
 72
9
 73
5
 74
0
 42
0.0000001
 43
0.0000001
 44
0.0000000001
 40
0.0
 40
0.0
 40
0.0
 40
0.0
 40
0.2495137548
 40
1.0
 40
1.0
 40
1.0
 40
1.0
 10
8.0773424788
 20
6.8442241583
 30
0.0
 10
8.0764474079
 20
6.8441578527
 30
0.0
 10
8.0728579169
 20
6.843925323
 30
0.0
 10
8.0692570451
 20
6.8438497273
 30
0.0
 10
8.066558059
 20
6.8439057061
 30
0.0
  0
SPLINE
  5
39F
100
AcDbEntity
  8
0
100
AcDbSpline
 62
9
  6
CONTINUOUS
 70
0
 71
3
 72
25
 73
21
 74
0
 42
0.0000001
 43
0.0000001
 44
0.0000000001
 40
0.0
 40
0.0
 40
0.0
 40
0.0
 40
0.003958547
 40
0.0086517091
 40
0.0149375284
 40
0.0231849105
 40
0.0335503351
 40
0.0461071461
 40
0.0608925613
 40
0.0779261376
 40
0.11869687
 40
0.168082727
 40
0.2256255556
 40
0.2908480506
 40
0.3632081286
 40
0.4419366021
 40
0.5262047654
 40
0.6151814315
 40
0.803739285
 40
1.0
 40
1.0
 40
1.0
 40
1.0
 10
7.6807597708
 20
7.2234601664
 30
0.0
 10
7.680773353
 20
7.2233826251
 30
0.0
 10
7.6807480647
 20
7.2232000676
 30
0.0
 10
7.6805465212
 20
7.2229688548
 30
0.0
 10
7.6802214738
 20
7.2227641862
 30
0.0
 10
7.6797631307
 20
7.2225724448
 30
0.0
 10
7.6791691158
 20
7.2223933932
 30
0.0
 10
7.6784374074
 20
7.2222272272
 30
0.0
 10
7.677567922
 20
7.2220748629
 30
0.0
 10
7.6761373797
 20
7.2218794778
 30
0.0
 10
7.6740135402
 20
7.2216867847
 30
0.0
 10
7.6710803462
 20
7.2215265919
 30
0.0
 10
7.6676578688
 20
7.2214302622
 30
0.0
 10
7.6637774138
 20
7.2213998133
 30
0.0
 10
7.6594757291
 20
7.2214372801
 30
0.0
 10
7.6547963285
 20
7.2215411924
 30
0.0
 10
7.6497881976
 20
7.2217102802
 30
0.0
 10
7.6426000534
 20
7.2220270661
 30
0.0
 10
7.6331934004
 20
7.2225761217
 30
0.0
 10
7.6255613021
 20
7.2231420662
 30
0.0
 10
7.6216713423
 20
7.2234602621
 30
0.0
  0
LINE
  5
3A0
100
AcDbEntity
  8
0
100
AcDbLine
 62
9
  6
CONTINUOUS
 10
8.0665580572
 20
6.8439057286
 11
8.0226925118
 21
6.8436478816
  0
LINE
  5
3A1
100
AcDbEntity
  8
0
100
AcDbLine
 62
9
  6
CONTINUOUS
 10
5.8526923846
 20
6.8436478822
 11
5.8088277908
 21
6.8439056439
  0
SPLINE
  5
3A2
100
AcDbEntity
  8
0
100
AcDbSpline
 62
9
  6
CONTINUOUS
 70
0
 71
3
 72
9
 73
5
 74
0
 42
0.0000001
 43
0.0000001
 44
0.0000000001
 40
0.0
 40
0.0
 40
0.0
 40
0.0
 40
0.2506214825
 40
1.0
 40
1.0
 40
1.0
 40
1.0
 10
5.8088277926
 20
6.8439056668
 30
0.0
 10
5.8079263397
 20
6.8438871113
 30
0.0
 10
5.8043284457
 20
6.843864421
 30
0.0
 10
5.8007306015
 20
6.8440249781
 30
0.0
 10
5.7980419776
 20
6.8442241091
 30
0.0
  0
SPLINE
  5
3A3
100
AcDbEntity
  8
0
100
AcDbSpline
 62
9
  6
CONTINUOUS
 70
0
 71
3
 72
14
 73
10
 74
0
 42
0.0000001
 43
0.0000001
 44
0.0000000001
 40
0.0
 40
0.0
 40
0.0
 40
0.0
 40
0.2443910357
 40
0.37053148
 40
0.4975573491
 40
0.6247085608
 40
0.7514677201
 40
0.8769544093
 40
1.0
 40
1.0
 40
1.0
 40
1.0
 10
5.7593439636
 20
6.8442241583
 30
0.0
 10
5.7571277398
 20
6.8453086424
 30
0.0
 10
5.753968948
 20
6.8474049162
 30
0.0
 10
5.7503372579
 20
6.8508862565
 30
0.0
 10
5.7479120449
 20
6.8538788187
 30
0.0
 10
5.7459182192
 20
6.8571816454
 30
0.0
 10
5.7443928422
 20
6.8607070949
 30
0.0
 10
5.7433326777
 20
6.8643541324
 30
0.0
 10
5.742934212
 20
6.8668393715
 30
0.0
 10
5.7428171344
 20
6.8680760931
 30
0.0
  0
SPLINE
  5
3A4
100
AcDbEntity
  8
0
100
AcDbSpline
 62
9
  6
CONTINUOUS
 70
0
 71
3
 72
24
 73
20
 74
0
 42
0.0000001
 43
0.0000001
 44
0.0000000001
 40
0.0
 40
0.0
 40
0.0
 40
0.0
 40
0.1935461931
 40
0.3800367448
 40
0.5516100405
 40
0.6298270193
 40
0.7020152478
 40
0.7674825106
 40
0.8255439317
 40
0.8756400819
 40
0.9173897251
 40
0.9350307748
 40
0.950468055
 40
0.9636887513
 40
0.9747187955
 40
0.9836194222
 40
0.9905241767
 40
0.9957431452
 40
1.0
 40
1.0
 40
1.0
 40
1.0
 10
5.8026923427
 20
6.870685355
 30
0.0
 10
5.7988032063
 20
6.8710253782
 30
0.0
 10
5.7911585085
 20
6.8716016489
 30
0.0
 10
5.7800482757
 20
6.8722124379
 30
0.0
 10
5.7712530054
 20
6.8725242793
 30
0.0
 10
5.7647595263
 20
6.8726484129
 30
0.0
 10
5.7604052031
 20
6.8726797078
 30
0.0
 10
5.7564573951
 20
6.8726526333
 30
0.0
 10
5.7529560152
 20
6.8725682964
 30
0.0
 10
5.7499353459
 20
6.8724262945
 30
0.0
 10
5.7477330677
 20
6.8722516155
 30
0.0
 10
5.7462343019
 20
6.8720714232
 30
0.0
 10
5.7453112459
 20
6.8719281245
 30
0.0
 10
5.7445262641
 20
6.8717689692
 30
0.0
 10
5.7438802837
 20
6.8715941397
 30
0.0
 10
5.7433720253
 20
6.8714037683
 30
0.0
 10
5.7430001212
 20
6.8711962873
 30
0.0
 10
5.7427551515
 20
6.8709639356
 30
0.0
 10
5.7426923657
 20
6.8707712582
 30
0.0
 10
5.7426923427
 20
6.8706853943
 30
0.0
  0
LINE
  5
3A5
100
AcDbEntity
  8
0
100
AcDbLine
 62
9
  6
CONTINUOUS
 10
8.0726923441
 20
6.8706853853
 11
8.0645108064
 21
6.8695968714
  0
SPLINE
  5
3A6
100
AcDbEntity
  8
0
100
AcDbSpline
 62
9
  6
CONTINUOUS
 70
0
 71
3
 72
9
 73
5
 74
0
 42
0.0000001
 43
0.0000001
 44
0.0000000001
 40
0.0
 40
0.0
 40
0.0
 40
0.0
 40
0.2489663416
 40
1.0
 40
1.0
 40
1.0
 40
1.0
 10
8.0645108061
 20
6.8695968755
 30
0.0
 10
8.0610482706
 20
6.8693212756
 30
0.0
 10
8.0471281368
 20
6.8683727185
 30
0.0
 10
8.0331704256
 20
6.868014976
 30
0.0
 10
8.0226922817
 20
6.8680148631
 30
0.0
  0
SPLINE
  5
3A7
100
AcDbEntity
  8
0
100
AcDbSpline
 62
9
  6
CONTINUOUS
 70
0
 71
3
 72
9
 73
5
 74
0
 42
0.0000001
 43
0.0000001
 44
0.0000000001
 40
0.0
 40
0.0
 40
0.0
 40
0.0
 40
0.2508227134
 40
1.0
 40
1.0
 40
1.0
 40
1.0
 10
5.8526923985
 20
6.8680148637
 30
0.0
 10
5.8491930638
 20
6.8680146812
 30
0.0
 10
5.8352422366
 20
6.8681343182
 30
0.0
 10
5.8212930516
 20
6.8687672377
 30
0.0
 10
5.8108739375
 20
6.8695968714
 30
0.0
  0
LINE
  5
3A8
100
AcDbEntity
  8
0
100
AcDbLine
 62
9
  6
CONTINUOUS
 10
5.8108739383
 20
6.8695968814
 11
5.8026923438
 21
6.8706853606
  0
SPLINE
  5
3A9
100
AcDbEntity
  8
0
100
AcDbSpline
 62
9
  6
CONTINUOUS
 70
0
 71
3
 72
14
 73
10
 74
0
 42
0.0000001
 43
0.0000001
 44
0.0000000001
 40
0.0
 40
0.0
 40
0.0
 40
0.0
 40
0.0597193084
 40
0.1285377114
 40
0.2147999268
 40
0.3227504591
 40
0.4544467906
 40
0.6109225877
 40
1.0
 40
1.0
 40
1.0
 40
1.0
 10
8.1326923427
 20
6.870685355
 30
0.0
 10
8.1326923305
 20
6.8707553659
 30
0.0
 10
8.1326532945
 20
6.8709076653
 30
0.0
 10
8.1324898518
 20
6.8711057729
 30
0.0
 10
8.132236396
 20
6.8712848244
 30
0.0
 10
8.1318912167
 20
6.8714512454
 30
0.0
 10
8.1314529913
 20
6.8716066823
 30
0.0
 10
8.1306863134
 20
6.8718149371
 30
0.0
 10
8.1300559652
 20
6.8719296003
 30
0.0
 10
8.1296052764
 20
6.8719998296
 30
0.0
  0
SPLINE
  5
3AA
100
AcDbEntity
  8
0
100
AcDbSpline
 62
9
  6
CONTINUOUS
 70
0
 71
3
 72
15
 73
11
 74
0
 42
0.0000001
 43
0.0000001
 44
0.0000000001
 40
0.0
 40
0.0
 40
0.0
 40
0.0
 40
0.0292488164
 40
0.0642992944
 40
0.1510799002
 40
0.2585344306
 40
0.383966028
 40
0.5243897065
 40
0.6764332301
 40
1.0
 40
1.0
 40
1.0
 40
1.0
 10
8.1296052764
 20
6.8719998296
 30
0.0
 10
8.1290562142
 20
6.8720853882
 30
0.0
 10
8.1278429528
 20
6.8722332577
 30
0.0
 10
8.1249819029
 20
6.8724682938
 30
0.0
 10
8.1206274577
 20
6.8726381419
 30
0.0
 10
8.114554137
 20
6.8726933583
 30
0.0
 10
8.1074618093
 20
6.8726040953
 30
0.0
 10
8.0995253672
 20
6.8723710827
 30
0.0
 10
8.0878332317
 20
6.8718423105
 30
0.0
 10
8.078816305
 20
6.8712209587
 30
0.0
 10
8.0726923426
 20
6.8706853943
 30
0.0
  0
SPLINE
  5
3AB
100
AcDbEntity
  8
0
100
AcDbSpline
 62
9
  6
CONTINUOUS
 70
0
 71
3
 72
14
 73
10
 74
0
 42
0.0000001
 43
0.0000001
 44
0.0000000001
 40
0.0
 40
0.0
 40
0.0
 40
0.0
 40
0.2493963358
 40
0.3740762767
 40
0.4991643202
 40
0.6246920657
 40
0.7493609679
 40
0.873439606
 40
1.0
 40
1.0
 40
1.0
 40
1.0
 10
15.2708590409
 20
9.5179783654
 30
0.0
 10
15.2696669742
 20
9.5197197694
 30
0.0
 10
15.2677507037
 20
9.5222498556
 30
0.0
 10
15.2648955823
 20
9.5253663074
 30
0.0
 10
15.2625801731
 20
9.5275444812
 30
0.0
 10
15.2600837067
 20
9.5295159658
 30
0.0
 10
15.2573601637
 20
9.5311553025
 30
0.0
 10
15.2543819374
 20
9.5323112098
 30
0.0
 10
15.2522627152
 20
9.5326351082
 30
0.0
 10
15.2511923428
 20
9.5326695021
 30
0.0
  0
SPLINE
  5
3AC
100
AcDbEntity
  8
0
100
AcDbSpline
 62
9
  6
CONTINUOUS
 70
0
 71
3
 72
11
 73
7
 74
0
 42
0.0000001
 43
0.0000001
 44
0.0000000001
 40
0.0
 40
0.0
 40
0.0
 40
0.0
 40
0.2455908103
 40
0.4933028007
 40
0.7446697662
 40
1.0
 40
1.0
 40
1.0
 40
1.0
 10
14.5404529588
 20
8.9797437851
 30
0.0
 10
14.5337450399
 20
8.9797431862
 30
0.0
 10
14.5202703079
 20
8.98015906
 30
0.0
 10
14.4999811887
 20
8.9816253964
 30
0.0
 10
14.4794640815
 20
8.9835228943
 30
0.0
 10
14.4656585629
 20
8.9845470601
 30
0.0
 10
14.4586923444
 20
8.9848750505
 30
0.0
  0
SPLINE
  5
3AD
100
AcDbEntity
  8
0
100
AcDbSpline
 62
9
  6
CONTINUOUS
 70
0
 71
3
 72
12
 73
8
 74
0
 42
0.0000001
 43
0.0000001
 44
0.0000000001
 40
0.0
 40
0.0
 40
0.0
 40
0.0
 40
0.2500029973
 40
0.3750145475
 40
0.5000050053
 40
0.7500159556
 40
1.0
 40
1.0
 40
1.0
 40
1.0
 10
15.3349368012
 20
8.9797440257
 30
0.0
 10
15.3417649202
 20
8.9797443229
 30
0.0
 10
15.3520089367
 20
8.9800456804
 30
0.0
 10
15.3656385425
 20
8.9809016163
 30
0.0
 10
15.3792521609
 20
8.9819899004
 30
0.0
 10
15.396249517
 20
8.9835515111
 30
0.0
 10
15.40987236
 20
8.9845524042
 30
0.0
 10
15.4166923427
 20
8.9848748581
 30
0.0
  0
SPLINE
  5
3AE
100
AcDbEntity
  8
0
100
AcDbSpline
 62
9
  6
CONTINUOUS
 70
0
 71
3
 72
24
 73
20
 74
0
 42
0.0000001
 43
0.0000001
 44
0.0000000001
 40
0.0
 40
0.0
 40
0.0
 40
0.0
 40
0.1902896114
 40
0.3679104204
 40
0.5348282916
 40
0.6134251202
 40
0.6875090226
 40
0.7560519899
 40
0.8180202015
 40
0.872384541
 40
0.9181213256
 40
0.9374318777
 40
0.9541994359
 40
0.9682996031
 40
0.979617323
 40
0.9880628817
 40
0.9936323503
 40
0.9967637336
 40
1.0
 40
1.0
 40
1.0
 40
1.0
 10
15.4486295453
 20
8.9549713555
 30
0.0
 10
15.4491296248
 20
8.954848091
 30
0.0
 10
15.4500779452
 20
8.9545283168
 30
0.0
 10
15.4513763202
 20
8.9538829386
 30
0.0
 10
15.4523609939
 20
8.9532972772
 30
0.0
 10
15.4530956995
 20
8.9528406789
 30
0.0
 10
15.4536008215
 20
8.9525191229
 30
0.0
 10
15.4540666847
 20
8.9522197477
 30
0.0
 10
15.4544880746
 20
8.9519498777
 30
0.0
 10
15.4548605749
 20
8.9517181787
 30
0.0
 10
15.4551367118
 20
8.9515502318
 30
0.0
 10
15.4553253636
 20
8.9514342427
 30
0.0
 10
15.4554404271
 20
8.9513621342
 30
0.0
 10
15.4555359935
 20
8.9512994775
 30
0.0
 10
15.4556111195
 20
8.9512473379
 30
0.0
 10
15.4556644086
 20
8.9512030055
 30
0.0
 10
15.4556971641
 20
8.951172101
 30
0.0
 10
15.4557100212
 20
8.9511359036
 30
0.0
 10
15.4556908296
 20
8.9511253716
 30
0.0
 10
15.4556824823
 20
8.9511227162
 30
0.0
  0
SPLINE
  5
3AF
100
AcDbEntity
  8
0
100
AcDbSpline
 62
9
  6
CONTINUOUS
 70
0
 71
3
 72
11
 73
7
 74
0
 42
0.0000001
 43
0.0000001
 44
0.0000000001
 40
0.0
 40
0.0
 40
0.0
 40
0.0
 40
0.2592300854
 40
0.5142597902
 40
0.7614836826
 40
1.0
 40
1.0
 40
1.0
 40
1.0
 10
15.3349314543
 20
8.9511226305
 30
0.0
 10
15.3421273041
 20
8.9511227965
 30
0.0
 10
15.3564029606
 20
8.9514268065
 30
0.0
 10
15.3775150598
 20
8.9525030928
 30
0.0
 10
15.3980285296
 20
8.9539189402
 30
0.0
 10
15.411490191
 20
8.9547169721
 30
0.0
 10
15.418106187
 20
8.9549708602
 30
0.0
  0
SPLINE
  5
3B0
100
AcDbEntity
  8
0
100
AcDbSpline
 62
9
  6
CONTINUOUS
 70
0
 71
3
 72
18
 73
14
 74
0
 42
0.0000001
 43
0.0000001
 44
0.0000000001
 40
0.0
 40
0.0
 40
0.0
 40
0.0
 40
0.1789283497
 40
0.3529437309
 40
0.5162090831
 40
0.6628613524
 40
0.7875525926
 40
0.8406180402
 40
0.8870471848
 40
0.9265073826
 40
0.9586751398
 40
0.9832496539
 40
1.0
 40
1.0
 40
1.0
 40
1.0
 10
15.4181062303
 20
8.9549708831
 30
0.0
 10
15.4199263294
 20
8.9550407467
 30
0.0
 10
15.423517965
 20
8.9551427385
 30
0.0
 10
15.4287723972
 20
8.9552171655
 30
0.0
 10
15.4336986918
 20
8.9552402593
 30
0.0
 10
15.4381228792
 20
8.9552380113
 30
0.0
 10
15.4414252875
 20
8.9552404046
 30
0.0
 10
15.4437074026
 20
8.9552300506
 30
0.0
 10
15.4451218895
 20
8.9552135918
 30
0.0
 10
15.4463232509
 20
8.9551846368
 30
0.0
 10
15.4473020452
 20
8.955141094
 30
0.0
 10
15.4480470623
 20
8.9550786198
 30
0.0
 10
15.448464936
 20
8.9550159445
 30
0.0
 10
15.4486292088
 20
8.9549702351
 30
0.0
  0
SPLINE
  5
3B1
100
AcDbEntity
  8
0
100
AcDbSpline
 62
9
  6
CONTINUOUS
 70
0
 71
3
 72
27
 73
23
 74
0
 42
0.0000001
 43
0.0000001
 44
0.0000000001
 40
0.0
 40
0.0
 40
0.0
 40
0.0
 40
0.1947898692
 40
0.3824637764
 40
0.4711123152
 40
0.5552075433
 40
0.6339544274
 40
0.706618214
 40
0.7725121951
 40
0.8309521554
 40
0.8813474889
 40
0.9232701808
 40
0.9409261641
 40
0.9563107754
 40
0.9693838292
 40
0.9801276821
 40
0.9885302797
 40
0.9945869606
 40
0.9967411338
 40
0.9983239977
 40
0.9993676222
 40
1.0
 40
1.0
 40
1.0
 40
1.0
 10
15.4166923427
 20
8.9848748581
 30
0.0
 10
15.4205899346
 20
8.984966507
 30
0.0
 10
15.4282439537
 20
8.9850953074
 30
0.0
 10
15.4376728541
 20
8.9851751241
 30
0.0
 10
15.4448864451
 20
8.9852093041
 30
0.0
 10
15.4499199488
 20
8.9852232953
 30
0.0
 10
15.4546335334
 20
8.985230872
 30
0.0
 10
15.4589828303
 20
8.9852337575
 30
0.0
 10
15.4629256894
 20
8.9852315129
 30
0.0
 10
15.4664228468
 20
8.9852245187
 30
0.0
 10
15.469440203
 20
8.9852117869
 30
0.0
 10
15.4716412405
 20
8.9851920204
 30
0.0
 10
15.4731414109
 20
8.9851670721
 30
0.0
 10
15.4740641189
 20
8.9851451903
 30
0.0
 10
15.4748482835
 20
8.9851185704
 30
0.0
 10
15.4754924307
 20
8.9850866848
 30
0.0
 10
15.4759954597
 20
8.9850490377
 30
0.0
 10
15.4763260054
 20
8.9850099097
 30
0.0
 10
15.4765184501
 20
8.9849720821
 30
0.0
 10
15.4766102362
 20
8.984943778
 30
0.0
 10
15.476669745
 20
8.9849174642
 30
0.0
 10
15.4766923342
 20
8.9848868511
 30
0.0
 10
15.4766923427
 20
8.9848741942
 30
0.0
  0
SPLINE
  5
3B2
100
AcDbEntity
  8
0
100
AcDbSpline
 62
9
  6
CONTINUOUS
 70
0
 71
3
 72
22
 73
18
 74
0
 42
0.0000001
 43
0.0000001
 44
0.0000000001
 40
0.0
 40
0.0
 40
0.0
 40
0.0
 40
0.2207018847
 40
0.417211131
 40
0.588043217
 40
0.7316348937
 40
0.7927085733
 40
0.8463540244
 40
0.8923570809
 40
0.9304999935
 40
0.9605616143
 40
0.9724919867
 40
0.9823176456
 40
0.9900100684
 40
0.9955405509
 40
0.9988802123
 40
1.0
 40
1.0
 40
1.0
 40
1.0
 10
16.0792608942
 20
6.7668326006
 30
0.0
 10
16.0795334269
 20
6.7670864479
 30
0.0
 10
16.0800417794
 20
6.7675737302
 30
0.0
 10
16.0807383715
 20
6.7682806542
 30
0.0
 10
16.081326824
 20
6.7689109785
 30
0.0
 10
16.0817473535
 20
6.7693850823
 30
0.0
 10
16.0820303376
 20
6.7697166613
 30
0.0
 10
16.0822039551
 20
6.7699250377
 30
0.0
 10
16.0823507697
 20
6.7701053754
 30
0.0
 10
16.0824707126
 20
6.7702562003
 30
0.0
 10
16.0825538932
 20
6.7703629115
 30
0.0
 10
16.0826068138
 20
6.7704323948
 30
0.0
 10
16.0826372103
 20
6.7704719854
 30
0.0
 10
16.0826594318
 20
6.7705032371
 30
0.0
 10
16.0826785412
 20
6.770525442
 30
0.0
 10
16.0826841382
 20
6.7705394887
 30
0.0
 10
16.0826931121
 20
6.7705451067
 30
0.0
 10
16.0826923427
 20
6.7705468327
 30
0.0
  0
SPLINE
  5
3B3
100
AcDbEntity
  8
0
100
AcDbSpline
 62
9
  6
CONTINUOUS
 70
0
 71
3
 72
17
 73
13
 74
0
 42
0.0000001
 43
0.0000001
 44
0.0000000001
 40
0.0
 40
0.0
 40
0.0
 40
0.0
 40
0.1730928525
 40
0.3313542597
 40
0.475011009
 40
0.6047249937
 40
0.7210381284
 40
0.8242800646
 40
0.8714090922
 40
0.9159359593
 40
0.9584762369
 40
1.0
 40
1.0
 40
1.0
 40
1.0
 10
16.0426920151
 20
6.7668315674
 30
0.0
 10
16.0447578912
 20
6.7661514483
 30
0.0
 10
16.0487786214
 20
6.7650408644
 30
0.0
 10
16.0546561726
 20
6.7639695451
 30
0.0
 10
16.0600528247
 20
6.7633849704
 30
0.0
 10
16.0649499168
 20
6.7632072299
 30
0.0
 10
16.0693401633
 20
6.7633471553
 30
0.0
 10
16.0726711422
 20
6.7638062883
 30
0.0
 10
16.0750401991
 20
6.76443966
 30
0.0
 10
16.076617807
 20
6.7650464727
 30
0.0
 10
16.078040271
 20
6.7658241945
 30
0.0
 10
16.0788791417
 20
6.7664760229
 30
0.0
 10
16.0792610011
 20
6.7668315674
 30
0.0
  0
SPLINE
  5
3B4
100
AcDbEntity
  8
0
100
AcDbSpline
 62
9
  6
CONTINUOUS
 70
0
 71
3
 72
9
 73
5
 74
0
 42
0.0000001
 43
0.0000001
 44
0.0000000001
 40
0.0
 40
0.0
 40
0.0
 40
0.0
 40
0.2485843604
 40
1.0
 40
1.0
 40
1.0
 40
1.0
 10
16.0226923427
 20
6.7705469991
 30
0.0
 10
16.0243825103
 20
6.770547005
 30
0.0
 10
16.0311843665
 20
6.770148389
 30
0.0
 10
16.0378397011
 20
6.768430752
 30
0.0
 10
16.0426923632
 20
6.766832757
 30
0.0
  0
SPLINE
  5
3B5
100
AcDbEntity
  8
0
100
AcDbSpline
 62
9
  6
CONTINUOUS
 70
0
 71
3
 72
9
 73
5
 74
0
 42
0.0000001
 43
0.0000001
 44
0.0000000001
 40
0.0
 40
0.0
 40
0.0
 40
0.0
 40
0.2517963015
 40
1.0
 40
1.0
 40
1.0
 40
1.0
 10
13.8326923681
 20
6.7668326006
 30
0.0
 10
13.8343173086
 20
6.7673677003
 30
0.0
 10
13.8408089865
 20
6.7693464523
 30
0.0
 10
13.8476088255
 20
6.7705468235
 30
0.0
 10
13.8526923427
 20
6.7705468327
 30
0.0
  0
SPLINE
  5
3B6
100
AcDbEntity
  8
0
100
AcDbSpline
 62
9
  6
CONTINUOUS
 70
0
 71
3
 72
17
 73
13
 74
0
 42
0.0000001
 43
0.0000001
 44
0.0000000001
 40
0.0
 40
0.0
 40
0.0
 40
0.0
 40
0.0415220585
 40
0.0840592623
 40
0.1285827844
 40
0.1757093097
 40
0.2789503786
 40
0.3952628791
 40
0.5249723425
 40
0.6686282077
 40
0.8268986446
 40
1.0
 40
1.0
 40
1.0
 40
1.0
 10
13.7961236844
 20
6.7668315674
 30
0.0
 10
13.7965055271
 20
6.7664760365
 30
0.0
 10
13.7973443404
 20
6.7658242339
 30
0.0
 10
13.7987667072
 20
6.7650465466
 30
0.0
 10
13.8003442098
 20
6.7644397727
 30
0.0
 10
13.8027131859
 20
6.7638064284
 30
0.0
 10
13.8060441066
 20
6.7633472696
 30
0.0
 10
13.8104342719
 20
6.7632072216
 30
0.0
 10
13.8153312931
 20
6.7633848523
 30
0.0
 10
13.8207279936
 20
6.7639694146
 30
0.0
 10
13.8266057452
 20
6.7650407946
 30
0.0
 10
13.8306266922
 20
6.7661514179
 30
0.0
 10
13.8326926704
 20
6.7668315674
 30
0.0
  0
SPLINE
  5
3B7
100
AcDbEntity
  8
0
100
AcDbSpline
 62
9
  6
CONTINUOUS
 70
0
 71
3
 72
23
 73
19
 74
0
 42
0.0000001
 43
0.0000001
 44
0.0000000001
 40
0.0
 40
0.0
 40
0.0
 40
0.0
 40
0.0011194629
 40
0.0044584742
 40
0.0099880141
 40
0.0176792346
 40
0.0275034646
 40
0.0394322142
 40
0.0694901424
 40
0.10762899
 40
0.1536278821
 40
0.2072693456
 40
0.2683394939
 40
0.3366282211
 40
0.4119294074
 40
0.5827621995
 40
0.7792797718
 40
1.0
 40
1.0
 40
1.0
 40
1.0
 10
13.7926923427
 20
6.7705469991
 30
0.0
 10
13.7926938303
 20
6.7705481636
 30
0.0
 10
13.792697334
 20
6.7705355394
 30
0.0
 10
13.7927081881
 20
6.7705282314
 30
0.0
 10
13.7927243212
 20
6.7705022198
 30
0.0
 10
13.7927478441
 20
6.7704726439
 30
0.0
 10
13.7927777363
 20
6.7704324177
 30
0.0
 10
13.792830886
 20
6.770363245
 30
0.0
 10
13.7929139033
 20
6.7702563489
 30
0.0
 10
13.7930338972
 20
6.7701056206
 30
0.0
 10
13.7931806728
 20
6.7699252648
 30
0.0
 10
13.7933542831
 20
6.7697169096
 30
0.0
 10
13.7935547562
 20
6.7694819914
 30
0.0
 10
13.7937821288
 20
6.7692220112
 30
0.0
 10
13.7941364019
 20
6.7688269904
 30
0.0
 10
13.7946462291
 20
6.7682808966
 30
0.0
 10
13.7953428539
 20
6.7675739368
 30
0.0
 10
13.7958512478
 20
6.7670866243
 30
0.0
 10
13.7961238075
 20
6.766832757
 30
0.0
  0
SPLINE
  5
3B8
100
AcDbEntity
  8
0
100
AcDbSpline
 62
9
  6
CONTINUOUS
 70
0
 71
3
 72
13
 73
9
 74
0
 42
0.0000001
 43
0.0000001
 44
0.0000000001
 40
0.0
 40
0.0
 40
0.0
 40
0.0
 40
0.2424311774
 40
0.3682079594
 40
0.4956625204
 40
0.6237575983
 40
0.7513722116
 40
1.0
 40
1.0
 40
1.0
 40
1.0
 10
16.1180471821
 20
6.8439056519
 30
0.0
 10
16.1118864161
 20
6.8400091364
 30
0.0
 10
16.103294932
 20
6.832742695
 30
0.0
 10
16.0940891517
 20
6.8209824577
 30
0.0
 10
16.0882707682
 20
6.8110588412
 30
0.0
 10
16.0838309028
 20
6.80038907
 30
0.0
 10
16.0798381217
 20
6.7857285281
 30
0.0
 10
16.0789516731
 20
6.7743021862
 30
0.0
 10
16.0792608854
 20
6.7668326872
 30
0.0
  0
SPLINE
  5
3B9
100
AcDbEntity
  8
0
100
AcDbSpline
 62
9
  6
CONTINUOUS
 70
0
 71
3
 72
17
 73
13
 74
0
 42
0.0000001
 43
0.0000001
 44
0.0000000001
 40
0.0
 40
0.0
 40
0.0
 40
0.0
 40
0.1814327411
 40
0.3529146196
 40
0.5109557486
 40
0.6520771981
 40
0.7731444745
 40
0.8723454935
 40
0.9133107818
 40
0.9483085797
 40
0.9772203817
 40
1.0
 40
1.0
 40
1.0
 40
1.0
 10
16.0773426677
 20
6.8442249285
 30
0.0
 10
16.0796834952
 20
6.8443997253
 30
0.0
 10
16.0842392983
 20
6.8447068766
 30
0.0
 10
16.0908413017
 20
6.8450504197
 30
0.0
 10
16.0969270244
 20
6.8452629065
 30
0.0
 10
16.1023638722
 20
6.8453419466
 30
0.0
 10
16.107039628
 20
6.845283266
 30
0.0
 10
16.1104169269
 20
6.8451181023
 30
0.0
 10
16.1126733272
 20
6.8449032693
 30
0.0
 10
16.1140185138
 20
6.8447210749
 30
0.0
 10
16.1151202526
 20
6.8445088131
 30
0.0
 10
16.1157660124
 20
6.8443276803
 30
0.0
 10
16.1160421895
 20
6.8442247954
 30
0.0
  0
SPLINE
  5
3BA
100
AcDbEntity
  8
0
100
AcDbSpline
 62
9
  6
CONTINUOUS
 70
0
 71
3
 72
14
 73
10
 74
0
 42
0.0000001
 43
0.0000001
 44
0.0000000001
 40
0.0
 40
0.0
 40
0.0
 40
0.0
 40
0.2488640426
 40
0.3736466918
 40
0.4985477458
 40
0.6236327233
 40
0.7489629386
 40
0.8744609784
 40
1.0
 40
1.0
 40
1.0
 40
1.0
 10
14.4572842588
 20
8.9549713128
 30
0.0
 10
14.4641869362
 20
8.9547147626
 30
0.0
 10
14.4745411479
 20
8.9540945837
 30
0.0
 10
14.4883471206
 20
8.9531643621
 30
0.0
 10
14.4987276182
 20
8.9524936445
 30
0.0
 10
14.5091289487
 20
8.9519134384
 30
0.0
 10
14.5195547226
 20
8.9514929232
 30
0.0
 10
14.5299980258
 20
8.9512252321
 30
0.0
 10
14.5369655236
 20
8.9511418398
 30
0.0
 10
14.5404499169
 20
8.951122409
 30
0.0
  0
SPLINE
  5
3BB
100
AcDbEntity
  8
0
100
AcDbSpline
 62
9
  6
CONTINUOUS
 70
0
 71
3
 72
26
 73
22
 74
0
 42
0.0000001
 43
0.0000001
 44
0.0000000001
 40
0.0
 40
0.0
 40
0.0
 40
0.0
 40
0.0003790569
 40
0.0014952397
 40
0.0033370644
 40
0.005893015
 40
0.0131012444
 40
0.0230279163
 40
0.0355811464
 40
0.050669194
 40
0.0682004738
 40
0.0880835659
 40
0.1345402737
 40
0.1893118361
 40
0.2516741935
 40
0.3209073588
 40
0.3962141091
 40
0.4764811597
 40
0.6472377716
 40
0.8243330339
 40
1.0
 40
1.0
 40
1.0
 40
1.0
 10
14.4197016979
 20
8.9511223263
 30
0.0
 10
14.4197017255
 20
8.9511233454
 30
0.0
 10
14.4197067572
 20
8.9511248857
 30
0.0
 10
14.419712179
 20
8.9511311415
 30
0.0
 10
14.4197250403
 20
8.9511395345
 30
0.0
 10
14.4197495207
 20
8.9511584252
 30
0.0
 10
14.4197926043
 20
8.9511896052
 30
0.0
 10
14.4198569144
 20
8.9512367563
 30
0.0
 10
14.4199388835
 20
8.9512959064
 30
0.0
 10
14.4200376315
 20
8.9513666623
 30
0.0
 10
14.420152806
 20
8.9514483709
 30
0.0
 10
14.4203373664
 20
8.9515780701
 30
0.0
 10
14.4206052543
 20
8.951763395
 30
0.0
 10
14.4209695589
 20
8.9520101297
 30
0.0
 10
14.4213875598
 20
8.9522867795
 30
0.0
 10
14.421855106
 20
8.9525885743
 30
0.0
 10
14.4223671762
 20
8.9529101335
 30
0.0
 10
14.4231187162
 20
8.9533635328
 30
0.0
 10
14.4241254721
 20
8.9539237653
 30
0.0
 10
14.4254005377
 20
8.9545239877
 30
0.0
 10
14.4262968544
 20
8.9548435434
 30
0.0
 10
14.4267521496
 20
8.9549697684
 30
0.0
  0
SPLINE
  5
3BC
100
AcDbEntity
  8
0
100
AcDbSpline
 62
9
  6
CONTINUOUS
 70
0
 71
3
 72
18
 73
14
 74
0
 42
0.0000001
 43
0.0000001
 44
0.0000000001
 40
0.0
 40
0.0
 40
0.0
 40
0.0
 40
0.0167683654
 40
0.0413651854
 40
0.0735569734
 40
0.1130413315
 40
0.1594934605
 40
0.2125795096
 40
0.3373000722
 40
0.4839587235
 40
0.6472023643
 40
0.8211635185
 40
1.0
 40
1.0
 40
1.0
 40
1.0
 10
14.4267526828
 20
8.9549697304
 30
0.0
 10
14.4269172402
 20
8.9550152802
 30
0.0
 10
14.4273356407
 20
8.955077844
 30
0.0
 10
14.4280815301
 20
8.9551403746
 30
0.0
 10
14.4290613038
 20
8.9551841407
 30
0.0
 10
14.4302637226
 20
8.9552134182
 30
0.0
 10
14.4316792932
 20
8.9552302408
 30
0.0
 10
14.433962792
 20
8.955241075
 30
0.0
 10
14.4372667045
 20
8.9552389924
 30
0.0
 10
14.4416922811
 20
8.95524076
 30
0.0
 10
14.446619252
 20
8.9552169655
 30
0.0
 10
14.4518734487
 20
8.955142159
 30
0.0
 10
14.4554646128
 20
8.9550405042
 30
0.0
 10
14.4572843052
 20
8.9549710548
 30
0.0
  0
SPLINE
  5
3BD
100
AcDbEntity
  8
0
100
AcDbSpline
 62
9
  6
CONTINUOUS
 70
0
 71
3
 72
15
 73
11
 74
0
 42
0.0000001
 43
0.0000001
 44
0.0000000001
 40
0.0
 40
0.0
 40
0.0
 40
0.0
 40
0.0234807391
 40
0.0445830171
 40
0.0728925848
 40
0.1518671477
 40
0.2610752347
 40
0.4005909665
 40
0.5703419645
 40
1.0
 40
1.0
 40
1.0
 40
1.0
 10
14.3986923427
 20
8.9848736887
 30
0.0
 10
14.3986923687
 20
8.9848969236
 30
0.0
 10
14.3987382424
 20
8.9849287785
 30
0.0
 10
14.3988022812
 20
8.9849522758
 30
0.0
 10
14.3989269911
 20
8.9849858663
 30
0.0
 10
14.3991376535
 20
8.9850186994
 30
0.0
 10
14.3994607059
 20
8.9850532503
 30
0.0
 10
14.3998735639
 20
8.9850830988
 30
0.0
 10
14.4006038764
 20
8.98512136
 30
0.0
 10
14.4011967497
 20
8.9851395463
 30
0.0
 10
14.4016217701
 20
8.9851504372
 30
0.0
  0
SPLINE
  5
3BE
100
AcDbEntity
  8
0
100
AcDbSpline
 62
9
  6
CONTINUOUS
 70
0
 71
3
 72
13
 73
9
 74
0
 42
0.0000001
 43
0.0000001
 44
0.0000000001
 40
0.0
 40
0.0
 40
0.0
 40
0.0
 40
0.0631183024
 40
0.1492883009
 40
0.2564999577
 40
0.3819632595
 40
0.6750958449
 40
1.0
 40
1.0
 40
1.0
 40
1.0
 10
14.4016217701
 20
8.9851504372
 30
0.0
 10
14.4028221651
 20
8.9851811968
 30
0.0
 10
14.4056622873
 20
8.9852131044
 30
0.0
 10
14.4105419625
 20
8.9852313739
 30
0.0
 10
14.4166078298
 20
8.985235837
 30
0.0
 10
14.4266110037
 20
8.9852241841
 30
0.0
 10
14.4407555615
 20
8.9851736614
 30
0.0
 10
14.4525129264
 20
8.9850198277
 30
0.0
 10
14.4586923427
 20
8.9848750161
 30
0.0
  0
SPLINE
  5
3BF
100
AcDbEntity
  8
0
100
AcDbSpline
 62
9
  6
CONTINUOUS
 70
0
 71
3
 72
15
 73
11
 74
0
 42
0.0000001
 43
0.0000001
 44
0.0000000001
 40
0.0
 40
0.0
 40
0.0
 40
0.0
 40
0.0909414657
 40
0.1957429549
 40
0.3133919267
 40
0.441668793
 40
0.5778526328
 40
0.7185878233
 40
0.8603874566
 40
1.0
 40
1.0
 40
1.0
 40
1.0
 10
16.066557147
 20
6.8439057271
 30
0.0
 10
16.0651557981
 20
6.8418768925
 30
0.0
 10
16.0623978841
 20
6.8373303493
 30
0.0
 10
16.058626785
 20
6.8297072804
 30
0.0
 10
16.0550363089
 20
6.820893849
 30
0.0
 10
16.0517097588
 20
6.8110762691
 30
0.0
 10
16.0487538459
 20
6.8004900782
 30
0.0
 10
16.0462231569
 20
6.7894185789
 30
0.0
 10
16.044179344
 20
6.778153038
 30
0.0
 10
16.0431322809
 20
6.7705925218
 30
0.0
 10
16.042692066
 20
6.7668328001
 30
0.0
  0
SPLINE
  5
3C0
100
AcDbEntity
  8
0
100
AcDbSpline
 62
9
  6
CONTINUOUS
 70
0
 71
3
 72
15
 73
11
 74
0
 42
0.0000001
 43
0.0000001
 44
0.0000000001
 40
0.0
 40
0.0
 40
0.0
 40
0.0
 40
0.0921645006
 40
0.1981234613
 40
0.316675549
 40
0.4454338999
 40
0.5815363746
 40
0.7215923757
 40
0.8621275706
 40
1.0
 40
1.0
 40
1.0
 40
1.0
 10
13.8088270082
 20
6.8439056519
 30
0.0
 10
13.8102472164
 20
6.8418495403
 30
0.0
 10
13.8130351278
 20
6.8372452792
 30
0.0
 10
13.8168353128
 20
6.8295371367
 30
0.0
 10
13.8204374833
 20
6.8206539615
 30
0.0
 10
13.8237600443
 20
6.8107977466
 30
0.0
 10
13.8266994119
 20
6.8002148421
 30
0.0
 10
13.8292056684
 20
6.789194165
 30
0.0
 10
13.8312238236
 20
6.7780255737
 30
0.0
 10
13.8322576137
 20
6.7705455496
 30
0.0
 10
13.8326923432
 20
6.7668326872
 30
0.0
  0
SPLINE
  5
3C1
100
AcDbEntity
  8
0
100
AcDbSpline
 62
9
  6
CONTINUOUS
 70
0
 71
3
 72
17
 73
13
 74
0
 42
0.0000001
 43
0.0000001
 44
0.0000000001
 40
0.0
 40
0.0
 40
0.0
 40
0.0
 40
0.0227854108
 40
0.0517162893
 40
0.0867423969
 40
0.1277408907
 40
0.227005348
 40
0.3481025498
 40
0.4891965614
 40
0.6471756407
 40
0.8185953024
 40
1.0
 40
1.0
 40
1.0
 40
1.0
 10
13.7593425028
 20
6.8442249285
 30
0.0
 10
13.759618742
 20
6.8443278727
 30
0.0
 10
13.7602648439
 20
6.8445090388
 30
0.0
 10
13.7613672977
 20
6.8447212932
 30
0.0
 10
13.7627135581
 20
6.8449034711
 30
0.0
 10
13.7649716165
 20
6.8451182546
 30
0.0
 10
13.7683506023
 20
6.845283339
 30
0.0
 10
13.7730272744
 20
6.8453419423
 30
0.0
 10
13.7784634229
 20
6.8452628084
 30
0.0
 10
13.7845472596
 20
6.8450502225
 30
0.0
 10
13.7911473746
 20
6.8447066205
 30
0.0
 10
13.7957020712
 20
6.8443995252
 30
0.0
 10
13.7980425714
 20
6.8442247954
 30
0.0
  0
SPLINE
  5
3C2
100
AcDbEntity
  8
0
100
AcDbSpline
 62
9
  6
CONTINUOUS
 70
0
 71
3
 72
13
 73
9
 74
0
 42
0.0000001
 43
0.0000001
 44
0.0000000001
 40
0.0
 40
0.0
 40
0.0
 40
0.0
 40
0.2398135075
 40
0.364871583
 40
0.492057728
 40
0.6203739596
 40
0.7486829365
 40
1.0
 40
1.0
 40
1.0
 40
1.0
 10
13.757337307
 20
6.8439057271
 30
0.0
 10
13.7634315741
 20
6.8400512742
 30
0.0
 10
13.7719530666
 20
6.8328659657
 30
0.0
 10
13.7811302696
 20
6.8212215649
 30
0.0
 10
13.7869734784
 20
6.8113394926
 30
0.0
 10
13.7914595365
 20
6.8006676231
 30
0.0
 10
13.7955267459
 20
6.785914521
 30
0.0
 10
13.7964362527
 20
6.7743831186
 30
0.0
 10
13.7961237024
 20
6.7668328001
 30
0.0
  0
SPLINE
  5
3C3
100
AcDbEntity
  8
0
100
AcDbSpline
 62
9
  6
CONTINUOUS
 70
0
 71
3
 72
19
 73
15
 74
0
 42
0.0000001
 43
0.0000001
 44
0.0000000001
 40
0.0
 40
0.0
 40
0.0
 40
0.0
 40
0.0821014607
 40
0.1642511333
 40
0.2470047091
 40
0.3301196469
 40
0.4952950853
 40
0.65287563
 40
0.7926095169
 40
0.903427975
 40
0.9447413461
 40
0.9750474143
 40
0.9936628891
 40
1.0
 40
1.0
 40
1.0
 40
1.0
 10
14.6241923426
 20
9.5326695021
 30
0.0
 10
14.6234971511
 20
9.5326694886
 30
0.0
 10
14.622103722
 20
9.5325342097
 30
0.0
 10
14.6200777667
 20
9.5319855859
 30
0.0
 10
14.6181396181
 20
9.5311628888
 30
0.0
 10
14.6156925186
 20
9.5297866112
 30
0.0
 10
14.6129410324
 20
9.5277032378
 30
0.0
 10
14.6101104828
 20
9.5249897469
 30
0.0
 10
14.6078177662
 20
9.5223998965
 30
0.0
 10
14.6062922115
 20
9.5204542589
 30
0.0
 10
14.6053806117
 20
9.5192070194
 30
0.0
 10
14.6049396404
 20
9.518583055
 30
0.0
 10
14.6046723103
 20
9.5181989963
 30
0.0
 10
14.6045560379
 20
9.5180225624
 30
0.0
 10
14.6045256761
 20
9.5179783191
 30
0.0
  0
SPLINE
  5
3C4
100
AcDbEntity
  8
0
100
AcDbSpline
 62
9
  6
CONTINUOUS
 70
0
 71
3
 72
22
 73
18
 74
0
 42
0.0000001
 43
0.0000001
 44
0.0000000001
 40
0.0
 40
0.0
 40
0.0
 40
0.0
 40
0.0112874243
 40
0.0220669953
 40
0.0328327242
 40
0.0440819285
 40
0.0696197529
 40
0.1012728922
 40
0.1403230251
 40
0.1871511279
 40
0.2417326732
 40
0.3038778596
 40
0.3732511188
 40
0.4492184425
 40
0.6179579538
 40
0.803883405
 40
1.0
 40
1.0
 40
1.0
 40
1.0
 10
14.4813631959
 20
8.8496321031
 30
0.0
 10
14.4813223594
 20
8.8494005889
 30
0.0
 10
14.4812835097
 20
8.8489389477
 30
0.0
 10
14.4813745094
 20
8.8482555988
 30
0.0
 10
14.481617442
 20
8.8476109995
 30
0.0
 10
14.4821628347
 20
8.8467758992
 30
0.0
 10
14.4832788805
 20
8.8458450821
 30
0.0
 10
14.4851022401
 20
8.8449857743
 30
0.0
 10
14.4874644506
 20
8.8443151162
 30
0.0
 10
14.4903537401
 20
8.8438323719
 30
0.0
 10
14.4937505675
 20
8.8435418577
 30
0.0
 10
14.4976274044
 20
8.8434506216
 30
0.0
 10
14.5019487676
 20
8.8435637754
 30
0.0
 10
14.5084772234
 20
8.8439970892
 30
0.0
 10
14.5173900533
 20
8.8450524446
 30
0.0
 10
14.5286995062
 20
8.8469950898
 30
0.0
 10
14.5364779542
 20
8.8486844917
 30
0.0
 10
14.5404511064
 20
8.8496321595
 30
0.0
  0
SPLINE
  5
3C5
100
AcDbEntity
  8
0
100
AcDbSpline
 62
9
  6
CONTINUOUS
 70
0
 71
3
 72
25
 73
21
 74
0
 42
0.0000001
 43
0.0000001
 44
0.0000000001
 40
0.0
 40
0.0
 40
0.0
 40
0.0
 40
0.1962703789
 40
0.3848417212
 40
0.4738257364
 40
0.5581002926
 40
0.6368327801
 40
0.7091930689
 40
0.7744111473
 40
0.8319463769
 40
0.8813234346
 40
0.9220861489
 40
0.9391165789
 40
0.9538994567
 40
0.9664542408
 40
0.9768180554
 40
0.9850641633
 40
0.9913489972
 40
0.9960415163
 40
1.0
 40
1.0
 40
1.0
 40
1.0
 10
14.2537122012
 20
7.2234601687
 30
0.0
 10
14.249822117
 20
7.22314197
 30
0.0
 10
14.2421896912
 20
7.2225760134
 30
0.0
 10
14.2327825943
 20
7.2220269584
 30
0.0
 10
14.2255940321
 20
7.2217101954
 30
0.0
 10
14.2205856343
 20
7.2215411316
 30
0.0
 10
14.2159061031
 20
7.2214372483
 30
0.0
 10
14.2116044967
 20
7.2213998118
 30
0.0
 10
14.2077243441
 20
7.2214302905
 30
0.0
 10
14.204302341
 20
7.2215266485
 30
0.0
 10
14.2013696856
 20
7.2216868657
 30
0.0
 10
14.1992462834
 20
7.2218795764
 30
0.0
 10
14.1978160421
 20
7.2220749661
 30
0.0
 10
14.1969467281
 20
7.2222273312
 30
0.0
 10
14.1962151587
 20
7.2223934964
 30
0.0
 10
14.1956212563
 20
7.2225725455
 30
0.0
 10
14.1951630048
 20
7.222764285
 30
0.0
 10
14.1948380313
 20
7.2229689512
 30
0.0
 10
14.1946365544
 20
7.2232001773
 30
0.0
 10
14.194611328
 20
7.2233827271
 30
0.0
 10
14.1946249315
 20
7.2234602621
 30
0.0
  0
SPLINE
  5
3C6
100
AcDbEntity
  8
0
100
AcDbSpline
 62
9
  6
CONTINUOUS
 70
0
 71
3
 72
17
 73
13
 74
0
 42
0.0000001
 43
0.0000001
 44
0.0000000001
 40
0.0
 40
0.0
 40
0.0
 40
0.0
 40
0.1240919093
 40
0.1862415605
 40
0.2484490922
 40
0.3730694883
 40
0.4979808859
 40
0.6231745959
 40
0.7486229799
 40
0.8114241622
 40
0.8742691655
 40
1.0
 40
1.0
 40
1.0
 40
1.0
 10
15.1388738527
 20
9.5326695021
 30
0.0
 10
15.1305259056
 20
9.5326694912
 30
0.0
 10
15.1179954286
 20
9.5322616858
 30
0.0
 10
15.1013176765
 20
9.5311642945
 30
0.0
 10
15.0846247762
 20
9.529780417
 30
0.0
 10
15.063761589
 20
9.5276403152
 30
0.0
 10
15.0387109511
 20
9.5248241606
 30
0.0
 10
15.0135919112
 20
9.5221150709
 30
0.0
 10
14.9925878926
 20
9.5202313031
 30
0.0
 10
14.9757336799
 20
9.5190940183
 30
0.0
 10
14.9588434238
 20
9.5182521272
 30
0.0
 10
14.9461559134
 20
9.517978386
 30
0.0
 10
14.937697712
 20
9.5179783191
 30
0.0
  0
SPLINE
  5
3C7
100
AcDbEntity
  8
0
100
AcDbSpline
 62
9
  6
CONTINUOUS
 70
0
 71
3
 72
11
 73
7
 74
0
 42
0.0000001
 43
0.0000001
 44
0.0000000001
 40
0.0
 40
0.0
 40
0.0
 40
0.0
 40
0.2465063439
 40
0.5003247437
 40
0.7539613781
 40
1.0
 40
1.0
 40
1.0
 40
1.0
 10
16.118047273
 20
6.8439056439
 30
0.0
 10
16.1202260205
 20
6.8451996121
 30
0.0
 10
16.1243083698
 20
6.8484291671
 30
0.0
 10
16.129089208
 20
6.854641053
 30
0.0
 10
16.1319974834
 20
6.8619151646
 30
0.0
 10
16.1326923424
 20
6.8670676445
 30
0.0
 10
16.1326923427
 20
6.8695968637
 30
0.0
  0
LINE
  5
3C8
100
AcDbEntity
  8
0
100
AcDbLine
 62
9
  6
CONTINUOUS
 10
16.1201923427
 20
6.8436478822
 11
16.118047273
 21
6.8439056439
  0
SPLINE
  5
3C9
100
AcDbEntity
  8
0
100
AcDbSpline
 62
9
  6
CONTINUOUS
 70
0
 71
3
 72
14
 73
10
 74
0
 42
0.0000001
 43
0.0000001
 44
0.0000000001
 40
0.0
 40
0.0
 40
0.0
 40
0.0
 40
0.245291175
 40
0.371684802
 40
0.4988108684
 40
0.6258794778
 40
0.7523826692
 40
0.8774729131
 40
1.0
 40
1.0
 40
1.0
 40
1.0
 10
16.1160406223
 20
6.8442241091
 30
0.0
 10
16.1182650131
 20
6.8453125773
 30
0.0
 10
16.1214326231
 20
6.847417656
 30
0.0
 10
16.1250696361
 20
6.8509117214
 30
0.0
 10
16.127493311
 20
6.8539090487
 30
0.0
 10
16.1294825964
 20
6.857211782
 30
0.0
 10
16.1310015112
 20
6.8607319068
 30
0.0
 10
16.1320553019
 20
6.8643684147
 30
0.0
 10
16.1324512245
 20
6.8668446028
 30
0.0
 10
16.1325676873
 20
6.868076124
 30
0.0
  0
SPLINE
  5
3CA
100
AcDbEntity
  8
0
100
AcDbSpline
 62
9
  6
CONTINUOUS
 70
0
 71
3
 72
16
 73
12
 74
0
 42
0.0000001
 43
0.0000001
 44
0.0000000001
 40
0.0
 40
0.0
 40
0.0
 40
0.0
 40
0.1257323803
 40
0.1885799614
 40
0.2513829703
 40
0.3768304499
 40
0.5020239057
 40
0.6269354691
 40
0.751556394
 40
0.875908009
 40
1.0
 40
1.0
 40
1.0
 40
1.0
 10
14.9376977117
 20
9.5179620853
 30
0.0
 10
14.9292389751
 20
9.5179620068
 30
0.0
 10
14.9165505775
 20
9.5182431031
 30
0.0
 10
14.8996595387
 20
9.5190936493
 30
0.0
 10
14.8828044465
 20
9.5202338119
 30
0.0
 10
14.8617990877
 20
9.5221148448
 30
0.0
 10
14.8366786393
 20
9.5248223681
 30
0.0
 10
14.8116268381
 20
9.5276403165
 30
0.0
 10
14.7866032978
 20
9.5302054616
 30
0.0
 10
14.7615747593
 20
9.532123589
 30
0.0
 10
14.744859211
 20
9.5326694892
 30
0.0
 10
14.7365108328
 20
9.5326695021
 30
0.0
  0
SPLINE
  5
3CB
100
AcDbEntity
  8
0
100
AcDbSpline
 62
9
  6
CONTINUOUS
 70
0
 71
3
 72
9
 73
5
 74
0
 42
0.0000001
 43
0.0000001
 44
0.0000000001
 40
0.0
 40
0.0
 40
0.0
 40
0.0
 40
0.2285966393
 40
1.0
 40
1.0
 40
1.0
 40
1.0
 10
16.1180473116
 20
6.8439056668
 30
0.0
 10
16.1178927604
 20
6.8438867065
 30
0.0
 10
16.1172088492
 20
6.8438651014
 30
0.0
 10
16.1165338259
 20
6.8440428817
 30
0.0
 10
16.1160406223
 20
6.8442241091
 30
0.0
  0
SPLINE
  5
3CC
100
AcDbEntity
  8
0
100
AcDbSpline
 62
9
  6
CONTINUOUS
 70
0
 71
3
 72
9
 73
5
 74
0
 42
0.0000001
 43
0.0000001
 44
0.0000000001
 40
0.0
 40
0.0
 40
0.0
 40
0.0
 40
0.2495137548
 40
1.0
 40
1.0
 40
1.0
 40
1.0
 10
16.0773424788
 20
6.8442241583
 30
0.0
 10
16.0764474079
 20
6.8441578527
 30
0.0
 10
16.0728579169
 20
6.843925323
 30
0.0
 10
16.0692570451
 20
6.8438497273
 30
0.0
 10
16.066558059
 20
6.8439057061
 30
0.0
  0
LINE
  5
3CD
100
AcDbEntity
  8
0
100
AcDbLine
 62
9
  6
CONTINUOUS
 10
16.0665580572
 20
6.8439057286
 11
16.0226925118
 21
6.8436478816
  0
LINE
  5
3CE
100
AcDbEntity
  8
0
100
AcDbLine
 62
9
  6
CONTINUOUS
 10
13.8526923846
 20
6.8436478822
 11
13.8088277908
 21
6.8439056439
  0
SPLINE
  5
3CF
100
AcDbEntity
  8
0
100
AcDbSpline
 62
9
  6
CONTINUOUS
 70
0
 71
3
 72
9
 73
5
 74
0
 42
0.0000001
 43
0.0000001
 44
0.0000000001
 40
0.0
 40
0.0
 40
0.0
 40
0.0
 40
0.2506214826
 40
1.0
 40
1.0
 40
1.0
 40
1.0
 10
13.8088277926
 20
6.8439056668
 30
0.0
 10
13.8079263397
 20
6.8438871113
 30
0.0
 10
13.8043284457
 20
6.843864421
 30
0.0
 10
13.8007306015
 20
6.8440249781
 30
0.0
 10
13.7980419776
 20
6.8442241091
 30
0.0
  0
SPLINE
  5
3D0
100
AcDbEntity
  8
0
100
AcDbSpline
 62
9
  6
CONTINUOUS
 70
0
 71
3
 72
14
 73
10
 74
0
 42
0.0000001
 43
0.0000001
 44
0.0000000001
 40
0.0
 40
0.0
 40
0.0
 40
0.0
 40
0.2443910357
 40
0.37053148
 40
0.4975573491
 40
0.6247085608
 40
0.7514677201
 40
0.8769544093
 40
1.0
 40
1.0
 40
1.0
 40
1.0
 10
13.7593439636
 20
6.8442241583
 30
0.0
 10
13.7571277398
 20
6.8453086424
 30
0.0
 10
13.753968948
 20
6.8474049162
 30
0.0
 10
13.7503372579
 20
6.8508862565
 30
0.0
 10
13.7479120449
 20
6.8538788187
 30
0.0
 10
13.7459182192
 20
6.8571816454
 30
0.0
 10
13.7443928422
 20
6.8607070949
 30
0.0
 10
13.7433326777
 20
6.8643541324
 30
0.0
 10
13.742934212
 20
6.8668393715
 30
0.0
 10
13.7428171344
 20
6.8680760931
 30
0.0
  0
SPLINE
  5
3D1
100
AcDbEntity
  8
0
100
AcDbSpline
 62
9
  6
CONTINUOUS
 70
0
 71
3
 72
11
 73
7
 74
0
 42
0.0000001
 43
0.0000001
 44
0.0000000001
 40
0.0
 40
0.0
 40
0.0
 40
0.0
 40
0.2483623777
 40
0.5028760592
 40
0.7558074712
 40
1.0
 40
1.0
 40
1.0
 40
1.0
 10
13.7573374637
 20
6.8439057061
 30
0.0
 10
13.7551423078
 20
6.8452094097
 30
0.0
 10
13.7510426072
 20
6.8484614556
 30
0.0
 10
13.7462628953
 20
6.8546984728
 30
0.0
 10
13.74337667
 20
6.8619605384
 30
0.0
 10
13.7426923435
 20
6.867086639
 30
0.0
 10
13.7426923427
 20
6.8695968804
 30
0.0
  0
SPLINE
  5
3D2
100
AcDbEntity
  8
0
100
AcDbSpline
 62
9
  6
CONTINUOUS
 70
0
 71
3
 72
10
 73
6
 74
0
 42
0.0000001
 43
0.0000001
 44
0.0000000001
 40
0.0
 40
0.0
 40
0.0
 40
0.0
 40
0.272934674
 40
0.6532070389
 40
1.0
 40
1.0
 40
1.0
 40
1.0
 10
13.7593439636
 20
6.8442241583
 30
0.0
 10
13.7591690933
 20
6.8441598747
 30
0.0
 10
13.7587453036
 20
6.8440194853
 30
0.0
 10
13.758073678
 20
6.843883739
 30
0.0
 10
13.7575724103
 20
6.8438767112
 30
0.0
 10
13.7573374637
 20
6.8439057061
 30
0.0
  0
LINE
  5
3D3
100
AcDbEntity
  8
0
100
AcDbLine
 62
9
  6
CONTINUOUS
 10
13.7573374256
 20
6.8439057286
 11
13.7551923436
 21
6.8436478816
  0
SPLINE
  5
3D4
100
AcDbEntity
  8
0
100
AcDbSpline
 62
9
  6
CONTINUOUS
 70
0
 71
3
 72
15
 73
11
 74
0
 42
0.0000001
 43
0.0000001
 44
0.0000000001
 40
0.0
 40
0.0
 40
0.0
 40
0.0
 40
0.1280733939
 40
0.2552094156
 40
0.3813549391
 40
0.5065943117
 40
0.6309688218
 40
0.7545286925
 40
0.8774597939
 40
1.0
 40
1.0
 40
1.0
 40
1.0
 10
15.1388738528
 20
9.5626695021
 30
0.0
 10
15.130224012
 20
9.562669465
 30
0.0
 10
15.1129837216
 20
9.5619513142
 30
0.0
 10
15.0873575683
 20
9.5592734803
 30
0.0
 10
15.0620577362
 20
9.5555751141
 30
0.0
 10
15.0370282546
 20
9.5513823501
 30
0.0
 10
15.0121713307
 20
9.5472172398
 30
0.0
 10
14.9873742283
 20
9.5436459679
 30
0.0
 10
14.9625558979
 20
9.5412409399
 30
0.0
 10
14.9459735347
 20
9.5406328374
 30
0.0
 10
14.9376973951
 20
9.5406327275
 30
0.0
  0
SPLINE
  5
3D5
100
AcDbEntity
  8
0
100
AcDbSpline
 62
9
  6
CONTINUOUS
 70
0
 71
3
 72
15
 73
11
 74
0
 42
0.0000001
 43
0.0000001
 44
0.0000000001
 40
0.0
 40
0.0
 40
0.0
 40
0.0
 40
0.1225409382
 40
0.2454731691
 40
0.3690332348
 40
0.4934074381
 40
0.6186466234
 40
0.7447918074
 40
0.871927077
 40
1.0
 40
1.0
 40
1.0
 40
1.0
 10
14.9376973951
 20
9.5406327275
 30
0.0
 10
14.9294207938
 20
9.5406326124
 30
0.0
 10
14.9128374619
 20
9.5412403818
 30
0.0
 10
14.8880177155
 20
9.5436451374
 30
0.0
 10
14.8632192692
 20
9.5472163278
 30
0.0
 10
14.8383611077
 20
9.5513815311
 30
0.0
 10
14.8133304423
 20
9.5555745358
 30
0.0
 10
14.7880294534
 20
9.5592731941
 30
0.0
 10
14.7624021399
 20
9.5619512645
 30
0.0
 10
14.7451610724
 20
9.5626694702
 30
0.0
 10
14.7365108324
 20
9.5626695021
 30
0.0
  0
SPLINE
  5
3D6
100
AcDbEntity
  8
0
100
AcDbSpline
 62
9
  6
CONTINUOUS
 70
0
 71
3
 72
22
 73
18
 74
0
 42
0.0000001
 43
0.0000001
 44
0.0000000001
 40
0.0
 40
0.0
 40
0.0
 40
0.0
 40
0.1960791987
 40
0.3819679947
 40
0.550693948
 40
0.6266631136
 40
0.6960428503
 40
0.7581983001
 40
0.8127925921
 40
0.8596344574
 40
0.8986979118
 40
0.9303625027
 40
0.9559085117
 40
0.967160479
 40
0.9779283576
 40
0.988709975
 40
1.0
 40
1.0
 40
1.0
 40
1.0
 10
15.3349336841
 20
8.8496305934
 30
0.0
 10
15.3389060938
 20
8.8486829958
 30
0.0
 10
15.3466831068
 20
8.8469938617
 30
0.0
 10
15.3579908975
 20
8.8450516654
 30
0.0
 10
15.3669027856
 20
8.8439962398
 30
0.0
 10
15.3734311772
 20
8.8435626433
 30
0.0
 10
15.3777529635
 20
8.8434492451
 30
0.0
 10
15.3816304579
 20
8.8435402599
 30
0.0
 10
15.3850281028
 20
8.8438305911
 30
0.0
 10
15.387918283
 20
8.8443132057
 30
0.0
 10
15.3902813708
 20
8.8449838022
 30
0.0
 10
15.3921055024
 20
8.8458431158
 30
0.0
 10
15.3932221166
 20
8.8467740204
 30
0.0
 10
15.3937677946
 20
8.8476092793
 30
0.0
 10
15.3940108253
 20
8.8482540112
 30
0.0
 10
15.3941018039
 20
8.8489375204
 30
0.0
 10
15.3940628552
 20
8.8493992602
 30
0.0
 10
15.3940219525
 20
8.8496308201
 30
0.0
  0
SPLINE
  5
3D7
100
AcDbEntity
  8
0
100
AcDbSpline
 62
9
  6
CONTINUOUS
 70
0
 71
3
 72
25
 73
21
 74
0
 42
0.0000001
 43
0.0000001
 44
0.0000000001
 40
0.0
 40
0.0
 40
0.0
 40
0.0
 40
0.0039585588
 40
0.0086508396
 40
0.0149354261
 40
0.0231814992
 40
0.0335456421
 40
0.0461012406
 40
0.0608855317
 40
0.077918082
 40
0.1186871351
 40
0.1680718461
 40
0.2256140358
 40
0.2908363674
 40
0.3631967532
 40
0.4419259842
 40
0.5261952949
 40
0.6151734378
 40
0.8037350059
 40
1.0
 40
1.0
 40
1.0
 40
1.0
 10
15.6807597365
 20
7.2234603617
 30
0.0
 10
15.6807733545
 20
7.2233828261
 30
0.0
 10
15.6807481689
 20
7.2232002692
 30
0.0
 10
15.680546721
 20
7.2229690143
 30
0.0
 10
15.6802217599
 20
7.2227643313
 30
0.0
 10
15.6797635028
 20
7.2225725752
 30
0.0
 10
15.6791695683
 20
7.2223935109
 30
0.0
 10
15.678437934
 20
7.2222273317
 30
0.0
 10
15.6775685157
 20
7.2220749545
 30
0.0
 10
15.6761380481
 20
7.2218795498
 30
0.0
 10
15.6740142801
 20
7.2216868366
 30
0.0
 10
15.6710811465
 20
7.2215266235
 30
0.0
 10
15.6676586971
 20
7.2214302761
 30
0.0
 10
15.6637782394
 20
7.221399812
 30
0.0
 10
15.6594765226
 20
7.2214372671
 30
0.0
 10
15.6547970624
 20
7.2215411712
 30
0.0
 10
15.6497888477
 20
7.2217102544
 30
0.0
 10
15.6426005537
 20
7.2220270389
 30
0.0
 10
15.6331936815
 20
7.2225761015
 30
0.0
 10
15.6255613996
 20
7.2231420582
 30
0.0
 10
15.6216713423
 20
7.2234602621
 30
0.0
  0
SPLINE
  5
3D8
100
AcDbEntity
  8
0
100
AcDbSpline
 62
9
  6
CONTINUOUS
 70
0
 71
3
 72
14
 73
10
 74
0
 42
0.0000001
 43
0.0000001
 44
0.0000000001
 40
0.0
 40
0.0
 40
0.0
 40
0.0
 40
0.0597193084
 40
0.1285377114
 40
0.2147999268
 40
0.3227504591
 40
0.4544467906
 40
0.6109225877
 40
1.0
 40
1.0
 40
1.0
 40
1.0
 10
16.1326923427
 20
6.870685355
 30
0.0
 10
16.1326923305
 20
6.8707553659
 30
0.0
 10
16.1326532945
 20
6.8709076653
 30
0.0
 10
16.1324898518
 20
6.8711057729
 30
0.0
 10
16.132236396
 20
6.8712848244
 30
0.0
 10
16.1318912167
 20
6.8714512454
 30
0.0
 10
16.1314529913
 20
6.8716066823
 30
0.0
 10
16.1306863134
 20
6.8718149371
 30
0.0
 10
16.1300559652
 20
6.8719296003
 30
0.0
 10
16.1296052764
 20
6.8719998296
 30
0.0
  0
SPLINE
  5
3D9
100
AcDbEntity
  8
0
100
AcDbSpline
 62
9
  6
CONTINUOUS
 70
0
 71
3
 72
15
 73
11
 74
0
 42
0.0000001
 43
0.0000001
 44
0.0000000001
 40
0.0
 40
0.0
 40
0.0
 40
0.0
 40
0.0292488164
 40
0.0642992944
 40
0.1510799002
 40
0.2585344306
 40
0.383966028
 40
0.5243897065
 40
0.6764332301
 40
1.0
 40
1.0
 40
1.0
 40
1.0
 10
16.1296052764
 20
6.8719998296
 30
0.0
 10
16.1290562142
 20
6.8720853882
 30
0.0
 10
16.1278429528
 20
6.8722332577
 30
0.0
 10
16.1249819029
 20
6.8724682938
 30
0.0
 10
16.1206274577
 20
6.8726381419
 30
0.0
 10
16.114554137
 20
6.8726933583
 30
0.0
 10
16.1074618093
 20
6.8726040953
 30
0.0
 10
16.0995253672
 20
6.8723710827
 30
0.0
 10
16.0878332317
 20
6.8718423105
 30
0.0
 10
16.078816305
 20
6.8712209587
 30
0.0
 10
16.0726923426
 20
6.8706853943
 30
0.0
  0
LINE
  5
3DA
100
AcDbEntity
  8
0
100
AcDbLine
 62
9
  6
CONTINUOUS
 10
13.8108739383
 20
6.8695968814
 11
13.8026923438
 21
6.8706853606
  0
SPLINE
  5
3DB
100
AcDbEntity
  8
0
100
AcDbSpline
 62
9
  6
CONTINUOUS
 70
0
 71
3
 72
9
 73
5
 74
0
 42
0.0000001
 43
0.0000001
 44
0.0000000001
 40
0.0
 40
0.0
 40
0.0
 40
0.0
 40
0.2508227134
 40
1.0
 40
1.0
 40
1.0
 40
1.0
 10
13.8526923985
 20
6.8680148637
 30
0.0
 10
13.8491930638
 20
6.8680146812
 30
0.0
 10
13.8352422366
 20
6.8681343182
 30
0.0
 10
13.8212930516
 20
6.8687672377
 30
0.0
 10
13.8108739375
 20
6.8695968714
 30
0.0
  0
SPLINE
  5
3DC
100
AcDbEntity
  8
0
100
AcDbSpline
 62
9
  6
CONTINUOUS
 70
0
 71
3
 72
9
 73
5
 74
0
 42
0.0000001
 43
0.0000001
 44
0.0000000001
 40
0.0
 40
0.0
 40
0.0
 40
0.0
 40
0.2489663416
 40
1.0
 40
1.0
 40
1.0
 40
1.0
 10
16.0645108061
 20
6.8695968755
 30
0.0
 10
16.0610482706
 20
6.8693212756
 30
0.0
 10
16.0471281368
 20
6.8683727185
 30
0.0
 10
16.0331704256
 20
6.868014976
 30
0.0
 10
16.0226922817
 20
6.8680148631
 30
0.0
  0
SPLINE
  5
3DD
100
AcDbEntity
  8
0
100
AcDbSpline
 62
9
  6
CONTINUOUS
 70
0
 71
3
 72
24
 73
20
 74
0
 42
0.0000001
 43
0.0000001
 44
0.0000000001
 40
0.0
 40
0.0
 40
0.0
 40
0.0
 40
0.1935461931
 40
0.3800367448
 40
0.5516100405
 40
0.6298270193
 40
0.7020152478
 40
0.7674825106
 40
0.8255439317
 40
0.8756400819
 40
0.9173897251
 40
0.9350307748
 40
0.950468055
 40
0.9636887513
 40
0.9747187955
 40
0.9836194222
 40
0.9905241767
 40
0.9957431452
 40
1.0
 40
1.0
 40
1.0
 40
1.0
 10
13.8026923427
 20
6.870685355
 30
0.0
 10
13.7988032063
 20
6.8710253782
 30
0.0
 10
13.7911585085
 20
6.8716016489
 30
0.0
 10
13.7800482757
 20
6.8722124379
 30
0.0
 10
13.7712530054
 20
6.8725242793
 30
0.0
 10
13.7647595263
 20
6.8726484129
 30
0.0
 10
13.7604052031
 20
6.8726797078
 30
0.0
 10
13.7564573951
 20
6.8726526333
 30
0.0
 10
13.7529560152
 20
6.8725682964
 30
0.0
 10
13.7499353459
 20
6.8724262945
 30
0.0
 10
13.7477330677
 20
6.8722516155
 30
0.0
 10
13.7462343019
 20
6.8720714232
 30
0.0
 10
13.7453112459
 20
6.8719281245
 30
0.0
 10
13.7445262641
 20
6.8717689692
 30
0.0
 10
13.7438802837
 20
6.8715941397
 30
0.0
 10
13.7433720253
 20
6.8714037683
 30
0.0
 10
13.7430001212
 20
6.8711962873
 30
0.0
 10
13.7427551515
 20
6.8709639356
 30
0.0
 10
13.7426923657
 20
6.8707712582
 30
0.0
 10
13.7426923427
 20
6.8706853943
 30
0.0
  0
LINE
  5
3DE
100
AcDbEntity
  8
0
100
AcDbLine
 62
9
  6
CONTINUOUS
 10
16.0726923441
 20
6.8706853853
 11
16.0645108064
 21
6.8695968714
  0
ENDSEC
  0
SECTION
  2
OBJECTS
  0
DICTIONARY
  5
C
100
AcDbDictionary
280
0
281
1
  3
ACAD_GROUP
350
D
  3
ACAD_MLINESTYLE
350
17
  3
ACAD_LAYOUT
350
1A
  3
ACAD_PLOTSETTINGS
350
19
  3
ACAD_PLOTSTYLENAME
350
E
  0
DICTIONARY
  5
D
102
{ACAD_REACTORS
330
C
102
}
100
AcDbDictionary
280
0
281
1
  0
ACDBDICTIONARYWDFLT
  5
E
102
{ACAD_REACTORS
330
C
102
}
100
AcDbDictionary
281
1
  3
Normal
350
F
100
AcDbDictionaryWithDefault
340
F
  0
DICTIONARY
  5
17
102
{ACAD_REACTORS
330
C
102
}
100
AcDbDictionary
280
0
281
1
  3
Standard
350
18
  0
DICTIONARY
  5
19
102
{ACAD_REACTORS
330
C
102
}
100
AcDbDictionary
281
1
  0
DICTIONARY
  5
1A
102
{ACAD_REACTORS
330
C
102
}
100
AcDbDictionary
281
1
  3
Model
350
3DF
  3
Layout1
350
3E0
  0
ACDBPLACEHOLDER
  5
F
102
{ACAD_REACTORS
330
E
102
}
  0
MLINESTYLE
  5
18
102
{ACAD_REACTORS
330
17
102
}
100
AcDbMlineStyle
  2
STANDARD
 70
0
  3

 62
256
 51
90.0
 52
90.0
 71
2
 49
0.5
 62
256
  6
BYLAYER
 49
-0.5
 62
256
  6
BYLAYER
  0
LAYOUT
  5
3DF
102
{ACAD_REACTORS
330
1A
102
}
100
AcDbPlotSettings
  1

  2
none_device
  4
ANSI_C_(22.00_x_17.00_Inches)
  6

 40
0.0
 41
0.0
 42
0.0
 43
0.0
 44
558.8
 45
431.8
 46
0.0
 47
0.0
 48
0.0
 49
0.0
140
0.0
141
0.0
142
1.0
143
1.0
 70
1024
 72
0
 73
0
 74
0
  7

 75
0
147
1.0
148
0.0
149
0.0
100
AcDbLayout
  1
Model
 70
0
 71
0
 10
0.0
 20
0.0
 11
22.0
 21
17.0
 12
0.0
 22
0.0
 32
0.0
 14
0.0
 24
0.0
 34
0.0
 15
0.0
 25
0.0
 35
0.0
146
0.0
 13
0.0
 23
0.0
 33
0.0
 16
1.0
 26
0.0
 36
0.0
 17
0.0
 27
1.0
 37
0.0
 76
0
330
202
345
0
346
0
  0
LAYOUT
  5
3E0
102
{ACAD_REACTORS
330
1A
102
}
100
AcDbPlotSettings
  1

  2
none_device
  4
ANSI_C_(22.00_x_17.00_Inches)
  6

 40
0.0
 41
0.0
 42
0.0
 43
0.0
 44
558.8
 45
431.8
 46
0.0
 47
0.0
 48
0.0
 49
0.0
140
0.0
141
0.0
142
1.0
143
1.0
 70
0
 72
0
 73
0
 74
0
  7

 75
0
147
1.0
148
0.0
149
0.0
100
AcDbLayout
  1
Layout1
 70
0
 71
1
 10
0.0
 20
0.0
 11
22.0
 21
17.0
 12
0.0
 22
0.0
 32
0.0
 14
0.0
 24
0.0
 34
0.0
 15
0.0
 25
0.0
 35
0.0
146
0.0
 13
0.0
 23
0.0
 33
0.0
 16
1.0
 26
0.0
 36
0.0
 17
0.0
 27
1.0
 37
0.0
 76
0
330
203
345
0
346
0
  0
ENDSEC
  0
EOF
