999
DXF file: E:\BT Custom\CADOUTPUT\_RIGHT.dxf
999
Pro/ENGINEER 2018400 by Parametric Technology Corporation
  0
SECTION
  2
HEADER
  9
$ACADVER
  1
AC1018
  9
$DWGCODEPAGE
  3
ANSI_1252
  9
$EXTMAX
 10
22.0
 20
17.0
 30
0.0
  9
$EXTMIN
 10
0.0
 20
0.0
 30
0.0
  9
$LIMMIN
 10
0.0
 20
0.0
  9
$LIMMAX
 10
22.0
 20
17.0
  9
$VIEWCTR
 10
11.0
 20
8.5
  9
$VIEWSIZE
 40
17.0
  9
$CLAYER
  8
0
  9
$LTSCALE
 40
1.21
  9
$CELTYPE
  6
BYLAYER
  9
$DIMSCALE
 40
1.0
  9
$DIMASZ
 40
0.1
  9
$DIMEXO
 40
0.0625
  9
$DIMDLI
 40
0.836
  9
$DIMEXE
 40
0.125
  9
$DIMCEN
 40
0.198
  9
$DIMLFAC
 40
1.0
  9
$DIMBLK
  1
_FILLED
  9
$DIMALT
 70
1
  9
$DIMALTD
 70
2
  9
$DIMALTTD
 70
2
  9
$DIMALTF
 40
25.4
  9
$DIMTXT
 40
0.08
  9
$DIMTOL
 70
1
  9
$DIMLIM
 70
0
  9
$DIMTFAC
 40
1.0
  9
$DIMTP
 40
0.001
  9
$DIMTM
 40
0.001
  9
$DIMGAP
 40
0.09
  9
$DIMDSEP
 70
46
  9
$AUNITS
 70
0
  9
$PDMODE
 70
3
  9
$PDSIZE
 40
0.06
  9
$HANDSEED
  5
33C
  9
$TILEMODE
 70
1
  9
$MEASUREMENT
 70
0
  9
$INSUNITS
 70
1
  0
ENDSEC
  0
SECTION
  2
CLASSES
  0
CLASS
  1
ACDBDICTIONARYWDFLT
  2
AcDbDictionaryWithDefault
  3
AutoCAD 2000
 90
0
 91
1
280
0
281
0
  0
CLASS
  1
ACDBPLACEHOLDER
  2
AcDbPlaceHolder
  3
AutoCAD 2000
 90
0
 91
1
280
0
281
0
  0
CLASS
  1
LAYOUT
  2
AcDbLayout
  3
AutoCAD 2000
 90
0
 91
0
280
0
281
0
  0
ENDSEC
  0
SECTION
  2
TABLES
  0
TABLE
  2
VPORT
  5
8
100
AcDbSymbolTable
 70
2
  0
VPORT
  5
1F4
100
AcDbSymbolTableRecord
100
AcDbViewportTableRecord
  2
*ACTIVE
 70
0
 10
0.0
 20
0.0
 11
1.0
 21
1.0
 12
11.0
 22
8.5
 13
0.0
 23
0.0
 14
1.0
 24
1.0
 15
0.0
 25
0.0
 16
0.0
 26
0.0
 36
1.0
 17
0.0
 27
0.0
 37
0.0
 40
17.0
 41
1.2941176471
 42
50.0
 43
0.0
 44
0.0
 50
0.0
 51
0.0
 71
0
 72
100
 73
1
 74
1
 75
0
 76
0
 77
0
 78
0
  0
ENDTAB
  0
TABLE
  2
LTYPE
  5
5
100
AcDbSymbolTable
 70
6
  0
LTYPE
  5
14
100
AcDbSymbolTableRecord
100
AcDbLinetypeTableRecord
  2
BYBLOCK
 70
0
  3

 72
65
 73
0
 40
0.0
  0
LTYPE
  5
15
100
AcDbSymbolTableRecord
100
AcDbLinetypeTableRecord
  2
BYLAYER
 70
0
  3

 72
65
 73
0
 40
0.0
  0
LTYPE
  5
16
100
AcDbSymbolTableRecord
100
AcDbLinetypeTableRecord
  2
CONTINUOUS
 70
64
  3
Solid line
 72
65
 73
0
 40
0.0
  0
LTYPE
  5
1F5
100
AcDbSymbolTableRecord
100
AcDbLinetypeTableRecord
  2
CENTER
 70
64
  3
____ _ ____ _ ____ _ ____ _ ____ _ ____ _ ____
 72
65
 73
4
 40
0.6
 49
0.375
 74
0
 49
-0.075
 74
0
 49
0.075
 74
0
 49
-0.075
 74
0
  0
LTYPE
  5
1F6
100
AcDbSymbolTableRecord
100
AcDbLinetypeTableRecord
  2
HIDDEN
 70
64
  3
- - - - - - - - - - - - - - - - - - - -
 72
65
 73
2
 40
0.2
 49
0.1
 74
0
 49
-0.1
 74
0
  0
LTYPE
  5
1F7
100
AcDbSymbolTableRecord
100
AcDbLinetypeTableRecord
  2
PHANTOM
 70
64
  3
_____ _ _ _____ _ _ _____ _ _ _____
 72
65
 73
6
 40
0.8
 49
0.45
 74
0
 49
-0.05
 74
0
 49
0.1
 74
0
 49
-0.05
 74
0
 49
0.1
 74
0
 49
-0.05
 74
0
  0
LTYPE
  5
1F8
100
AcDbSymbolTableRecord
100
AcDbLinetypeTableRecord
  2
DOT
 70
64
  3
. . . . . . . . . . . . . . . . . . . .
 72
65
 73
2
 40
0.2
 49
0.1
 74
0
 49
-0.1
 74
0
  0
LTYPE
  5
1F9
100
AcDbSymbolTableRecord
100
AcDbLinetypeTableRecord
  2
DASHED
 70
64
  3
- - - - - - - - - - - - - - - - - - - -
 72
65
 73
2
 40
0.2
 49
0.1
 74
0
 49
-0.1
 74
0
  0
ENDTAB
  0
TABLE
  2
LAYER
  5
2
100
AcDbSymbolTable
 70
36
  0
LAYER
  5
10
100
AcDbSymbolTableRecord
100
AcDbLayerTableRecord
  2
0
 70
0
 62
7
  6
CONTINUOUS
370
-3
390
F
  0
LAYER
  5
1FA
100
AcDbSymbolTableRecord
100
AcDbLayerTableRecord
  2
DEFAULT_1
 70
0
 62
7
  6
CENTER
370
-3
390
F
  0
LAYER
  5
1FB
100
AcDbSymbolTableRecord
100
AcDbLayerTableRecord
  2
DEFAULT_2
 70
0
 62
8
  6
HIDDEN
370
-3
390
F
  0
LAYER
  5
1FC
100
AcDbSymbolTableRecord
100
AcDbLayerTableRecord
  2
DEFAULT_3
 70
0
 62
7
  6
PHANTOM
370
-3
390
F
  0
LAYER
  5
1FD
100
AcDbSymbolTableRecord
100
AcDbLayerTableRecord
  2
ALL_FEATURES
 70
0
 62
7
  6
CONTINUOUS
370
-3
390
F
  0
LAYER
  5
1FE
100
AcDbSymbolTableRecord
100
AcDbLayerTableRecord
  2
AXES_FEATURES
 70
0
 62
7
  6
CONTINUOUS
370
-3
390
F
  0
LAYER
  5
1FF
100
AcDbSymbolTableRecord
100
AcDbLayerTableRecord
  2
DIMENSIONS
 70
0
 62
7
  6
CONTINUOUS
370
-3
390
F
  0
ENDTAB
  0
TABLE
  2
STYLE
  5
3
100
AcDbSymbolTable
 70
1
  0
STYLE
  5
11
100
AcDbSymbolTableRecord
100
AcDbTextStyleTableRecord
  2
STANDARD
 70
0
 40
0.0
 41
0.8
 50
0.0
 71
0
 42
0.2
  3
txt
  4

  0
STYLE
  5
200
100
AcDbSymbolTableRecord
100
AcDbTextStyleTableRecord
  2
TEXTSTYLE_1
 70
0
 40
0.0
 41
0.8
 50
0.0
 71
0
 42
0.2
  3
gdt
  4

  0
ENDTAB
  0
TABLE
  2
VIEW
  5
6
100
AcDbSymbolTable
 70
0
  0
ENDTAB
  0
TABLE
  2
UCS
  5
7
100
AcDbSymbolTable
 70
0
  0
ENDTAB
  0
TABLE
  2
APPID
  5
9
100
AcDbSymbolTable
 70
1
  0
APPID
  5
201
100
AcDbSymbolTableRecord
100
AcDbRegAppTableRecord
  2
ACAD
 70
0
  0
ENDTAB
  0
TABLE
  2
BLOCK_RECORD
  5
1
100
AcDbSymbolTable
 70
0
  0
BLOCK_RECORD
  5
202
100
AcDbSymbolTableRecord
100
AcDbBlockTableRecord
  2
*Model_Space
  0
BLOCK_RECORD
  5
203
100
AcDbSymbolTableRecord
100
AcDbBlockTableRecord
  2
*Paper_Space
  0
BLOCK_RECORD
  5
204
100
AcDbSymbolTableRecord
100
AcDbBlockTableRecord
  2
_FILLED
  0
ENDTAB
  0
TABLE
  2
DIMSTYLE
  5
A
100
AcDbSymbolTable
 70
1
100
AcDbDimStyleTable
 71
0
  0
DIMSTYLE
105
205
100
AcDbSymbolTableRecord
100
AcDbDimStyleTableRecord
  2
STANDARD
 70
0
  3

  4

 40
1.0
 41
0.1
 42
0.0625
 43
0.38
 44
0.125
 45
0.0
 46
0.0
 47
0.001
 48
0.001
140
0.08
141
0.09
142
0.0
143
25.4
144
1.0
145
0.0
146
1.0
147
0.09
 71
1.0
 72
0.0
 73
1
 74
1
 75
0
 76
0
 77
0
 78
4
 79
1
170
1
171
2
172
0
173
0
174
0
175
0
176
0
177
0
178
0
270
2
179
3
271
3
272
3
273
2
274
2
275
0
280
0
281
0
282
0
283
1
284
4
285
0
286
0
287
3
288
0
340
11
278
46
341
204
342
204
343
204
344
204
  0
ENDTAB
  0
ENDSEC
  0
SECTION
  2
BLOCKS
  0
BLOCK
  5
20
100
AcDbEntity
  8
0
100
AcDbBlockBegin
  2
*Model_Space
 70
0
 10
0.0
 20
0.0
 30
0.0
  3
*Model_Space
  1

  0
ENDBLK
  5
21
100
AcDbEntity
  8
0
100
AcDbBlockEnd
  0
BLOCK
  5
1C
100
AcDbEntity
  8
0
100
AcDbBlockBegin
  2
*Paper_Space
 70
0
 10
0.0
 20
0.0
 30
0.0
  3
*Paper_Space
  1

  0
ENDBLK
  5
1D
100
AcDbEntity
  8
0
100
AcDbBlockEnd
  0
BLOCK
  5
206
100
AcDbEntity
  8
0
100
AcDbBlockBegin
  2
_FILLED
 70
64
 10
0.0
 20
0.0
  3
_FILLED
  1

  0
SOLID
  5
207
100
AcDbEntity
  8
0
  6
BYBLOCK
 62
0
100
AcDbTrace
 10
0.0
 20
0.0
 11
-1.0
 21
0.2
 12
-1.0
 22
-0.2
 13
-1.0
 23
-0.2
  0
ENDBLK
  5
208
100
AcDbEntity
  8
0
  6
BYBLOCK
 62
0
100
AcDbBlockEnd
  0
ENDSEC
  0
SECTION
  2
ENTITIES
  0
LINE
  5
209
100
AcDbEntity
  8
0
100
AcDbLine
 62
7
  6
CONTINUOUS
 10
-0.3902053198
 20
6.833391804
 11
-0.3902053198
 21
6.913391804
  0
LINE
  5
20A
100
AcDbEntity
  8
0
100
AcDbLine
 62
7
  6
CONTINUOUS
 10
0.5347946802
 20
6.833391804
 11
0.5347946802
 21
6.913391804
  0
LINE
  5
20B
100
AcDbEntity
  8
0
100
AcDbLine
 62
7
  6
CONTINUOUS
 10
3.6972946802
 20
6.973391804
 11
3.6972946802
 21
7.143391804
  0
LINE
  5
20C
100
AcDbEntity
  8
0
100
AcDbLine
 62
9
  6
CONTINUOUS
 10
3.7372946802
 20
7.183391804
 11
3.7372946802
 21
6.933391804
  0
LINE
  5
20D
100
AcDbEntity
  8
0
100
AcDbLine
 62
7
  6
CONTINUOUS
 10
3.8722946802
 20
6.918391804
 11
3.8722946802
 21
6.583391804
  0
LINE
  5
20E
100
AcDbEntity
  8
0
100
AcDbLine
 62
7
  6
CONTINUOUS
 10
4.2722946802
 20
6.918391804
 11
4.2722946802
 21
6.583391804
  0
LINE
  5
20F
100
AcDbEntity
  8
0
100
AcDbLine
 62
9
  6
CONTINUOUS
 10
4.4072946802
 20
6.933391804
 11
4.4072946802
 21
7.183391804
  0
LINE
  5
210
100
AcDbEntity
  8
0
100
AcDbLine
 62
7
  6
CONTINUOUS
 10
4.4472946802
 20
7.143391804
 11
4.4472946802
 21
6.973391804
  0
LINE
  5
211
100
AcDbEntity
  8
0
100
AcDbLine
 62
7
  6
CONTINUOUS
 10
-0.7177053198
 20
6.333391804
 11
0.8622946802
 21
6.333391804
  0
LINE
  5
212
100
AcDbEntity
  8
0
100
AcDbLine
 62
7
  6
CONTINUOUS
 10
3.4163001218
 20
6.333391804
 11
4.7282892386
 21
6.333391804
  0
LINE
  5
213
100
AcDbEntity
  8
0
100
AcDbLine
 62
7
  6
CONTINUOUS
 10
10.9272946802
 20
6.333391804
 11
13.2172946802
 21
6.333391804
  0
LINE
  5
214
100
AcDbEntity
  8
0
100
AcDbLine
 62
7
  6
CONTINUOUS
 10
20.0598116017
 20
6.333391804
 11
22.0847777587
 21
6.333391804
  0
LINE
  5
215
100
AcDbEntity
  8
0
100
AcDbLine
 62
7
  6
CONTINUOUS
 10
4.5518718926
 20
6.458391804
 11
3.5927236097
 21
6.458391804
  0
LINE
  5
216
100
AcDbEntity
  8
0
100
AcDbLine
 62
9
  6
CONTINUOUS
 10
13.1572946802
 20
6.5127692266
 11
10.9872946802
 21
6.5127692266
  0
LINE
  5
217
100
AcDbEntity
  8
0
100
AcDbLine
 62
9
  6
CONTINUOUS
 10
22.0847946802
 20
6.5823592717
 11
20.0597946802
 21
6.5823592717
  0
LINE
  5
218
100
AcDbEntity
  8
0
100
AcDbLine
 62
7
  6
CONTINUOUS
 10
4.3646171076
 20
6.583391804
 11
3.7799722529
 21
6.583391804
  0
LINE
  5
219
100
AcDbEntity
  8
0
100
AcDbLine
 62
9
  6
CONTINUOUS
 10
13.1572947475
 20
6.5858701839
 11
10.9872947221
 21
6.5858701839
  0
LINE
  5
21A
100
AcDbEntity
  8
0
100
AcDbLine
 62
9
  6
CONTINUOUS
 10
10.987294736
 20
6.61023717
 11
13.1572946192
 21
6.61023717
  0
LINE
  5
21B
100
AcDbEntity
  8
0
100
AcDbLine
 62
7
  6
CONTINUOUS
 10
22.0472946802
 20
6.653391804
 11
20.0972946802
 21
6.653391804
  0
LINE
  5
21C
100
AcDbEntity
  8
0
100
AcDbLine
 62
9
  6
CONTINUOUS
 10
13.2672946802
 20
6.713391804
 11
10.8772946802
 21
6.713391804
  0
LINE
  5
21D
100
AcDbEntity
  8
0
100
AcDbLine
 62
7
  6
CONTINUOUS
 10
10.9072946802
 20
6.743391804
 11
13.2372946802
 21
6.743391804
  0
LINE
  5
21E
100
AcDbEntity
  8
0
100
AcDbLine
 62
7
  6
CONTINUOUS
 10
11.1997946802
 20
6.753391804
 11
12.9447946802
 21
6.753391804
  0
LINE
  5
21F
100
AcDbEntity
  8
0
100
AcDbLine
 62
7
  6
CONTINUOUS
 10
0.5672942109
 20
6.833391804
 11
-0.4227048505
 21
6.833391804
  0
LINE
  5
220
100
AcDbEntity
  8
0
100
AcDbLine
 62
9
  6
CONTINUOUS
 10
12.9447946802
 20
6.910891804
 11
11.1997946802
 21
6.910891804
  0
LINE
  5
221
100
AcDbEntity
  8
0
100
AcDbLine
 62
9
  6
CONTINUOUS
 10
0.5347946802
 20
6.913391804
 11
-0.3902053198
 21
6.913391804
  0
LINE
  5
222
100
AcDbEntity
  8
0
100
AcDbLine
 62
9
  6
CONTINUOUS
 10
4.2722946802
 20
6.918391804
 11
3.8722946802
 21
6.918391804
  0
LINE
  5
223
100
AcDbEntity
  8
0
100
AcDbLine
 62
7
  6
CONTINUOUS
 10
4.4072946802
 20
6.933391804
 11
3.7372946802
 21
6.933391804
  0
LINE
  5
224
100
AcDbEntity
  8
0
100
AcDbLine
 62
7
  6
CONTINUOUS
 10
11.2297946802
 20
6.940891804
 11
12.9147946802
 21
6.940891804
  0
LINE
  5
225
100
AcDbEntity
  8
0
100
AcDbLine
 62
9
  6
CONTINUOUS
 10
11.3883156979
 20
6.9656823587
 11
12.7562736625
 21
6.9656823587
  0
LINE
  5
226
100
AcDbEntity
  8
0
100
AcDbLine
 62
9
  6
CONTINUOUS
 10
3.6972946802
 20
6.973391804
 11
4.4472946802
 21
6.973391804
  0
LINE
  5
227
100
AcDbEntity
  8
0
100
AcDbLine
 62
9
  6
CONTINUOUS
 10
-0.3549934068
 20
7.0774943681
 11
0.4995827673
 21
7.0774943681
  0
LINE
  5
228
100
AcDbEntity
  8
0
100
AcDbLine
 62
7
  6
CONTINUOUS
 10
-0.3458737046
 20
7.083391804
 11
0.4904627394
 21
7.083391804
  0
LINE
  5
229
100
AcDbEntity
  8
0
100
AcDbLine
 62
9
  6
CONTINUOUS
 10
4.4472946802
 20
7.143391804
 11
3.6972946802
 21
7.143391804
  0
LINE
  5
22A
100
AcDbEntity
  8
0
100
AcDbLine
 62
7
  6
CONTINUOUS
 10
3.7372946802
 20
7.183391804
 11
4.4072946802
 21
7.183391804
  0
LINE
  5
22B
100
AcDbEntity
  8
0
100
AcDbLine
 62
9
  6
CONTINUOUS
 10
20.3641024827
 20
7.4941369442
 11
21.7804868778
 21
7.4941369442
  0
LINE
  5
22C
100
AcDbEntity
  8
0
100
AcDbLine
 62
9
  6
CONTINUOUS
 10
20.4154240768
 20
7.6367325771
 11
21.7291652836
 21
7.6367325771
  0
LINE
  5
22D
100
AcDbEntity
  8
0
100
AcDbLine
 62
7
  6
CONTINUOUS
 10
10.6347946802
 20
9.398391804
 11
10.6347946802
 21
9.838391804
  0
LINE
  5
22E
100
AcDbEntity
  8
0
100
AcDbLine
 62
9
  6
CONTINUOUS
 10
10.6647946802
 20
9.868391804
 11
10.6647946802
 21
9.368391804
  0
LINE
  5
22F
100
AcDbEntity
  8
0
100
AcDbLine
 62
9
  6
CONTINUOUS
 10
12.4695343682
 20
8.5918527936
 11
11.6750557748
 21
8.5918523847
  0
LINE
  5
230
100
AcDbEntity
  8
0
100
AcDbLine
 62
9
  6
CONTINUOUS
 10
11.6750544774
 20
8.6933452119
 11
12.4695349102
 21
8.6933452119
  0
LINE
  5
231
100
AcDbEntity
  8
0
100
AcDbLine
 62
9
  6
CONTINUOUS
 10
11.6750495649
 20
8.721966325
 11
12.4695385114
 21
8.7219663508
  0
LINE
  5
232
100
AcDbEntity
  8
0
100
AcDbLine
 62
9
  6
CONTINUOUS
 10
12.6112946802
 20
8.848891804
 11
11.5332946802
 21
8.848891804
  0
LINE
  5
233
100
AcDbEntity
  8
0
100
AcDbLine
 62
7
  6
CONTINUOUS
 10
11.5632946802
 20
8.878891804
 11
12.5812946802
 21
8.878891804
  0
LINE
  5
234
100
AcDbEntity
  8
0
100
AcDbLine
 62
7
  6
CONTINUOUS
 10
11.759807021
 20
8.909891804
 11
12.3847823395
 21
8.909891804
  0
LINE
  5
235
100
AcDbEntity
  8
0
100
AcDbLine
 62
7
  6
CONTINUOUS
 10
10.8772946802
 20
6.61023717
 11
10.8772946802
 21
6.6124492799
  0
LINE
  5
236
100
AcDbEntity
  8
0
100
AcDbLine
 62
7
  6
CONTINUOUS
 10
10.8772946802
 20
6.6129076962
 11
10.8772946802
 21
6.713391804
  0
LINE
  5
237
100
AcDbEntity
  8
0
100
AcDbLine
 62
7
  6
CONTINUOUS
 10
10.9272946802
 20
6.333391804
 11
10.9272946802
 21
6.5127692266
  0
LINE
  5
238
100
AcDbEntity
  8
0
100
AcDbLine
 62
9
  6
CONTINUOUS
 10
10.9372946802
 20
6.743391804
 11
10.9372946803
 21
6.6129076569
  0
LINE
  5
239
100
AcDbEntity
  8
0
100
AcDbLine
 62
9
  6
CONTINUOUS
 10
10.9872946802
 20
6.333391804
 11
10.9872947221
 21
6.61023717
  0
LINE
  5
23A
100
AcDbEntity
  8
0
100
AcDbLine
 62
7
  6
CONTINUOUS
 10
11.1997946802
 20
6.753391804
 11
11.1997946802
 21
6.910891804
  0
LINE
  5
23B
100
AcDbEntity
  8
0
100
AcDbLine
 62
9
  6
CONTINUOUS
 10
11.2597946802
 20
6.940891804
 11
11.2597946802
 21
6.753391804
  0
LINE
  5
23C
100
AcDbEntity
  8
0
100
AcDbLine
 62
7
  6
CONTINUOUS
 10
11.3222946802
 20
6.743391804
 11
11.3222946802
 21
6.753391804
  0
LINE
  5
23D
100
AcDbEntity
  8
0
100
AcDbLine
 62
9
  6
CONTINUOUS
 10
11.3883156979
 20
6.9656823587
 11
11.3883156979
 21
6.940891804
  0
LINE
  5
23E
100
AcDbEntity
  8
0
100
AcDbLine
 62
7
  6
CONTINUOUS
 10
11.5332946802
 20
8.7219663276
 11
11.5332946802
 21
8.848891804
  0
LINE
  5
23F
100
AcDbEntity
  8
0
100
AcDbLine
 62
9
  6
CONTINUOUS
 10
11.5522946802
 20
6.753391804
 11
11.5522946802
 21
6.743391804
  0
LINE
  5
240
100
AcDbEntity
  8
0
100
AcDbLine
 62
9
  6
CONTINUOUS
 10
11.5932946802
 20
8.878891804
 11
11.5932946803
 21
8.7270964961
  0
LINE
  5
241
100
AcDbEntity
  8
0
100
AcDbLine
 62
9
  6
CONTINUOUS
 10
10.9434301283
 20
6.5861279458
 11
10.945476372
 21
6.6118191656
  0
LINE
  5
242
100
AcDbEntity
  8
0
100
AcDbLine
 62
9
  6
CONTINUOUS
 10
10.9326443151
 20
6.586446411
 11
10.9372946699
 21
6.6129076645
  0
LINE
  5
243
100
AcDbEntity
  8
0
100
AcDbLine
 62
7
  6
CONTINUOUS
 10
12.405461211
 20
9.2602008223
 11
12.4054666643
 21
9.2602052365
  0
LINE
  5
244
100
AcDbEntity
  8
0
100
AcDbLine
 62
9
  6
CONTINUOUS
 10
12.3847946802
 20
9.214891804
 11
11.7597946803
 21
9.214891804
  0
LINE
  5
245
100
AcDbEntity
  8
0
100
AcDbLine
 62
7
  6
CONTINUOUS
 10
12.3857946802
 20
9.274891804
 11
12.2734761903
 21
9.274891804
  0
LINE
  5
246
100
AcDbEntity
  8
0
100
AcDbLine
 62
7
  6
CONTINUOUS
 10
11.8711131701
 20
9.274891804
 11
11.7587946802
 21
9.274891804
  0
LINE
  5
247
100
AcDbEntity
  8
0
100
AcDbLine
 62
9
  6
CONTINUOUS
 10
11.7287946802
 20
9.304891804
 11
11.8711131701
 21
9.304891804
  0
LINE
  5
248
100
AcDbEntity
  8
0
100
AcDbLine
 62
9
  6
CONTINUOUS
 10
12.2734761903
 20
9.304891804
 11
12.4157946802
 21
9.304891804
  0
LINE
  5
249
100
AcDbEntity
  8
0
100
AcDbLine
 62
9
  6
CONTINUOUS
 10
12.2922946803
 20
9.3083918041
 11
11.8522946801
 21
9.3083918041
  0
LINE
  5
24A
100
AcDbEntity
  8
0
100
AcDbLine
 62
7
  6
CONTINUOUS
 10
13.4797946802
 20
9.368391804
 11
12.4757946802
 21
9.368391804
  0
LINE
  5
24B
100
AcDbEntity
  8
0
100
AcDbLine
 62
7
  6
CONTINUOUS
 10
12.2922946802
 20
9.368391804
 11
11.8522946802
 21
9.368391804
  0
LINE
  5
24C
100
AcDbEntity
  8
0
100
AcDbLine
 62
7
  6
CONTINUOUS
 10
11.6687946802
 20
9.368391804
 11
10.6647946802
 21
9.368391804
  0
LINE
  5
24D
100
AcDbEntity
  8
0
100
AcDbLine
 62
9
  6
CONTINUOUS
 10
10.6347946802
 20
9.398391804
 11
11.7287946802
 21
9.398391804
  0
LINE
  5
24E
100
AcDbEntity
  8
0
100
AcDbLine
 62
9
  6
CONTINUOUS
 10
11.7622946802
 20
9.398391804
 11
12.3822946802
 21
9.398391804
  0
LINE
  5
24F
100
AcDbEntity
  8
0
100
AcDbLine
 62
9
  6
CONTINUOUS
 10
12.4157946802
 20
9.398391804
 11
13.5097946802
 21
9.398391804
  0
LINE
  5
250
100
AcDbEntity
  8
0
100
AcDbLine
 62
7
  6
CONTINUOUS
 10
20.3322956821
 20
9.801391804
 11
21.8122936783
 21
9.801391804
  0
LINE
  5
251
100
AcDbEntity
  8
0
100
AcDbLine
 62
9
  6
CONTINUOUS
 10
13.5097946802
 20
9.838391804
 11
12.4157946802
 21
9.838391804
  0
LINE
  5
252
100
AcDbEntity
  8
0
100
AcDbLine
 62
9
  6
CONTINUOUS
 10
12.3822946802
 20
9.838391804
 11
11.7622946802
 21
9.838391804
  0
LINE
  5
253
100
AcDbEntity
  8
0
100
AcDbLine
 62
9
  6
CONTINUOUS
 10
11.7287946802
 20
9.838391804
 11
10.6347946802
 21
9.838391804
  0
LINE
  5
254
100
AcDbEntity
  8
0
100
AcDbLine
 62
7
  6
CONTINUOUS
 10
10.6647946802
 20
9.868391804
 11
11.6687946802
 21
9.868391804
  0
LINE
  5
255
100
AcDbEntity
  8
0
100
AcDbLine
 62
7
  6
CONTINUOUS
 10
11.8522946802
 20
9.868391804
 11
12.2922946802
 21
9.868391804
  0
LINE
  5
256
100
AcDbEntity
  8
0
100
AcDbLine
 62
7
  6
CONTINUOUS
 10
12.4757946802
 20
9.868391804
 11
13.4797946802
 21
9.868391804
  0
LINE
  5
257
100
AcDbEntity
  8
0
100
AcDbLine
 62
9
  6
CONTINUOUS
 10
20.3122946802
 20
9.8762249518
 11
21.8322946802
 21
9.8762249518
  0
LINE
  5
258
100
AcDbEntity
  8
0
100
AcDbLine
 62
9
  6
CONTINUOUS
 10
11.6687946802
 20
9.368391804
 11
11.6687946802
 21
9.868391804
  0
LINE
  5
259
100
AcDbEntity
  8
0
100
AcDbLine
 62
7
  6
CONTINUOUS
 10
11.7287946802
 20
9.2828550294
 11
11.7287946802
 21
9.931891804
  0
LINE
  5
25A
100
AcDbEntity
  8
0
100
AcDbLine
 62
9
  6
CONTINUOUS
 10
11.7587946802
 20
9.961891804
 11
11.7587946802
 21
9.274891804
  0
LINE
  5
25B
100
AcDbEntity
  8
0
100
AcDbLine
 62
7
  6
CONTINUOUS
 10
11.7597946802
 20
9.214891804
 11
11.7597946802
 21
8.909891804
  0
LINE
  5
25C
100
AcDbEntity
  8
0
100
AcDbLine
 62
9
  6
CONTINUOUS
 10
11.7622946802
 20
9.398391804
 11
11.7622946802
 21
9.8383918041
  0
LINE
  5
25D
100
AcDbEntity
  8
0
100
AcDbLine
 62
7
  6
CONTINUOUS
 10
11.8192946802
 20
8.878891804
 11
11.8192946802
 21
8.909891804
  0
LINE
  5
25E
100
AcDbEntity
  8
0
100
AcDbLine
 62
7
  6
CONTINUOUS
 10
11.8222946802
 20
9.398391804
 11
11.8222946802
 21
9.838391804
  0
LINE
  5
25F
100
AcDbEntity
  8
0
100
AcDbLine
 62
9
  6
CONTINUOUS
 10
11.8522946802
 20
9.928391804
 11
11.8522946802
 21
9.3083918041
  0
LINE
  5
260
100
AcDbEntity
  8
0
100
AcDbLine
 62
9
  6
CONTINUOUS
 10
11.8711131697
 20
9.274891804
 11
11.8711131697
 21
9.304891804
  0
LINE
  5
261
100
AcDbEntity
  8
0
100
AcDbLine
 62
9
  6
CONTINUOUS
 10
12.2734761903
 20
9.304891804
 11
12.2734761903
 21
9.274891804
  0
LINE
  5
262
100
AcDbEntity
  8
0
100
AcDbLine
 62
9
  6
CONTINUOUS
 10
12.2922946802
 20
9.3083918041
 11
12.2922946802
 21
9.928391804
  0
LINE
  5
263
100
AcDbEntity
  8
0
100
AcDbLine
 62
7
  6
CONTINUOUS
 10
12.3222946802
 20
9.838391804
 11
12.3222946802
 21
9.398391804
  0
LINE
  5
264
100
AcDbEntity
  8
0
100
AcDbLine
 62
7
  6
CONTINUOUS
 10
12.3252946802
 20
8.878891804
 11
12.3252946802
 21
8.909891804
  0
LINE
  5
265
100
AcDbEntity
  8
0
100
AcDbLine
 62
9
  6
CONTINUOUS
 10
11.6750494005
 20
8.7219663379
 11
11.6750544774
 21
8.5918534681
  0
LINE
  5
266
100
AcDbEntity
  8
0
100
AcDbLine
 62
9
  6
CONTINUOUS
 10
11.5932947226
 20
8.7270964951
 11
11.5918800389
 21
8.6971925562
  0
LINE
  5
267
100
AcDbEntity
  8
0
100
AcDbLine
 62
7
  6
CONTINUOUS
 10
11.6159648701
 20
8.5918523086
 11
11.3292272328
 21
6.9656823587
  0
LINE
  5
268
100
AcDbEntity
  8
0
100
AcDbLine
 62
9
  6
CONTINUOUS
 10
11.3883156979
 20
6.9656823587
 11
11.6750557748
 21
8.5918523847
  0
LWPOLYLINE
  5
269
100
AcDbEntity
  8
0
100
AcDbPolyline
 62
7
  6
CONTINUOUS
 90
4
 70
0
 10
12.4054568996
 20
9.2601967687
 10
12.408290164
 20
9.2630067824
 10
12.4138512864
 20
9.272233038
 10
12.4157946802
 20
9.2828550356
  0
LINE
  5
26A
100
AcDbEntity
  8
0
100
AcDbLine
 62
9
  6
CONTINUOUS
 10
11.8522946802
 20
9.928391804
 11
12.2922946803
 21
9.928391804
  0
LINE
  5
26B
100
AcDbEntity
  8
0
100
AcDbLine
 62
9
  6
CONTINUOUS
 10
12.4157946802
 20
9.931891804
 11
11.7287946802
 21
9.931891804
  0
LINE
  5
26C
100
AcDbEntity
  8
0
100
AcDbLine
 62
7
  6
CONTINUOUS
 10
11.7587946802
 20
9.961891804
 11
12.3857946802
 21
9.961891804
  0
LINE
  5
26D
100
AcDbEntity
  8
0
100
AcDbLine
 62
9
  6
CONTINUOUS
 10
21.8322946802
 20
10.4356525729
 11
20.3122946802
 21
10.4356525729
  0
LINE
  5
26E
100
AcDbEntity
  8
0
100
AcDbLine
 62
9
  6
CONTINUOUS
 10
20.2838259103
 20
10.5055330646
 11
21.8607634502
 21
10.5055330646
  0
LWPOLYLINE
  5
26F
100
AcDbEntity
  8
0
100
AcDbPolyline
 62
7
  6
CONTINUOUS
 90
3
 70
0
 10
11.730738074
 20
9.272233038
 10
11.7362991965
 20
9.2630067824
 10
11.7391324609
 20
9.2601967687
  0
LINE
  5
270
100
AcDbEntity
  8
0
100
AcDbLine
 62
7
  6
CONTINUOUS
 10
11.7287946802
 20
9.2828550356
 11
11.730738074
 21
9.272233038
  0
LINE
  5
271
100
AcDbEntity
  8
0
100
AcDbLine
 62
9
  6
CONTINUOUS
 10
12.4695343682
 20
8.5918527936
 11
12.7562736625
 21
6.9656823587
  0
LINE
  5
272
100
AcDbEntity
  8
0
100
AcDbLine
 62
9
  6
CONTINUOUS
 10
13.2011603965
 20
6.586128008
 11
13.1991132564
 21
6.6118191823
  0
LINE
  5
273
100
AcDbEntity
  8
0
100
AcDbLine
 62
9
  6
CONTINUOUS
 10
12.5512940834
 20
8.7270974312
 11
12.5527069352
 21
8.6971935095
  0
LINE
  5
274
100
AcDbEntity
  8
0
100
AcDbLine
 62
9
  6
CONTINUOUS
 10
12.3822946802
 20
9.8383918041
 11
12.3822946802
 21
9.3983918039
  0
LINE
  5
275
100
AcDbEntity
  8
0
100
AcDbLine
 62
7
  6
CONTINUOUS
 10
12.3847946802
 20
9.214891804
 11
12.3847946802
 21
8.909891804
  0
LINE
  5
276
100
AcDbEntity
  8
0
100
AcDbLine
 62
9
  6
CONTINUOUS
 10
12.3857946802
 20
9.274891804
 11
12.3857946802
 21
9.961891804
  0
LINE
  5
277
100
AcDbEntity
  8
0
100
AcDbLine
 62
7
  6
CONTINUOUS
 10
12.4157946802
 20
9.2828550294
 11
12.4157946802
 21
9.931891804
  0
LINE
  5
278
100
AcDbEntity
  8
0
100
AcDbLine
 62
9
  6
CONTINUOUS
 10
12.4695386513
 20
8.7219663379
 11
12.4695349102
 21
8.5918534681
  0
LINE
  5
279
100
AcDbEntity
  8
0
100
AcDbLine
 62
9
  6
CONTINUOUS
 10
12.4757946802
 20
9.868391804
 11
12.4757946802
 21
9.368391804
  0
LINE
  5
27A
100
AcDbEntity
  8
0
100
AcDbLine
 62
9
  6
CONTINUOUS
 10
12.5512946802
 20
8.7270974556
 11
12.5512946802
 21
8.878891804
  0
LINE
  5
27B
100
AcDbEntity
  8
0
100
AcDbLine
 62
9
  6
CONTINUOUS
 10
12.5922946802
 20
6.743391804
 11
12.5922946802
 21
6.753391804
  0
LINE
  5
27C
100
AcDbEntity
  8
0
100
AcDbLine
 62
7
  6
CONTINUOUS
 10
12.6112946802
 20
8.848891804
 11
12.6112946802
 21
8.7219662139
  0
LINE
  5
27D
100
AcDbEntity
  8
0
100
AcDbLine
 62
9
  6
CONTINUOUS
 10
12.7562736673
 20
6.940891804
 11
12.7562736673
 21
6.9656823587
  0
LINE
  5
27E
100
AcDbEntity
  8
0
100
AcDbLine
 62
7
  6
CONTINUOUS
 10
12.8222946802
 20
6.753391804
 11
12.8222946802
 21
6.743391804
  0
LINE
  5
27F
100
AcDbEntity
  8
0
100
AcDbLine
 62
9
  6
CONTINUOUS
 10
12.8847946802
 20
6.753391804
 11
12.8847946802
 21
6.940891804
  0
LINE
  5
280
100
AcDbEntity
  8
0
100
AcDbLine
 62
7
  6
CONTINUOUS
 10
12.9447946802
 20
6.910891804
 11
12.9447946802
 21
6.753391804
  0
LINE
  5
281
100
AcDbEntity
  8
0
100
AcDbLine
 62
9
  6
CONTINUOUS
 10
13.1572946802
 20
6.333391804
 11
13.1572947475
 21
6.61023717
  0
LINE
  5
282
100
AcDbEntity
  8
0
100
AcDbLine
 62
7
  6
CONTINUOUS
 10
20.0069170761
 20
10.801391804
 11
20.2049922669
 21
10.801391804
  0
LINE
  5
283
100
AcDbEntity
  8
0
100
AcDbLine
 62
7
  6
CONTINUOUS
 10
20.4329256367
 20
10.801391804
 11
20.9111214488
 21
10.801391804
  0
LINE
  5
284
100
AcDbEntity
  8
0
100
AcDbLine
 62
7
  6
CONTINUOUS
 10
21.2334679117
 20
10.801391804
 11
21.7116637237
 21
10.801391804
  0
LINE
  5
285
100
AcDbEntity
  8
0
100
AcDbLine
 62
7
  6
CONTINUOUS
 10
21.9395970936
 20
10.801391804
 11
22.1376722844
 21
10.801391804
  0
LINE
  5
286
100
AcDbEntity
  8
0
100
AcDbLine
 62
9
  6
CONTINUOUS
 10
22.1376722844
 20
11.411391804
 11
21.9395970936
 21
11.411391804
  0
LINE
  5
287
100
AcDbEntity
  8
0
100
AcDbLine
 62
9
  6
CONTINUOUS
 10
21.7116637237
 20
11.411391804
 11
21.2334679117
 21
11.411391804
  0
LINE
  5
288
100
AcDbEntity
  8
0
100
AcDbLine
 62
9
  6
CONTINUOUS
 10
20.9111214488
 20
11.411391804
 11
20.4329256367
 21
11.411391804
  0
LINE
  5
289
100
AcDbEntity
  8
0
100
AcDbLine
 62
9
  6
CONTINUOUS
 10
20.2049922669
 20
11.411391804
 11
20.0069170761
 21
11.411391804
  0
LINE
  5
28A
100
AcDbEntity
  8
0
100
AcDbLine
 62
7
  6
CONTINUOUS
 10
12.8153621277
 20
6.9656823587
 11
12.528624451
 21
8.5918525314
  0
LINE
  5
28B
100
AcDbEntity
  8
0
100
AcDbLine
 62
9
  6
CONTINUOUS
 10
13.2119448163
 20
6.5864464602
 11
13.2072947435
 21
6.612907701
  0
LINE
  5
28C
100
AcDbEntity
  8
0
100
AcDbLine
 62
9
  6
CONTINUOUS
 10
13.20729468
 20
6.6129076962
 11
13.2072946802
 21
6.743391804
  0
LINE
  5
28D
100
AcDbEntity
  8
0
100
AcDbLine
 62
7
  6
CONTINUOUS
 10
13.2172946802
 20
6.5127692266
 11
13.2172946802
 21
6.333391804
  0
LINE
  5
28E
100
AcDbEntity
  8
0
100
AcDbLine
 62
7
  6
CONTINUOUS
 10
13.2672946802
 20
6.61023717
 11
13.2672946802
 21
6.713391804
  0
LINE
  5
28F
100
AcDbEntity
  8
0
100
AcDbLine
 62
9
  6
CONTINUOUS
 10
13.4797946802
 20
9.368391804
 11
13.4797946802
 21
9.868391804
  0
LINE
  5
290
100
AcDbEntity
  8
0
100
AcDbLine
 62
7
  6
CONTINUOUS
 10
13.5097946802
 20
9.838391804
 11
13.5097946802
 21
9.398391804
  0
LINE
  5
291
100
AcDbEntity
  8
0
100
AcDbLine
 62
7
  6
CONTINUOUS
 10
21.9997796386
 20
11.561391804
 11
20.1448097219
 21
11.561391804
  0
LINE
  5
292
100
AcDbEntity
  8
0
100
AcDbLine
 62
9
  6
CONTINUOUS
 10
20.1631582472
 20
11.621391804
 11
21.9814311133
 21
11.621391804
  0
LINE
  5
293
100
AcDbEntity
  8
0
100
AcDbLine
 62
7
  6
CONTINUOUS
 10
21.860763459
 20
10.5055330736
 11
22.0622946802
 21
10.7118248749
  0
LINE
  5
294
100
AcDbEntity
  8
0
100
AcDbLine
 62
7
  6
CONTINUOUS
 10
20.2838259015
 20
10.5055330736
 11
20.0822946802
 21
10.7118248749
  0
LINE
  5
295
100
AcDbEntity
  8
0
100
AcDbLine
 62
7
  6
CONTINUOUS
 10
20.0069170761
 20
10.801391804
 11
20.0069170761
 21
11.411391804
  0
LINE
  5
296
100
AcDbEntity
  8
0
100
AcDbLine
 62
7
  6
CONTINUOUS
 10
20.0597946802
 20
6.5823592717
 11
20.0597946802
 21
6.333391804
  0
LINE
  5
297
100
AcDbEntity
  8
0
100
AcDbLine
 62
7
  6
CONTINUOUS
 10
20.4337665428
 20
10.7854669006
 11
20.4329256367
 21
10.801391804
  0
LINE
  5
298
100
AcDbEntity
  8
0
100
AcDbLine
 62
7
  6
CONTINUOUS
 10
20.2049922669
 20
10.801391804
 11
20.2049922669
 21
11.411391804
  0
LINE
  5
299
100
AcDbEntity
  8
0
100
AcDbLine
 62
7
  6
CONTINUOUS
 10
20.3122946802
 20
10.4356525729
 11
20.3122946802
 21
9.8762249518
  0
LINE
  5
29A
100
AcDbEntity
  8
0
100
AcDbLine
 62
7
  6
CONTINUOUS
 10
20.4329256367
 20
10.801391804
 11
20.4329256367
 21
11.411391804
  0
LINE
  5
29B
100
AcDbEntity
  8
0
100
AcDbLine
 62
7
  6
CONTINUOUS
 10
20.9111214488
 20
10.801391804
 11
20.9111214488
 21
11.411391804
  0
LINE
  5
29C
100
AcDbEntity
  8
0
100
AcDbLine
 62
7
  6
CONTINUOUS
 10
20.4967057474
 20
9.801391804
 11
20.4154240768
 21
7.6367325771
  0
LINE
  5
29D
100
AcDbEntity
  8
0
100
AcDbLine
 62
7
  6
CONTINUOUS
 10
21.647883613
 20
9.801391804
 11
21.7291652836
 21
7.6367325771
  0
LINE
  5
29E
100
AcDbEntity
  8
0
100
AcDbLine
 62
7
  6
CONTINUOUS
 10
21.2334679117
 20
10.801391804
 11
21.2334679117
 21
11.411391804
  0
LINE
  5
29F
100
AcDbEntity
  8
0
100
AcDbLine
 62
7
  6
CONTINUOUS
 10
21.7116637237
 20
10.801391804
 11
21.7116637237
 21
11.411391804
  0
LINE
  5
2A0
100
AcDbEntity
  8
0
100
AcDbLine
 62
7
  6
CONTINUOUS
 10
21.8322946802
 20
10.4356525729
 11
21.8322946802
 21
9.8762249518
  0
LINE
  5
2A1
100
AcDbEntity
  8
0
100
AcDbLine
 62
7
  6
CONTINUOUS
 10
21.9395970936
 20
10.801391804
 11
21.9395970936
 21
11.411391804
  0
LINE
  5
2A2
100
AcDbEntity
  8
0
100
AcDbLine
 62
7
  6
CONTINUOUS
 10
22.0847946802
 20
6.5823592717
 11
22.0847946802
 21
6.333391804
  0
LINE
  5
2A3
100
AcDbEntity
  8
0
100
AcDbLine
 62
7
  6
CONTINUOUS
 10
22.1376722844
 20
10.801391804
 11
22.1376722844
 21
11.411391804
  0
LINE
  5
2A4
100
AcDbEntity
  8
0
100
AcDbLine
 62
7
  6
CONTINUOUS
 10
21.7116637237
 20
10.801391804
 11
21.7108228177
 21
10.785466707
  0
ARC
  5
2A5
100
AcDbEntity
  8
0
100
AcDbCircle
 62
7
  6
CONTINUOUS
 10
-0.0189257261
 20
6.1504967643
 40
0.9
100
AcDbArc
 50
11.7251268757
 51
49.3560828237
  0
ARC
  5
2A6
100
AcDbEntity
  8
0
100
AcDbCircle
 62
7
  6
CONTINUOUS
 10
0.1635150865
 20
6.1504967643
 40
0.9
100
AcDbArc
 50
130.6439171763
 51
168.2748731243
  0
ARC
  5
2A7
100
AcDbEntity
  8
0
100
AcDbCircle
 62
7
  6
CONTINUOUS
 10
3.7799674679
 20
6.396391804
 40
0.187
100
AcDbArc
 50
90.0
 51
160.6370700781
  0
ARC
  5
2A8
100
AcDbEntity
  8
0
100
AcDbCircle
 62
7
  6
CONTINUOUS
 10
4.3646218926
 20
6.396391804
 40
0.187
100
AcDbArc
 50
19.3629299219
 51
90.0
  0
ARC
  5
2A9
100
AcDbEntity
  8
0
100
AcDbCircle
 62
7
  6
CONTINUOUS
 10
4.5518718926
 20
6.271391804
 40
0.187
100
AcDbArc
 50
19.3629299219
 51
90.0
  0
ARC
  5
2AA
100
AcDbEntity
  8
0
100
AcDbCircle
 62
7
  6
CONTINUOUS
 10
3.5927174679
 20
6.271391804
 40
0.187
100
AcDbArc
 50
90.0
 51
160.6370700781
  0
ARC
  5
2AB
100
AcDbEntity
  8
0
100
AcDbCircle
 62
7
  6
CONTINUOUS
 10
0.0097946802
 20
6.913391804
 40
0.4
100
AcDbArc
 50
155.779056891
 51
180.0
  0
ARC
  5
2AC
100
AcDbEntity
  8
0
100
AcDbCircle
 62
7
  6
CONTINUOUS
 10
0.1347946802
 20
6.913391804
 40
0.4
100
AcDbArc
 50
0.0
 51
24.220943109
  0
ARC
  5
2AD
100
AcDbEntity
  8
0
100
AcDbCircle
 62
7
  6
CONTINUOUS
 10
4.4072946802
 20
7.143391804
 40
0.04
100
AcDbArc
 50
0.0
 51
90.0
  0
ARC
  5
2AE
100
AcDbEntity
  8
0
100
AcDbCircle
 62
7
  6
CONTINUOUS
 10
3.7372946802
 20
6.973391804
 40
0.04
100
AcDbArc
 50
180.0
 51
270.0
  0
ARC
  5
2AF
100
AcDbEntity
  8
0
100
AcDbCircle
 62
7
  6
CONTINUOUS
 10
4.4072946802
 20
6.973391804
 40
0.04
100
AcDbArc
 50
270.0
 51
360.0
  0
ARC
  5
2B0
100
AcDbEntity
  8
0
100
AcDbCircle
 62
7
  6
CONTINUOUS
 10
3.7372946802
 20
7.143391804
 40
0.04
100
AcDbArc
 50
90.0
 51
180.0
  0
ARC
  5
2B1
100
AcDbEntity
  8
0
100
AcDbCircle
 62
7
  6
CONTINUOUS
 10
4.2872946802
 20
6.918391804
 40
0.015
100
AcDbArc
 50
90.0000561224
 51
180.0
  0
ARC
  5
2B2
100
AcDbEntity
  8
0
100
AcDbCircle
 62
7
  6
CONTINUOUS
 10
3.8572946802
 20
6.918391804
 40
0.015
100
AcDbArc
 50
0.0
 51
89.9999438776
  0
ARC
  5
2B3
100
AcDbEntity
  8
0
100
AcDbCircle
 62
7
  6
CONTINUOUS
 10
-0.3458737046
 20
7.073391804
 40
0.01
100
AcDbArc
 50
90.0000052638
 51
155.779056891
  0
ARC
  5
2B4
100
AcDbEntity
  8
0
100
AcDbCircle
 62
7
  6
CONTINUOUS
 10
0.4904630651
 20
7.073391804
 40
0.01
100
AcDbArc
 50
24.220943109
 51
89.9999947362
  0
ARC
  5
2B5
100
AcDbEntity
  8
0
100
AcDbCircle
 62
7
  6
CONTINUOUS
 10
10.8372946802
 20
6.5127692266
 40
0.09
100
AcDbArc
 50
0.0
 51
54.3146649845
  0
ARC
  5
2B6
100
AcDbEntity
  8
0
100
AcDbCircle
 62
7
  6
CONTINUOUS
 10
10.9072946802
 20
6.61023717
 40
0.03
100
AcDbArc
 50
180.0
 51
234.3146661957
  0
ARC
  5
2B7
100
AcDbEntity
  8
0
100
AcDbCircle
 62
9
  6
CONTINUOUS
 10
10.9055199896
 20
6.6129611547
 40
0.0282263952
100
AcDbArc
 50
182.2537586372
 51
185.4130925104
  0
ARC
  5
2B8
100
AcDbEntity
  8
0
100
AcDbCircle
 62
9
  6
CONTINUOUS
 10
10.9043640355
 20
6.6129107987
 40
0.0270693555
100
AcDbArc
 50
180.0065566704
 51
182.2434746203
  0
ARC
  5
2B9
100
AcDbEntity
  8
0
100
AcDbCircle
 62
7
  6
CONTINUOUS
 10
11.2996830002
 20
6.970891804
 40
0.03
100
AcDbArc
 50
270.0
 51
350.0000000017
  0
ARC
  5
2BA
100
AcDbEntity
  8
0
100
AcDbCircle
 62
7
  6
CONTINUOUS
 10
11.2297946802
 20
6.910891804
 40
0.03
100
AcDbArc
 50
90.0
 51
180.0
  0
ARC
  5
2BB
100
AcDbEntity
  8
0
100
AcDbCircle
 62
7
  6
CONTINUOUS
 10
10.9072946802
 20
6.713391804
 40
0.03
100
AcDbArc
 50
90.0
 51
180.0
  0
ARC
  5
2BC
100
AcDbEntity
  8
0
100
AcDbCircle
 62
7
  6
CONTINUOUS
 10
10.6647946802
 20
9.398391804
 40
0.03
100
AcDbArc
 50
180.0
 51
270.0
  0
ARC
  5
2BD
100
AcDbEntity
  8
0
100
AcDbCircle
 62
7
  6
CONTINUOUS
 10
10.6647946802
 20
9.838391804
 40
0.03
100
AcDbArc
 50
90.0
 51
180.0
  0
ARC
  5
2BE
100
AcDbEntity
  8
0
100
AcDbCircle
 62
7
  6
CONTINUOUS
 10
11.5273323768
 20
8.607481804
 40
0.09
100
AcDbArc
 50
350.0
 51
72.5611995947
  0
ARC
  5
2BF
100
AcDbEntity
  8
0
100
AcDbCircle
 62
7
  6
CONTINUOUS
 10
11.6997946803
 20
9.214891804
 40
0.06
100
AcDbArc
 50
0.0
 51
49.0382114842
  0
ARC
  5
2C0
100
AcDbEntity
  8
0
100
AcDbCircle
 62
7
  6
CONTINUOUS
 10
11.5632946802
 20
8.848891804
 40
0.03
100
AcDbArc
 50
90.0
 51
180.0
  0
ARC
  5
2C1
100
AcDbEntity
  8
0
100
AcDbCircle
 62
7
  6
CONTINUOUS
 10
11.5632946802
 20
8.7219663564
 40
0.03
100
AcDbArc
 50
180.0003177142
 51
252.5612637656
  0
ARC
  5
2C2
100
AcDbEntity
  8
0
100
AcDbCircle
 62
9
  6
CONTINUOUS
 10
11.5632849155
 20
8.7271240833
 40
0.0299919832
100
AcDbArc
 50
180.051464287
 51
266.3143712099
  0
ARC
  5
2C3
100
AcDbEntity
  8
0
100
AcDbCircle
 62
7
  6
CONTINUOUS
 10
11.6687946802
 20
9.308391804
 40
0.06
100
AcDbArc
 50
0.0
 51
90.0
  0
ARC
  5
2C4
100
AcDbEntity
  8
0
100
AcDbCircle
 62
7
  6
CONTINUOUS
 10
11.7588475418
 20
9.2828841185
 40
0.0300540603
100
AcDbArc
 50
180.0551910697
 51
228.9984683974
  0
ARC
  5
2C5
100
AcDbEntity
  8
0
100
AcDbCircle
 62
7
  6
CONTINUOUS
 10
11.7587946802
 20
9.304891804
 40
0.03
100
AcDbArc
 50
180.0
 51
270.0
  0
ARC
  5
2C6
100
AcDbEntity
  8
0
100
AcDbCircle
 62
7
  6
CONTINUOUS
 10
11.6687946802
 20
9.928391804
 40
0.06
100
AcDbArc
 50
270.0
 51
360.0
  0
ARC
  5
2C7
100
AcDbEntity
  8
0
100
AcDbCircle
 62
7
  6
CONTINUOUS
 10
11.7587946802
 20
9.931891804
 40
0.03
100
AcDbArc
 50
90.0
 51
180.0
  0
ARC
  5
2C8
100
AcDbEntity
  8
0
100
AcDbCircle
 62
9
  6
CONTINUOUS
 10
11.8522946802
 20
9.398391804
 40
0.09
100
AcDbArc
 50
180.0000000453
 51
269.9999999371
  0
ARC
  5
2C9
100
AcDbEntity
  8
0
100
AcDbCircle
 62
7
  6
CONTINUOUS
 10
11.8522946802
 20
9.398391804
 40
0.03
100
AcDbArc
 50
180.0
 51
269.9999999837
  0
ARC
  5
2CA
100
AcDbEntity
  8
0
100
AcDbCircle
 62
9
  6
CONTINUOUS
 10
11.8522946802
 20
9.838391804
 40
0.09
100
AcDbArc
 50
90.0000000453
 51
179.9999999371
  0
ARC
  5
2CB
100
AcDbEntity
  8
0
100
AcDbCircle
 62
7
  6
CONTINUOUS
 10
11.8522946802
 20
9.838391804
 40
0.03
100
AcDbArc
 50
90.0
 51
179.9999999837
  0
ARC
  5
2CC
100
AcDbEntity
  8
0
100
AcDbCircle
 62
7
  6
CONTINUOUS
 10
12.8449063603
 20
6.970891804
 40
0.03
100
AcDbArc
 50
189.9999999983
 51
270.0
  0
ARC
  5
2CD
100
AcDbEntity
  8
0
100
AcDbCircle
 62
7
  6
CONTINUOUS
 10
12.9147946802
 20
6.910891804
 40
0.03
100
AcDbArc
 50
0.0
 51
90.0
  0
ARC
  5
2CE
100
AcDbEntity
  8
0
100
AcDbCircle
 62
7
  6
CONTINUOUS
 10
13.3072946802
 20
6.5127692266
 40
0.09
100
AcDbArc
 50
125.6853350155
 51
180.0
  0
ARC
  5
2CF
100
AcDbEntity
  8
0
100
AcDbCircle
 62
7
  6
CONTINUOUS
 10
13.2372946802
 20
6.61023717
 40
0.03
100
AcDbArc
 50
305.6853338043
 51
360.0
  0
ARC
  5
2D0
100
AcDbEntity
  8
0
100
AcDbCircle
 62
7
  6
CONTINUOUS
 10
13.2372946802
 20
6.713391804
 40
0.03
100
AcDbArc
 50
0.0
 51
90.0
  0
ARC
  5
2D1
100
AcDbEntity
  8
0
100
AcDbCircle
 62
9
  6
CONTINUOUS
 10
13.2390414631
 20
6.6129610282
 40
0.0282542994
100
AcDbArc
 50
354.5925901035
 51
357.748735112
  0
ARC
  5
2D2
100
AcDbEntity
  8
0
100
AcDbCircle
 62
9
  6
CONTINUOUS
 10
13.2401974123
 20
6.6129107581
 40
0.0270972681
100
AcDbArc
 50
357.7589341084
 51
359.9934586837
  0
ARC
  5
2D3
100
AcDbEntity
  8
0
100
AcDbCircle
 62
7
  6
CONTINUOUS
 10
21.0722946802
 20
5.2959760049
 40
6.3904157991
100
AcDbArc
 50
81.821031102
 51
98.178968898
  0
ARC
  5
2D4
100
AcDbEntity
  8
0
100
AcDbCircle
 62
7
  6
CONTINUOUS
 10
20.7482746722
 20
6.7038598012
 40
1.3
100
AcDbArc
 50
357.7751307226
 51
37.4382101818
  0
ARC
  5
2D5
100
AcDbEntity
  8
0
100
AcDbCircle
 62
7
  6
CONTINUOUS
 10
21.3963146883
 20
6.7038598012
 40
1.3
100
AcDbArc
 50
142.5617898182
 51
182.2248692774
  0
ARC
  5
2D6
100
AcDbEntity
  8
0
100
AcDbCircle
 62
7
  6
CONTINUOUS
 10
20.1656001354
 20
7.6461133178
 40
0.25
100
AcDbArc
 50
322.5617898182
 51
357.849587733
  0
ARC
  5
2D7
100
AcDbEntity
  8
0
100
AcDbCircle
 62
7
  6
CONTINUOUS
 10
21.978989225
 20
7.6461133178
 40
0.25
100
AcDbArc
 50
182.150412267
 51
217.4382101818
  0
ARC
  5
2D8
100
AcDbEntity
  8
0
100
AcDbCircle
 62
7
  6
CONTINUOUS
 10
20.1458196223
 20
6.5823592717
 40
0.0860249421
100
AcDbArc
 50
124.338423378
 51
180.0
  0
ARC
  5
2D9
100
AcDbEntity
  8
0
100
AcDbCircle
 62
7
  6
CONTINUOUS
 10
21.9987697382
 20
6.5823592717
 40
0.0860249421
100
AcDbArc
 50
0.0
 51
55.661576622
  0
ARC
  5
2DA
100
AcDbEntity
  8
0
100
AcDbCircle
 62
7
  6
CONTINUOUS
 10
12.6172569836
 20
8.607481804
 40
0.09
100
AcDbArc
 50
107.4388313666
 51
190.0
  0
ARC
  5
2DB
100
AcDbEntity
  8
0
100
AcDbCircle
 62
7
  6
CONTINUOUS
 10
12.4447946802
 20
9.214891804
 40
0.06
100
AcDbArc
 50
130.955064719
 51
180.0
  0
ARC
  5
2DC
100
AcDbEntity
  8
0
100
AcDbCircle
 62
7
  6
CONTINUOUS
 10
12.5812946802
 20
8.848891804
 40
0.03
100
AcDbArc
 50
0.0
 51
90.0
  0
ARC
  5
2DD
100
AcDbEntity
  8
0
100
AcDbCircle
 62
7
  6
CONTINUOUS
 10
12.5812946802
 20
8.7219663564
 40
0.03
100
AcDbArc
 50
287.4387362344
 51
359.9995437208
  0
ARC
  5
2DE
100
AcDbEntity
  8
0
100
AcDbCircle
 62
9
  6
CONTINUOUS
 10
12.5813043893
 20
8.7271230101
 40
0.0299920015
100
AcDbArc
 50
273.686830885
 51
359.9486458283
  0
ARC
  5
2DF
100
AcDbEntity
  8
0
100
AcDbCircle
 62
9
  6
CONTINUOUS
 10
12.2922946802
 20
9.398391804
 40
0.09
100
AcDbArc
 50
270.0000000453
 51
359.9999999371
  0
ARC
  5
2E0
100
AcDbEntity
  8
0
100
AcDbCircle
 62
7
  6
CONTINUOUS
 10
12.2922946802
 20
9.398391804
 40
0.03
100
AcDbArc
 50
270.0
 51
359.9999999837
  0
ARC
  5
2E1
100
AcDbEntity
  8
0
100
AcDbCircle
 62
7
  6
CONTINUOUS
 10
12.3855595636
 20
9.2828930665
 40
0.0302351404
100
AcDbArc
 50
341.1312207489
 51
359.9281852465
  0
ARC
  5
2E2
100
AcDbEntity
  8
0
100
AcDbCircle
 62
7
  6
CONTINUOUS
 10
12.3866706325
 20
9.2825195729
 40
0.0290629905
100
AcDbArc
 50
335.1548863006
 51
341.1195911938
  0
ARC
  5
2E3
100
AcDbEntity
  8
0
100
AcDbCircle
 62
7
  6
CONTINUOUS
 10
12.3857946802
 20
9.304891804
 40
0.03
100
AcDbArc
 50
270.0
 51
360.0
  0
ARC
  5
2E4
100
AcDbEntity
  8
0
100
AcDbCircle
 62
7
  6
CONTINUOUS
 10
12.4757946802
 20
9.308391804
 40
0.06
100
AcDbArc
 50
90.0
 51
180.0
  0
ARC
  5
2E5
100
AcDbEntity
  8
0
100
AcDbCircle
 62
9
  6
CONTINUOUS
 10
12.2922946802
 20
9.838391804
 40
0.09
100
AcDbArc
 50
0.0000000453
 51
89.9999999371
  0
ARC
  5
2E6
100
AcDbEntity
  8
0
100
AcDbCircle
 62
7
  6
CONTINUOUS
 10
12.4757946802
 20
9.928391804
 40
0.06
100
AcDbArc
 50
180.0
 51
270.0
  0
ARC
  5
2E7
100
AcDbEntity
  8
0
100
AcDbCircle
 62
7
  6
CONTINUOUS
 10
12.2922946802
 20
9.838391804
 40
0.03
100
AcDbArc
 50
0.0
 51
89.9999999837
  0
ARC
  5
2E8
100
AcDbEntity
  8
0
100
AcDbCircle
 62
7
  6
CONTINUOUS
 10
12.3857946802
 20
9.931891804
 40
0.03
100
AcDbArc
 50
0.0
 51
90.0
  0
ARC
  5
2E9
100
AcDbEntity
  8
0
100
AcDbCircle
 62
7
  6
CONTINUOUS
 10
13.4797946802
 20
9.398391804
 40
0.03
100
AcDbArc
 50
270.0
 51
360.0
  0
ARC
  5
2EA
100
AcDbEntity
  8
0
100
AcDbCircle
 62
7
  6
CONTINUOUS
 10
13.4797946802
 20
9.838391804
 40
0.03
100
AcDbArc
 50
0.0
 51
90.0
  0
ARC
  5
2EB
100
AcDbEntity
  8
0
100
AcDbCircle
 62
7
  6
CONTINUOUS
 10
17.88575598
 20
8.9397626169
 40
2.822230966
100
AcDbArc
 50
38.9003500033
 51
41.271686929
  0
ARC
  5
2EC
100
AcDbEntity
  8
0
100
AcDbCircle
 62
7
  6
CONTINUOUS
 10
24.2183117146
 20
8.9738681327
 40
2.7692784635
100
AcDbArc
 50
138.7056381105
 51
141.1223351332
  0
ARC
  5
2ED
100
AcDbEntity
  8
0
100
AcDbCircle
 62
7
  6
CONTINUOUS
 10
20.4622946802
 20
9.8762249518
 40
0.15
100
AcDbArc
 50
180.0
 51
209.9264348664
  0
ARC
  5
2EE
100
AcDbEntity
  8
0
100
AcDbCircle
 62
7
  6
CONTINUOUS
 10
21.6822946802
 20
9.8762249518
 40
0.15
100
AcDbArc
 50
330.0735651336
 51
360.0
  0
ARC
  5
2EF
100
AcDbEntity
  8
0
100
AcDbCircle
 62
7
  6
CONTINUOUS
 10
20.6707072047
 20
11.3313734957
 40
0.7055288774
100
AcDbArc
 50
228.6930055092
 51
230.6924262238
  0
ARC
  5
2F0
100
AcDbEntity
  8
0
100
AcDbCircle
 62
7
  6
CONTINUOUS
 10
21.4827395213
 20
11.3209266041
 40
0.6918346983
100
AcDbArc
 50
309.2880608362
 51
311.3270707355
  0
ARC
  5
2F1
100
AcDbEntity
  8
0
100
AcDbCircle
 62
7
  6
CONTINUOUS
 10
21.9997946802
 20
11.411391804
 40
0.15
100
AcDbArc
 50
65.3756816478
 51
90.0
  0
ARC
  5
2F2
100
AcDbEntity
  8
0
100
AcDbCircle
 62
7
  6
CONTINUOUS
 10
20.1447946802
 20
11.411391804
 40
0.15
100
AcDbArc
 50
90.0
 51
114.6243183522
  0
ARC
  5
2F3
100
AcDbEntity
  8
0
100
AcDbCircle
 62
7
  6
CONTINUOUS
 10
20.2122946802
 20
10.4356525729
 40
0.1
100
AcDbArc
 50
0.0
 51
44.3312008135
  0
ARC
  5
2F4
100
AcDbEntity
  8
0
100
AcDbCircle
 62
7
  6
CONTINUOUS
 10
21.9322946802
 20
10.4356525729
 40
0.1
100
AcDbArc
 50
135.6687991865
 51
180.0
  0
ARC
  5
2F5
100
AcDbEntity
  8
0
100
AcDbCircle
 62
7
  6
CONTINUOUS
 10
21.9771413281
 20
11.5915451562
 40
0.0301533521
100
AcDbArc
 50
270.0
 51
81.821031102
  0
ARC
  5
2F6
100
AcDbEntity
  8
0
100
AcDbCircle
 62
7
  6
CONTINUOUS
 10
20.1674480324
 20
11.5915451562
 40
0.0301533521
100
AcDbArc
 50
98.178968898
 51
270.0
  0
SPLINE
  5
2F7
100
AcDbEntity
  8
0
100
AcDbSpline
 62
7
  6
CONTINUOUS
 70
0
 71
3
 72
9
 73
5
 74
0
 42
0.0000001
 43
0.0000001
 44
0.0000000001
 40
0.0
 40
0.0
 40
0.0
 40
0.0
 40
0.2502256995
 40
1.0
 40
1.0
 40
1.0
 40
1.0
 10
12.4054613469
 20
9.260200621
 30
0.0
 10
12.4058210077
 20
9.2605128485
 30
0.0
 10
12.4072268705
 20
9.261796555
 30
0.0
 10
12.4085069089
 20
9.2632171705
 30
0.0
 10
12.4093865003
 20
9.2643409983
 30
0.0
  0
SPLINE
  5
2F8
100
AcDbEntity
  8
0
100
AcDbSpline
 62
7
  6
CONTINUOUS
 70
0
 71
3
 72
9
 73
5
 74
0
 42
0.0000001
 43
0.0000001
 44
0.0000000001
 40
0.0
 40
0.0
 40
0.0
 40
0.0
 40
0.252676588
 40
1.0
 40
1.0
 40
1.0
 40
1.0
 10
12.4093865003
 20
9.2643409983
 30
0.0
 10
12.409750271
 20
9.2648057772
 30
0.0
 10
12.4111366963
 20
9.266686162
 30
0.0
 10
12.4123102975
 20
9.2687242123
 30
0.0
 10
12.4130437539
 20
9.2703082715
 30
0.0
  0
SPLINE
  5
2F9
100
AcDbEntity
  8
0
100
AcDbSpline
 62
7
  6
CONTINUOUS
 70
0
 71
3
 72
11
 73
7
 74
0
 42
0.0000001
 43
0.0000001
 44
0.0000000001
 40
0.0
 40
0.0
 40
0.0
 40
0.0
 40
0.2620105664
 40
0.5196605651
 40
0.7673134926
 40
1.0
 40
1.0
 40
1.0
 40
1.0
 10
20.4329256367
 20
11.411391804
 30
0.0
 10
20.4329256367
 20
11.4172025676
 30
0.0
 10
20.4330049533
 20
11.4287274165
 30
0.0
 10
20.433278647
 20
11.4457425508
 30
0.0
 10
20.4336283693
 20
11.4621054716
 30
0.0
 10
20.4337677963
 20
11.4727580059
 30
0.0
 10
20.4337665874
 20
11.4779184323
 30
0.0
  0
SPLINE
  5
2FA
100
AcDbEntity
  8
0
100
AcDbSpline
 62
7
  6
CONTINUOUS
 70
0
 71
3
 72
37
 73
33
 74
0
 42
0.0000001
 43
0.0000001
 44
0.0000000001
 40
0.0
 40
0.0
 40
0.0
 40
0.0
 40
0.0984306302
 40
0.1963867534
 40
0.2929168392
 40
0.3871215022
 40
0.4780318695
 40
0.5644997518
 40
0.6452234607
 40
0.7190690618
 40
0.784959418
 40
0.8423616663
 40
0.8677373408
 40
0.8908647628
 40
0.911753458
 40
0.9304044836
 40
0.9468115355
 40
0.9609806185
 40
0.9729334569
 40
0.9780850198
 40
0.982689557
 40
0.9867490239
 40
0.9902652099
 40
0.9932397037
 40
0.995673202
 40
0.9975658485
 40
0.9983093939
 40
0.9989177761
 40
0.9993910114
 40
0.9997291163
 40
0.999932107
 40
1.0
 40
1.0
 40
1.0
 40
1.0
 10
20.0069170761
 20
11.411391804
 30
0.0
 10
20.0069170761
 20
11.4167427066
 30
0.0
 10
20.0074391121
 20
11.4274252844
 30
0.0
 10
20.0097193097
 20
11.4432081004
 30
0.0
 10
20.0134483438
 20
11.4584769852
 30
0.0
 10
20.0184566333
 20
11.4729693285
 30
0.0
 10
20.0245765477
 20
11.486427823
 30
0.0
 10
20.031500838
 20
11.4986518922
 30
0.0
 10
20.0389298593
 20
11.5094644981
 30
0.0
 10
20.0465032519
 20
11.5187694362
 30
0.0
 10
20.0539020787
 20
11.526536242
 30
0.0
 10
20.0598830365
 20
11.5319812915
 30
0.0
 10
20.0643204428
 20
11.5356504864
 30
0.0
 10
20.0672963492
 20
11.5379695654
 30
0.0
 10
20.0700399434
 20
11.5399897377
 30
0.0
 10
20.0725337494
 20
11.5417311939
 30
0.0
 10
20.0747604617
 20
11.5432158412
 30
0.0
 10
20.076708007
 20
11.5444619785
 30
0.0
 10
20.0781565284
 20
11.5453521593
 30
0.0
 10
20.0791697688
 20
11.5459572289
 30
0.0
 10
20.079817394
 20
11.5463375679
 30
0.0
 10
20.0803904259
 20
11.5466693383
 30
0.0
 10
20.0808881395
 20
11.54695432
 30
0.0
 10
20.0813096048
 20
11.5471945977
 30
0.0
 10
20.0816545436
 20
11.5473908432
 30
0.0
 10
20.0818941637
 20
11.5475270968
 30
0.0
 10
20.0820476526
 20
11.5476138424
 30
0.0
 10
20.0821338913
 20
11.5476632345
 30
0.0
 10
20.0822013309
 20
11.5476999279
 30
0.0
 10
20.0822487573
 20
11.5477299841
 30
0.0
 10
20.0822786272
 20
11.5477410797
 30
0.0
 10
20.0822903954
 20
11.5477536482
 30
0.0
 10
20.082294063
 20
11.5477532352
 30
0.0
  0
SPLINE
  5
2FB
100
AcDbEntity
  8
0
100
AcDbSpline
 62
7
  6
CONTINUOUS
 70
0
 71
3
 72
11
 73
7
 74
0
 42
0.0000001
 43
0.0000001
 44
0.0000000001
 40
0.0
 40
0.0
 40
0.0
 40
0.0
 40
0.2326820855
 40
0.4803214027
 40
0.7379717722
 40
1.0
 40
1.0
 40
1.0
 40
1.0
 10
21.7108229166
 20
11.4779183564
 30
0.0
 10
21.7108220766
 20
11.4727580342
 30
0.0
 10
21.7109612232
 20
11.4621059161
 30
0.0
 10
21.7113106016
 20
11.4457433964
 30
0.0
 10
21.7115846015
 20
11.4287281897
 30
0.0
 10
21.7116637237
 20
11.4172029524
 30
0.0
 10
21.7116637237
 20
11.411391804
 30
0.0
  0
SPLINE
  5
2FC
100
AcDbEntity
  8
0
100
AcDbSpline
 62
7
  6
CONTINUOUS
 70
0
 71
3
 72
38
 73
34
 74
0
 42
0.0000001
 43
0.0000001
 44
0.0000000001
 40
0.0
 40
0.0
 40
0.0
 40
0.0
 40
0.0000671715
 40
0.0002693718
 40
0.0006065852
 40
0.0010787959
 40
0.0016859879
 40
0.0024281457
 40
0.0043172995
 40
0.006746626
 40
0.0097174877
 40
0.0132314407
 40
0.0172901516
 40
0.0218954101
 40
0.0270491343
 40
0.0390102152
 40
0.0531912972
 40
0.0696028938
 40
0.0882448746
 40
0.1091228746
 40
0.1322502401
 40
0.1576429115
 40
0.1852660011
 40
0.2150594434
 40
0.2809725579
 40
0.3548459458
 40
0.4355760257
 40
0.5220473463
 40
0.6129558026
 40
0.7071444207
 40
0.8036514325
 40
0.9015859772
 40
1.0
 40
1.0
 40
1.0
 40
1.0
 10
22.0622952974
 20
11.5477532352
 30
0.0
 10
22.0622916687
 20
11.5477528265
 30
0.0
 10
22.0623209931
 20
11.547742171
 30
0.0
 10
22.062333656
 20
11.5477292861
 30
0.0
 10
22.062390726
 20
11.5477003829
 30
0.0
 10
22.0624537855
 20
11.5476634497
 30
0.0
 10
22.0625416765
 20
11.5476145997
 30
0.0
 10
22.0626944354
 20
11.5475285557
 30
0.0
 10
22.0629349399
 20
11.5473939955
 30
0.0
 10
22.0632803943
 20
11.5472002823
 30
0.0
 10
22.0637022768
 20
11.5469616936
 30
0.0
 10
22.0641996583
 20
11.5466768863
 30
0.0
 10
22.0647720826
 20
11.5463442816
 30
0.0
 10
22.0654189213
 20
11.5459623672
 30
0.0
 10
22.0664312112
 20
11.5453545059
 30
0.0
 10
22.0678790101
 20
11.5444608255
 30
0.0
 10
22.0698280571
 20
11.5432145424
 30
0.0
 10
22.0720568327
 20
11.5417321902
 30
0.0
 10
22.0745500367
 20
11.539991227
 30
0.0
 10
22.0772926372
 20
11.5379714524
 30
0.0
 10
22.0802687305
 20
11.5356520595
 30
0.0
 10
22.0834604673
 20
11.5330154129
 30
0.0
 10
22.0868417537
 20
11.5300422199
 30
0.0
 10
22.0917268464
 20
11.5254485811
 30
0.0
 10
22.0980885212
 20
11.5187635564
 30
0.0
 10
22.1056637872
 20
11.5094565841
 30
0.0
 10
22.1130953296
 20
11.4986428375
 30
0.0
 10
22.1200177145
 20
11.4864170173
 30
0.0
 10
22.1261369246
 20
11.4729589523
 30
0.0
 10
22.1311436799
 20
11.458468236
 30
0.0
 10
22.1348708987
 20
11.4432021664
 30
0.0
 10
22.1371505805
 20
11.4274224875
 30
0.0
 10
22.1376722844
 20
11.4167418605
 30
0.0
 10
22.1376722844
 20
11.411391804
 30
0.0
  0
LINE
  5
2FD
100
AcDbEntity
  8
0
100
AcDbLine
 62
7
  6
CONTINUOUS
 10
20.0821270667
 20
10.7120328207
 11
20.0822945129
 21
10.7118251048
  0
LINE
  5
2FE
100
AcDbEntity
  8
0
100
AcDbLine
 62
7
  6
CONTINUOUS
 10
20.082294063
 20
11.5477532352
 11
20.0804774888
 21
11.5467267192
  0
LINE
  5
2FF
100
AcDbEntity
  8
0
100
AcDbLine
 62
7
  6
CONTINUOUS
 10
22.0624622938
 20
10.7120328207
 11
22.0622948475
 21
10.7118251048
  0
SPLINE
  5
300
100
AcDbEntity
  8
0
100
AcDbSpline
 62
7
  6
CONTINUOUS
 70
0
 71
3
 72
13
 73
9
 74
0
 42
0.0000001
 43
0.0000001
 44
0.0000000001
 40
0.0
 40
0.0
 40
0.0
 40
0.0
 40
0.1361919061
 40
0.2704629695
 40
0.4014873978
 40
0.5286684922
 40
0.7711438921
 40
1.0
 40
1.0
 40
1.0
 40
1.0
 10
21.0722946802
 20
10.7118248749
 30
0.0
 10
21.0636183728
 20
10.7118248749
 30
0.0
 10
21.0463591193
 20
10.713159514
 30
0.0
 10
21.0213582116
 20
10.7189541398
 30
0.0
 10
20.9979573736
 20
10.7279796968
 30
0.0
 10
20.969835902
 20
10.7431793243
 30
0.0
 10
20.9395841423
 20
10.766872303
 30
0.0
 10
20.9197383911
 20
10.7896311254
 30
0.0
 10
20.9111214488
 20
10.801391804
 30
0.0
  0
SPLINE
  5
301
100
AcDbEntity
  8
0
100
AcDbSpline
 62
7
  6
CONTINUOUS
 70
0
 71
3
 72
28
 73
24
 74
0
 42
0.0000001
 43
0.0000001
 44
0.0000000001
 40
0.0
 40
0.0
 40
0.0
 40
0.0
 40
0.051471058
 40
0.1007277842
 40
0.1479943559
 40
0.1938098204
 40
0.2165168831
 40
0.2393153499
 40
0.262437193
 40
0.2861487331
 40
0.3107263046
 40
0.3364344196
 40
0.3920068259
 40
0.4221996802
 40
0.4540101411
 40
0.487377672
 40
0.5221909648
 40
0.5955263052
 40
0.6727612628
 40
0.752689728
 40
0.8343333313
 40
0.9169586502
 40
1.0
 40
1.0
 40
1.0
 40
1.0
 10
21.7108227583
 20
10.7854649709
 30
0.0
 10
21.710822871
 20
10.7807101655
 30
0.0
 10
21.711292244
 20
10.7713943482
 30
0.0
 10
21.713668368
 20
10.7578889108
 30
0.0
 10
21.7178815262
 20
10.7453717914
 30
0.0
 10
21.7231468367
 20
10.7359659644
 30
0.0
 10
21.7284458416
 20
10.7293801058
 30
0.0
 10
21.7329896927
 20
10.7249359989
 30
0.0
 10
21.7381278383
 20
10.7210374268
 30
0.0
 10
21.7438660027
 20
10.717746382
 30
0.0
 10
21.7501981001
 20
10.7151223842
 30
0.0
 10
21.7596443838
 20
10.7125126372
 30
0.0
 10
21.7699932327
 20
10.7115707751
 30
0.0
 10
21.7808485532
 20
10.7121079411
 30
0.0
 10
21.7895898148
 20
10.7132937755
 30
0.0
 10
21.798630512
 20
10.7152233679
 30
0.0
 10
21.811214348
 20
10.7187955093
 30
0.0
 10
21.8272447501
 20
10.7249170395
 30
0.0
 10
21.8464008183
 20
10.734260148
 30
0.0
 10
21.8655124721
 20
10.7453088768
 30
0.0
 10
21.8843776281
 20
10.7576958182
 30
0.0
 10
21.9028687387
 20
10.771124817
 30
0.0
 10
21.9148848346
 20
10.7806090633
 30
0.0
 10
21.9208228177
 20
10.7854657977
 30
0.0
  0
SPLINE
  5
302
100
AcDbEntity
  8
0
100
AcDbSpline
 62
7
  6
CONTINUOUS
 70
0
 71
3
 72
24
 73
20
 74
0
 42
0.0000001
 43
0.0000001
 44
0.0000000001
 40
0.0
 40
0.0
 40
0.0
 40
0.0
 40
0.1318166297
 40
0.1968505276
 40
0.2607587765
 40
0.3233162592
 40
0.3844562352
 40
0.4442295007
 40
0.4737167301
 40
0.5030218387
 40
0.5613707225
 40
0.5906358611
 40
0.6200831953
 40
0.6798060377
 40
0.7410230489
 40
0.8039099277
 40
0.8683470684
 40
0.9339391275
 40
1.0
 40
1.0
 40
1.0
 40
1.0
 10
21.0722946802
 20
11.5477507055
 30
0.0
 10
21.0616258101
 20
11.5477507055
 30
0.0
 10
21.0456775135
 20
11.5471031357
 30
0.0
 10
21.0247040201
 20
11.5446804328
 30
0.0
 10
21.0094260689
 20
11.5420031518
 30
0.0
 10
20.9946865626
 20
11.5382852653
 30
0.0
 10
20.9806496797
 20
11.5333703782
 30
0.0
 10
20.9696355684
 20
11.5281118036
 30
0.0
 10
20.9614138094
 20
11.5231491222
 30
0.0
 10
20.9536485137
 20
11.5176993002
 30
0.0
 10
20.9464915605
 20
11.5114487366
 30
0.0
 10
20.9400812162
 20
11.5044622145
 30
0.0
 10
20.9341403982
 20
11.4969290103
 30
0.0
 10
20.9276591962
 20
11.4865763849
 30
0.0
 10
20.9214580127
 20
11.4730114227
 30
0.0
 10
20.9167638633
 20
11.4584595065
 30
0.0
 10
20.9134849646
 20
11.443170015
 30
0.0
 10
20.911546332
 20
11.4273994065
 30
0.0
 10
20.9111214488
 20
11.4167385867
 30
0.0
 10
20.9111214488
 20
11.411391804
 30
0.0
  0
SPLINE
  5
303
100
AcDbEntity
  8
0
100
AcDbSpline
 62
7
  6
CONTINUOUS
 70
0
 71
3
 72
38
 73
34
 74
0
 42
0.0000001
 43
0.0000001
 44
0.0000000001
 40
0.0
 40
0.0
 40
0.0
 40
0.0
 40
0.0323278158
 40
0.0619933645
 40
0.0887512026
 40
0.1126240925
 40
0.1339515424
 40
0.1533348341
 40
0.1716877432
 40
0.1899993738
 40
0.20911484
 40
0.2296119562
 40
0.2518424979
 40
0.2759557083
 40
0.3019826136
 40
0.3298914613
 40
0.3595928461
 40
0.3909835215
 40
0.4582961059
 40
0.4939143207
 40
0.5306400647
 40
0.5682469116
 40
0.6065486717
 40
0.6453927206
 40
0.6845626245
 40
0.7042269156
 40
0.7239259624
 40
0.7633712214
 40
0.8028348665
 40
0.8422835156
 40
0.8817412865
 40
0.9212255045
 40
1.0
 40
1.0
 40
1.0
 40
1.0
 10
20.4337665874
 20
11.4779184323
 30
0.0
 10
20.4337656986
 20
11.4817128334
 30
0.0
 10
20.4336924935
 20
11.4889898212
 30
0.0
 10
20.4331964412
 20
11.4993987837
 30
0.0
 10
20.4321653935
 20
11.5087760281
 30
0.0
 10
20.4304642237
 20
11.5170653216
 30
0.0
 10
20.4279895615
 20
11.5242614675
 30
0.0
 10
20.4245976672
 20
11.5303569586
 30
0.0
 10
20.4202659181
 20
11.5353720157
 30
0.0
 10
20.4150175743
 20
11.5393582569
 30
0.0
 10
20.4089113642
 20
11.5424182252
 30
0.0
 10
20.4019958467
 20
11.5446874154
 30
0.0
 10
20.394304032
 20
11.5462920442
 30
0.0
 10
20.3858623894
 20
11.5473077923
 30
0.0
 10
20.3767083059
 20
11.547779864
 30
0.0
 10
20.3668876483
 20
11.5477615029
 30
0.0
 10
20.3564505073
 20
11.5472302499
 30
0.0
 10
20.3414479417
 20
11.5457599355
 30
0.0
 10
20.325869748
 20
11.5431372788
 30
0.0
 10
20.3099742741
 20
11.539102121
 30
0.0
 10
20.2976746591
 20
11.5351642933
 30
0.0
 10
20.2853829416
 20
11.5302649307
 30
0.0
 10
20.273290458
 20
11.5242970358
 30
0.0
 10
20.2616134797
 20
11.517188137
 30
0.0
 10
20.252409517
 20
11.5103182362
 30
0.0
 10
20.2454673314
 20
11.5042483305
 30
0.0
 10
20.2388398705
 20
11.4977899837
 30
0.0
 10
20.2312159635
 20
11.4890492346
 30
0.0
 10
20.2232705859
 20
11.4776187492
 30
0.0
 10
20.2166712759
 20
11.4653595626
 30
0.0
 10
20.211476481
 20
11.4524380377
 30
0.0
 10
20.2065047455
 20
11.4345799345
 30
0.0
 10
20.2049922669
 20
11.4206377749
 30
0.0
 10
20.2049922669
 20
11.411391804
 30
0.0
  0
SPLINE
  5
304
100
AcDbEntity
  8
0
100
AcDbSpline
 62
7
  6
CONTINUOUS
 70
0
 71
3
 72
23
 73
19
 74
0
 42
0.0000001
 43
0.0000001
 44
0.0000000001
 40
0.0
 40
0.0
 40
0.0
 40
0.0
 40
0.0660999672
 40
0.1317111986
 40
0.1961507863
 40
0.2590366895
 40
0.3202543111
 40
0.3799658661
 40
0.4386361506
 40
0.46781743
 40
0.4970067497
 40
0.5557566496
 40
0.6155270284
 40
0.6766499737
 40
0.7392199903
 40
0.8031226236
 40
0.8681440223
 40
1.0
 40
1.0
 40
1.0
 40
1.0
 10
21.2334679117
 20
11.411391804
 30
0.0
 10
21.2334679117
 20
11.416741586
 30
0.0
 10
21.2330420976
 20
11.4274068026
 30
0.0
 10
21.2311025124
 20
11.4431816307
 30
0.0
 10
21.2278244676
 20
11.4584727661
 30
0.0
 10
21.2231258049
 20
11.473022545
 30
0.0
 10
21.2169244192
 20
11.4865871926
 30
0.0
 10
21.2091860868
 20
11.4989457757
 30
0.0
 10
21.2014228297
 20
11.5080828862
 30
0.0
 10
21.1945267003
 20
11.5145878045
 30
0.0
 10
21.1871629889
 20
11.5205693297
 30
0.0
 10
21.1770896321
 20
11.5270825034
 30
0.0
 10
21.1639449279
 20
11.5333730603
 30
0.0
 10
21.1499050469
 20
11.5382822162
 30
0.0
 10
21.1351671556
 20
11.5419976015
 30
0.0
 10
21.119891596
 20
11.5446845576
 30
0.0
 10
21.0989159058
 20
11.5470984369
 30
0.0
 10
21.082966406
 20
11.5477507055
 30
0.0
 10
21.0722946802
 20
11.5477507055
 30
0.0
  0
SPLINE
  5
305
100
AcDbEntity
  8
0
100
AcDbSpline
 62
7
  6
CONTINUOUS
 70
0
 71
3
 72
38
 73
34
 74
0
 42
0.0000001
 43
0.0000001
 44
0.0000000001
 40
0.0
 40
0.0
 40
0.0
 40
0.0
 40
0.0787771041
 40
0.1182661584
 40
0.1577297932
 40
0.1971814349
 40
0.2366432411
 40
0.2760846671
 40
0.2957808724
 40
0.3154410846
 40
0.3545982194
 40
0.3934241961
 40
0.4317113442
 40
0.4693068915
 40
0.5415815494
 40
0.5759527494
 40
0.6089058005
 40
0.6402934666
 40
0.670002322
 40
0.697915226
 40
0.7239521016
 40
0.7480780906
 40
0.7703158279
 40
0.7908271785
 40
0.8099539678
 40
0.8282692722
 40
0.8466302315
 40
0.8660253405
 40
0.8873641823
 40
0.9112418642
 40
0.9380010882
 40
0.9676705869
 40
1.0
 40
1.0
 40
1.0
 40
1.0
 10
21.9395970936
 20
11.411391804
 30
0.0
 10
21.9395970936
 20
11.4206379476
 30
0.0
 10
21.9380846877
 20
11.4345808037
 30
0.0
 10
21.9331121159
 20
11.4524400792
 30
0.0
 10
21.9279156003
 20
11.4653624017
 30
0.0
 10
21.9213166877
 20
11.4776224505
 30
0.0
 10
21.9133716636
 20
11.4890526573
 30
0.0
 10
21.9057475229
 20
11.4977916196
 30
0.0
 10
21.8991214432
 20
11.5042493483
 30
0.0
 10
21.8921819426
 20
11.5103185961
 30
0.0
 10
21.8829819516
 20
11.5171868235
 30
0.0
 10
21.871309059
 20
11.5242916801
 30
0.0
 10
21.8592201191
 20
11.5302555362
 30
0.0
 10
21.8430556724
 20
11.5367025963
 30
0.0
 10
21.8267224324
 20
11.5413524155
 30
0.0
 10
21.8106371887
 20
11.5444933467
 30
0.0
 10
21.7991662222
 20
11.5461553725
 30
0.0
 10
21.7881759649
 20
11.5472292111
 30
0.0
 10
21.7777382549
 20
11.547754421
 30
0.0
 10
21.7679151925
 20
11.5477866946
 30
0.0
 10
21.7587579891
 20
11.547309745
 30
0.0
 10
21.7503139364
 20
11.5462891195
 30
0.0
 10
21.7426159278
 20
11.5446955965
 30
0.0
 10
21.73569565
 20
11.5424279008
 30
0.0
 10
21.7295859252
 20
11.5393672892
 30
0.0
 10
21.724335176
 20
11.5353803911
 30
0.0
 10
21.7199967351
 20
11.5303675146
 30
0.0
 10
21.7166032067
 20
11.5242683457
 30
0.0
 10
21.7141285629
 20
11.5170689964
 30
0.0
 10
21.7124251324
 20
11.5087782353
 30
0.0
 10
21.7113922852
 20
11.4994000796
 30
0.0
 10
21.7108962944
 20
11.4889904287
 30
0.0
 10
21.7108235343
 20
11.4817128903
 30
0.0
 10
21.7108229166
 20
11.4779183564
 30
0.0
  0
SPLINE
  5
306
100
AcDbEntity
  8
0
100
AcDbSpline
 62
7
  6
CONTINUOUS
 70
0
 71
3
 72
27
 73
23
 74
0
 42
0.0000001
 43
0.0000001
 44
0.0000000001
 40
0.0
 40
0.0
 40
0.0
 40
0.0
 40
0.0830442222
 40
0.1656723726
 40
0.2473189525
 40
0.3272504824
 40
0.4044883606
 40
0.4778266895
 40
0.5459725675
 40
0.5777845147
 40
0.6079784987
 40
0.6635531363
 40
0.6892621762
 40
0.7138405664
 40
0.7375529483
 40
0.7606756519
 40
0.7834749865
 40
0.80618291
 40
0.8520000764
 40
0.899268414
 40
0.948526991
 40
1.0
 40
1.0
 40
1.0
 40
1.0
 10
20.2237665428
 20
10.7854659564
 30
0.0
 10
20.2297045095
 20
10.7806092359
 30
0.0
 10
20.2417204988
 20
10.7711249081
 30
0.0
 10
20.2602115111
 20
10.757695955
 30
0.0
 10
20.2790768257
 20
10.7453089281
 30
0.0
 10
20.2981878354
 20
10.7342605484
 30
0.0
 10
20.3173461698
 20
10.7249160989
 30
0.0
 10
20.3362509578
 20
10.7176984616
 30
0.0
 10
20.3518129725
 20
10.7137269146
 30
0.0
 10
20.3637406275
 20
10.7121078273
 30
0.0
 10
20.3745962135
 20
10.7115708211
 30
0.0
 10
20.3849449821
 20
10.7125126421
 30
0.0
 10
20.3943912848
 20
10.7151223832
 30
0.0
 10
20.4007233588
 20
10.7177463871
 30
0.0
 10
20.4064615139
 20
10.7210374205
 30
0.0
 10
20.4115996573
 20
10.7249359906
 30
0.0
 10
20.4161435116
 20
10.7293800973
 30
0.0
 10
20.4214425184
 20
10.7359659564
 30
0.0
 10
20.4267078299
 20
10.7453717827
 30
0.0
 10
20.4309209896
 20
10.7578889014
 30
0.0
 10
20.4332971158
 20
10.7713943416
 30
0.0
 10
20.4337664899
 20
10.7807101623
 30
0.0
 10
20.433766603
 20
10.7854649702
 30
0.0
  0
SPLINE
  5
307
100
AcDbEntity
  8
0
100
AcDbSpline
 62
7
  6
CONTINUOUS
 70
0
 71
3
 72
13
 73
9
 74
0
 42
0.0000001
 43
0.0000001
 44
0.0000000001
 40
0.0
 40
0.0
 40
0.0
 40
0.0
 40
0.1361907082
 40
0.2704613035
 40
0.4014854382
 40
0.5286666199
 40
0.7711426771
 40
1.0
 40
1.0
 40
1.0
 40
1.0
 10
21.0722946802
 20
10.7118248749
 30
0.0
 10
21.0809709114
 20
10.7118248749
 30
0.0
 10
21.0982300594
 20
10.7131594828
 30
0.0
 10
21.1232308507
 20
10.7189540573
 30
0.0
 10
21.1466316657
 20
10.7279795519
 30
0.0
 10
21.174753192
 20
10.7431791396
 30
0.0
 10
21.2050050944
 20
10.7668721458
 30
0.0
 10
21.2248509235
 20
10.7896310628
 30
0.0
 10
21.2334679117
 20
10.801391804
 30
0.0
  0
SPLINE
  5
308
100
AcDbEntity
  8
0
100
AcDbSpline
 62
9
  6
CONTINUOUS
 70
0
 71
3
 72
22
 73
18
 74
0
 42
0.0000001
 43
0.0000001
 44
0.0000000001
 40
0.0
 40
0.0
 40
0.0
 40
0.0
 40
0.0112873956
 40
0.0220667388
 40
0.0328322885
 40
0.0440815269
 40
0.0696201583
 40
0.1012745367
 40
0.1403255221
 40
0.1871542171
 40
0.2417365437
 40
0.3038831797
 40
0.3732587916
 40
0.4492285236
 40
0.6179683221
 40
0.8038850321
 40
1.0
 40
1.0
 40
1.0
 40
1.0
 10
11.6159650222
 20
8.5918528953
 30
0.0
 10
11.6159241503
 20
8.5916213825
 30
0.0
 10
11.6158852421
 20
8.5911597388
 30
0.0
 10
11.6159762011
 20
8.5904763749
 30
0.0
 10
11.616219135
 20
8.589831765
 30
0.0
 10
11.6167645772
 20
8.5889966513
 30
0.0
 10
11.6178807323
 20
8.588065844
 30
0.0
 10
11.6197042112
 20
8.5872065494
 30
0.0
 10
11.6220665398
 20
8.5865358988
 30
0.0
 10
11.624955948
 20
8.5860531792
 30
0.0
 10
11.6283529159
 20
8.5857627083
 30
0.0
 10
11.6322299381
 20
8.5856715385
 30
0.0
 10
11.6365515264
 20
8.5857847812
 30
0.0
 10
11.6430802291
 20
8.5862181984
 30
0.0
 10
11.6519931342
 20
8.5872735348
 30
0.0
 10
11.6633026866
 20
8.5892158963
 30
0.0
 10
11.6710811009
 20
8.5909053187
 30
0.0
 10
11.6750542812
 20
8.591853122
 30
0.0
  0
SPLINE
  5
309
100
AcDbEntity
  8
0
100
AcDbSpline
 62
9
  6
CONTINUOUS
 70
0
 71
3
 72
25
 73
21
 74
0
 42
0.0000001
 43
0.0000001
 44
0.0000000001
 40
0.0
 40
0.0
 40
0.0
 40
0.0
 40
0.1962682193
 40
0.3848386932
 40
0.4738226506
 40
0.5580973294
 40
0.6368300898
 40
0.7091907717
 40
0.7744093007
 40
0.8319449846
 40
0.881322481
 40
0.9220855985
 40
0.9391162049
 40
0.953899233
 40
0.9664541399
 40
0.9768180481
 40
0.9850642169
 40
0.9913490741
 40
0.9960415728
 40
1.0
 40
1.0
 40
1.0
 40
1.0
 10
11.3883168976
 20
6.9656826636
 30
0.0
 10
11.3844267029
 20
6.9653644436
 30
0.0
 10
11.376794036
 20
6.9647984473
 30
0.0
 10
11.3673866288
 20
6.964249348
 30
0.0
 10
11.3601977983
 20
6.9639325526
 30
0.0
 10
11.3551891956
 20
6.9637634675
 30
0.0
 10
11.3505094634
 20
6.9636595658
 30
0.0
 10
11.3462076643
 20
6.9636221138
 30
0.0
 10
11.3423273319
 20
6.9636525804
 30
0.0
 10
11.338905166
 20
6.9637489301
 30
0.0
 10
11.3359723678
 20
6.9639091422
 30
0.0
 10
11.3338488603
 20
6.9641018514
 30
0.0
 10
11.3324185467
 20
6.9642972418
 30
0.0
 10
11.3315491883
 20
6.9644496083
 30
0.0
 10
11.3308175814
 20
6.9646157757
 30
0.0
 10
11.3302236485
 20
6.9647948277
 30
0.0
 10
11.3297653732
 20
6.9649865706
 30
0.0
 10
11.3294403829
 20
6.9651912406
 30
0.0
 10
11.3292388942
 20
6.9654224713
 30
0.0
 10
11.3292136651
 20
6.9656050271
 30
0.0
 10
11.329227269
 20
6.965682564
 30
0.0
  0
SPLINE
  5
30A
100
AcDbEntity
  8
0
100
AcDbSpline
 62
9
  6
CONTINUOUS
 70
0
 71
3
 72
11
 73
7
 74
0
 42
0.0000001
 43
0.0000001
 44
0.0000000001
 40
0.0
 40
0.0
 40
0.0
 40
0.0
 40
0.2456298522
 40
0.4933423466
 40
0.7447006482
 40
1.0
 40
1.0
 40
1.0
 40
1.0
 10
11.6750495649
 20
8.7219663727
 30
0.0
 10
11.6683410603
 20
8.7219668404
 30
0.0
 10
11.6548662803
 20
8.7223831675
 30
0.0
 10
11.6345776521
 20
8.723847633
 30
0.0
 10
11.6140628292
 20
8.7257423339
 30
0.0
 10
11.6002594848
 20
8.7267670359
 30
0.0
 10
11.5932946825
 20
8.7270965438
 30
0.0
  0
SPLINE
  5
30B
100
AcDbEntity
  8
0
100
AcDbSpline
 62
9
  6
CONTINUOUS
 70
0
 71
3
 72
14
 73
10
 74
0
 42
0.0000001
 43
0.0000001
 44
0.0000000001
 40
0.0
 40
0.0
 40
0.0
 40
0.0
 40
0.2488728865
 40
0.3736411784
 40
0.4985443253
 40
0.6236335451
 40
0.748961127
 40
0.8744568415
 40
1.0
 40
1.0
 40
1.0
 40
1.0
 10
11.5918798336
 20
8.6971936574
 30
0.0
 10
11.5987834683
 20
8.69693581
 30
0.0
 10
11.6091386311
 20
8.6963155972
 30
0.0
 10
11.6229461669
 20
8.6953872661
 30
0.0
 10
11.6333276816
 20
8.6947180391
 30
0.0
 10
11.6437301236
 20
8.6941357736
 30
0.0
 10
11.6541567506
 20
8.6937085875
 30
0.0
 10
11.6646011513
 20
8.6934385088
 30
0.0
 10
11.6715695627
 20
8.6933596493
 30
0.0
 10
11.6750544774
 20
8.6933450181
 30
0.0
  0
SPLINE
  5
30C
100
AcDbEntity
  8
0
100
AcDbSpline
 62
9
  6
CONTINUOUS
 70
0
 71
3
 72
26
 73
22
 74
0
 42
0.0000001
 43
0.0000001
 44
0.0000000001
 40
0.0
 40
0.0
 40
0.0
 40
0.0
 40
0.0003677709
 40
0.0014730522
 40
0.0033044041
 40
0.0058503504
 40
0.0130401351
 40
0.0229507143
 40
0.0354905268
 40
0.0505681607
 40
0.068092364
 40
0.087972056
 40
0.134434374
 40
0.1892304729
 40
0.2516392411
 40
0.3209437666
 40
0.3963467361
 40
0.4767209456
 40
0.6476512462
 40
0.8247298443
 40
1.0
 40
1.0
 40
1.0
 40
1.0
 10
11.5543048308
 20
8.6933449324
 30
0.0
 10
11.5543039207
 20
8.6933453206
 30
0.0
 10
11.5543111506
 20
8.6933483145
 30
0.0
 10
11.5543143145
 20
8.6933530985
 30
0.0
 10
11.5543283444
 20
8.6933622454
 30
0.0
 10
11.5543519977
 20
8.6933806066
 30
0.0
 10
11.5543955366
 20
8.6934120813
 30
0.0
 10
11.5544594946
 20
8.6934590079
 30
0.0
 10
11.5545414946
 20
8.6935181741
 30
0.0
 10
11.5546401684
 20
8.6935888705
 30
0.0
 10
11.5547553478
 20
8.6936705585
 30
0.0
 10
11.554939965
 20
8.6938002398
 30
0.0
 10
11.5552080419
 20
8.6939855639
 30
0.0
 10
11.5555727257
 20
8.6942322953
 30
0.0
 10
11.5559913294
 20
8.6945089505
 30
0.0
 10
11.5564597238
 20
8.6948107433
 30
0.0
 10
11.5569728676
 20
8.6951322596
 30
0.0
 10
11.5577259009
 20
8.6955855609
 30
0.0
 10
11.5587338894
 20
8.6961455904
 30
0.0
 10
11.5600085329
 20
8.6967459105
 30
0.0
 10
11.5609035317
 20
8.6970663813
 30
0.0
 10
11.5613576838
 20
8.6971931621
 30
0.0
  0
SPLINE
  5
30D
100
AcDbEntity
  8
0
100
AcDbSpline
 62
9
  6
CONTINUOUS
 70
0
 71
3
 72
18
 73
14
 74
0
 42
0.0000001
 43
0.0000001
 44
0.0000000001
 40
0.0
 40
0.0
 40
0.0
 40
0.0
 40
0.0167408671
 40
0.0413372215
 40
0.0735491602
 40
0.1130665383
 40
0.1595564827
 40
0.2126769707
 40
0.3374235168
 40
0.4840206194
 40
0.6471702618
 40
0.8210841769
 40
1.0
 40
1.0
 40
1.0
 40
1.0
 10
11.5613573622
 20
8.697193185
 30
0.0
 10
11.5615215099
 20
8.6972389736
 30
0.0
 10
11.5619395332
 20
8.6973015913
 30
0.0
 10
11.5626851055
 20
8.6973640258
 30
0.0
 10
11.5636651483
 20
8.6974074874
 30
0.0
 10
11.5648681405
 20
8.69743636
 30
0.0
 10
11.5662843672
 20
8.6974527157
 30
0.0
 10
11.5685681869
 20
8.6974629065
 30
0.0
 10
11.5718711017
 20
8.6974602929
 30
0.0
 10
11.576294039
 20
8.6974622889
 30
0.0
 10
11.581217478
 20
8.6974389771
 30
0.0
 10
11.5864694816
 20
8.6973643812
 30
0.0
 10
11.5900598945
 20
8.6972623623
 30
0.0
 10
11.591879837
 20
8.697192537
 30
0.0
  0
SPLINE
  5
30E
100
AcDbEntity
  8
0
100
AcDbSpline
 62
9
  6
CONTINUOUS
 70
0
 71
3
 72
15
 73
11
 74
0
 42
0.0000001
 43
0.0000001
 44
0.0000000001
 40
0.0
 40
0.0
 40
0.0
 40
0.0
 40
0.0235035568
 40
0.0446083685
 40
0.0729183089
 40
0.151890763
 40
0.2610953526
 40
0.4006070033
 40
0.5703534343
 40
1.0
 40
1.0
 40
1.0
 40
1.0
 10
11.5332946802
 20
8.72709716
 30
0.0
 10
11.5332946988
 20
8.7271204211
 30
0.0
 10
11.5333405373
 20
8.7271523653
 30
0.0
 10
11.533404616
 20
8.7271759002
 30
0.0
 10
11.5335293298
 20
8.7272095291
 30
0.0
 10
11.5337400289
 20
8.727242362
 30
0.0
 10
11.534063124
 20
8.7272768724
 30
0.0
 10
11.5344760432
 20
8.7273066293
 30
0.0
 10
11.5352064606
 20
8.7273446874
 30
0.0
 10
11.5357994179
 20
8.7273626693
 30
0.0
 10
11.5362244974
 20
8.7273734057
 30
0.0
  0
SPLINE
  5
30F
100
AcDbEntity
  8
0
100
AcDbSpline
 62
9
  6
CONTINUOUS
 70
0
 71
3
 72
13
 73
9
 74
0
 42
0.0000001
 43
0.0000001
 44
0.0000000001
 40
0.0
 40
0.0
 40
0.0
 40
0.0
 40
0.0631205238
 40
0.1492918683
 40
0.2565039829
 40
0.3819671544
 40
0.675098569
 40
1.0
 40
1.0
 40
1.0
 40
1.0
 10
11.5362244974
 20
8.7273734057
 30
0.0
 10
11.5374249378
 20
8.7274037257
 30
0.0
 10
11.5402651198
 20
8.7274345325
 30
0.0
 10
11.5451448391
 20
8.7274519897
 30
0.0
 10
11.5512106962
 20
8.7274572389
 30
0.0
 10
11.561213788
 20
8.727447487
 30
0.0
 10
11.5753581879
 20
8.7273981253
 30
0.0
 10
11.5871153729
 20
8.7272419667
 30
0.0
 10
11.5932946802
 20
8.7270964961
 30
0.0
  0
SPLINE
  5
310
100
AcDbEntity
  8
0
100
AcDbSpline
 62
9
  6
CONTINUOUS
 70
0
 71
3
 72
26
 73
22
 74
0
 42
0.0000001
 43
0.0000001
 44
0.0000000001
 40
0.0
 40
0.0
 40
0.0
 40
0.0
 40
0.175643765
 40
0.3527918418
 40
0.5236191723
 40
0.6039131442
 40
0.6792340386
 40
0.7484652245
 40
0.8108124686
 40
0.8655601516
 40
0.9119885426
 40
0.9318571567
 40
0.9493744562
 40
0.9644495527
 40
0.9769913904
 40
0.9869087575
 40
0.9941102976
 40
0.996664051
 40
0.9985045336
 40
0.9996203031
 40
1.0
 40
1.0
 40
1.0
 40
1.0
 10
12.583233107
 20
8.6971921978
 30
0.0
 10
12.5836883462
 20
8.697065708
 30
0.0
 10
12.5845847583
 20
8.6967457713
 30
0.0
 10
12.5858603318
 20
8.6961454685
 30
0.0
 10
12.5868678272
 20
8.695585344
 30
0.0
 10
12.5876199666
 20
8.6951320712
 30
0.0
 10
12.5881323637
 20
8.6948106442
 30
0.0
 10
12.5886001014
 20
8.6945089882
 30
0.0
 10
12.5890181662
 20
8.694232482
 30
0.0
 10
12.5893824344
 20
8.6939858848
 30
0.0
 10
12.5896502389
 20
8.6938006578
 30
0.0
 10
12.5898347034
 20
8.6936710228
 30
0.0
 10
12.5899497999
 20
8.6935893536
 30
0.0
 10
12.5900484626
 20
8.693518627
 30
0.0
 10
12.5901303635
 20
8.6934594905
 30
0.0
 10
12.5901945707
 20
8.6934123466
 30
0.0
 10
12.5902376584
 20
8.6933811433
 30
0.0
 10
12.5902620117
 20
8.6933622492
 30
0.0
 10
12.5902749907
 20
8.6933538103
 30
0.0
 10
12.5902801415
 20
8.6933475837
 30
0.0
 10
12.5902854289
 20
8.6933459731
 30
0.0
 10
12.5902853314
 20
8.6933449563
 30
0.0
  0
SPLINE
  5
311
100
AcDbEntity
  8
0
100
AcDbSpline
 62
9
  6
CONTINUOUS
 70
0
 71
3
 72
11
 73
7
 74
0
 42
0.0000001
 43
0.0000001
 44
0.0000000001
 40
0.0
 40
0.0
 40
0.0
 40
0.0
 40
0.2592263807
 40
0.5142689389
 40
0.7615066742
 40
1.0
 40
1.0
 40
1.0
 40
1.0
 10
12.4695344039
 20
8.6933452309
 30
0.0
 10
12.4767299853
 20
8.6933452064
 30
0.0
 10
12.4910055755
 20
8.6936491341
 30
0.0
 10
12.5121178127
 20
8.6947257334
 30
0.0
 10
12.5326308815
 20
8.6961419785
 30
0.0
 10
12.5460919889
 20
8.6969399502
 30
0.0
 10
12.5527072061
 20
8.6971935199
 30
0.0
  0
SPLINE
  5
312
100
AcDbEntity
  8
0
100
AcDbSpline
 62
9
  6
CONTINUOUS
 70
0
 71
3
 72
18
 73
14
 74
0
 42
0.0000001
 43
0.0000001
 44
0.0000000001
 40
0.0
 40
0.0
 40
0.0
 40
0.0
 40
0.1788854641
 40
0.3529123243
 40
0.5162130346
 40
0.6628942122
 40
0.7875858285
 40
0.8406435572
 40
0.8870628273
 40
0.9265133238
 40
0.9586738485
 40
0.9832457879
 40
1.0
 40
1.0
 40
1.0
 40
1.0
 10
12.5527071378
 20
8.6971934838
 30
0.0
 10
12.5545269492
 20
8.6972632655
 30
0.0
 10
12.5581185539
 20
8.6973651877
 30
0.0
 10
12.5633734459
 20
8.6974396969
 30
0.0
 10
12.5683009059
 20
8.6974629259
 30
0.0
 10
12.572726106
 20
8.6974607135
 30
0.0
 10
12.5760289987
 20
8.6974628992
 30
0.0
 10
12.5783111205
 20
8.6974523109
 30
0.0
 10
12.5797254407
 20
8.6974356858
 30
0.0
 10
12.580926623
 20
8.6974065887
 30
0.0
 10
12.5819052894
 20
8.697362944
 30
0.0
 10
12.582650309
 20
8.6973004402
 30
0.0
 10
12.5830682215
 20
8.6972377935
 30
0.0
 10
12.5832325703
 20
8.6971921596
 30
0.0
  0
SPLINE
  5
313
100
AcDbEntity
  8
0
100
AcDbSpline
 62
9
  6
CONTINUOUS
 70
0
 71
3
 72
27
 73
23
 74
0
 42
0.0000001
 43
0.0000001
 44
0.0000000001
 40
0.0
 40
0.0
 40
0.0
 40
0.0
 40
0.1947899421
 40
0.382463909
 40
0.471112485
 40
0.5552077553
 40
0.6339546923
 40
0.7066185494
 40
0.7725126027
 40
0.8309526262
 40
0.8813480259
 40
0.9232707938
 40
0.9409268172
 40
0.9563114639
 40
0.9693845437
 40
0.9801284148
 40
0.9885310198
 40
0.9945876802
 40
0.9967418139
 40
0.9983245946
 40
0.9993680366
 40
1.0
 40
1.0
 40
1.0
 40
1.0
 10
12.5512946802
 20
8.7270974556
 30
0.0
 10
12.555192273
 20
8.7271890097
 30
0.0
 10
12.5628462972
 20
8.7273173867
 30
0.0
 10
12.5722751952
 20
8.727396922
 30
0.0
 10
12.579488783
 20
8.727431275
 30
0.0
 10
12.5845222851
 20
8.7274454848
 30
0.0
 10
12.5892358692
 20
8.7274533299
 30
0.0
 10
12.5935851668
 20
8.7274564625
 30
0.0
 10
12.5975280274
 20
8.7274543709
 30
0.0
 10
12.6010251864
 20
8.7274473509
 30
0.0
 10
12.6040425438
 20
8.7274343811
 30
0.0
 10
12.606243581
 20
8.7274143356
 30
0.0
 10
12.6077437499
 20
8.7273891787
 30
0.0
 10
12.6086664564
 20
8.7273671757
 30
0.0
 10
12.6094506191
 20
8.7273404729
 30
0.0
 10
12.6100947644
 20
8.7273085377
 30
0.0
 10
12.6105977912
 20
8.727270872
 30
0.0
 10
12.6109283363
 20
8.7272317483
 30
0.0
 10
12.6111207804
 20
8.7271939418
 30
0.0
 10
12.6112125674
 20
8.7271656549
 30
0.0
 10
12.611272068
 20
8.7271393706
 30
0.0
 10
12.6112946708
 20
8.7271087792
 30
0.0
 10
12.6112946802
 20
8.7270961307
 30
0.0
  0
SPLINE
  5
314
100
AcDbEntity
  8
0
100
AcDbSpline
 62
9
  6
CONTINUOUS
 70
0
 71
3
 72
12
 73
8
 74
0
 42
0.0000001
 43
0.0000001
 44
0.0000000001
 40
0.0
 40
0.0
 40
0.0
 40
0.0
 40
0.2500029705
 40
0.3750147153
 40
0.5000051603
 40
0.7500160337
 40
1.0
 40
1.0
 40
1.0
 40
1.0
 10
12.4695385114
 20
8.7219663508
 30
0.0
 10
12.4763666848
 20
8.7219664395
 30
0.0
 10
12.4866107932
 20
8.7222678441
 30
0.0
 10
12.5002405162
 20
8.7231236968
 30
0.0
 10
12.513854256
 20
8.7242119071
 30
0.0
 10
12.5308516975
 20
8.7257739805
 30
0.0
 10
12.5444746291
 20
8.7267753298
 30
0.0
 10
12.5512946802
 20
8.7270974556
 30
0.0
  0
SPLINE
  5
315
100
AcDbEntity
  8
0
100
AcDbSpline
 62
9
  6
CONTINUOUS
 70
0
 71
3
 72
9
 73
5
 74
0
 42
0.0000001
 43
0.0000001
 44
0.0000000001
 40
0.0
 40
0.0
 40
0.0
 40
0.0
 40
0.2517963015
 40
1.0
 40
1.0
 40
1.0
 40
1.0
 10
10.9672947055
 20
6.5090549025
 30
0.0
 10
10.968919646
 20
6.5095900022
 30
0.0
 10
10.975411324
 20
6.5115687542
 30
0.0
 10
10.982211163
 20
6.5127691254
 30
0.0
 10
10.9872946802
 20
6.5127691346
 30
0.0
  0
SPLINE
  5
316
100
AcDbEntity
  8
0
100
AcDbSpline
 62
9
  6
CONTINUOUS
 70
0
 71
3
 72
17
 73
13
 74
0
 42
0.0000001
 43
0.0000001
 44
0.0000000001
 40
0.0
 40
0.0
 40
0.0
 40
0.0
 40
0.0415220585
 40
0.0840592624
 40
0.1285827844
 40
0.1757093097
 40
0.2789503786
 40
0.3952628791
 40
0.5249723425
 40
0.6686282077
 40
0.8268986446
 40
1.0
 40
1.0
 40
1.0
 40
1.0
 10
10.9307260219
 20
6.5090538693
 30
0.0
 10
10.9311078646
 20
6.5086983385
 30
0.0
 10
10.9319466779
 20
6.5080465358
 30
0.0
 10
10.9333690447
 20
6.5072688485
 30
0.0
 10
10.9349465473
 20
6.5066620746
 30
0.0
 10
10.9373155234
 20
6.5060287303
 30
0.0
 10
10.9406464441
 20
6.5055695715
 30
0.0
 10
10.9450366094
 20
6.5054295235
 30
0.0
 10
10.9499336306
 20
6.5056071542
 30
0.0
 10
10.9553303311
 20
6.5061917165
 30
0.0
 10
10.9612080827
 20
6.5072630965
 30
0.0
 10
10.9652290297
 20
6.5083737198
 30
0.0
 10
10.9672950079
 20
6.5090538693
 30
0.0
  0
SPLINE
  5
317
100
AcDbEntity
  8
0
100
AcDbSpline
 62
9
  6
CONTINUOUS
 70
0
 71
3
 72
23
 73
19
 74
0
 42
0.0000001
 43
0.0000001
 44
0.0000000001
 40
0.0
 40
0.0
 40
0.0
 40
0.0
 40
0.0011194629
 40
0.0044584742
 40
0.0099880141
 40
0.0176792346
 40
0.0275034646
 40
0.0394322142
 40
0.0694901424
 40
0.10762899
 40
0.1536278821
 40
0.2072693456
 40
0.2683394939
 40
0.3366282211
 40
0.4119294074
 40
0.5827621995
 40
0.7792797718
 40
1.0
 40
1.0
 40
1.0
 40
1.0
 10
10.9272946802
 20
6.512769301
 30
0.0
 10
10.9272961678
 20
6.5127704655
 30
0.0
 10
10.9272996715
 20
6.5127578413
 30
0.0
 10
10.9273105256
 20
6.5127505333
 30
0.0
 10
10.9273266587
 20
6.5127245217
 30
0.0
 10
10.9273501816
 20
6.5126949458
 30
0.0
 10
10.9273800738
 20
6.5126547196
 30
0.0
 10
10.9274332235
 20
6.5125855469
 30
0.0
 10
10.9275162407
 20
6.5124786508
 30
0.0
 10
10.9276362347
 20
6.5123279225
 30
0.0
 10
10.9277830103
 20
6.5121475667
 30
0.0
 10
10.9279566206
 20
6.5119392115
 30
0.0
 10
10.9281570937
 20
6.5117042933
 30
0.0
 10
10.9283844663
 20
6.5114443131
 30
0.0
 10
10.9287387394
 20
6.5110492923
 30
0.0
 10
10.9292485666
 20
6.5105031985
 30
0.0
 10
10.9299451914
 20
6.5097962387
 30
0.0
 10
10.9304535853
 20
6.5093089262
 30
0.0
 10
10.930726145
 20
6.5090550589
 30
0.0
  0
SPLINE
  5
318
100
AcDbEntity
  8
0
100
AcDbSpline
 62
9
  6
CONTINUOUS
 70
0
 71
3
 72
22
 73
18
 74
0
 42
0.0000001
 43
0.0000001
 44
0.0000000001
 40
0.0
 40
0.0
 40
0.0
 40
0.0
 40
0.2207018847
 40
0.417211131
 40
0.588043217
 40
0.7316348937
 40
0.7927085733
 40
0.8463540244
 40
0.8923570809
 40
0.9304999935
 40
0.9605616143
 40
0.9724919867
 40
0.9823176456
 40
0.9900100684
 40
0.9955405509
 40
0.9988802123
 40
1.0
 40
1.0
 40
1.0
 40
1.0
 10
13.2138632317
 20
6.5090549025
 30
0.0
 10
13.2141357644
 20
6.5093087498
 30
0.0
 10
13.2146441169
 20
6.5097960321
 30
0.0
 10
13.215340709
 20
6.5105029561
 30
0.0
 10
13.2159291615
 20
6.5111332804
 30
0.0
 10
13.216349691
 20
6.5116073842
 30
0.0
 10
13.2166326751
 20
6.5119389632
 30
0.0
 10
13.2168062925
 20
6.5121473396
 30
0.0
 10
13.2169531072
 20
6.5123276773
 30
0.0
 10
13.2170730501
 20
6.5124785022
 30
0.0
 10
13.2171562306
 20
6.5125852134
 30
0.0
 10
13.2172091513
 20
6.5126546967
 30
0.0
 10
13.2172395478
 20
6.5126942873
 30
0.0
 10
13.2172617693
 20
6.512725539
 30
0.0
 10
13.2172808787
 20
6.5127477439
 30
0.0
 10
13.2172864756
 20
6.5127617906
 30
0.0
 10
13.2172954495
 20
6.5127674086
 30
0.0
 10
13.2172946802
 20
6.5127691346
 30
0.0
  0
SPLINE
  5
319
100
AcDbEntity
  8
0
100
AcDbSpline
 62
9
  6
CONTINUOUS
 70
0
 71
3
 72
17
 73
13
 74
0
 42
0.0000001
 43
0.0000001
 44
0.0000000001
 40
0.0
 40
0.0
 40
0.0
 40
0.0
 40
0.1730928525
 40
0.3313542597
 40
0.475011009
 40
0.6047249937
 40
0.7210381284
 40
0.8242800646
 40
0.8714090922
 40
0.9159359593
 40
0.9584762369
 40
1.0
 40
1.0
 40
1.0
 40
1.0
 10
13.1772943526
 20
6.5090538693
 30
0.0
 10
13.1793602287
 20
6.5083737502
 30
0.0
 10
13.1833809589
 20
6.5072631663
 30
0.0
 10
13.1892585101
 20
6.506191847
 30
0.0
 10
13.1946551622
 20
6.5056072723
 30
0.0
 10
13.1995522543
 20
6.5054295318
 30
0.0
 10
13.2039425008
 20
6.5055694572
 30
0.0
 10
13.2072734797
 20
6.5060285902
 30
0.0
 10
13.2096425366
 20
6.506661962
 30
0.0
 10
13.2112201444
 20
6.5072687746
 30
0.0
 10
13.2126426085
 20
6.5080464964
 30
0.0
 10
13.2134814792
 20
6.5086983248
 30
0.0
 10
13.2138633386
 20
6.5090538693
 30
0.0
  0
SPLINE
  5
31A
100
AcDbEntity
  8
0
100
AcDbSpline
 62
9
  6
CONTINUOUS
 70
0
 71
3
 72
9
 73
5
 74
0
 42
0.0000001
 43
0.0000001
 44
0.0000000001
 40
0.0
 40
0.0
 40
0.0
 40
0.0
 40
0.2485843604
 40
1.0
 40
1.0
 40
1.0
 40
1.0
 10
13.1572946802
 20
6.512769301
 30
0.0
 10
13.1589848478
 20
6.5127693069
 30
0.0
 10
13.165786704
 20
6.5123706909
 30
0.0
 10
13.1724420386
 20
6.5106530539
 30
0.0
 10
13.1772947007
 20
6.5090550589
 30
0.0
  0
SPLINE
  5
31B
100
AcDbEntity
  8
0
100
AcDbSpline
 62
9
  6
CONTINUOUS
 70
0
 71
3
 72
18
 73
14
 74
0
 42
0.0000001
 43
0.0000001
 44
0.0000000001
 40
0.0
 40
0.0
 40
0.0
 40
0.0
 40
0.0817715893
 40
0.1634807338
 40
0.245893962
 40
0.3288812325
 40
0.4940488643
 40
0.6514523134
 40
0.7910569123
 40
0.9020557486
 40
0.9436151393
 40
0.974243458
 40
1.0
 40
1.0
 40
1.0
 40
1.0
 10
12.3857946803
 20
9.274891804
 30
0.0
 10
12.3864869932
 20
9.2748918007
 30
0.0
 10
12.3878737835
 20
9.274756842
 30
0.0
 10
12.3898897238
 20
9.2742081461
 30
0.0
 10
12.3918196969
 20
9.273386971
 30
0.0
 10
12.3942651472
 20
9.2720172901
 30
0.0
 10
12.3970234141
 20
9.2699481758
 30
0.0
 10
12.3998567491
 20
9.267241332
 30
0.0
 10
12.4021461266
 20
9.2646505194
 30
0.0
 10
12.4036725019
 20
9.2627026649
 30
0.0
 10
12.4045862735
 20
9.261449462
 30
0.0
 10
12.4050679623
 20
9.2607744223
 30
0.0
 10
12.4053373329
 20
9.2603802852
 30
0.0
 10
12.405461211
 20
9.2602008223
 30
0.0
  0
SPLINE
  5
31C
100
AcDbEntity
  8
0
100
AcDbSpline
 62
9
  6
CONTINUOUS
 70
0
 71
3
 72
15
 73
11
 74
0
 42
0.0000001
 43
0.0000001
 44
0.0000000001
 40
0.0
 40
0.0
 40
0.0
 40
0.0
 40
0.0909414657
 40
0.1957429549
 40
0.3133919267
 40
0.441668793
 40
0.5778526328
 40
0.7185878233
 40
0.8603874566
 40
1.0
 40
1.0
 40
1.0
 40
1.0
 10
13.2011594845
 20
6.586128029
 30
0.0
 10
13.1997581356
 20
6.5840991944
 30
0.0
 10
13.1970002216
 20
6.5795526512
 30
0.0
 10
13.1932291225
 20
6.5719295823
 30
0.0
 10
13.1896386464
 20
6.5631161509
 30
0.0
 10
13.1863120963
 20
6.553298571
 30
0.0
 10
13.1833561834
 20
6.5427123801
 30
0.0
 10
13.1808254944
 20
6.5316408808
 30
0.0
 10
13.1787816815
 20
6.5203753399
 30
0.0
 10
13.1777346184
 20
6.5128148237
 30
0.0
 10
13.1772944035
 20
6.509055102
 30
0.0
  0
SPLINE
  5
31D
100
AcDbEntity
  8
0
100
AcDbSpline
 62
9
  6
CONTINUOUS
 70
0
 71
3
 72
15
 73
11
 74
0
 42
0.0000001
 43
0.0000001
 44
0.0000000001
 40
0.0
 40
0.0
 40
0.0
 40
0.0
 40
0.0921645006
 40
0.1981234613
 40
0.316675549
 40
0.4454338999
 40
0.5815363746
 40
0.7215923757
 40
0.8621275706
 40
1.0
 40
1.0
 40
1.0
 40
1.0
 10
10.9434293457
 20
6.5861279538
 30
0.0
 10
10.9448495539
 20
6.5840718422
 30
0.0
 10
10.9476374653
 20
6.5794675811
 30
0.0
 10
10.9514376502
 20
6.5717594386
 30
0.0
 10
10.9550398208
 20
6.5628762634
 30
0.0
 10
10.9583623818
 20
6.5530200485
 30
0.0
 10
10.9613017494
 20
6.542437144
 30
0.0
 10
10.9638080059
 20
6.5314164669
 30
0.0
 10
10.9658261611
 20
6.5202478756
 30
0.0
 10
10.9668599512
 20
6.5127678515
 30
0.0
 10
10.9672946807
 20
6.5090549891
 30
0.0
  0
SPLINE
  5
31E
100
AcDbEntity
  8
0
100
AcDbSpline
 62
9
  6
CONTINUOUS
 70
0
 71
3
 72
27
 73
23
 74
0
 42
0.0000001
 43
0.0000001
 44
0.0000000001
 40
0.0
 40
0.0
 40
0.0
 40
0.0
 40
0.0620496328
 40
0.0931263749
 40
0.1242297728
 40
0.1865357696
 40
0.2489909546
 40
0.3115891064
 40
0.3743149153
 40
0.4057141141
 40
0.4371335282
 40
0.5000007139
 40
0.5628676544
 40
0.5942874468
 40
0.6256867455
 40
0.6884120219
 40
0.7510104704
 40
0.8134654407
 40
0.8757714967
 40
0.9068742883
 40
0.9379503844
 40
1.0
 40
1.0
 40
1.0
 40
1.0
 10
12.2734761902
 20
9.274891804
 30
0.0
 10
12.2651275244
 20
9.2748917958
 30
0.0
 10
12.2525959868
 20
9.2744820883
 30
0.0
 10
12.2359171933
 20
9.2733833021
 30
0.0
 10
12.2192241094
 20
9.2720006427
 30
0.0
 10
12.1983606729
 20
9.2698641617
 30
0.0
 10
12.1733097352
 20
9.2670486693
 30
0.0
 10
12.1481900363
 20
9.2643364736
 30
0.0
 10
12.1271853889
 20
9.2624508275
 30
0.0
 10
12.1103312308
 20
9.261312245
 30
0.0
 10
12.0934406468
 20
9.2604714826
 30
0.0
 10
12.0722944303
 20
9.2600199523
 30
0.0
 10
12.0511481781
 20
9.260471917
 30
0.0
 10
12.0342575605
 20
9.2613125311
 30
0.0
 10
12.0174033476
 20
9.2624502426
 30
0.0
 10
11.9963988061
 20
9.264336962
 30
0.0
 10
11.9712791317
 20
9.2670487323
 30
0.0
 10
11.946228144
 20
9.2698639593
 30
0.0
 10
11.9253648499
 20
9.2720008234
 30
0.0
 10
11.9086719114
 20
9.2733833284
 30
0.0
 10
11.891993269
 20
9.2744817613
 30
0.0
 10
11.8794618338
 20
9.2748917932
 30
0.0
 10
11.8711131702
 20
9.274891804
 30
0.0
  0
SPLINE
  5
31F
100
AcDbEntity
  8
0
100
AcDbSpline
 62
9
  6
CONTINUOUS
 70
0
 71
3
 72
17
 73
13
 74
0
 42
0.0000001
 43
0.0000001
 44
0.0000000001
 40
0.0
 40
0.0
 40
0.0
 40
0.0
 40
0.0227854108
 40
0.0517162893
 40
0.0867423969
 40
0.1277408907
 40
0.227005348
 40
0.3481025498
 40
0.4891965614
 40
0.6471756407
 40
0.8185953024
 40
1.0
 40
1.0
 40
1.0
 40
1.0
 10
10.8939448403
 20
6.5864472304
 30
0.0
 10
10.8942210795
 20
6.5865501746
 30
0.0
 10
10.8948671814
 20
6.5867313407
 30
0.0
 10
10.8959696352
 20
6.5869435951
 30
0.0
 10
10.8973158956
 20
6.587125773
 30
0.0
 10
10.899573954
 20
6.5873405565
 30
0.0
 10
10.9029529398
 20
6.5875056409
 30
0.0
 10
10.9076296118
 20
6.5875642442
 30
0.0
 10
10.9130657604
 20
6.5874851103
 30
0.0
 10
10.9191495971
 20
6.5872725244
 30
0.0
 10
10.9257497121
 20
6.5869289224
 30
0.0
 10
10.9303044087
 20
6.5866218271
 30
0.0
 10
10.9326449088
 20
6.5864470973
 30
0.0
  0
SPLINE
  5
320
100
AcDbEntity
  8
0
100
AcDbSpline
 62
9
  6
CONTINUOUS
 70
0
 71
3
 72
13
 73
9
 74
0
 42
0.0000001
 43
0.0000001
 44
0.0000000001
 40
0.0
 40
0.0
 40
0.0
 40
0.0
 40
0.2398135075
 40
0.364871583
 40
0.492057728
 40
0.6203739596
 40
0.7486829365
 40
1.0
 40
1.0
 40
1.0
 40
1.0
 10
10.8919396445
 20
6.586128029
 30
0.0
 10
10.8980339116
 20
6.5822735761
 30
0.0
 10
10.9065554041
 20
6.5750882676
 30
0.0
 10
10.9157326071
 20
6.5634438668
 30
0.0
 10
10.9215758159
 20
6.5535617945
 30
0.0
 10
10.9260618739
 20
6.542889925
 30
0.0
 10
10.9301290834
 20
6.5281368229
 30
0.0
 10
10.9310385901
 20
6.5166054205
 30
0.0
 10
10.9307260399
 20
6.509055102
 30
0.0
  0
SPLINE
  5
321
100
AcDbEntity
  8
0
100
AcDbSpline
 62
9
  6
CONTINUOUS
 70
0
 71
3
 72
23
 73
19
 74
0
 42
0.0000001
 43
0.0000001
 44
0.0000000001
 40
0.0
 40
0.0
 40
0.0
 40
0.0
 40
0.0640354694
 40
0.1276020321
 40
0.1906750192
 40
0.2532948912
 40
0.3154810451
 40
0.3772627892
 40
0.4387343513
 40
0.4999984786
 40
0.5612624271
 40
0.6227336862
 40
0.6845152645
 40
0.7467013177
 40
0.8093211576
 40
0.8723948019
 40
0.9359630741
 40
1.0
 40
1.0
 40
1.0
 40
1.0
 10
12.2734761903
 20
9.304891804
 30
0.0
 10
12.2648263001
 20
9.3048917759
 30
0.0
 10
12.2475859399
 20
9.3041736549
 30
0.0
 10
12.2219594845
 20
9.301495735
 30
0.0
 10
12.1966591594
 20
9.297797295
 30
0.0
 10
12.1716291596
 20
9.2936044398
 30
0.0
 10
12.1467714797
 20
9.2894390473
 30
0.0
 10
12.1219729971
 20
9.2858677403
 30
0.0
 10
12.0971531193
 20
9.2834632318
 30
0.0
 10
12.0722953243
 20
9.2825515296
 30
0.0
 10
12.0474375676
 20
9.2834631651
 30
0.0
 10
12.0226177716
 20
9.2858676079
 30
0.0
 10
11.9978193536
 20
9.2894388235
 30
0.0
 10
11.9729617044
 20
9.2936041565
 30
0.0
 10
11.9479316407
 20
9.2977970577
 30
0.0
 10
11.9226310096
 20
9.3014955862
 30
0.0
 10
11.8970040434
 20
9.3041735852
 30
0.0
 10
11.8797632571
 20
9.3048917682
 30
0.0
 10
11.8711131701
 20
9.304891804
 30
0.0
  0
SPLINE
  5
322
100
AcDbEntity
  8
0
100
AcDbSpline
 62
9
  6
CONTINUOUS
 70
0
 71
3
 72
24
 73
20
 74
0
 42
0.0000001
 43
0.0000001
 44
0.0000000001
 40
0.0
 40
0.0
 40
0.0
 40
0.0
 40
0.082084999
 40
0.1642078925
 40
0.2469381129
 40
0.3300436898
 40
0.4952301069
 40
0.6528241997
 40
0.7256439167
 40
0.7925840428
 40
0.8522642969
 40
0.9034109251
 40
0.9447241046
 40
0.9613031692
 40
0.9750338106
 40
0.985842792
 40
0.9936563734
 40
0.998400335
 40
1.0
 40
1.0
 40
1.0
 40
1.0
 10
11.7587946802
 20
9.274891804
 30
0.0
 10
11.758099618
 20
9.2748917986
 30
0.0
 10
11.7567065272
 20
9.274756508
 30
0.0
 10
11.7546811687
 20
9.2742076907
 30
0.0
 10
11.7527436209
 20
9.2733848084
 30
0.0
 10
11.7502967857
 20
9.2720083522
 30
0.0
 10
11.7475451275
 20
9.2699251074
 30
0.0
 10
11.7451230957
 20
9.2676045547
 30
0.0
 10
11.743418971
 20
9.2657503069
 30
0.0
 10
11.7423207914
 20
9.2644669355
 30
0.0
 10
11.7413768315
 20
9.2632941971
 30
0.0
 10
11.7405950622
 20
9.2622701054
 30
0.0
 10
11.7400505031
 20
9.2615244318
 30
0.0
 10
11.7396986548
 20
9.2610304516
 30
0.0
 10
11.7394990083
 20
9.2607451922
 30
0.0
 10
11.7393428059
 20
9.2605201475
 30
0.0
 10
11.7392327773
 20
9.2603556418
 30
0.0
 10
11.7391637416
 20
9.2602577163
 30
0.0
 10
11.7391364258
 20
9.2602112375
 30
0.0
 10
11.7391280136
 20
9.260200621
 30
0.0
  0
SPLINE
  5
323
100
AcDbEntity
  8
0
100
AcDbSpline
 62
9
  6
CONTINUOUS
 70
0
 71
3
 72
13
 73
9
 74
0
 42
0.0000001
 43
0.0000001
 44
0.0000000001
 40
0.0
 40
0.0
 40
0.0
 40
0.0
 40
0.2424311774
 40
0.3682079594
 40
0.4956625204
 40
0.6237575983
 40
0.7513722116
 40
1.0
 40
1.0
 40
1.0
 40
1.0
 10
13.2526495196
 20
6.5861279538
 30
0.0
 10
13.2464887536
 20
6.5822314383
 30
0.0
 10
13.2378972695
 20
6.5749649969
 30
0.0
 10
13.2286914892
 20
6.5632047596
 30
0.0
 10
13.2228731057
 20
6.5532811431
 30
0.0
 10
13.2184332403
 20
6.5426113719
 30
0.0
 10
13.2144404592
 20
6.52795083
 30
0.0
 10
13.2135540106
 20
6.5165244881
 30
0.0
 10
13.2138632229
 20
6.5090549891
 30
0.0
  0
SPLINE
  5
324
100
AcDbEntity
  8
0
100
AcDbSpline
 62
9
  6
CONTINUOUS
 70
0
 71
3
 72
17
 73
13
 74
0
 42
0.0000001
 43
0.0000001
 44
0.0000000001
 40
0.0
 40
0.0
 40
0.0
 40
0.0
 40
0.1814327411
 40
0.3529146196
 40
0.5109557486
 40
0.6520771981
 40
0.7731444745
 40
0.8723454935
 40
0.9133107818
 40
0.9483085797
 40
0.9772203817
 40
1.0
 40
1.0
 40
1.0
 40
1.0
 10
13.2119450052
 20
6.5864472304
 30
0.0
 10
13.2142858327
 20
6.5866220272
 30
0.0
 10
13.2188416358
 20
6.5869291785
 30
0.0
 10
13.2254436392
 20
6.5872727216
 30
0.0
 10
13.2315293619
 20
6.5874852084
 30
0.0
 10
13.2369662097
 20
6.5875642485
 30
0.0
 10
13.2416419655
 20
6.5875055679
 30
0.0
 10
13.2450192644
 20
6.5873404042
 30
0.0
 10
13.2472756647
 20
6.5871255713
 30
0.0
 10
13.2486208513
 20
6.5869433768
 30
0.0
 10
13.2497225901
 20
6.586731115
 30
0.0
 10
13.2503683499
 20
6.5865499822
 30
0.0
 10
13.250644527
 20
6.5864470973
 30
0.0
  0
SPLINE
  5
325
100
AcDbEntity
  8
0
100
AcDbSpline
 62
9
  6
CONTINUOUS
 70
0
 71
3
 72
9
 73
5
 74
0
 42
0.0000001
 43
0.0000001
 44
0.0000000001
 40
0.0
 40
0.0
 40
0.0
 40
0.0
 40
0.2495137548
 40
1.0
 40
1.0
 40
1.0
 40
1.0
 10
13.2119448163
 20
6.5864464602
 30
0.0
 10
13.2110497454
 20
6.5863801546
 30
0.0
 10
13.2074602544
 20
6.5861476249
 30
0.0
 10
13.2038593825
 20
6.5860720292
 30
0.0
 10
13.2011603965
 20
6.586128008
 30
0.0
  0
LINE
  5
326
100
AcDbEntity
  8
0
100
AcDbLine
 62
9
  6
CONTINUOUS
 10
13.2011603947
 20
6.5861280305
 11
13.1572948493
 21
6.5858701835
  0
LINE
  5
327
100
AcDbEntity
  8
0
100
AcDbLine
 62
9
  6
CONTINUOUS
 10
10.9872947221
 20
6.5858701841
 11
10.9434301283
 21
6.5861279458
  0
SPLINE
  5
328
100
AcDbEntity
  8
0
100
AcDbSpline
 62
9
  6
CONTINUOUS
 70
0
 71
3
 72
9
 73
5
 74
0
 42
0.0000001
 43
0.0000001
 44
0.0000000001
 40
0.0
 40
0.0
 40
0.0
 40
0.0
 40
0.2506214827
 40
1.0
 40
1.0
 40
1.0
 40
1.0
 10
10.9434301301
 20
6.5861279687
 30
0.0
 10
10.9425286772
 20
6.5861094132
 30
0.0
 10
10.9389307831
 20
6.5860867229
 30
0.0
 10
10.935332939
 20
6.58624728
 30
0.0
 10
10.9326443151
 20
6.586446411
 30
0.0
  0
SPLINE
  5
329
100
AcDbEntity
  8
0
100
AcDbSpline
 62
9
  6
CONTINUOUS
 70
0
 71
3
 72
14
 73
10
 74
0
 42
0.0000001
 43
0.0000001
 44
0.0000000001
 40
0.0
 40
0.0
 40
0.0
 40
0.0
 40
0.2443910357
 40
0.37053148
 40
0.4975573491
 40
0.6247085608
 40
0.7514677201
 40
0.8769544093
 40
1.0
 40
1.0
 40
1.0
 40
1.0
 10
10.8939463011
 20
6.5864464602
 30
0.0
 10
10.8917300773
 20
6.5875309443
 30
0.0
 10
10.8885712855
 20
6.5896272181
 30
0.0
 10
10.8849395954
 20
6.5931085584
 30
0.0
 10
10.8825143824
 20
6.5961011206
 30
0.0
 10
10.8805205567
 20
6.5994039473
 30
0.0
 10
10.8789951797
 20
6.6029293968
 30
0.0
 10
10.8779350152
 20
6.6065764343
 30
0.0
 10
10.8775365495
 20
6.6090616734
 30
0.0
 10
10.8774194719
 20
6.610298395
 30
0.0
  0
SPLINE
  5
32A
100
AcDbEntity
  8
0
100
AcDbSpline
 62
9
  6
CONTINUOUS
 70
0
 71
3
 72
11
 73
7
 74
0
 42
0.0000001
 43
0.0000001
 44
0.0000000001
 40
0.0
 40
0.0
 40
0.0
 40
0.0
 40
0.2483623777
 40
0.5028760592
 40
0.7558074712
 40
1.0
 40
1.0
 40
1.0
 40
1.0
 10
10.8919398012
 20
6.586128008
 30
0.0
 10
10.8897446453
 20
6.5874317116
 30
0.0
 10
10.8856449447
 20
6.5906837575
 30
0.0
 10
10.8808652328
 20
6.5969207747
 30
0.0
 10
10.8779790075
 20
6.6041828403
 30
0.0
 10
10.877294681
 20
6.6093089409
 30
0.0
 10
10.8772946802
 20
6.6118191823
 30
0.0
  0
SPLINE
  5
32B
100
AcDbEntity
  8
0
100
AcDbSpline
 62
9
  6
CONTINUOUS
 70
0
 71
3
 72
10
 73
6
 74
0
 42
0.0000001
 43
0.0000001
 44
0.0000000001
 40
0.0
 40
0.0
 40
0.0
 40
0.0
 40
0.2729346741
 40
0.6532070391
 40
1.0
 40
1.0
 40
1.0
 40
1.0
 10
10.8939463011
 20
6.5864464602
 30
0.0
 10
10.8937714308
 20
6.5863821766
 30
0.0
 10
10.8933476411
 20
6.5862417872
 30
0.0
 10
10.8926760155
 20
6.5861060409
 30
0.0
 10
10.8921747478
 20
6.5860990131
 30
0.0
 10
10.8919398012
 20
6.586128008
 30
0.0
  0
LINE
  5
32C
100
AcDbEntity
  8
0
100
AcDbLine
 62
9
  6
CONTINUOUS
 10
10.8919397631
 20
6.5861280305
 11
10.8897946811
 21
6.5858701835
  0
SPLINE
  5
32D
100
AcDbEntity
  8
0
100
AcDbSpline
 62
9
  6
CONTINUOUS
 70
0
 71
3
 72
11
 73
7
 74
0
 42
0.0000001
 43
0.0000001
 44
0.0000000001
 40
0.0
 40
0.0
 40
0.0
 40
0.0
 40
0.2465063439
 40
0.5003247437
 40
0.7539613781
 40
1.0
 40
1.0
 40
1.0
 40
1.0
 10
13.2526496105
 20
6.5861279458
 30
0.0
 10
13.254828358
 20
6.587421914
 30
0.0
 10
13.2589107073
 20
6.590651469
 30
0.0
 10
13.2636915455
 20
6.5968633549
 30
0.0
 10
13.2665998209
 20
6.6041374665
 30
0.0
 10
13.2672946799
 20
6.6092899464
 30
0.0
 10
13.2672946802
 20
6.6118191656
 30
0.0
  0
LINE
  5
32E
100
AcDbEntity
  8
0
100
AcDbLine
 62
9
  6
CONTINUOUS
 10
13.2547946802
 20
6.5858701841
 11
13.2526496105
 21
6.5861279458
  0
SPLINE
  5
32F
100
AcDbEntity
  8
0
100
AcDbSpline
 62
9
  6
CONTINUOUS
 70
0
 71
3
 72
14
 73
10
 74
0
 42
0.0000001
 43
0.0000001
 44
0.0000000001
 40
0.0
 40
0.0
 40
0.0
 40
0.0
 40
0.245291175
 40
0.371684802
 40
0.4988108684
 40
0.6258794778
 40
0.7523826692
 40
0.8774729131
 40
1.0
 40
1.0
 40
1.0
 40
1.0
 10
13.2506429598
 20
6.586446411
 30
0.0
 10
13.2528673506
 20
6.5875348792
 30
0.0
 10
13.2560349606
 20
6.5896399579
 30
0.0
 10
13.2596719736
 20
6.5931340233
 30
0.0
 10
13.2620956485
 20
6.5961313506
 30
0.0
 10
13.2640849339
 20
6.5994340839
 30
0.0
 10
13.2656038487
 20
6.6029542087
 30
0.0
 10
13.2666576394
 20
6.6065907166
 30
0.0
 10
13.2670535619
 20
6.6090669047
 30
0.0
 10
13.2671700248
 20
6.6102984259
 30
0.0
  0
SPLINE
  5
330
100
AcDbEntity
  8
0
100
AcDbSpline
 62
9
  6
CONTINUOUS
 70
0
 71
3
 72
9
 73
5
 74
0
 42
0.0000001
 43
0.0000001
 44
0.0000000001
 40
0.0
 40
0.0
 40
0.0
 40
0.0
 40
0.2285966449
 40
1.0
 40
1.0
 40
1.0
 40
1.0
 10
13.252649649
 20
6.5861279687
 30
0.0
 10
13.2524950979
 20
6.5861090083
 30
0.0
 10
13.2518111867
 20
6.5860874033
 30
0.0
 10
13.2511361633
 20
6.5862651836
 30
0.0
 10
13.2506429598
 20
6.586446411
 30
0.0
  0
SPLINE
  5
331
100
AcDbEntity
  8
0
100
AcDbSpline
 62
9
  6
CONTINUOUS
 70
0
 71
3
 72
14
 73
10
 74
0
 42
0.0000001
 43
0.0000001
 44
0.0000000001
 40
0.0
 40
0.0
 40
0.0
 40
0.0
 40
0.0597193084
 40
0.1285377114
 40
0.2147999268
 40
0.3227504591
 40
0.4544467906
 40
0.6109225877
 40
1.0
 40
1.0
 40
1.0
 40
1.0
 10
13.2672946802
 20
6.6129076569
 30
0.0
 10
13.267294668
 20
6.6129776678
 30
0.0
 10
13.267255632
 20
6.6131299672
 30
0.0
 10
13.2670921893
 20
6.6133280748
 30
0.0
 10
13.2668387335
 20
6.6135071263
 30
0.0
 10
13.2664935542
 20
6.6136735473
 30
0.0
 10
13.2660553287
 20
6.6138289842
 30
0.0
 10
13.2652886508
 20
6.614037239
 30
0.0
 10
13.2646583027
 20
6.6141519022
 30
0.0
 10
13.2642076139
 20
6.6142221316
 30
0.0
  0
SPLINE
  5
332
100
AcDbEntity
  8
0
100
AcDbSpline
 62
9
  6
CONTINUOUS
 70
0
 71
3
 72
15
 73
11
 74
0
 42
0.0000001
 43
0.0000001
 44
0.0000000001
 40
0.0
 40
0.0
 40
0.0
 40
0.0
 40
0.0292488164
 40
0.0642992944
 40
0.1510799002
 40
0.2585344306
 40
0.383966028
 40
0.5243897065
 40
0.6764332301
 40
1.0
 40
1.0
 40
1.0
 40
1.0
 10
13.2642076139
 20
6.6142221316
 30
0.0
 10
13.2636585517
 20
6.6143076901
 30
0.0
 10
13.2624452903
 20
6.6144555596
 30
0.0
 10
13.2595842403
 20
6.6146905957
 30
0.0
 10
13.2552297952
 20
6.6148604438
 30
0.0
 10
13.2491564745
 20
6.6149156602
 30
0.0
 10
13.2420641468
 20
6.6148263972
 30
0.0
 10
13.2341277047
 20
6.6145933846
 30
0.0
 10
13.2224355691
 20
6.6140646124
 30
0.0
 10
13.2134186425
 20
6.6134432606
 30
0.0
 10
13.2072946801
 20
6.6129076962
 30
0.0
  0
LINE
  5
333
100
AcDbEntity
  8
0
100
AcDbLine
 62
9
  6
CONTINUOUS
 10
10.9454762758
 20
6.6118191833
 11
10.9372946813
 21
6.6129076625
  0
SPLINE
  5
334
100
AcDbEntity
  8
0
100
AcDbSpline
 62
9
  6
CONTINUOUS
 70
0
 71
3
 72
9
 73
5
 74
0
 42
0.0000001
 43
0.0000001
 44
0.0000000001
 40
0.0
 40
0.0
 40
0.0
 40
0.0
 40
0.2508227134
 40
1.0
 40
1.0
 40
1.0
 40
1.0
 10
10.987294736
 20
6.6102371656
 30
0.0
 10
10.9837954012
 20
6.6102369831
 30
0.0
 10
10.9698445741
 20
6.6103566201
 30
0.0
 10
10.9558953891
 20
6.6109895397
 30
0.0
 10
10.945476275
 20
6.6118191733
 30
0.0
  0
SPLINE
  5
335
100
AcDbEntity
  8
0
100
AcDbSpline
 62
9
  6
CONTINUOUS
 70
0
 71
3
 72
9
 73
5
 74
0
 42
0.0000001
 43
0.0000001
 44
0.0000000001
 40
0.0
 40
0.0
 40
0.0
 40
0.0
 40
0.2489663416
 40
1.0
 40
1.0
 40
1.0
 40
1.0
 10
13.1991131436
 20
6.6118191774
 30
0.0
 10
13.1956506081
 20
6.6115435775
 30
0.0
 10
13.1817304743
 20
6.6105950204
 30
0.0
 10
13.1677727631
 20
6.6102372779
 30
0.0
 10
13.1572946192
 20
6.610237165
 30
0.0
  0
LINE
  5
336
100
AcDbEntity
  8
0
100
AcDbLine
 62
9
  6
CONTINUOUS
 10
13.2072946816
 20
6.6129076872
 11
13.1991131439
 21
6.6118191733
  0
SPLINE
  5
337
100
AcDbEntity
  8
0
100
AcDbSpline
 62
9
  6
CONTINUOUS
 70
0
 71
3
 72
22
 73
18
 74
0
 42
0.0000001
 43
0.0000001
 44
0.0000000001
 40
0.0
 40
0.0
 40
0.0
 40
0.0
 40
0.1960769572
 40
0.381961701
 40
0.5506858989
 40
0.6266549643
 40
0.6960348467
 40
0.7581905401
 40
0.8127852631
 40
0.8596278959
 40
0.8986925849
 40
0.9303588104
 40
0.9559062625
 40
0.9671587625
 40
0.9779270947
 40
0.9887092211
 40
1.0
 40
1.0
 40
1.0
 40
1.0
 10
12.4695358863
 20
8.5918530213
 30
0.0
 10
12.4735082606
 20
8.5909054443
 30
0.0
 10
12.4812851563
 20
8.5892163229
 30
0.0
 10
12.4925927948
 20
8.5872741073
 30
0.0
 10
12.5015045729
 20
8.5862186601
 30
0.0
 10
12.5080329388
 20
8.585785034
 30
0.0
 10
12.5123547385
 20
8.5856716129
 30
0.0
 10
12.5162322575
 20
8.5857626079
 30
0.0
 10
12.5196299401
 20
8.5860529244
 30
0.0
 10
12.5225201785
 20
8.5865355298
 30
0.0
 10
12.5248833498
 20
8.5872061247
 30
0.0
 10
12.5267075845
 20
8.5880654326
 30
0.0
 10
12.5278242985
 20
8.5889963411
 30
0.0
 10
12.5283700328
 20
8.5898316274
 30
0.0
 10
12.5286130822
 20
8.5904763888
 30
0.0
 10
12.52870405
 20
8.5911599388
 30
0.0
 10
12.5286650716
 20
8.5916217049
 30
0.0
 10
12.5286241496
 20
8.5918532777
 30
0.0
  0
SPLINE
  5
338
100
AcDbEntity
  8
0
100
AcDbSpline
 62
9
  6
CONTINUOUS
 70
0
 71
3
 72
24
 73
20
 74
0
 42
0.0000001
 43
0.0000001
 44
0.0000000001
 40
0.0
 40
0.0
 40
0.0
 40
0.0
 40
0.1935461931
 40
0.3800367448
 40
0.5516100405
 40
0.6298270193
 40
0.7020152478
 40
0.7674825106
 40
0.8255439317
 40
0.8756400819
 40
0.9173897251
 40
0.9350307748
 40
0.950468055
 40
0.9636887513
 40
0.9747187955
 40
0.9836194222
 40
0.9905241767
 40
0.9957431452
 40
1.0
 40
1.0
 40
1.0
 40
1.0
 10
10.9372946802
 20
6.6129076569
 30
0.0
 10
10.9334055438
 20
6.6132476801
 30
0.0
 10
10.925760846
 20
6.6138239508
 30
0.0
 10
10.9146506132
 20
6.6144347398
 30
0.0
 10
10.9058553429
 20
6.6147465812
 30
0.0
 10
10.8993618638
 20
6.6148707148
 30
0.0
 10
10.8950075406
 20
6.6149020097
 30
0.0
 10
10.8910597325
 20
6.6148749352
 30
0.0
 10
10.8875583527
 20
6.6147905983
 30
0.0
 10
10.8845376834
 20
6.6146485964
 30
0.0
 10
10.8823354052
 20
6.6144739174
 30
0.0
 10
10.8808366394
 20
6.6142937251
 30
0.0
 10
10.8799135834
 20
6.6141504264
 30
0.0
 10
10.8791286016
 20
6.6139912712
 30
0.0
 10
10.8784826212
 20
6.6138164416
 30
0.0
 10
10.8779743628
 20
6.6136260702
 30
0.0
 10
10.8776024587
 20
6.6134185892
 30
0.0
 10
10.877357489
 20
6.6131862375
 30
0.0
 10
10.8772947032
 20
6.6129935601
 30
0.0
 10
10.8772946802
 20
6.6129076962
 30
0.0
  0
SPLINE
  5
339
100
AcDbEntity
  8
0
100
AcDbSpline
 62
9
  6
CONTINUOUS
 70
0
 71
3
 72
25
 73
21
 74
0
 42
0.0000001
 43
0.0000001
 44
0.0000000001
 40
0.0
 40
0.0
 40
0.0
 40
0.0
 40
0.0039585593
 40
0.0086508005
 40
0.0149353316
 40
0.0231813458
 40
0.033545431
 40
0.046100975
 40
0.0608852155
 40
0.0779177197
 40
0.1186866973
 40
0.1680713568
 40
0.2256135177
 40
0.290835842
 40
0.3631962416
 40
0.4419255067
 40
0.5261948689
 40
0.6151730783
 40
0.8037348135
 40
1.0
 40
1.0
 40
1.0
 40
1.0
 10
12.8153620725
 20
6.9656826723
 30
0.0
 10
12.815375692
 20
6.965605137
 30
0.0
 10
12.815350511
 20
6.9654225802
 30
0.0
 10
12.8151490675
 20
6.9651913233
 30
0.0
 10
12.8148241103
 20
6.9649866398
 30
0.0
 10
12.814365857
 20
6.9647948829
 30
0.0
 10
12.8137719261
 20
6.9646158181
 30
0.0
 10
12.8130402951
 20
6.9644496383
 30
0.0
 10
12.8121708799
 20
6.9642972605
 30
0.0
 10
12.8107404156
 20
6.964101855
 30
0.0
 10
12.8086166509
 20
6.9639091408
 30
0.0
 10
12.80568352
 20
6.9637489268
 30
0.0
 10
12.8022610718
 20
6.9636525786
 30
0.0
 10
12.798380614
 20
6.9636221139
 30
0.0
 10
12.7940788957
 20
6.9636595684
 30
0.0
 10
12.7893994329
 20
6.9637634722
 30
0.0
 10
12.7843912144
 20
6.9639325551
 30
0.0
 10
12.7772029136
 20
6.9642493396
 30
0.0
 10
12.7677960317
 20
6.9647984025
 30
0.0
 10
12.7601637415
 20
6.9653643598
 30
0.0
 10
12.7562736798
 20
6.965682564
 30
0.0
  0
ENDSEC
  0
SECTION
  2
OBJECTS
  0
DICTIONARY
  5
C
100
AcDbDictionary
280
0
281
1
  3
ACAD_GROUP
350
D
  3
ACAD_MLINESTYLE
350
17
  3
ACAD_LAYOUT
350
1A
  3
ACAD_PLOTSETTINGS
350
19
  3
ACAD_PLOTSTYLENAME
350
E
  0
DICTIONARY
  5
D
102
{ACAD_REACTORS
330
C
102
}
100
AcDbDictionary
280
0
281
1
  0
ACDBDICTIONARYWDFLT
  5
E
102
{ACAD_REACTORS
330
C
102
}
100
AcDbDictionary
281
1
  3
Normal
350
F
100
AcDbDictionaryWithDefault
340
F
  0
DICTIONARY
  5
17
102
{ACAD_REACTORS
330
C
102
}
100
AcDbDictionary
280
0
281
1
  3
Standard
350
18
  0
DICTIONARY
  5
19
102
{ACAD_REACTORS
330
C
102
}
100
AcDbDictionary
281
1
  0
DICTIONARY
  5
1A
102
{ACAD_REACTORS
330
C
102
}
100
AcDbDictionary
281
1
  3
Model
350
33A
  3
Layout1
350
33B
  0
ACDBPLACEHOLDER
  5
F
102
{ACAD_REACTORS
330
E
102
}
  0
MLINESTYLE
  5
18
102
{ACAD_REACTORS
330
17
102
}
100
AcDbMlineStyle
  2
STANDARD
 70
0
  3

 62
256
 51
90.0
 52
90.0
 71
2
 49
0.5
 62
256
  6
BYLAYER
 49
-0.5
 62
256
  6
BYLAYER
  0
LAYOUT
  5
33A
102
{ACAD_REACTORS
330
1A
102
}
100
AcDbPlotSettings
  1

  2
none_device
  4
ANSI_C_(22.00_x_17.00_Inches)
  6

 40
0.0
 41
0.0
 42
0.0
 43
0.0
 44
558.8
 45
431.8
 46
0.0
 47
0.0
 48
0.0
 49
0.0
140
0.0
141
0.0
142
1.0
143
1.0
 70
1024
 72
0
 73
0
 74
0
  7

 75
0
147
1.0
148
0.0
149
0.0
100
AcDbLayout
  1
Model
 70
0
 71
0
 10
0.0
 20
0.0
 11
22.0
 21
17.0
 12
0.0
 22
0.0
 32
0.0
 14
0.0
 24
0.0
 34
0.0
 15
0.0
 25
0.0
 35
0.0
146
0.0
 13
0.0
 23
0.0
 33
0.0
 16
1.0
 26
0.0
 36
0.0
 17
0.0
 27
1.0
 37
0.0
 76
0
330
202
345
0
346
0
  0
LAYOUT
  5
33B
102
{ACAD_REACTORS
330
1A
102
}
100
AcDbPlotSettings
  1

  2
none_device
  4
ANSI_C_(22.00_x_17.00_Inches)
  6

 40
0.0
 41
0.0
 42
0.0
 43
0.0
 44
558.8
 45
431.8
 46
0.0
 47
0.0
 48
0.0
 49
0.0
140
0.0
141
0.0
142
1.0
143
1.0
 70
0
 72
0
 73
0
 74
0
  7

 75
0
147
1.0
148
0.0
149
0.0
100
AcDbLayout
  1
Layout1
 70
0
 71
1
 10
0.0
 20
0.0
 11
22.0
 21
17.0
 12
0.0
 22
0.0
 32
0.0
 14
0.0
 24
0.0
 34
0.0
 15
0.0
 25
0.0
 35
0.0
146
0.0
 13
0.0
 23
0.0
 33
0.0
 16
1.0
 26
0.0
 36
0.0
 17
0.0
 27
1.0
 37
0.0
 76
0
330
203
345
0
346
0
  0
ENDSEC
  0
EOF
