999
DXF file: E:\BT Custom\CADOUTPUT\_TOP.dxf
999
Pro/ENGINEER 2018400 by Parametric Technology Corporation
  0
SECTION
  2
HEADER
  9
$ACADVER
  1
AC1018
  9
$DWGCODEPAGE
  3
ANSI_1252
  9
$EXTMAX
 10
22.0
 20
17.0
 30
0.0
  9
$EXTMIN
 10
0.0
 20
0.0
 30
0.0
  9
$LIMMIN
 10
0.0
 20
0.0
  9
$LIMMAX
 10
22.0
 20
17.0
  9
$VIEWCTR
 10
11.0
 20
8.5
  9
$VIEWSIZE
 40
17.0
  9
$CLAYER
  8
0
  9
$LTSCALE
 40
1.21
  9
$CELTYPE
  6
BYLAYER
  9
$DIMSCALE
 40
1.0
  9
$DIMASZ
 40
0.1
  9
$DIMEXO
 40
0.0625
  9
$DIMDLI
 40
0.836
  9
$DIMEXE
 40
0.125
  9
$DIMCEN
 40
0.198
  9
$DIMLFAC
 40
1.0
  9
$DIMBLK
  1
_FILLED
  9
$DIMALT
 70
1
  9
$DIMALTD
 70
2
  9
$DIMALTTD
 70
2
  9
$DIMALTF
 40
25.4
  9
$DIMTXT
 40
0.08
  9
$DIMTOL
 70
1
  9
$DIMLIM
 70
0
  9
$DIMTFAC
 40
1.0
  9
$DIMTP
 40
0.001
  9
$DIMTM
 40
0.001
  9
$DIMGAP
 40
0.09
  9
$DIMDSEP
 70
46
  9
$AUNITS
 70
0
  9
$PDMODE
 70
3
  9
$PDSIZE
 40
0.06
  9
$HANDSEED
  5
3E5
  9
$TILEMODE
 70
1
  9
$MEASUREMENT
 70
0
  9
$INSUNITS
 70
1
  0
ENDSEC
  0
SECTION
  2
CLASSES
  0
CLASS
  1
ACDBDICTIONARYWDFLT
  2
AcDbDictionaryWithDefault
  3
AutoCAD 2000
 90
0
 91
1
280
0
281
0
  0
CLASS
  1
ACDBPLACEHOLDER
  2
AcDbPlaceHolder
  3
AutoCAD 2000
 90
0
 91
1
280
0
281
0
  0
CLASS
  1
LAYOUT
  2
AcDbLayout
  3
AutoCAD 2000
 90
0
 91
0
280
0
281
0
  0
ENDSEC
  0
SECTION
  2
TABLES
  0
TABLE
  2
VPORT
  5
8
100
AcDbSymbolTable
 70
2
  0
VPORT
  5
1F4
100
AcDbSymbolTableRecord
100
AcDbViewportTableRecord
  2
*ACTIVE
 70
0
 10
0.0
 20
0.0
 11
1.0
 21
1.0
 12
11.0
 22
8.5
 13
0.0
 23
0.0
 14
1.0
 24
1.0
 15
0.0
 25
0.0
 16
0.0
 26
0.0
 36
1.0
 17
0.0
 27
0.0
 37
0.0
 40
17.0
 41
1.2941176471
 42
50.0
 43
0.0
 44
0.0
 50
0.0
 51
0.0
 71
0
 72
100
 73
1
 74
1
 75
0
 76
0
 77
0
 78
0
  0
ENDTAB
  0
TABLE
  2
LTYPE
  5
5
100
AcDbSymbolTable
 70
6
  0
LTYPE
  5
14
100
AcDbSymbolTableRecord
100
AcDbLinetypeTableRecord
  2
BYBLOCK
 70
0
  3

 72
65
 73
0
 40
0.0
  0
LTYPE
  5
15
100
AcDbSymbolTableRecord
100
AcDbLinetypeTableRecord
  2
BYLAYER
 70
0
  3

 72
65
 73
0
 40
0.0
  0
LTYPE
  5
16
100
AcDbSymbolTableRecord
100
AcDbLinetypeTableRecord
  2
CONTINUOUS
 70
64
  3
Solid line
 72
65
 73
0
 40
0.0
  0
LTYPE
  5
1F5
100
AcDbSymbolTableRecord
100
AcDbLinetypeTableRecord
  2
CENTER
 70
64
  3
____ _ ____ _ ____ _ ____ _ ____ _ ____ _ ____
 72
65
 73
4
 40
0.6
 49
0.375
 74
0
 49
-0.075
 74
0
 49
0.075
 74
0
 49
-0.075
 74
0
  0
LTYPE
  5
1F6
100
AcDbSymbolTableRecord
100
AcDbLinetypeTableRecord
  2
HIDDEN
 70
64
  3
- - - - - - - - - - - - - - - - - - - -
 72
65
 73
2
 40
0.2
 49
0.1
 74
0
 49
-0.1
 74
0
  0
LTYPE
  5
1F7
100
AcDbSymbolTableRecord
100
AcDbLinetypeTableRecord
  2
PHANTOM
 70
64
  3
_____ _ _ _____ _ _ _____ _ _ _____
 72
65
 73
6
 40
0.8
 49
0.45
 74
0
 49
-0.05
 74
0
 49
0.1
 74
0
 49
-0.05
 74
0
 49
0.1
 74
0
 49
-0.05
 74
0
  0
LTYPE
  5
1F8
100
AcDbSymbolTableRecord
100
AcDbLinetypeTableRecord
  2
DOT
 70
64
  3
. . . . . . . . . . . . . . . . . . . .
 72
65
 73
2
 40
0.2
 49
0.1
 74
0
 49
-0.1
 74
0
  0
LTYPE
  5
1F9
100
AcDbSymbolTableRecord
100
AcDbLinetypeTableRecord
  2
DASHED
 70
64
  3
- - - - - - - - - - - - - - - - - - - -
 72
65
 73
2
 40
0.2
 49
0.1
 74
0
 49
-0.1
 74
0
  0
ENDTAB
  0
TABLE
  2
LAYER
  5
2
100
AcDbSymbolTable
 70
36
  0
LAYER
  5
10
100
AcDbSymbolTableRecord
100
AcDbLayerTableRecord
  2
0
 70
0
 62
7
  6
CONTINUOUS
370
-3
390
F
  0
LAYER
  5
1FA
100
AcDbSymbolTableRecord
100
AcDbLayerTableRecord
  2
DEFAULT_1
 70
0
 62
7
  6
CENTER
370
-3
390
F
  0
LAYER
  5
1FB
100
AcDbSymbolTableRecord
100
AcDbLayerTableRecord
  2
DEFAULT_2
 70
0
 62
8
  6
HIDDEN
370
-3
390
F
  0
LAYER
  5
1FC
100
AcDbSymbolTableRecord
100
AcDbLayerTableRecord
  2
DEFAULT_3
 70
0
 62
7
  6
PHANTOM
370
-3
390
F
  0
LAYER
  5
1FD
100
AcDbSymbolTableRecord
100
AcDbLayerTableRecord
  2
ALL_FEATURES
 70
0
 62
7
  6
CONTINUOUS
370
-3
390
F
  0
LAYER
  5
1FE
100
AcDbSymbolTableRecord
100
AcDbLayerTableRecord
  2
AXES_FEATURES
 70
0
 62
7
  6
CONTINUOUS
370
-3
390
F
  0
LAYER
  5
1FF
100
AcDbSymbolTableRecord
100
AcDbLayerTableRecord
  2
DIMENSIONS
 70
0
 62
7
  6
CONTINUOUS
370
-3
390
F
  0
ENDTAB
  0
TABLE
  2
STYLE
  5
3
100
AcDbSymbolTable
 70
1
  0
STYLE
  5
11
100
AcDbSymbolTableRecord
100
AcDbTextStyleTableRecord
  2
STANDARD
 70
0
 40
0.0
 41
0.8
 50
0.0
 71
0
 42
0.2
  3
txt
  4

  0
STYLE
  5
200
100
AcDbSymbolTableRecord
100
AcDbTextStyleTableRecord
  2
TEXTSTYLE_1
 70
0
 40
0.0
 41
0.8
 50
0.0
 71
0
 42
0.2
  3
gdt
  4

  0
ENDTAB
  0
TABLE
  2
VIEW
  5
6
100
AcDbSymbolTable
 70
0
  0
ENDTAB
  0
TABLE
  2
UCS
  5
7
100
AcDbSymbolTable
 70
0
  0
ENDTAB
  0
TABLE
  2
APPID
  5
9
100
AcDbSymbolTable
 70
1
  0
APPID
  5
201
100
AcDbSymbolTableRecord
100
AcDbRegAppTableRecord
  2
ACAD
 70
0
  0
ENDTAB
  0
TABLE
  2
BLOCK_RECORD
  5
1
100
AcDbSymbolTable
 70
0
  0
BLOCK_RECORD
  5
202
100
AcDbSymbolTableRecord
100
AcDbBlockTableRecord
  2
*Model_Space
  0
BLOCK_RECORD
  5
203
100
AcDbSymbolTableRecord
100
AcDbBlockTableRecord
  2
*Paper_Space
  0
BLOCK_RECORD
  5
204
100
AcDbSymbolTableRecord
100
AcDbBlockTableRecord
  2
_FILLED
  0
ENDTAB
  0
TABLE
  2
DIMSTYLE
  5
A
100
AcDbSymbolTable
 70
1
100
AcDbDimStyleTable
 71
0
  0
DIMSTYLE
105
205
100
AcDbSymbolTableRecord
100
AcDbDimStyleTableRecord
  2
STANDARD
 70
0
  3

  4

 40
1.0
 41
0.1
 42
0.0625
 43
0.38
 44
0.125
 45
0.0
 46
0.0
 47
0.001
 48
0.001
140
0.08
141
0.09
142
0.0
143
25.4
144
1.0
145
0.0
146
1.0
147
0.09
 71
1.0
 72
0.0
 73
1
 74
1
 75
0
 76
0
 77
0
 78
4
 79
1
170
1
171
2
172
0
173
0
174
0
175
0
176
0
177
0
178
0
270
2
179
3
271
3
272
3
273
2
274
2
275
0
280
0
281
0
282
0
283
1
284
4
285
0
286
0
287
3
288
0
340
11
278
46
341
204
342
204
343
204
344
204
  0
ENDTAB
  0
ENDSEC
  0
SECTION
  2
BLOCKS
  0
BLOCK
  5
20
100
AcDbEntity
  8
0
100
AcDbBlockBegin
  2
*Model_Space
 70
0
 10
0.0
 20
0.0
 30
0.0
  3
*Model_Space
  1

  0
ENDBLK
  5
21
100
AcDbEntity
  8
0
100
AcDbBlockEnd
  0
BLOCK
  5
1C
100
AcDbEntity
  8
0
100
AcDbBlockBegin
  2
*Paper_Space
 70
0
 10
0.0
 20
0.0
 30
0.0
  3
*Paper_Space
  1

  0
ENDBLK
  5
1D
100
AcDbEntity
  8
0
100
AcDbBlockEnd
  0
BLOCK
  5
206
100
AcDbEntity
  8
0
100
AcDbBlockBegin
  2
_FILLED
 70
64
 10
0.0
 20
0.0
  3
_FILLED
  1

  0
SOLID
  5
207
100
AcDbEntity
  8
0
  6
BYBLOCK
 62
0
100
AcDbTrace
 10
0.0
 20
0.0
 11
-1.0
 21
0.2
 12
-1.0
 22
-0.2
 13
-1.0
 23
-0.2
  0
ENDBLK
  5
208
100
AcDbEntity
  8
0
  6
BYBLOCK
 62
0
100
AcDbBlockEnd
  0
ENDSEC
  0
SECTION
  2
ENTITIES
  0
LINE
  5
209
100
AcDbEntity
  8
0
100
AcDbLine
 62
7
  6
CONTINUOUS
 10
10.6767502453
 20
-3.0420629129
 11
10.705439388
 21
-3.0508340641
  0
LINE
  5
20A
100
AcDbEntity
  8
0
100
AcDbLine
 62
7
  6
CONTINUOUS
 10
11.3891972885
 20
-3.2598798329
 11
11.4178864312
 21
-3.2686509841
  0
LINE
  5
20B
100
AcDbEntity
  8
0
100
AcDbLine
 62
7
  6
CONTINUOUS
 10
10.7051761461
 20
-2.9734367179
 11
10.7316645738
 21
-2.9875208648
  0
LINE
  5
20C
100
AcDbEntity
  8
0
100
AcDbLine
 62
7
  6
CONTINUOUS
 10
11.3629721027
 20
-3.3231930322
 11
11.3894605305
 21
-3.3372771791
  0
LINE
  5
20D
100
AcDbEntity
  8
0
100
AcDbLine
 62
7
  6
CONTINUOUS
 10
11.3823183383
 20
0.4696430515
 11
10.7123183383
 21
0.4696430515
  0
LINE
  5
20E
100
AcDbEntity
  8
0
100
AcDbLine
 62
9
  6
CONTINUOUS
 10
10.6723183383
 20
0.5096430515
 11
11.4223183383
 21
0.5096430515
  0
LINE
  5
20F
100
AcDbEntity
  8
0
100
AcDbLine
 62
9
  6
CONTINUOUS
 10
11.4223183383
 20
1.1796430515
 11
10.6723183383
 21
1.1796430515
  0
LINE
  5
210
100
AcDbEntity
  8
0
100
AcDbLine
 62
7
  6
CONTINUOUS
 10
10.7123183383
 20
1.2196430515
 11
11.3823183383
 21
1.2196430515
  0
LINE
  5
211
100
AcDbEntity
  8
0
100
AcDbLine
 62
7
  6
CONTINUOUS
 10
5.6098183383
 20
8.6246430515
 11
5.6098183383
 21
9.0646430515
  0
LINE
  5
212
100
AcDbEntity
  8
0
100
AcDbLine
 62
9
  6
CONTINUOUS
 10
5.6398183383
 20
9.0946430515
 11
5.6398183383
 21
8.5946430515
  0
LINE
  5
213
100
AcDbEntity
  8
0
100
AcDbLine
 62
7
  6
CONTINUOUS
 10
5.8523183383
 20
7.7096430515
 11
5.8523183383
 21
8.5946430515
  0
LINE
  5
214
100
AcDbEntity
  8
0
100
AcDbLine
 62
7
  6
CONTINUOUS
 10
5.8523183383
 20
9.0946430515
 11
5.8523183383
 21
9.9796430514
  0
LINE
  5
215
100
AcDbEntity
  8
0
100
AcDbLine
 62
9
  6
CONTINUOUS
 10
5.8823183383
 20
9.9796430515
 11
5.8823183383
 21
9.0946430515
  0
LINE
  5
216
100
AcDbEntity
  8
0
100
AcDbLine
 62
9
  6
CONTINUOUS
 10
5.8823183383
 20
8.5946430515
 11
5.8823183383
 21
7.7096430515
  0
LINE
  5
217
100
AcDbEntity
  8
0
100
AcDbLine
 62
9
  6
CONTINUOUS
 10
5.9123183383
 20
10.0396430515
 11
5.9123183383
 21
10.0096430515
  0
LINE
  5
218
100
AcDbEntity
  8
0
100
AcDbLine
 62
9
  6
CONTINUOUS
 10
5.9123183383
 20
7.6796430515
 11
5.9123183383
 21
7.6496430515
  0
LINE
  5
219
100
AcDbEntity
  8
0
100
AcDbLine
 62
7
  6
CONTINUOUS
 10
10.8653981077
 20
-2.8132147563
 11
10.8794822546
 21
-2.8397031841
  0
LINE
  5
21A
100
AcDbEntity
  8
0
100
AcDbLine
 62
7
  6
CONTINUOUS
 10
11.215154422
 20
-3.4710107129
 11
11.2292385689
 21
-3.4974991407
  0
LINE
  5
21B
100
AcDbEntity
  8
0
100
AcDbLine
 62
7
  6
CONTINUOUS
 10
6.1748183383
 20
8.0321430515
 11
6.1748183383
 21
8.5946430515
  0
LINE
  5
21C
100
AcDbEntity
  8
0
100
AcDbLine
 62
7
  6
CONTINUOUS
 10
6.1748183383
 20
9.0946430515
 11
6.1748183383
 21
9.6571430514
  0
LINE
  5
21D
100
AcDbEntity
  8
0
100
AcDbLine
 62
9
  6
CONTINUOUS
 10
6.2048183383
 20
9.6571430515
 11
6.2048183383
 21
9.0946430515
  0
LINE
  5
21E
100
AcDbEntity
  8
0
100
AcDbLine
 62
9
  6
CONTINUOUS
 10
6.2048183383
 20
8.5946430515
 11
6.2048183383
 21
8.0321430515
  0
LINE
  5
21F
100
AcDbEntity
  8
0
100
AcDbLine
 62
9
  6
CONTINUOUS
 10
6.2348183383
 20
9.7171430515
 11
6.2348183383
 21
9.6871430515
  0
LINE
  5
220
100
AcDbEntity
  8
0
100
AcDbLine
 62
9
  6
CONTINUOUS
 10
6.2348183383
 20
8.0021430515
 11
6.2348183383
 21
7.9721430515
  0
LINE
  5
221
100
AcDbEntity
  8
0
100
AcDbLine
 62
9
  6
CONTINUOUS
 10
6.2747066582
 20
8.1606640692
 11
6.2747066582
 21
8.5946430515
  0
LINE
  5
222
100
AcDbEntity
  8
0
100
AcDbLine
 62
9
  6
CONTINUOUS
 10
6.2747066582
 20
9.0946430515
 11
6.2747066582
 21
9.5286220338
  0
LINE
  5
223
100
AcDbEntity
  8
0
100
AcDbLine
 62
9
  6
CONTINUOUS
 10
6.3042508908
 20
9.5286220338
 11
6.3042508908
 21
9.0946430515
  0
LINE
  5
224
100
AcDbEntity
  8
0
100
AcDbLine
 62
9
  6
CONTINUOUS
 10
6.3042508908
 20
8.5946430515
 11
6.3042508908
 21
8.1606640692
  0
LINE
  5
225
100
AcDbEntity
  8
0
100
AcDbLine
 62
9
  6
CONTINUOUS
 10
6.3633393512
 20
9.6172547315
 11
6.3633393512
 21
9.587710499
  0
LINE
  5
226
100
AcDbEntity
  8
0
100
AcDbLine
 62
9
  6
CONTINUOUS
 10
6.363339356
 20
8.101575604
 11
6.363339356
 21
8.0720313714
  0
LINE
  5
227
100
AcDbEntity
  8
0
100
AcDbLine
 62
7
  6
CONTINUOUS
 10
6.5083183383
 20
8.3656430515
 11
6.5083183383
 21
8.5946430515
  0
LINE
  5
228
100
AcDbEntity
  8
0
100
AcDbLine
 62
7
  6
CONTINUOUS
 10
6.5083183383
 20
9.0946430515
 11
6.5083183383
 21
9.3236430514
  0
LINE
  5
229
100
AcDbEntity
  8
0
100
AcDbLine
 62
9
  6
CONTINUOUS
 10
6.5383183383
 20
9.3236430515
 11
6.5383183383
 21
9.0946430515
  0
LINE
  5
22A
100
AcDbEntity
  8
0
100
AcDbLine
 62
9
  6
CONTINUOUS
 10
6.5383183383
 20
8.5946430515
 11
6.5383183383
 21
8.3656430515
  0
LINE
  5
22B
100
AcDbEntity
  8
0
100
AcDbLine
 62
9
  6
CONTINUOUS
 10
6.5683183383
 20
9.3836430515
 11
6.5683183383
 21
9.3536430515
  0
LINE
  5
22C
100
AcDbEntity
  8
0
100
AcDbLine
 62
9
  6
CONTINUOUS
 10
6.5683183383
 20
8.3356430515
 11
6.5683183383
 21
8.3056430515
  0
LINE
  5
22D
100
AcDbEntity
  8
0
100
AcDbLine
 62
9
  6
CONTINUOUS
 10
6.6438183383
 20
8.5946430515
 11
6.6438183383
 21
9.0946430515
  0
LINE
  5
22E
100
AcDbEntity
  8
0
100
AcDbLine
 62
7
  6
CONTINUOUS
 10
6.7038183383
 20
8.5311430515
 11
6.7038183383
 21
9.1581430515
  0
LINE
  5
22F
100
AcDbEntity
  8
0
100
AcDbLine
 62
9
  6
CONTINUOUS
 10
6.7338183383
 20
9.1881430515
 11
6.7338183383
 21
8.5011430515
  0
LINE
  5
230
100
AcDbEntity
  8
0
100
AcDbLine
 62
7
  6
CONTINUOUS
 10
6.7973183383
 20
7.4371430515
 11
6.7973183383
 21
8.4411430515
  0
LINE
  5
231
100
AcDbEntity
  8
0
100
AcDbLine
 62
7
  6
CONTINUOUS
 10
6.7973183383
 20
9.2481430515
 11
6.7973183383
 21
10.2521430515
  0
LINE
  5
232
100
AcDbEntity
  8
0
100
AcDbLine
 62
9
  6
CONTINUOUS
 10
6.8273183383
 20
10.2821430515
 11
6.8273183383
 21
9.1881430515
  0
LINE
  5
233
100
AcDbEntity
  8
0
100
AcDbLine
 62
9
  6
CONTINUOUS
 10
6.8273183383
 20
8.5011430515
 11
6.8273183383
 21
7.4071430515
  0
LINE
  5
234
100
AcDbEntity
  8
0
100
AcDbLine
 62
9
  6
CONTINUOUS
 10
7.2673183383
 20
7.4071430515
 11
7.2673183383
 21
8.5011430515
  0
LINE
  5
235
100
AcDbEntity
  8
0
100
AcDbLine
 62
9
  6
CONTINUOUS
 10
7.2673183383
 20
9.1881430515
 11
7.2673183383
 21
10.2821430515
  0
LINE
  5
236
100
AcDbEntity
  8
0
100
AcDbLine
 62
7
  6
CONTINUOUS
 10
7.2973183383
 20
10.2521430515
 11
7.2973183383
 21
9.2481430515
  0
LINE
  5
237
100
AcDbEntity
  8
0
100
AcDbLine
 62
7
  6
CONTINUOUS
 10
7.2973183383
 20
8.4411430515
 11
7.2973183383
 21
7.4371430515
  0
LINE
  5
238
100
AcDbEntity
  8
0
100
AcDbLine
 62
9
  6
CONTINUOUS
 10
7.3608183383
 20
8.5011430515
 11
7.3608183383
 21
9.1881430515
  0
LINE
  5
239
100
AcDbEntity
  8
0
100
AcDbLine
 62
7
  6
CONTINUOUS
 10
7.3908183383
 20
9.1581430515
 11
7.3908183383
 21
8.5311430515
  0
LINE
  5
23A
100
AcDbEntity
  8
0
100
AcDbLine
 62
9
  6
CONTINUOUS
 10
7.4508183383
 20
9.0946430515
 11
7.4508183383
 21
8.5946430515
  0
LINE
  5
23B
100
AcDbEntity
  8
0
100
AcDbLine
 62
9
  6
CONTINUOUS
 10
7.5263183383
 20
8.3056430515
 11
7.5263183383
 21
8.3356430515
  0
LINE
  5
23C
100
AcDbEntity
  8
0
100
AcDbLine
 62
9
  6
CONTINUOUS
 10
7.5263183383
 20
9.3536430515
 11
7.5263183383
 21
9.3836430515
  0
LINE
  5
23D
100
AcDbEntity
  8
0
100
AcDbLine
 62
9
  6
CONTINUOUS
 10
7.5563183383
 20
8.3656430515
 11
7.5563183383
 21
8.5946430515
  0
LINE
  5
23E
100
AcDbEntity
  8
0
100
AcDbLine
 62
9
  6
CONTINUOUS
 10
7.5563183383
 20
9.0946430515
 11
7.5563183383
 21
9.3236430515
  0
LINE
  5
23F
100
AcDbEntity
  8
0
100
AcDbLine
 62
7
  6
CONTINUOUS
 10
7.5863183383
 20
9.3236430515
 11
7.5863183383
 21
9.0946430515
  0
LINE
  5
240
100
AcDbEntity
  8
0
100
AcDbLine
 62
7
  6
CONTINUOUS
 10
7.5863183383
 20
8.5946430515
 11
7.5863183383
 21
8.3656430515
  0
LINE
  5
241
100
AcDbEntity
  8
0
100
AcDbLine
 62
9
  6
CONTINUOUS
 10
7.7312973253
 20
8.0720313714
 11
7.7312973253
 21
8.101575604
  0
LINE
  5
242
100
AcDbEntity
  8
0
100
AcDbLine
 62
9
  6
CONTINUOUS
 10
7.7312973206
 20
9.587710499
 11
7.7312973206
 21
9.6172547315
  0
LINE
  5
243
100
AcDbEntity
  8
0
100
AcDbLine
 62
9
  6
CONTINUOUS
 10
6.5084467167
 20
8.3648610141
 11
6.3042508908
 21
8.1606640692
  0
LINE
  5
244
100
AcDbEntity
  8
0
100
AcDbLine
 62
9
  6
CONTINUOUS
 10
7.7312973206
 20
9.587710499
 11
7.5271069982
 21
9.3835185556
  0
LINE
  5
245
100
AcDbEntity
  8
0
100
AcDbLine
 62
9
  6
CONTINUOUS
 10
7.5861898403
 20
9.3244258177
 11
7.7903857857
 21
9.5286220337
  0
LINE
  5
246
100
AcDbEntity
  8
0
100
AcDbLine
 62
9
  6
CONTINUOUS
 10
6.363339356
 20
8.101575604
 11
6.5675327021
 21
8.3057670701
  0
LINE
  5
247
100
AcDbEntity
  8
0
100
AcDbLine
 62
9
  6
CONTINUOUS
 10
7.7903857857
 20
8.1606640692
 11
7.7903857857
 21
8.5946430515
  0
LINE
  5
248
100
AcDbEntity
  8
0
100
AcDbLine
 62
9
  6
CONTINUOUS
 10
7.7903857857
 20
9.0946430515
 11
7.7903857857
 21
9.5286220337
  0
LINE
  5
249
100
AcDbEntity
  8
0
100
AcDbLine
 62
9
  6
CONTINUOUS
 10
7.8199300183
 20
9.5286220338
 11
7.8199300183
 21
9.0946430515
  0
LINE
  5
24A
100
AcDbEntity
  8
0
100
AcDbLine
 62
9
  6
CONTINUOUS
 10
7.8199300183
 20
8.5946430515
 11
7.8199300183
 21
8.1606640692
  0
LINE
  5
24B
100
AcDbEntity
  8
0
100
AcDbLine
 62
9
  6
CONTINUOUS
 10
7.8598183383
 20
7.9721430515
 11
7.8598183383
 21
8.0021430515
  0
LINE
  5
24C
100
AcDbEntity
  8
0
100
AcDbLine
 62
9
  6
CONTINUOUS
 10
7.8598183383
 20
9.6871430515
 11
7.8598183383
 21
9.7171430515
  0
LINE
  5
24D
100
AcDbEntity
  8
0
100
AcDbLine
 62
9
  6
CONTINUOUS
 10
7.8898183383
 20
8.0321430515
 11
7.8898183383
 21
8.5946430515
  0
LINE
  5
24E
100
AcDbEntity
  8
0
100
AcDbLine
 62
9
  6
CONTINUOUS
 10
7.8898183383
 20
9.0946430515
 11
7.8898183383
 21
9.6571430515
  0
LINE
  5
24F
100
AcDbEntity
  8
0
100
AcDbLine
 62
7
  6
CONTINUOUS
 10
7.9198183383
 20
9.6571430515
 11
7.9198183383
 21
9.0946430515
  0
LINE
  5
250
100
AcDbEntity
  8
0
100
AcDbLine
 62
7
  6
CONTINUOUS
 10
7.9198183383
 20
8.5946430515
 11
7.9198183383
 21
8.0321430515
  0
LINE
  5
251
100
AcDbEntity
  8
0
100
AcDbLine
 62
9
  6
CONTINUOUS
 10
8.1823183383
 20
7.6496430515
 11
8.1823183383
 21
7.6796430515
  0
LINE
  5
252
100
AcDbEntity
  8
0
100
AcDbLine
 62
9
  6
CONTINUOUS
 10
8.1823183383
 20
10.0096430515
 11
8.1823183383
 21
10.0396430515
  0
LINE
  5
253
100
AcDbEntity
  8
0
100
AcDbLine
 62
9
  6
CONTINUOUS
 10
8.2123183383
 20
7.7096430515
 11
8.2123183383
 21
8.5946430515
  0
LINE
  5
254
100
AcDbEntity
  8
0
100
AcDbLine
 62
9
  6
CONTINUOUS
 10
8.2123183383
 20
9.0946430515
 11
8.2123183383
 21
9.9796430515
  0
LINE
  5
255
100
AcDbEntity
  8
0
100
AcDbLine
 62
7
  6
CONTINUOUS
 10
8.2423183383
 20
9.9796430515
 11
8.2423183383
 21
9.0946430515
  0
LINE
  5
256
100
AcDbEntity
  8
0
100
AcDbLine
 62
7
  6
CONTINUOUS
 10
8.2423183383
 20
8.5946430515
 11
8.2423183383
 21
7.7096430516
  0
LINE
  5
257
100
AcDbEntity
  8
0
100
AcDbLine
 62
9
  6
CONTINUOUS
 10
8.4548183383
 20
8.5946430515
 11
8.4548183383
 21
9.0946430515
  0
LINE
  5
258
100
AcDbEntity
  8
0
100
AcDbLine
 62
7
  6
CONTINUOUS
 10
8.4848183383
 20
9.0646430515
 11
8.4848183383
 21
8.6246430515
  0
LINE
  5
259
100
AcDbEntity
  8
0
100
AcDbLine
 62
7
  6
CONTINUOUS
 10
10.9340243027
 20
-2.7847888556
 11
10.9427954538
 21
-2.8134779982
  0
LINE
  5
25A
100
AcDbEntity
  8
0
100
AcDbLine
 62
7
  6
CONTINUOUS
 10
11.1518412227
 20
-3.4972358988
 11
11.1606123739
 21
-3.5259250414
  0
LINE
  5
25B
100
AcDbEntity
  8
0
100
AcDbLine
 62
9
  6
CONTINUOUS
 10
6.3042508908
 20
9.5286220338
 11
6.5084423776
 21
9.3244288193
  0
LINE
  5
25C
100
AcDbEntity
  8
0
100
AcDbLine
 62
9
  6
CONTINUOUS
 10
7.5271017959
 20
8.305771663
 11
7.7312973205
 21
8.101575604
  0
LINE
  5
25D
100
AcDbEntity
  8
0
100
AcDbLine
 62
9
  6
CONTINUOUS
 10
7.7903857857
 20
8.1606640692
 11
7.586193837
 21
8.3648543575
  0
LINE
  5
25E
100
AcDbEntity
  8
0
100
AcDbLine
 62
9
  6
CONTINUOUS
 10
6.5675366477
 20
9.38351473
 11
6.363339356
 21
9.587710499
  0
LINE
  5
25F
100
AcDbEntity
  8
0
100
AcDbLine
 62
7
  6
CONTINUOUS
 10
10.6723183383
 20
0.5096430515
 11
10.6723183383
 21
1.1796430515
  0
LINE
  5
260
100
AcDbEntity
  8
0
100
AcDbLine
 62
9
  6
CONTINUOUS
 10
10.7123183383
 20
1.2196430515
 11
10.7123183383
 21
0.4696430515
  0
LINE
  5
261
100
AcDbEntity
  8
0
100
AcDbLine
 62
7
  6
CONTINUOUS
 10
15.2673183383
 20
7.4071430515
 11
14.8273183383
 21
7.4071430515
  0
LINE
  5
262
100
AcDbEntity
  8
0
100
AcDbLine
 62
7
  6
CONTINUOUS
 10
7.2673183383
 20
7.4071430515
 11
6.8273183383
 21
7.4071430515
  0
LINE
  5
263
100
AcDbEntity
  8
0
100
AcDbLine
 62
9
  6
CONTINUOUS
 10
6.7973183383
 20
7.4371430515
 11
7.2973183383
 21
7.4371430515
  0
LINE
  5
264
100
AcDbEntity
  8
0
100
AcDbLine
 62
9
  6
CONTINUOUS
 10
14.7973183383
 20
7.4371430515
 11
15.2973183383
 21
7.4371430515
  0
LINE
  5
265
100
AcDbEntity
  8
0
100
AcDbLine
 62
9
  6
CONTINUOUS
 10
11.3823183383
 20
0.4696430515
 11
11.3823183383
 21
1.2196430515
  0
LINE
  5
266
100
AcDbEntity
  8
0
100
AcDbLine
 62
7
  6
CONTINUOUS
 10
11.4223183383
 20
1.1796430515
 11
11.4223183383
 21
0.5096430515
  0
LINE
  5
267
100
AcDbEntity
  8
0
100
AcDbLine
 62
7
  6
CONTINUOUS
 10
16.1823183383
 20
7.6496430515
 11
15.2973183383
 21
7.6496430515
  0
LINE
  5
268
100
AcDbEntity
  8
0
100
AcDbLine
 62
7
  6
CONTINUOUS
 10
14.7973183383
 20
7.6496430515
 11
13.9123183383
 21
7.6496430515
  0
LINE
  5
269
100
AcDbEntity
  8
0
100
AcDbLine
 62
7
  6
CONTINUOUS
 10
8.1823183383
 20
7.6496430515
 11
7.2973183383
 21
7.6496430515
  0
LINE
  5
26A
100
AcDbEntity
  8
0
100
AcDbLine
 62
7
  6
CONTINUOUS
 10
6.7973183383
 20
7.6496430515
 11
5.9123183383
 21
7.6496430515
  0
LINE
  5
26B
100
AcDbEntity
  8
0
100
AcDbLine
 62
9
  6
CONTINUOUS
 10
5.9123183383
 20
7.6796430515
 11
6.7973183383
 21
7.6796430515
  0
LINE
  5
26C
100
AcDbEntity
  8
0
100
AcDbLine
 62
9
  6
CONTINUOUS
 10
7.2973183383
 20
7.6796430515
 11
8.1823183383
 21
7.6796430515
  0
LINE
  5
26D
100
AcDbEntity
  8
0
100
AcDbLine
 62
9
  6
CONTINUOUS
 10
13.9123183383
 20
7.6796430515
 11
14.7973183383
 21
7.6796430515
  0
LINE
  5
26E
100
AcDbEntity
  8
0
100
AcDbLine
 62
9
  6
CONTINUOUS
 10
15.2973183383
 20
7.6796430515
 11
16.1823183383
 21
7.6796430515
  0
LINE
  5
26F
100
AcDbEntity
  8
0
100
AcDbLine
 62
9
  6
CONTINUOUS
 10
5.8523183383
 20
7.7096430515
 11
5.8823183383
 21
7.7096430515
  0
LINE
  5
270
100
AcDbEntity
  8
0
100
AcDbLine
 62
9
  6
CONTINUOUS
 10
8.2123183383
 20
7.7096430515
 11
8.2423183383
 21
7.7096430515
  0
LINE
  5
271
100
AcDbEntity
  8
0
100
AcDbLine
 62
9
  6
CONTINUOUS
 10
13.8523183383
 20
7.7096430515
 11
13.8823183383
 21
7.7096430515
  0
LINE
  5
272
100
AcDbEntity
  8
0
100
AcDbLine
 62
9
  6
CONTINUOUS
 10
16.2123183383
 20
7.7096430515
 11
16.2423183383
 21
7.7096430515
  0
LINE
  5
273
100
AcDbEntity
  8
0
100
AcDbLine
 62
7
  6
CONTINUOUS
 10
15.8598183382
 20
7.9721430515
 11
15.2973183383
 21
7.9721430515
  0
LINE
  5
274
100
AcDbEntity
  8
0
100
AcDbLine
 62
7
  6
CONTINUOUS
 10
14.7973183383
 20
7.9721430515
 11
14.2348183383
 21
7.9721430515
  0
LINE
  5
275
100
AcDbEntity
  8
0
100
AcDbLine
 62
7
  6
CONTINUOUS
 10
7.8598183382
 20
7.9721430515
 11
7.2973183383
 21
7.9721430515
  0
LINE
  5
276
100
AcDbEntity
  8
0
100
AcDbLine
 62
7
  6
CONTINUOUS
 10
6.7973183383
 20
7.9721430515
 11
6.2348183383
 21
7.9721430515
  0
LINE
  5
277
100
AcDbEntity
  8
0
100
AcDbLine
 62
9
  6
CONTINUOUS
 10
6.2348183383
 20
8.0021430515
 11
6.7973183383
 21
8.0021430515
  0
LINE
  5
278
100
AcDbEntity
  8
0
100
AcDbLine
 62
9
  6
CONTINUOUS
 10
7.2973183383
 20
8.0021430515
 11
7.8598183383
 21
8.0021430515
  0
LINE
  5
279
100
AcDbEntity
  8
0
100
AcDbLine
 62
9
  6
CONTINUOUS
 10
14.2348183383
 20
8.0021430515
 11
14.7973183383
 21
8.0021430515
  0
LINE
  5
27A
100
AcDbEntity
  8
0
100
AcDbLine
 62
9
  6
CONTINUOUS
 10
15.2973183383
 20
8.0021430515
 11
15.8598183383
 21
8.0021430515
  0
LINE
  5
27B
100
AcDbEntity
  8
0
100
AcDbLine
 62
9
  6
CONTINUOUS
 10
6.1748183383
 20
8.0321430515
 11
6.2048183383
 21
8.0321430515
  0
LINE
  5
27C
100
AcDbEntity
  8
0
100
AcDbLine
 62
9
  6
CONTINUOUS
 10
7.8898183383
 20
8.0321430515
 11
7.9198183383
 21
8.0321430515
  0
LINE
  5
27D
100
AcDbEntity
  8
0
100
AcDbLine
 62
9
  6
CONTINUOUS
 10
14.1748183383
 20
8.0321430515
 11
14.2048183383
 21
8.0321430515
  0
LINE
  5
27E
100
AcDbEntity
  8
0
100
AcDbLine
 62
9
  6
CONTINUOUS
 10
15.8898183383
 20
8.0321430515
 11
15.9198183383
 21
8.0321430515
  0
LINE
  5
27F
100
AcDbEntity
  8
0
100
AcDbLine
 62
9
  6
CONTINUOUS
 10
15.7312973205
 20
8.0720313714
 11
15.2973183383
 21
8.0720313714
  0
LINE
  5
280
100
AcDbEntity
  8
0
100
AcDbLine
 62
9
  6
CONTINUOUS
 10
14.7973183383
 20
8.0720313714
 11
14.363339356
 21
8.0720313714
  0
LINE
  5
281
100
AcDbEntity
  8
0
100
AcDbLine
 62
9
  6
CONTINUOUS
 10
7.7312973205
 20
8.0720313714
 11
7.2973183383
 21
8.0720313714
  0
LINE
  5
282
100
AcDbEntity
  8
0
100
AcDbLine
 62
9
  6
CONTINUOUS
 10
6.7973183383
 20
8.0720313714
 11
6.363339356
 21
8.0720313714
  0
LINE
  5
283
100
AcDbEntity
  8
0
100
AcDbLine
 62
9
  6
CONTINUOUS
 10
6.363339356
 20
8.101575604
 11
6.7973183383
 21
8.101575604
  0
LINE
  5
284
100
AcDbEntity
  8
0
100
AcDbLine
 62
9
  6
CONTINUOUS
 10
7.2973183383
 20
8.101575604
 11
7.7312973205
 21
8.101575604
  0
LINE
  5
285
100
AcDbEntity
  8
0
100
AcDbLine
 62
9
  6
CONTINUOUS
 10
14.363339356
 20
8.101575604
 11
14.7973183383
 21
8.101575604
  0
LINE
  5
286
100
AcDbEntity
  8
0
100
AcDbLine
 62
9
  6
CONTINUOUS
 10
15.2973183383
 20
8.101575604
 11
15.7312973205
 21
8.101575604
  0
LINE
  5
287
100
AcDbEntity
  8
0
100
AcDbLine
 62
9
  6
CONTINUOUS
 10
6.2747066582
 20
8.1606640645
 11
6.3042508908
 21
8.1606640645
  0
LINE
  5
288
100
AcDbEntity
  8
0
100
AcDbLine
 62
9
  6
CONTINUOUS
 10
7.7903857857
 20
8.1606640692
 11
7.8199300183
 21
8.1606640692
  0
LINE
  5
289
100
AcDbEntity
  8
0
100
AcDbLine
 62
9
  6
CONTINUOUS
 10
14.2747066582
 20
8.1606640645
 11
14.3042508908
 21
8.1606640645
  0
LINE
  5
28A
100
AcDbEntity
  8
0
100
AcDbLine
 62
9
  6
CONTINUOUS
 10
15.7903857857
 20
8.1606640692
 11
15.8199300183
 21
8.1606640692
  0
LINE
  5
28B
100
AcDbEntity
  8
0
100
AcDbLine
 62
7
  6
CONTINUOUS
 10
15.5263183382
 20
8.3056430515
 11
15.2973183383
 21
8.3056430515
  0
LINE
  5
28C
100
AcDbEntity
  8
0
100
AcDbLine
 62
7
  6
CONTINUOUS
 10
14.7973183383
 20
8.3056430515
 11
14.5683183383
 21
8.3056430515
  0
LINE
  5
28D
100
AcDbEntity
  8
0
100
AcDbLine
 62
7
  6
CONTINUOUS
 10
7.5263183382
 20
8.3056430515
 11
7.2973183383
 21
8.3056430515
  0
LINE
  5
28E
100
AcDbEntity
  8
0
100
AcDbLine
 62
7
  6
CONTINUOUS
 10
6.7973183383
 20
8.3056430515
 11
6.5683183383
 21
8.3056430515
  0
LINE
  5
28F
100
AcDbEntity
  8
0
100
AcDbLine
 62
9
  6
CONTINUOUS
 10
6.5683183383
 20
8.3356430515
 11
6.7973183383
 21
8.3356430515
  0
LINE
  5
290
100
AcDbEntity
  8
0
100
AcDbLine
 62
9
  6
CONTINUOUS
 10
7.2973183383
 20
8.3356430515
 11
7.5263183383
 21
8.3356430515
  0
LINE
  5
291
100
AcDbEntity
  8
0
100
AcDbLine
 62
9
  6
CONTINUOUS
 10
14.5683183383
 20
8.3356430515
 11
14.7973183383
 21
8.3356430515
  0
LINE
  5
292
100
AcDbEntity
  8
0
100
AcDbLine
 62
9
  6
CONTINUOUS
 10
15.2973183383
 20
8.3356430515
 11
15.5263183383
 21
8.3356430515
  0
LINE
  5
293
100
AcDbEntity
  8
0
100
AcDbLine
 62
9
  6
CONTINUOUS
 10
6.5083183383
 20
8.3656430515
 11
6.5383183383
 21
8.3656430515
  0
LINE
  5
294
100
AcDbEntity
  8
0
100
AcDbLine
 62
9
  6
CONTINUOUS
 10
7.5563183383
 20
8.3656430515
 11
7.5863183383
 21
8.3656430515
  0
LINE
  5
295
100
AcDbEntity
  8
0
100
AcDbLine
 62
9
  6
CONTINUOUS
 10
14.5083183383
 20
8.3656430515
 11
14.5383183383
 21
8.3656430515
  0
LINE
  5
296
100
AcDbEntity
  8
0
100
AcDbLine
 62
9
  6
CONTINUOUS
 10
15.5563183383
 20
8.3656430515
 11
15.5863183383
 21
8.3656430515
  0
LINE
  5
297
100
AcDbEntity
  8
0
100
AcDbLine
 62
9
  6
CONTINUOUS
 10
15.2973183383
 20
8.4411430515
 11
14.7973183383
 21
8.4411430515
  0
LINE
  5
298
100
AcDbEntity
  8
0
100
AcDbLine
 62
9
  6
CONTINUOUS
 10
7.2973183383
 20
8.4411430515
 11
6.7973183383
 21
8.4411430515
  0
LINE
  5
299
100
AcDbEntity
  8
0
100
AcDbLine
 62
7
  6
CONTINUOUS
 10
15.3608183383
 20
8.5011430515
 11
14.7338183383
 21
8.5011430515
  0
LINE
  5
29A
100
AcDbEntity
  8
0
100
AcDbLine
 62
7
  6
CONTINUOUS
 10
7.3608183383
 20
8.5011430515
 11
6.7338183383
 21
8.5011430515
  0
LINE
  5
29B
100
AcDbEntity
  8
0
100
AcDbLine
 62
9
  6
CONTINUOUS
 10
6.7038183383
 20
8.5311430515
 11
7.3908183383
 21
8.5311430515
  0
LINE
  5
29C
100
AcDbEntity
  8
0
100
AcDbLine
 62
9
  6
CONTINUOUS
 10
14.7038183383
 20
8.5311430515
 11
15.3908183383
 21
8.5311430515
  0
LINE
  5
29D
100
AcDbEntity
  8
0
100
AcDbLine
 62
7
  6
CONTINUOUS
 10
16.4548183383
 20
8.5946430515
 11
15.4508183383
 21
8.5946430515
  0
LINE
  5
29E
100
AcDbEntity
  8
0
100
AcDbLine
 62
7
  6
CONTINUOUS
 10
14.6438183383
 20
8.5946430515
 11
13.6398183383
 21
8.5946430515
  0
LINE
  5
29F
100
AcDbEntity
  8
0
100
AcDbLine
 62
7
  6
CONTINUOUS
 10
8.4548183383
 20
8.5946430515
 11
7.4508183383
 21
8.5946430515
  0
LINE
  5
2A0
100
AcDbEntity
  8
0
100
AcDbLine
 62
7
  6
CONTINUOUS
 10
6.6438183383
 20
8.5946430515
 11
5.6398183383
 21
8.5946430515
  0
LINE
  5
2A1
100
AcDbEntity
  8
0
100
AcDbLine
 62
9
  6
CONTINUOUS
 10
5.6098183383
 20
8.6246430515
 11
6.7038183383
 21
8.6246430515
  0
LINE
  5
2A2
100
AcDbEntity
  8
0
100
AcDbLine
 62
9
  6
CONTINUOUS
 10
7.3908183383
 20
8.6246430515
 11
8.4848183383
 21
8.6246430515
  0
LINE
  5
2A3
100
AcDbEntity
  8
0
100
AcDbLine
 62
9
  6
CONTINUOUS
 10
13.6098183383
 20
8.6246430515
 11
14.7038183383
 21
8.6246430515
  0
LINE
  5
2A4
100
AcDbEntity
  8
0
100
AcDbLine
 62
9
  6
CONTINUOUS
 10
15.3908183383
 20
8.6246430515
 11
16.4848183383
 21
8.6246430515
  0
LINE
  5
2A5
100
AcDbEntity
  8
0
100
AcDbLine
 62
9
  6
CONTINUOUS
 10
16.4848183383
 20
9.0646430515
 11
15.3908183383
 21
9.0646430515
  0
LINE
  5
2A6
100
AcDbEntity
  8
0
100
AcDbLine
 62
9
  6
CONTINUOUS
 10
14.7038183383
 20
9.0646430515
 11
13.6098183383
 21
9.0646430515
  0
LINE
  5
2A7
100
AcDbEntity
  8
0
100
AcDbLine
 62
9
  6
CONTINUOUS
 10
8.4848183383
 20
9.0646430515
 11
7.3908183383
 21
9.0646430515
  0
LINE
  5
2A8
100
AcDbEntity
  8
0
100
AcDbLine
 62
9
  6
CONTINUOUS
 10
6.7038183383
 20
9.0646430515
 11
5.6098183383
 21
9.0646430515
  0
LINE
  5
2A9
100
AcDbEntity
  8
0
100
AcDbLine
 62
7
  6
CONTINUOUS
 10
5.6398183383
 20
9.0946430515
 11
6.6438183383
 21
9.0946430515
  0
LINE
  5
2AA
100
AcDbEntity
  8
0
100
AcDbLine
 62
7
  6
CONTINUOUS
 10
7.4508183383
 20
9.0946430515
 11
8.4548183383
 21
9.0946430515
  0
LINE
  5
2AB
100
AcDbEntity
  8
0
100
AcDbLine
 62
7
  6
CONTINUOUS
 10
13.6398183383
 20
9.0946430515
 11
14.6438183383
 21
9.0946430515
  0
LINE
  5
2AC
100
AcDbEntity
  8
0
100
AcDbLine
 62
7
  6
CONTINUOUS
 10
15.4508183383
 20
9.0946430515
 11
16.4548183383
 21
9.0946430515
  0
LINE
  5
2AD
100
AcDbEntity
  8
0
100
AcDbLine
 62
9
  6
CONTINUOUS
 10
15.3908183383
 20
9.1581430515
 11
14.7038183383
 21
9.1581430515
  0
LINE
  5
2AE
100
AcDbEntity
  8
0
100
AcDbLine
 62
9
  6
CONTINUOUS
 10
7.3908183383
 20
9.1581430515
 11
6.7038183383
 21
9.1581430515
  0
LINE
  5
2AF
100
AcDbEntity
  8
0
100
AcDbLine
 62
7
  6
CONTINUOUS
 10
6.7338183383
 20
9.1881430515
 11
7.3608183383
 21
9.1881430515
  0
LINE
  5
2B0
100
AcDbEntity
  8
0
100
AcDbLine
 62
7
  6
CONTINUOUS
 10
14.7338183383
 20
9.1881430515
 11
15.3608183383
 21
9.1881430515
  0
LINE
  5
2B1
100
AcDbEntity
  8
0
100
AcDbLine
 62
9
  6
CONTINUOUS
 10
6.7973183383
 20
9.2481430515
 11
7.2973183383
 21
9.2481430515
  0
LINE
  5
2B2
100
AcDbEntity
  8
0
100
AcDbLine
 62
9
  6
CONTINUOUS
 10
14.7973183383
 20
9.2481430515
 11
15.2973183383
 21
9.2481430515
  0
LINE
  5
2B3
100
AcDbEntity
  8
0
100
AcDbLine
 62
7
  6
CONTINUOUS
 10
13.6098183383
 20
8.6246430515
 11
13.6098183383
 21
9.0646430515
  0
LINE
  5
2B4
100
AcDbEntity
  8
0
100
AcDbLine
 62
9
  6
CONTINUOUS
 10
13.6398183383
 20
9.0946430515
 11
13.6398183383
 21
8.5946430515
  0
LINE
  5
2B5
100
AcDbEntity
  8
0
100
AcDbLine
 62
9
  6
CONTINUOUS
 10
15.7312973206
 20
9.587710499
 11
15.5271039745
 21
9.3835190329
  0
LINE
  5
2B6
100
AcDbEntity
  8
0
100
AcDbLine
 62
9
  6
CONTINUOUS
 10
14.5084468363
 20
8.3648602853
 11
14.3042508908
 21
8.1606640692
  0
LINE
  5
2B7
100
AcDbEntity
  8
0
100
AcDbLine
 62
9
  6
CONTINUOUS
 10
14.363339356
 20
8.101575604
 11
14.5675296783
 21
8.3057675474
  0
LINE
  5
2B8
100
AcDbEntity
  8
0
100
AcDbLine
 62
9
  6
CONTINUOUS
 10
15.5861899599
 20
9.3244250889
 11
15.7903857857
 21
9.5286220337
  0
LINE
  5
2B9
100
AcDbEntity
  8
0
100
AcDbLine
 62
9
  6
CONTINUOUS
 10
15.5863183383
 20
9.3236430515
 11
15.5563183383
 21
9.3236430515
  0
LINE
  5
2BA
100
AcDbEntity
  8
0
100
AcDbLine
 62
9
  6
CONTINUOUS
 10
14.5383183383
 20
9.3236430515
 11
14.5083183383
 21
9.3236430515
  0
LINE
  5
2BB
100
AcDbEntity
  8
0
100
AcDbLine
 62
9
  6
CONTINUOUS
 10
7.5863183383
 20
9.3236430515
 11
7.5563183383
 21
9.3236430515
  0
LINE
  5
2BC
100
AcDbEntity
  8
0
100
AcDbLine
 62
9
  6
CONTINUOUS
 10
6.5383183383
 20
9.3236430515
 11
6.5083183383
 21
9.3236430515
  0
LINE
  5
2BD
100
AcDbEntity
  8
0
100
AcDbLine
 62
9
  6
CONTINUOUS
 10
15.5263183383
 20
9.3536430515
 11
15.2973183383
 21
9.3536430515
  0
LINE
  5
2BE
100
AcDbEntity
  8
0
100
AcDbLine
 62
9
  6
CONTINUOUS
 10
14.7973183383
 20
9.3536430515
 11
14.5683183383
 21
9.3536430515
  0
LINE
  5
2BF
100
AcDbEntity
  8
0
100
AcDbLine
 62
9
  6
CONTINUOUS
 10
7.5263183383
 20
9.3536430515
 11
7.2973183383
 21
9.3536430515
  0
LINE
  5
2C0
100
AcDbEntity
  8
0
100
AcDbLine
 62
9
  6
CONTINUOUS
 10
6.7973183383
 20
9.3536430515
 11
6.5683183383
 21
9.3536430515
  0
LINE
  5
2C1
100
AcDbEntity
  8
0
100
AcDbLine
 62
7
  6
CONTINUOUS
 10
6.5683183383
 20
9.3836430515
 11
6.7973183383
 21
9.3836430515
  0
LINE
  5
2C2
100
AcDbEntity
  8
0
100
AcDbLine
 62
7
  6
CONTINUOUS
 10
7.2973183383
 20
9.3836430515
 11
7.5263183382
 21
9.3836430515
  0
LINE
  5
2C3
100
AcDbEntity
  8
0
100
AcDbLine
 62
7
  6
CONTINUOUS
 10
14.5683183383
 20
9.3836430515
 11
14.7973183383
 21
9.3836430515
  0
LINE
  5
2C4
100
AcDbEntity
  8
0
100
AcDbLine
 62
7
  6
CONTINUOUS
 10
15.2973183383
 20
9.3836430515
 11
15.5263183382
 21
9.3836430515
  0
LINE
  5
2C5
100
AcDbEntity
  8
0
100
AcDbLine
 62
9
  6
CONTINUOUS
 10
15.8199300183
 20
9.5286220385
 11
15.7903857857
 21
9.5286220385
  0
LINE
  5
2C6
100
AcDbEntity
  8
0
100
AcDbLine
 62
9
  6
CONTINUOUS
 10
14.3042508908
 20
9.5286220338
 11
14.2747066582
 21
9.5286220338
  0
LINE
  5
2C7
100
AcDbEntity
  8
0
100
AcDbLine
 62
9
  6
CONTINUOUS
 10
7.8199300183
 20
9.5286220385
 11
7.7903857857
 21
9.5286220385
  0
LINE
  5
2C8
100
AcDbEntity
  8
0
100
AcDbLine
 62
9
  6
CONTINUOUS
 10
6.3042508908
 20
9.5286220338
 11
6.2747066582
 21
9.5286220338
  0
LINE
  5
2C9
100
AcDbEntity
  8
0
100
AcDbLine
 62
9
  6
CONTINUOUS
 10
15.7312973206
 20
9.587710499
 11
15.2973183383
 21
9.587710499
  0
LINE
  5
2CA
100
AcDbEntity
  8
0
100
AcDbLine
 62
9
  6
CONTINUOUS
 10
14.7973183383
 20
9.587710499
 11
14.363339356
 21
9.587710499
  0
LINE
  5
2CB
100
AcDbEntity
  8
0
100
AcDbLine
 62
9
  6
CONTINUOUS
 10
7.7312973206
 20
9.587710499
 11
7.2973183383
 21
9.587710499
  0
LINE
  5
2CC
100
AcDbEntity
  8
0
100
AcDbLine
 62
9
  6
CONTINUOUS
 10
6.7973183383
 20
9.587710499
 11
6.363339356
 21
9.587710499
  0
LINE
  5
2CD
100
AcDbEntity
  8
0
100
AcDbLine
 62
9
  6
CONTINUOUS
 10
6.363339356
 20
9.6172547315
 11
6.7973183383
 21
9.6172547315
  0
LINE
  5
2CE
100
AcDbEntity
  8
0
100
AcDbLine
 62
9
  6
CONTINUOUS
 10
7.2973183383
 20
9.6172547315
 11
7.7312973206
 21
9.6172547315
  0
LINE
  5
2CF
100
AcDbEntity
  8
0
100
AcDbLine
 62
9
  6
CONTINUOUS
 10
14.363339356
 20
9.6172547315
 11
14.7973183383
 21
9.6172547315
  0
LINE
  5
2D0
100
AcDbEntity
  8
0
100
AcDbLine
 62
9
  6
CONTINUOUS
 10
15.2973183383
 20
9.6172547315
 11
15.7312973206
 21
9.6172547315
  0
LINE
  5
2D1
100
AcDbEntity
  8
0
100
AcDbLine
 62
9
  6
CONTINUOUS
 10
15.9198183383
 20
9.6571430515
 11
15.8898183383
 21
9.6571430515
  0
LINE
  5
2D2
100
AcDbEntity
  8
0
100
AcDbLine
 62
9
  6
CONTINUOUS
 10
14.2048183383
 20
9.6571430515
 11
14.1748183383
 21
9.6571430515
  0
LINE
  5
2D3
100
AcDbEntity
  8
0
100
AcDbLine
 62
9
  6
CONTINUOUS
 10
7.9198183383
 20
9.6571430515
 11
7.8898183383
 21
9.6571430515
  0
LINE
  5
2D4
100
AcDbEntity
  8
0
100
AcDbLine
 62
9
  6
CONTINUOUS
 10
6.2048183383
 20
9.6571430515
 11
6.1748183383
 21
9.6571430515
  0
LINE
  5
2D5
100
AcDbEntity
  8
0
100
AcDbLine
 62
9
  6
CONTINUOUS
 10
15.8598183383
 20
9.6871430515
 11
15.2973183383
 21
9.6871430515
  0
LINE
  5
2D6
100
AcDbEntity
  8
0
100
AcDbLine
 62
9
  6
CONTINUOUS
 10
14.7973183383
 20
9.6871430515
 11
14.2348183383
 21
9.6871430515
  0
LINE
  5
2D7
100
AcDbEntity
  8
0
100
AcDbLine
 62
9
  6
CONTINUOUS
 10
7.8598183383
 20
9.6871430515
 11
7.2973183383
 21
9.6871430515
  0
LINE
  5
2D8
100
AcDbEntity
  8
0
100
AcDbLine
 62
9
  6
CONTINUOUS
 10
6.7973183383
 20
9.6871430515
 11
6.2348183383
 21
9.6871430515
  0
LINE
  5
2D9
100
AcDbEntity
  8
0
100
AcDbLine
 62
7
  6
CONTINUOUS
 10
6.2348183383
 20
9.7171430515
 11
6.7973183383
 21
9.7171430515
  0
LINE
  5
2DA
100
AcDbEntity
  8
0
100
AcDbLine
 62
7
  6
CONTINUOUS
 10
7.2973183383
 20
9.7171430515
 11
7.8598183382
 21
9.7171430515
  0
LINE
  5
2DB
100
AcDbEntity
  8
0
100
AcDbLine
 62
7
  6
CONTINUOUS
 10
14.2348183383
 20
9.7171430515
 11
14.7973183383
 21
9.7171430515
  0
LINE
  5
2DC
100
AcDbEntity
  8
0
100
AcDbLine
 62
7
  6
CONTINUOUS
 10
15.2973183383
 20
9.7171430515
 11
15.8598183382
 21
9.7171430515
  0
LINE
  5
2DD
100
AcDbEntity
  8
0
100
AcDbLine
 62
9
  6
CONTINUOUS
 10
16.2423183383
 20
9.9796430515
 11
16.2123183383
 21
9.9796430515
  0
LINE
  5
2DE
100
AcDbEntity
  8
0
100
AcDbLine
 62
9
  6
CONTINUOUS
 10
13.8823183383
 20
9.9796430515
 11
13.8523183383
 21
9.9796430515
  0
LINE
  5
2DF
100
AcDbEntity
  8
0
100
AcDbLine
 62
9
  6
CONTINUOUS
 10
8.2423183383
 20
9.9796430515
 11
8.2123183383
 21
9.9796430515
  0
LINE
  5
2E0
100
AcDbEntity
  8
0
100
AcDbLine
 62
9
  6
CONTINUOUS
 10
5.8823183383
 20
9.9796430515
 11
5.8523183383
 21
9.9796430515
  0
LINE
  5
2E1
100
AcDbEntity
  8
0
100
AcDbLine
 62
9
  6
CONTINUOUS
 10
16.1823183383
 20
10.0096430515
 11
15.2973183383
 21
10.0096430515
  0
LINE
  5
2E2
100
AcDbEntity
  8
0
100
AcDbLine
 62
9
  6
CONTINUOUS
 10
14.7973183383
 20
10.0096430515
 11
13.9123183383
 21
10.0096430515
  0
LINE
  5
2E3
100
AcDbEntity
  8
0
100
AcDbLine
 62
9
  6
CONTINUOUS
 10
8.1823183383
 20
10.0096430515
 11
7.2973183383
 21
10.0096430515
  0
LINE
  5
2E4
100
AcDbEntity
  8
0
100
AcDbLine
 62
9
  6
CONTINUOUS
 10
6.7973183383
 20
10.0096430515
 11
5.9123183383
 21
10.0096430515
  0
LINE
  5
2E5
100
AcDbEntity
  8
0
100
AcDbLine
 62
7
  6
CONTINUOUS
 10
5.9123183383
 20
10.0396430515
 11
6.7973183383
 21
10.0396430515
  0
LINE
  5
2E6
100
AcDbEntity
  8
0
100
AcDbLine
 62
7
  6
CONTINUOUS
 10
7.2973183383
 20
10.0396430515
 11
8.1823183382
 21
10.0396430515
  0
LINE
  5
2E7
100
AcDbEntity
  8
0
100
AcDbLine
 62
7
  6
CONTINUOUS
 10
13.9123183383
 20
10.0396430515
 11
14.7973183383
 21
10.0396430515
  0
LINE
  5
2E8
100
AcDbEntity
  8
0
100
AcDbLine
 62
7
  6
CONTINUOUS
 10
15.2973183383
 20
10.0396430515
 11
16.1823183382
 21
10.0396430515
  0
LINE
  5
2E9
100
AcDbEntity
  8
0
100
AcDbLine
 62
7
  6
CONTINUOUS
 10
13.8523183383
 20
7.7096430515
 11
13.8523183383
 21
8.5946430515
  0
LINE
  5
2EA
100
AcDbEntity
  8
0
100
AcDbLine
 62
7
  6
CONTINUOUS
 10
13.8523183383
 20
9.0946430515
 11
13.8523183383
 21
9.9796430514
  0
LINE
  5
2EB
100
AcDbEntity
  8
0
100
AcDbLine
 62
9
  6
CONTINUOUS
 10
13.8823183383
 20
9.9796430515
 11
13.8823183383
 21
9.0946430515
  0
LINE
  5
2EC
100
AcDbEntity
  8
0
100
AcDbLine
 62
9
  6
CONTINUOUS
 10
13.8823183383
 20
8.5946430515
 11
13.8823183383
 21
7.7096430515
  0
LINE
  5
2ED
100
AcDbEntity
  8
0
100
AcDbLine
 62
9
  6
CONTINUOUS
 10
13.9123183383
 20
10.0396430515
 11
13.9123183383
 21
10.0096430515
  0
LINE
  5
2EE
100
AcDbEntity
  8
0
100
AcDbLine
 62
9
  6
CONTINUOUS
 10
13.9123183383
 20
7.6796430515
 11
13.9123183383
 21
7.6496430515
  0
LINE
  5
2EF
100
AcDbEntity
  8
0
100
AcDbLine
 62
7
  6
CONTINUOUS
 10
14.1748183383
 20
8.0321430515
 11
14.1748183383
 21
8.5946430515
  0
LINE
  5
2F0
100
AcDbEntity
  8
0
100
AcDbLine
 62
7
  6
CONTINUOUS
 10
14.1748183383
 20
9.0946430515
 11
14.1748183383
 21
9.6571430514
  0
LINE
  5
2F1
100
AcDbEntity
  8
0
100
AcDbLine
 62
9
  6
CONTINUOUS
 10
14.2048183383
 20
9.6571430515
 11
14.2048183383
 21
9.0946430515
  0
LINE
  5
2F2
100
AcDbEntity
  8
0
100
AcDbLine
 62
9
  6
CONTINUOUS
 10
14.2048183383
 20
8.5946430515
 11
14.2048183383
 21
8.0321430515
  0
LINE
  5
2F3
100
AcDbEntity
  8
0
100
AcDbLine
 62
9
  6
CONTINUOUS
 10
14.2348183383
 20
9.7171430515
 11
14.2348183383
 21
9.6871430515
  0
LINE
  5
2F4
100
AcDbEntity
  8
0
100
AcDbLine
 62
9
  6
CONTINUOUS
 10
14.2348183383
 20
8.0021430515
 11
14.2348183383
 21
7.9721430515
  0
LINE
  5
2F5
100
AcDbEntity
  8
0
100
AcDbLine
 62
9
  6
CONTINUOUS
 10
14.2747066582
 20
8.1606640692
 11
14.2747066582
 21
8.5946430515
  0
LINE
  5
2F6
100
AcDbEntity
  8
0
100
AcDbLine
 62
9
  6
CONTINUOUS
 10
14.2747066582
 20
9.0946430515
 11
14.2747066582
 21
9.5286220338
  0
LINE
  5
2F7
100
AcDbEntity
  8
0
100
AcDbLine
 62
9
  6
CONTINUOUS
 10
14.3042508908
 20
9.5286220338
 11
14.3042508908
 21
9.0946430515
  0
LINE
  5
2F8
100
AcDbEntity
  8
0
100
AcDbLine
 62
9
  6
CONTINUOUS
 10
14.3042508908
 20
8.5946430515
 11
14.3042508908
 21
8.1606640692
  0
LINE
  5
2F9
100
AcDbEntity
  8
0
100
AcDbLine
 62
9
  6
CONTINUOUS
 10
14.3633393512
 20
9.6172547315
 11
14.3633393512
 21
9.587710499
  0
LINE
  5
2FA
100
AcDbEntity
  8
0
100
AcDbLine
 62
9
  6
CONTINUOUS
 10
14.363339356
 20
8.101575604
 11
14.363339356
 21
8.0720313714
  0
LINE
  5
2FB
100
AcDbEntity
  8
0
100
AcDbLine
 62
7
  6
CONTINUOUS
 10
14.5083183383
 20
8.3656430515
 11
14.5083183383
 21
8.5946430515
  0
LINE
  5
2FC
100
AcDbEntity
  8
0
100
AcDbLine
 62
7
  6
CONTINUOUS
 10
14.5083183383
 20
9.0946430515
 11
14.5083183383
 21
9.3236430514
  0
LINE
  5
2FD
100
AcDbEntity
  8
0
100
AcDbLine
 62
7
  6
CONTINUOUS
 10
10.9340243027
 20
-3.5259250414
 11
10.9427954538
 21
-3.4972358988
  0
LINE
  5
2FE
100
AcDbEntity
  8
0
100
AcDbLine
 62
7
  6
CONTINUOUS
 10
11.1518412227
 20
-2.8134779982
 11
11.1606123739
 21
-2.7847888556
  0
LINE
  5
2FF
100
AcDbEntity
  8
0
100
AcDbLine
 62
9
  6
CONTINUOUS
 10
15.2973183383
 20
10.2521430515
 11
14.7973183383
 21
10.2521430515
  0
LINE
  5
300
100
AcDbEntity
  8
0
100
AcDbLine
 62
9
  6
CONTINUOUS
 10
7.2973183383
 20
10.2521430515
 11
6.7973183383
 21
10.2521430515
  0
LINE
  5
301
100
AcDbEntity
  8
0
100
AcDbLine
 62
7
  6
CONTINUOUS
 10
6.8273183383
 20
10.2821430515
 11
7.2673183383
 21
10.2821430515
  0
LINE
  5
302
100
AcDbEntity
  8
0
100
AcDbLine
 62
7
  6
CONTINUOUS
 10
14.8273183383
 20
10.2821430515
 11
15.2673183383
 21
10.2821430515
  0
LINE
  5
303
100
AcDbEntity
  8
0
100
AcDbLine
 62
9
  6
CONTINUOUS
 10
14.5383183383
 20
9.3236430515
 11
14.5383183383
 21
9.0946430515
  0
LINE
  5
304
100
AcDbEntity
  8
0
100
AcDbLine
 62
9
  6
CONTINUOUS
 10
14.5383183383
 20
8.5946430515
 11
14.5383183383
 21
8.3656430515
  0
LINE
  5
305
100
AcDbEntity
  8
0
100
AcDbLine
 62
9
  6
CONTINUOUS
 10
14.5683183383
 20
9.3836430515
 11
14.5683183383
 21
9.3536430515
  0
LINE
  5
306
100
AcDbEntity
  8
0
100
AcDbLine
 62
9
  6
CONTINUOUS
 10
14.5683183383
 20
8.3356430515
 11
14.5683183383
 21
8.3056430515
  0
LINE
  5
307
100
AcDbEntity
  8
0
100
AcDbLine
 62
9
  6
CONTINUOUS
 10
14.6438183383
 20
8.5946430515
 11
14.6438183383
 21
9.0946430515
  0
LINE
  5
308
100
AcDbEntity
  8
0
100
AcDbLine
 62
7
  6
CONTINUOUS
 10
14.7038183383
 20
8.5311430515
 11
14.7038183383
 21
9.1581430515
  0
LINE
  5
309
100
AcDbEntity
  8
0
100
AcDbLine
 62
9
  6
CONTINUOUS
 10
14.7338183383
 20
9.1881430515
 11
14.7338183383
 21
8.5011430515
  0
LINE
  5
30A
100
AcDbEntity
  8
0
100
AcDbLine
 62
7
  6
CONTINUOUS
 10
14.7973183383
 20
7.4371430515
 11
14.7973183383
 21
8.4411430515
  0
LINE
  5
30B
100
AcDbEntity
  8
0
100
AcDbLine
 62
7
  6
CONTINUOUS
 10
14.7973183383
 20
9.2481430515
 11
14.7973183383
 21
10.2521430515
  0
LINE
  5
30C
100
AcDbEntity
  8
0
100
AcDbLine
 62
9
  6
CONTINUOUS
 10
14.8273183383
 20
10.2821430515
 11
14.8273183383
 21
9.1881430515
  0
LINE
  5
30D
100
AcDbEntity
  8
0
100
AcDbLine
 62
9
  6
CONTINUOUS
 10
14.8273183383
 20
8.5011430515
 11
14.8273183383
 21
7.4071430515
  0
LINE
  5
30E
100
AcDbEntity
  8
0
100
AcDbLine
 62
9
  6
CONTINUOUS
 10
15.2673183383
 20
7.4071430515
 11
15.2673183383
 21
8.5011430515
  0
LINE
  5
30F
100
AcDbEntity
  8
0
100
AcDbLine
 62
9
  6
CONTINUOUS
 10
15.2673183383
 20
9.1881430515
 11
15.2673183383
 21
10.2821430515
  0
LINE
  5
310
100
AcDbEntity
  8
0
100
AcDbLine
 62
7
  6
CONTINUOUS
 10
15.2973183383
 20
10.2521430515
 11
15.2973183383
 21
9.2481430515
  0
LINE
  5
311
100
AcDbEntity
  8
0
100
AcDbLine
 62
7
  6
CONTINUOUS
 10
15.2973183383
 20
8.4411430515
 11
15.2973183383
 21
7.4371430515
  0
LINE
  5
312
100
AcDbEntity
  8
0
100
AcDbLine
 62
9
  6
CONTINUOUS
 10
15.3608183383
 20
8.5011430515
 11
15.3608183383
 21
9.1881430515
  0
LINE
  5
313
100
AcDbEntity
  8
0
100
AcDbLine
 62
9
  6
CONTINUOUS
 10
15.5271000289
 20
8.3057713729
 11
15.7312973205
 21
8.101575604
  0
LINE
  5
314
100
AcDbEntity
  8
0
100
AcDbLine
 62
9
  6
CONTINUOUS
 10
14.3042508908
 20
9.5286220338
 11
14.5084428396
 21
9.3244317455
  0
LINE
  5
315
100
AcDbEntity
  8
0
100
AcDbLine
 62
9
  6
CONTINUOUS
 10
14.5675348806
 20
9.38351444
 11
14.363339356
 21
9.587710499
  0
LINE
  5
316
100
AcDbEntity
  8
0
100
AcDbLine
 62
9
  6
CONTINUOUS
 10
15.7903857857
 20
8.1606640692
 11
15.5861942989
 21
8.3648572837
  0
LINE
  5
317
100
AcDbEntity
  8
0
100
AcDbLine
 62
7
  6
CONTINUOUS
 10
15.3908183383
 20
9.1581430515
 11
15.3908183383
 21
8.5311430515
  0
LINE
  5
318
100
AcDbEntity
  8
0
100
AcDbLine
 62
9
  6
CONTINUOUS
 10
15.4508183383
 20
9.0946430515
 11
15.4508183383
 21
8.5946430515
  0
LINE
  5
319
100
AcDbEntity
  8
0
100
AcDbLine
 62
9
  6
CONTINUOUS
 10
15.5263183383
 20
8.3056430515
 11
15.5263183383
 21
8.3356430515
  0
LINE
  5
31A
100
AcDbEntity
  8
0
100
AcDbLine
 62
9
  6
CONTINUOUS
 10
15.5263183383
 20
9.3536430515
 11
15.5263183383
 21
9.3836430515
  0
LINE
  5
31B
100
AcDbEntity
  8
0
100
AcDbLine
 62
9
  6
CONTINUOUS
 10
15.5563183383
 20
8.3656430515
 11
15.5563183383
 21
8.5946430515
  0
LINE
  5
31C
100
AcDbEntity
  8
0
100
AcDbLine
 62
9
  6
CONTINUOUS
 10
15.5563183383
 20
9.0946430515
 11
15.5563183383
 21
9.3236430515
  0
LINE
  5
31D
100
AcDbEntity
  8
0
100
AcDbLine
 62
7
  6
CONTINUOUS
 10
15.5863183383
 20
9.3236430515
 11
15.5863183383
 21
9.0946430515
  0
LINE
  5
31E
100
AcDbEntity
  8
0
100
AcDbLine
 62
7
  6
CONTINUOUS
 10
15.5863183383
 20
8.5946430515
 11
15.5863183383
 21
8.3656430515
  0
LINE
  5
31F
100
AcDbEntity
  8
0
100
AcDbLine
 62
9
  6
CONTINUOUS
 10
15.7312973253
 20
8.0720313714
 11
15.7312973253
 21
8.101575604
  0
LINE
  5
320
100
AcDbEntity
  8
0
100
AcDbLine
 62
9
  6
CONTINUOUS
 10
15.7312973206
 20
9.587710499
 11
15.7312973206
 21
9.6172547315
  0
LINE
  5
321
100
AcDbEntity
  8
0
100
AcDbLine
 62
9
  6
CONTINUOUS
 10
15.7903857857
 20
8.1606640692
 11
15.7903857857
 21
8.5946430515
  0
LINE
  5
322
100
AcDbEntity
  8
0
100
AcDbLine
 62
9
  6
CONTINUOUS
 10
15.7903857857
 20
9.0946430515
 11
15.7903857857
 21
9.5286220337
  0
LINE
  5
323
100
AcDbEntity
  8
0
100
AcDbLine
 62
9
  6
CONTINUOUS
 10
15.8199300183
 20
9.5286220338
 11
15.8199300183
 21
9.0946430515
  0
LINE
  5
324
100
AcDbEntity
  8
0
100
AcDbLine
 62
9
  6
CONTINUOUS
 10
15.8199300183
 20
8.5946430515
 11
15.8199300183
 21
8.1606640692
  0
LINE
  5
325
100
AcDbEntity
  8
0
100
AcDbLine
 62
9
  6
CONTINUOUS
 10
15.8598183383
 20
7.9721430515
 11
15.8598183383
 21
8.0021430515
  0
LINE
  5
326
100
AcDbEntity
  8
0
100
AcDbLine
 62
9
  6
CONTINUOUS
 10
15.8598183383
 20
9.6871430515
 11
15.8598183383
 21
9.7171430515
  0
LINE
  5
327
100
AcDbEntity
  8
0
100
AcDbLine
 62
9
  6
CONTINUOUS
 10
15.8898183383
 20
8.0321430515
 11
15.8898183383
 21
8.5946430515
  0
LINE
  5
328
100
AcDbEntity
  8
0
100
AcDbLine
 62
9
  6
CONTINUOUS
 10
15.8898183383
 20
9.0946430515
 11
15.8898183383
 21
9.6571430515
  0
LINE
  5
329
100
AcDbEntity
  8
0
100
AcDbLine
 62
7
  6
CONTINUOUS
 10
15.9198183383
 20
9.6571430515
 11
15.9198183383
 21
9.0946430515
  0
LINE
  5
32A
100
AcDbEntity
  8
0
100
AcDbLine
 62
7
  6
CONTINUOUS
 10
15.9198183383
 20
8.5946430515
 11
15.9198183383
 21
8.0321430515
  0
LINE
  5
32B
100
AcDbEntity
  8
0
100
AcDbLine
 62
9
  6
CONTINUOUS
 10
16.1823183383
 20
7.6496430515
 11
16.1823183383
 21
7.6796430515
  0
LINE
  5
32C
100
AcDbEntity
  8
0
100
AcDbLine
 62
9
  6
CONTINUOUS
 10
16.1823183383
 20
10.0096430515
 11
16.1823183383
 21
10.0396430515
  0
LINE
  5
32D
100
AcDbEntity
  8
0
100
AcDbLine
 62
9
  6
CONTINUOUS
 10
16.2123183383
 20
7.7096430515
 11
16.2123183383
 21
8.5946430515
  0
LINE
  5
32E
100
AcDbEntity
  8
0
100
AcDbLine
 62
9
  6
CONTINUOUS
 10
16.2123183383
 20
9.0946430515
 11
16.2123183383
 21
9.9796430515
  0
LINE
  5
32F
100
AcDbEntity
  8
0
100
AcDbLine
 62
7
  6
CONTINUOUS
 10
10.8653981077
 20
-3.4974991407
 11
10.8794822546
 21
-3.4710107129
  0
LINE
  5
330
100
AcDbEntity
  8
0
100
AcDbLine
 62
7
  6
CONTINUOUS
 10
11.215154422
 20
-2.8397031841
 11
11.2292385689
 21
-2.8132147563
  0
LINE
  5
331
100
AcDbEntity
  8
0
100
AcDbLine
 62
7
  6
CONTINUOUS
 10
16.2423183383
 20
9.9796430515
 11
16.2423183383
 21
9.0946430515
  0
LINE
  5
332
100
AcDbEntity
  8
0
100
AcDbLine
 62
7
  6
CONTINUOUS
 10
16.2423183383
 20
8.5946430515
 11
16.2423183383
 21
7.7096430516
  0
LINE
  5
333
100
AcDbEntity
  8
0
100
AcDbLine
 62
9
  6
CONTINUOUS
 10
16.4548183383
 20
8.5946430515
 11
16.4548183383
 21
9.0946430515
  0
LINE
  5
334
100
AcDbEntity
  8
0
100
AcDbLine
 62
7
  6
CONTINUOUS
 10
16.4848183383
 20
9.0646430515
 11
16.4848183383
 21
8.6246430515
  0
LINE
  5
335
100
AcDbEntity
  8
0
100
AcDbLine
 62
7
  6
CONTINUOUS
 10
10.7051761461
 20
-3.3372771791
 11
10.7316645738
 21
-3.3231930322
  0
LINE
  5
336
100
AcDbEntity
  8
0
100
AcDbLine
 62
7
  6
CONTINUOUS
 10
11.3629721027
 20
-2.9875208648
 11
11.3894605305
 21
-2.9734367179
  0
LINE
  5
337
100
AcDbEntity
  8
0
100
AcDbLine
 62
7
  6
CONTINUOUS
 10
10.6767502453
 20
-3.2686509841
 11
10.705439388
 21
-3.2598798329
  0
LINE
  5
338
100
AcDbEntity
  8
0
100
AcDbLine
 62
7
  6
CONTINUOUS
 10
11.3891972885
 20
-3.0508340641
 11
11.4178864312
 21
-3.0420629129
  0
ARC
  5
339
100
AcDbEntity
  8
0
100
AcDbCircle
 62
7
  6
CONTINUOUS
 10
8.1823183383
 20
7.7096430515
 40
0.06
100
AcDbArc
 50
269.9999998864
 51
360.0
  0
ARC
  5
33A
100
AcDbEntity
  8
0
100
AcDbCircle
 62
7
  6
CONTINUOUS
 10
5.9123183383
 20
7.7096430515
 40
0.06
100
AcDbArc
 50
179.9999998864
 51
270.0
  0
ARC
  5
33B
100
AcDbEntity
  8
0
100
AcDbCircle
 62
7
  6
CONTINUOUS
 10
10.7123183383
 20
1.1796430515
 40
0.04
100
AcDbArc
 50
90.0
 51
180.0
  0
ARC
  5
33C
100
AcDbEntity
  8
0
100
AcDbCircle
 62
7
  6
CONTINUOUS
 10
10.7123183383
 20
0.5096430515
 40
0.04
100
AcDbArc
 50
180.0
 51
270.0
  0
ARC
  5
33D
100
AcDbEntity
  8
0
100
AcDbCircle
 62
7
  6
CONTINUOUS
 10
7.2673183383
 20
7.4371430515
 40
0.03
100
AcDbArc
 50
270.0
 51
360.0
  0
ARC
  5
33E
100
AcDbEntity
  8
0
100
AcDbCircle
 62
7
  6
CONTINUOUS
 10
6.8273183383
 20
7.4371430515
 40
0.03
100
AcDbArc
 50
180.0
 51
270.0
  0
ARC
  5
33F
100
AcDbEntity
  8
0
100
AcDbCircle
 62
9
  6
CONTINUOUS
 10
8.1823183383
 20
7.7096430515
 40
0.03
100
AcDbArc
 50
270.0
 51
360.0
  0
ARC
  5
340
100
AcDbEntity
  8
0
100
AcDbCircle
 62
9
  6
CONTINUOUS
 10
5.9123183383
 20
7.7096430515
 40
0.03
100
AcDbArc
 50
180.0
 51
270.0
  0
ARC
  5
341
100
AcDbEntity
  8
0
100
AcDbCircle
 62
7
  6
CONTINUOUS
 10
6.7373183383
 20
8.4411430515
 40
0.06
100
AcDbArc
 50
0.0
 51
90.0
  0
ARC
  5
342
100
AcDbEntity
  8
0
100
AcDbCircle
 62
7
  6
CONTINUOUS
 10
6.5683183383
 20
8.3656430515
 40
0.06
100
AcDbArc
 50
179.9999999765
 51
270.0
  0
ARC
  5
343
100
AcDbEntity
  8
0
100
AcDbCircle
 62
7
  6
CONTINUOUS
 10
6.2348183383
 20
8.0321430515
 40
0.06
100
AcDbArc
 50
179.9999999799
 51
270.0
  0
ARC
  5
344
100
AcDbEntity
  8
0
100
AcDbCircle
 62
7
  6
CONTINUOUS
 10
6.6438183383
 20
8.5346430515
 40
0.06
100
AcDbArc
 50
0.0000000107
 51
90.0
  0
ARC
  5
345
100
AcDbEntity
  8
0
100
AcDbCircle
 62
7
  6
CONTINUOUS
 10
6.7338183383
 20
8.5311430515
 40
0.03
100
AcDbArc
 50
180.0
 51
270.0
  0
ARC
  5
346
100
AcDbEntity
  8
0
100
AcDbCircle
 62
7
  6
CONTINUOUS
 10
5.6398183383
 20
9.0646430515
 40
0.03
100
AcDbArc
 50
90.0
 51
180.0
  0
ARC
  5
347
100
AcDbEntity
  8
0
100
AcDbCircle
 62
7
  6
CONTINUOUS
 10
5.6398183383
 20
8.6246430515
 40
0.03
100
AcDbArc
 50
180.0
 51
270.0
  0
ARC
  5
348
100
AcDbEntity
  8
0
100
AcDbCircle
 62
9
  6
CONTINUOUS
 10
6.2348183383
 20
8.0321430515
 40
0.03
100
AcDbArc
 50
180.0
 51
270.0
  0
ARC
  5
349
100
AcDbEntity
  8
0
100
AcDbCircle
 62
9
  6
CONTINUOUS
 10
6.5683183383
 20
8.3656430515
 40
0.03
100
AcDbArc
 50
180.0
 51
270.0
  0
ARC
  5
34A
100
AcDbEntity
  8
0
100
AcDbCircle
 62
7
  6
CONTINUOUS
 10
6.5683183383
 20
9.3236430515
 40
0.06
100
AcDbArc
 50
89.99999998
 51
180.0
  0
ARC
  5
34B
100
AcDbEntity
  8
0
100
AcDbCircle
 62
7
  6
CONTINUOUS
 10
6.2348183383
 20
9.6571430515
 40
0.06
100
AcDbArc
 50
89.9999999799
 51
180.0
  0
ARC
  5
34C
100
AcDbEntity
  8
0
100
AcDbCircle
 62
7
  6
CONTINUOUS
 10
5.9123183383
 20
9.9796430515
 40
0.06
100
AcDbArc
 50
89.9999998864
 51
180.0
  0
ARC
  5
34D
100
AcDbEntity
  8
0
100
AcDbCircle
 62
7
  6
CONTINUOUS
 10
6.6438183383
 20
9.1546430515
 40
0.06
100
AcDbArc
 50
270.0
 51
359.9999999893
  0
ARC
  5
34E
100
AcDbEntity
  8
0
100
AcDbCircle
 62
7
  6
CONTINUOUS
 10
6.7373183383
 20
9.2481430515
 40
0.06
100
AcDbArc
 50
270.0
 51
360.0
  0
ARC
  5
34F
100
AcDbEntity
  8
0
100
AcDbCircle
 62
7
  6
CONTINUOUS
 10
6.7338183383
 20
9.1581430515
 40
0.03
100
AcDbArc
 50
90.0
 51
180.0
  0
ARC
  5
350
100
AcDbEntity
  8
0
100
AcDbCircle
 62
9
  6
CONTINUOUS
 10
5.9123183383
 20
9.9796430515
 40
0.03
100
AcDbArc
 50
90.0
 51
180.0
  0
ARC
  5
351
100
AcDbEntity
  8
0
100
AcDbCircle
 62
9
  6
CONTINUOUS
 10
6.5683183383
 20
9.3236430515
 40
0.03
100
AcDbArc
 50
90.0
 51
180.0
  0
ARC
  5
352
100
AcDbEntity
  8
0
100
AcDbCircle
 62
9
  6
CONTINUOUS
 10
6.2348183383
 20
9.6571430515
 40
0.03
100
AcDbArc
 50
90.0
 51
180.0
  0
ARC
  5
353
100
AcDbEntity
  8
0
100
AcDbCircle
 62
7
  6
CONTINUOUS
 10
7.3573183383
 20
8.4411430515
 40
0.06
100
AcDbArc
 50
90.0
 51
180.0
  0
ARC
  5
354
100
AcDbEntity
  8
0
100
AcDbCircle
 62
7
  6
CONTINUOUS
 10
7.5263183383
 20
8.3656430515
 40
0.06
100
AcDbArc
 50
269.9999999772
 51
360.0
  0
ARC
  5
355
100
AcDbEntity
  8
0
100
AcDbCircle
 62
7
  6
CONTINUOUS
 10
7.8598183383
 20
8.0321430515
 40
0.06
100
AcDbArc
 50
269.9999999799
 51
360.0
  0
ARC
  5
356
100
AcDbEntity
  8
0
100
AcDbCircle
 62
7
  6
CONTINUOUS
 10
7.4508183383
 20
8.5346430515
 40
0.06
100
AcDbArc
 50
90.0
 51
179.9999999892
  0
ARC
  5
357
100
AcDbEntity
  8
0
100
AcDbCircle
 62
7
  6
CONTINUOUS
 10
7.3608183383
 20
8.5311430515
 40
0.03
100
AcDbArc
 50
270.0
 51
360.0
  0
ARC
  5
358
100
AcDbEntity
  8
0
100
AcDbCircle
 62
9
  6
CONTINUOUS
 10
7.5263183383
 20
8.3656430515
 40
0.03
100
AcDbArc
 50
270.0
 51
360.0
  0
ARC
  5
359
100
AcDbEntity
  8
0
100
AcDbCircle
 62
9
  6
CONTINUOUS
 10
7.8598183383
 20
8.0321430515
 40
0.03
100
AcDbArc
 50
270.0
 51
360.0
  0
ARC
  5
35A
100
AcDbEntity
  8
0
100
AcDbCircle
 62
7
  6
CONTINUOUS
 10
7.5263183383
 20
9.3236430515
 40
0.06
100
AcDbArc
 50
0.0
 51
90.0
  0
ARC
  5
35B
100
AcDbEntity
  8
0
100
AcDbCircle
 62
7
  6
CONTINUOUS
 10
7.8598183383
 20
9.6571430515
 40
0.06
100
AcDbArc
 50
0.0
 51
90.0
  0
ARC
  5
35C
100
AcDbEntity
  8
0
100
AcDbCircle
 62
7
  6
CONTINUOUS
 10
7.3573183383
 20
9.2481430515
 40
0.06
100
AcDbArc
 50
180.0
 51
270.0
  0
ARC
  5
35D
100
AcDbEntity
  8
0
100
AcDbCircle
 62
7
  6
CONTINUOUS
 10
7.4508183383
 20
9.1546430515
 40
0.06
100
AcDbArc
 50
180.0000000108
 51
270.0
  0
ARC
  5
35E
100
AcDbEntity
  8
0
100
AcDbCircle
 62
7
  6
CONTINUOUS
 10
7.3608183383
 20
9.1581430515
 40
0.03
100
AcDbArc
 50
0.0
 51
90.0
  0
ARC
  5
35F
100
AcDbEntity
  8
0
100
AcDbCircle
 62
7
  6
CONTINUOUS
 10
6.8273183383
 20
10.2521430515
 40
0.03
100
AcDbArc
 50
90.0
 51
180.0
  0
ARC
  5
360
100
AcDbEntity
  8
0
100
AcDbCircle
 62
7
  6
CONTINUOUS
 10
7.2673183383
 20
10.2521430515
 40
0.03
100
AcDbArc
 50
0.0
 51
90.0
  0
ARC
  5
361
100
AcDbEntity
  8
0
100
AcDbCircle
 62
9
  6
CONTINUOUS
 10
7.5263183383
 20
9.3236430515
 40
0.03
100
AcDbArc
 50
0.0
 51
90.0
  0
ARC
  5
362
100
AcDbEntity
  8
0
100
AcDbCircle
 62
9
  6
CONTINUOUS
 10
7.8598183383
 20
9.6571430515
 40
0.03
100
AcDbArc
 50
0.0
 51
90.0
  0
ARC
  5
363
100
AcDbEntity
  8
0
100
AcDbCircle
 62
7
  6
CONTINUOUS
 10
8.1823183383
 20
9.9796430515
 40
0.06
100
AcDbArc
 50
359.9999998864
 51
90.0
  0
ARC
  5
364
100
AcDbEntity
  8
0
100
AcDbCircle
 62
7
  6
CONTINUOUS
 10
8.4548183383
 20
8.6246430515
 40
0.03
100
AcDbArc
 50
270.0
 51
360.0
  0
ARC
  5
365
100
AcDbEntity
  8
0
100
AcDbCircle
 62
7
  6
CONTINUOUS
 10
8.4548183383
 20
9.0646430515
 40
0.03
100
AcDbArc
 50
0.0
 51
90.0
  0
ARC
  5
366
100
AcDbEntity
  8
0
100
AcDbCircle
 62
9
  6
CONTINUOUS
 10
8.1823183383
 20
9.9796430515
 40
0.03
100
AcDbArc
 50
0.0
 51
90.0
  0
ARC
  5
367
100
AcDbEntity
  8
0
100
AcDbCircle
 62
7
  6
CONTINUOUS
 10
10.1987902009
 20
18.6931711889
 40
0.21
100
AcDbArc
 50
264.870833936
 51
5.129166064
  0
ARC
  5
368
100
AcDbEntity
  8
0
100
AcDbCircle
 62
7
  6
CONTINUOUS
 10
9.8473183383
 20
17.8446430515
 40
0.21
100
AcDbArc
 50
309.8708339359
 51
50.1291660641
  0
ARC
  5
369
100
AcDbEntity
  8
0
100
AcDbCircle
 62
7
  6
CONTINUOUS
 10
10.1987902009
 20
16.9961149141
 40
0.21
100
AcDbArc
 50
354.870833936
 51
95.129166064
  0
CIRCLE
  5
36A
100
AcDbEntity
  8
0
100
AcDbCircle
 62
7
  6
CONTINUOUS
 10
11.0473183383
 20
-3.1553569485
 40
0.79
  0
CIRCLE
  5
36B
100
AcDbEntity
  8
0
100
AcDbCircle
 62
7
  6
CONTINUOUS
 10
11.0473183383
 20
-3.1553569485
 40
0.495
  0
CIRCLE
  5
36C
100
AcDbEntity
  8
0
100
AcDbCircle
 62
9
  6
CONTINUOUS
 10
11.0473183383
 20
-3.1553569485
 40
0.49
  0
CIRCLE
  5
36D
100
AcDbEntity
  8
0
100
AcDbCircle
 62
7
  6
CONTINUOUS
 10
11.0473183383
 20
-3.1553569485
 40
0.47
  0
CIRCLE
  5
36E
100
AcDbEntity
  8
0
100
AcDbCircle
 62
7
  6
CONTINUOUS
 10
11.0473183383
 20
-3.1553569485
 40
0.4625
  0
CIRCLE
  5
36F
100
AcDbEntity
  8
0
100
AcDbCircle
 62
9
  6
CONTINUOUS
 10
11.0473183383
 20
-3.1553569485
 40
0.4272880871
  0
CIRCLE
  5
370
100
AcDbEntity
  8
0
100
AcDbCircle
 62
9
  6
CONTINUOUS
 10
11.0473183383
 20
-3.1553569485
 40
0.4181683858
  0
CIRCLE
  5
371
100
AcDbEntity
  8
0
100
AcDbCircle
 62
7
  6
CONTINUOUS
 10
11.0473183383
 20
-3.1553569485
 40
0.396
  0
CIRCLE
  5
372
100
AcDbEntity
  8
0
100
AcDbCircle
 62
7
  6
CONTINUOUS
 10
11.0473183383
 20
-3.1553569485
 40
0.395
  0
CIRCLE
  5
373
100
AcDbEntity
  8
0
100
AcDbCircle
 62
7
  6
CONTINUOUS
 10
11.0473183383
 20
-3.1553569485
 40
0.3875
  0
ARC
  5
374
100
AcDbEntity
  8
0
100
AcDbCircle
 62
7
  6
CONTINUOUS
 10
11.0473183383
 20
-3.1553569485
 40
0.375
100
AcDbArc
 50
332.0
 51
343.0
  0
ARC
  5
375
100
AcDbEntity
  8
0
100
AcDbCircle
 62
7
  6
CONTINUOUS
 10
11.0473183383
 20
-3.1553569485
 40
0.375
100
AcDbArc
 50
287.0
 51
298.0
  0
ARC
  5
376
100
AcDbEntity
  8
0
100
AcDbCircle
 62
7
  6
CONTINUOUS
 10
11.0473183383
 20
-3.1553569485
 40
0.375
100
AcDbArc
 50
242.0
 51
253.0
  0
ARC
  5
377
100
AcDbEntity
  8
0
100
AcDbCircle
 62
7
  6
CONTINUOUS
 10
11.0473183383
 20
-3.1553569485
 40
0.375
100
AcDbArc
 50
197.0
 51
208.0
  0
ARC
  5
378
100
AcDbEntity
  8
0
100
AcDbCircle
 62
7
  6
CONTINUOUS
 10
11.0473183383
 20
-3.1553569485
 40
0.375
100
AcDbArc
 50
152.0
 51
163.0
  0
ARC
  5
379
100
AcDbEntity
  8
0
100
AcDbCircle
 62
7
  6
CONTINUOUS
 10
11.0473183383
 20
-3.1553569485
 40
0.375
100
AcDbArc
 50
17.0
 51
28.0
  0
ARC
  5
37A
100
AcDbEntity
  8
0
100
AcDbCircle
 62
7
  6
CONTINUOUS
 10
11.0473183383
 20
-3.1553569485
 40
0.375
100
AcDbArc
 50
107.0
 51
118.0
  0
ARC
  5
37B
100
AcDbEntity
  8
0
100
AcDbCircle
 62
7
  6
CONTINUOUS
 10
11.0473183383
 20
-3.1553569485
 40
0.375
100
AcDbArc
 50
62.0
 51
73.0
  0
ARC
  5
37C
100
AcDbEntity
  8
0
100
AcDbCircle
 62
7
  6
CONTINUOUS
 10
11.0473183383
 20
-3.1553569485
 40
0.3575
100
AcDbArc
 50
343.0
 51
17.0
  0
ARC
  5
37D
100
AcDbEntity
  8
0
100
AcDbCircle
 62
7
  6
CONTINUOUS
 10
11.0473183383
 20
-3.1553569485
 40
0.3575
100
AcDbArc
 50
298.0
 51
332.0
  0
ARC
  5
37E
100
AcDbEntity
  8
0
100
AcDbCircle
 62
7
  6
CONTINUOUS
 10
11.0473183383
 20
-3.1553569485
 40
0.3575
100
AcDbArc
 50
253.0
 51
287.0
  0
ARC
  5
37F
100
AcDbEntity
  8
0
100
AcDbCircle
 62
7
  6
CONTINUOUS
 10
11.0473183383
 20
-3.1553569485
 40
0.3575
100
AcDbArc
 50
208.0
 51
242.0
  0
ARC
  5
380
100
AcDbEntity
  8
0
100
AcDbCircle
 62
7
  6
CONTINUOUS
 10
11.0473183383
 20
-3.1553569485
 40
0.3575
100
AcDbArc
 50
163.0
 51
197.0
  0
ARC
  5
381
100
AcDbEntity
  8
0
100
AcDbCircle
 62
7
  6
CONTINUOUS
 10
11.0473183383
 20
-3.1553569485
 40
0.3575
100
AcDbArc
 50
118.0
 51
152.0
  0
ARC
  5
382
100
AcDbEntity
  8
0
100
AcDbCircle
 62
7
  6
CONTINUOUS
 10
11.0473183383
 20
-3.1553569485
 40
0.3575
100
AcDbArc
 50
73.0
 51
107.0
  0
ARC
  5
383
100
AcDbEntity
  8
0
100
AcDbCircle
 62
7
  6
CONTINUOUS
 10
11.0473183383
 20
-3.1553569485
 40
0.3575
100
AcDbArc
 50
28.0
 51
62.0
  0
CIRCLE
  5
384
100
AcDbEntity
  8
0
100
AcDbCircle
 62
7
  6
CONTINUOUS
 10
11.0473183383
 20
-3.1553569485
 40
0.3125
  0
CIRCLE
  5
385
100
AcDbEntity
  8
0
100
AcDbCircle
 62
7
  6
CONTINUOUS
 10
11.0473183383
 20
0.8446430515
 40
0.656
  0
ARC
  5
386
100
AcDbEntity
  8
0
100
AcDbCircle
 62
9
  6
CONTINUOUS
 10
11.0473183383
 20
0.8446430515
 40
0.4795772124
100
AcDbArc
 50
231.4420214986
 51
308.560957174
  0
ARC
  5
387
100
AcDbEntity
  8
0
100
AcDbCircle
 62
9
  6
CONTINUOUS
 10
11.0473183383
 20
0.8446430515
 40
0.4795772124
100
AcDbArc
 50
141.6422789709
 51
218.3597877088
  0
ARC
  5
388
100
AcDbEntity
  8
0
100
AcDbCircle
 62
9
  6
CONTINUOUS
 10
11.0473183383
 20
0.8446430515
 40
0.4795772124
100
AcDbArc
 50
51.4420214986
 51
128.560957174
  0
ARC
  5
389
100
AcDbEntity
  8
0
100
AcDbCircle
 62
9
  6
CONTINUOUS
 10
11.0473183383
 20
0.8446430515
 40
0.4795772124
100
AcDbArc
 50
321.6422789709
 51
38.3597877088
  0
ARC
  5
38A
100
AcDbEntity
  8
0
100
AcDbCircle
 62
7
  6
CONTINUOUS
 10
11.0473183383
 20
0.8446430515
 40
0.46875
100
AcDbArc
 50
53.2752004182
 51
126.7286595144
  0
ARC
  5
38B
100
AcDbEntity
  8
0
100
AcDbCircle
 62
7
  6
CONTINUOUS
 10
11.0473183383
 20
0.8446430515
 40
0.46875
100
AcDbArc
 50
143.3014831244
 51
216.6938554392
  0
ARC
  5
38C
100
AcDbEntity
  8
0
100
AcDbCircle
 62
7
  6
CONTINUOUS
 10
11.0473183383
 20
0.8446430515
 40
0.46875
100
AcDbArc
 50
233.2752004182
 51
306.7286595144
  0
ARC
  5
38D
100
AcDbEntity
  8
0
100
AcDbCircle
 62
7
  6
CONTINUOUS
 10
11.0473183383
 20
0.8446430515
 40
0.46875
100
AcDbArc
 50
323.3014831244
 51
36.6938554392
  0
ARC
  5
38E
100
AcDbEntity
  8
0
100
AcDbCircle
 62
7
  6
CONTINUOUS
 10
11.3823183383
 20
0.5096430515
 40
0.04
100
AcDbArc
 50
270.0
 51
360.0
  0
ARC
  5
38F
100
AcDbEntity
  8
0
100
AcDbCircle
 62
7
  6
CONTINUOUS
 10
11.3823183383
 20
1.1796430515
 40
0.04
100
AcDbArc
 50
0.0
 51
90.0
  0
ARC
  5
390
100
AcDbEntity
  8
0
100
AcDbCircle
 62
7
  6
CONTINUOUS
 10
13.9123183383
 20
7.7096430515
 40
0.06
100
AcDbArc
 50
179.9999998864
 51
270.0
  0
ARC
  5
391
100
AcDbEntity
  8
0
100
AcDbCircle
 62
7
  6
CONTINUOUS
 10
16.1823183383
 20
7.7096430515
 40
0.06
100
AcDbArc
 50
269.9999998864
 51
360.0
  0
ARC
  5
392
100
AcDbEntity
  8
0
100
AcDbCircle
 62
7
  6
CONTINUOUS
 10
15.2673183383
 20
7.4371430515
 40
0.03
100
AcDbArc
 50
270.0
 51
360.0
  0
ARC
  5
393
100
AcDbEntity
  8
0
100
AcDbCircle
 62
7
  6
CONTINUOUS
 10
14.8273183383
 20
7.4371430515
 40
0.03
100
AcDbArc
 50
180.0
 51
270.0
  0
ARC
  5
394
100
AcDbEntity
  8
0
100
AcDbCircle
 62
9
  6
CONTINUOUS
 10
16.1823183383
 20
7.7096430515
 40
0.03
100
AcDbArc
 50
270.0
 51
360.0
  0
ARC
  5
395
100
AcDbEntity
  8
0
100
AcDbCircle
 62
9
  6
CONTINUOUS
 10
13.9123183383
 20
7.7096430515
 40
0.03
100
AcDbArc
 50
180.0
 51
270.0
  0
ARC
  5
396
100
AcDbEntity
  8
0
100
AcDbCircle
 62
7
  6
CONTINUOUS
 10
13.6398183383
 20
9.0646430515
 40
0.03
100
AcDbArc
 50
90.0
 51
180.0
  0
ARC
  5
397
100
AcDbEntity
  8
0
100
AcDbCircle
 62
7
  6
CONTINUOUS
 10
13.6398183383
 20
8.6246430515
 40
0.03
100
AcDbArc
 50
180.0
 51
270.0
  0
ARC
  5
398
100
AcDbEntity
  8
0
100
AcDbCircle
 62
7
  6
CONTINUOUS
 10
11.0473183383
 20
17.8446430515
 40
1.0775
100
AcDbArc
 50
8.6026297634
 51
36.3973702366
  0
ARC
  5
399
100
AcDbEntity
  8
0
100
AcDbCircle
 62
7
  6
CONTINUOUS
 10
11.0473183383
 20
17.8446430515
 40
1.0775
100
AcDbArc
 50
53.6026297634
 51
81.3973702366
  0
ARC
  5
39A
100
AcDbEntity
  8
0
100
AcDbCircle
 62
7
  6
CONTINUOUS
 10
11.0473183383
 20
17.8446430515
 40
1.0775
100
AcDbArc
 50
98.6026297634
 51
126.3973702366
  0
ARC
  5
39B
100
AcDbEntity
  8
0
100
AcDbCircle
 62
7
  6
CONTINUOUS
 10
11.0473183383
 20
17.8446430515
 40
1.0775
100
AcDbArc
 50
143.6026297634
 51
171.3973702366
  0
ARC
  5
39C
100
AcDbEntity
  8
0
100
AcDbCircle
 62
7
  6
CONTINUOUS
 10
11.0473183383
 20
17.8446430515
 40
1.0775
100
AcDbArc
 50
323.6026297634
 51
351.3973702366
  0
ARC
  5
39D
100
AcDbEntity
  8
0
100
AcDbCircle
 62
7
  6
CONTINUOUS
 10
11.0473183383
 20
17.8446430515
 40
1.0775
100
AcDbArc
 50
188.6026297634
 51
216.3973702366
  0
ARC
  5
39E
100
AcDbEntity
  8
0
100
AcDbCircle
 62
7
  6
CONTINUOUS
 10
11.0473183383
 20
17.8446430515
 40
1.0775
100
AcDbArc
 50
233.6026297634
 51
261.3973702366
  0
ARC
  5
39F
100
AcDbEntity
  8
0
100
AcDbCircle
 62
7
  6
CONTINUOUS
 10
11.0473183383
 20
17.8446430515
 40
1.0775
100
AcDbArc
 50
278.6026297634
 51
306.3973702366
  0
ARC
  5
3A0
100
AcDbEntity
  8
0
100
AcDbCircle
 62
7
  6
CONTINUOUS
 10
11.0473183383
 20
17.8446430515
 40
1.0125
100
AcDbArc
 50
130.3968048169
 51
139.6118325202
  0
ARC
  5
3A1
100
AcDbEntity
  8
0
100
AcDbCircle
 62
7
  6
CONTINUOUS
 10
11.0473183383
 20
17.8446430515
 40
1.0125
100
AcDbArc
 50
85.1119403241
 51
94.8590386991
  0
ARC
  5
3A2
100
AcDbEntity
  8
0
100
AcDbCircle
 62
7
  6
CONTINUOUS
 10
11.0473183383
 20
17.8446430515
 40
1.0125
100
AcDbArc
 50
40.4266854859
 51
49.6359641858
  0
ARC
  5
3A3
100
AcDbEntity
  8
0
100
AcDbCircle
 62
7
  6
CONTINUOUS
 10
11.0473183383
 20
17.8446430515
 40
1.0125
100
AcDbArc
 50
355.4726499647
 51
4.4879532765
  0
ARC
  5
3A4
100
AcDbEntity
  8
0
100
AcDbCircle
 62
7
  6
CONTINUOUS
 10
11.0473183383
 20
17.8446430515
 40
1.0125
100
AcDbArc
 50
310.3968048169
 51
319.6118325202
  0
ARC
  5
3A5
100
AcDbEntity
  8
0
100
AcDbCircle
 62
7
  6
CONTINUOUS
 10
11.0473183383
 20
17.8446430515
 40
1.0125
100
AcDbArc
 50
265.1119403241
 51
274.8590386991
  0
ARC
  5
3A6
100
AcDbEntity
  8
0
100
AcDbCircle
 62
7
  6
CONTINUOUS
 10
11.0473183383
 20
17.8446430515
 40
1.0125
100
AcDbArc
 50
220.4266854859
 51
229.6359641858
  0
ARC
  5
3A7
100
AcDbEntity
  8
0
100
AcDbCircle
 62
7
  6
CONTINUOUS
 10
11.0473183383
 20
17.8446430515
 40
1.0125
100
AcDbArc
 50
175.4726499647
 51
184.4879532765
  0
CIRCLE
  5
3A8
100
AcDbEntity
  8
0
100
AcDbCircle
 62
7
  6
CONTINUOUS
 10
11.0473183383
 20
17.8446430515
 40
0.935
  0
CIRCLE
  5
3A9
100
AcDbEntity
  8
0
100
AcDbCircle
 62
9
  6
CONTINUOUS
 10
11.0473183383
 20
17.8446430515
 40
0.909136433
  0
ARC
  5
3AA
100
AcDbEntity
  8
0
100
AcDbCircle
 62
7
  6
CONTINUOUS
 10
11.8958464757
 20
18.6931711889
 40
0.21
100
AcDbArc
 50
174.870833936
 51
275.129166064
  0
ARC
  5
3AB
100
AcDbEntity
  8
0
100
AcDbCircle
 62
7
  6
CONTINUOUS
 10
11.0473183383
 20
19.0446430515
 40
0.21
100
AcDbArc
 50
219.8708339359
 51
320.1291660641
  0
ARC
  5
3AC
100
AcDbEntity
  8
0
100
AcDbCircle
 62
7
  6
CONTINUOUS
 10
12.2473183383
 20
17.8446430515
 40
0.21
100
AcDbArc
 50
129.8708339359
 51
230.1291660641
  0
ARC
  5
3AD
100
AcDbEntity
  8
0
100
AcDbCircle
 62
7
  6
CONTINUOUS
 10
11.0473183383
 20
16.6446430515
 40
0.21
100
AcDbArc
 50
39.8708339359
 51
140.1291660641
  0
ARC
  5
3AE
100
AcDbEntity
  8
0
100
AcDbCircle
 62
7
  6
CONTINUOUS
 10
11.8958464757
 20
16.9961149141
 40
0.21
100
AcDbArc
 50
84.870833936
 51
185.129166064
  0
ARC
  5
3AF
100
AcDbEntity
  8
0
100
AcDbCircle
 62
7
  6
CONTINUOUS
 10
14.5683183383
 20
8.3656430515
 40
0.06
100
AcDbArc
 50
179.9999999775
 51
270.0
  0
ARC
  5
3B0
100
AcDbEntity
  8
0
100
AcDbCircle
 62
7
  6
CONTINUOUS
 10
14.2348183383
 20
8.0321430515
 40
0.06
100
AcDbArc
 50
179.9999999799
 51
270.0
  0
ARC
  5
3B1
100
AcDbEntity
  8
0
100
AcDbCircle
 62
7
  6
CONTINUOUS
 10
14.7373183383
 20
8.4411430515
 40
0.06
100
AcDbArc
 50
0.0
 51
90.0
  0
ARC
  5
3B2
100
AcDbEntity
  8
0
100
AcDbCircle
 62
7
  6
CONTINUOUS
 10
14.6438183383
 20
8.5346430515
 40
0.06
100
AcDbArc
 50
0.0000000108
 51
90.0
  0
ARC
  5
3B3
100
AcDbEntity
  8
0
100
AcDbCircle
 62
7
  6
CONTINUOUS
 10
14.7338183383
 20
8.5311430515
 40
0.03
100
AcDbArc
 50
180.0
 51
270.0
  0
ARC
  5
3B4
100
AcDbEntity
  8
0
100
AcDbCircle
 62
9
  6
CONTINUOUS
 10
14.5683183383
 20
8.3656430515
 40
0.03
100
AcDbArc
 50
180.0
 51
270.0
  0
ARC
  5
3B5
100
AcDbEntity
  8
0
100
AcDbCircle
 62
9
  6
CONTINUOUS
 10
14.2348183383
 20
8.0321430515
 40
0.03
100
AcDbArc
 50
180.0
 51
270.0
  0
ARC
  5
3B6
100
AcDbEntity
  8
0
100
AcDbCircle
 62
7
  6
CONTINUOUS
 10
14.7373183383
 20
9.2481430515
 40
0.06
100
AcDbArc
 50
270.0
 51
360.0
  0
ARC
  5
3B7
100
AcDbEntity
  8
0
100
AcDbCircle
 62
7
  6
CONTINUOUS
 10
14.5683183383
 20
9.3236430515
 40
0.06
100
AcDbArc
 50
89.9999999772
 51
180.0
  0
ARC
  5
3B8
100
AcDbEntity
  8
0
100
AcDbCircle
 62
7
  6
CONTINUOUS
 10
14.2348183383
 20
9.6571430515
 40
0.06
100
AcDbArc
 50
89.9999999799
 51
180.0
  0
ARC
  5
3B9
100
AcDbEntity
  8
0
100
AcDbCircle
 62
7
  6
CONTINUOUS
 10
13.9123183383
 20
9.9796430515
 40
0.06
100
AcDbArc
 50
89.9999998864
 51
180.0
  0
ARC
  5
3BA
100
AcDbEntity
  8
0
100
AcDbCircle
 62
7
  6
CONTINUOUS
 10
14.6438183383
 20
9.1546430515
 40
0.06
100
AcDbArc
 50
270.0
 51
359.9999999892
  0
ARC
  5
3BB
100
AcDbEntity
  8
0
100
AcDbCircle
 62
7
  6
CONTINUOUS
 10
14.7338183383
 20
9.1581430515
 40
0.03
100
AcDbArc
 50
90.0
 51
180.0
  0
ARC
  5
3BC
100
AcDbEntity
  8
0
100
AcDbCircle
 62
7
  6
CONTINUOUS
 10
14.8273183383
 20
10.2521430515
 40
0.03
100
AcDbArc
 50
90.0
 51
180.0
  0
ARC
  5
3BD
100
AcDbEntity
  8
0
100
AcDbCircle
 62
9
  6
CONTINUOUS
 10
13.9123183383
 20
9.9796430515
 40
0.03
100
AcDbArc
 50
90.0
 51
180.0
  0
ARC
  5
3BE
100
AcDbEntity
  8
0
100
AcDbCircle
 62
9
  6
CONTINUOUS
 10
14.5683183383
 20
9.3236430515
 40
0.03
100
AcDbArc
 50
90.0
 51
180.0
  0
ARC
  5
3BF
100
AcDbEntity
  8
0
100
AcDbCircle
 62
9
  6
CONTINUOUS
 10
14.2348183383
 20
9.6571430515
 40
0.03
100
AcDbArc
 50
90.0
 51
180.0
  0
ARC
  5
3C0
100
AcDbEntity
  8
0
100
AcDbCircle
 62
7
  6
CONTINUOUS
 10
15.5263183383
 20
8.3656430515
 40
0.06
100
AcDbArc
 50
269.99999998
 51
360.0
  0
ARC
  5
3C1
100
AcDbEntity
  8
0
100
AcDbCircle
 62
7
  6
CONTINUOUS
 10
15.8598183383
 20
8.0321430515
 40
0.06
100
AcDbArc
 50
269.9999999799
 51
360.0
  0
ARC
  5
3C2
100
AcDbEntity
  8
0
100
AcDbCircle
 62
7
  6
CONTINUOUS
 10
15.4508183383
 20
8.5346430515
 40
0.06
100
AcDbArc
 50
90.0
 51
179.9999999893
  0
ARC
  5
3C3
100
AcDbEntity
  8
0
100
AcDbCircle
 62
7
  6
CONTINUOUS
 10
15.3573183383
 20
8.4411430515
 40
0.06
100
AcDbArc
 50
90.0
 51
180.0
  0
ARC
  5
3C4
100
AcDbEntity
  8
0
100
AcDbCircle
 62
7
  6
CONTINUOUS
 10
15.3608183383
 20
8.5311430515
 40
0.03
100
AcDbArc
 50
270.0
 51
360.0
  0
ARC
  5
3C5
100
AcDbEntity
  8
0
100
AcDbCircle
 62
7
  6
CONTINUOUS
 10
16.4548183383
 20
8.6246430515
 40
0.03
100
AcDbArc
 50
270.0
 51
360.0
  0
ARC
  5
3C6
100
AcDbEntity
  8
0
100
AcDbCircle
 62
7
  6
CONTINUOUS
 10
16.4548183383
 20
9.0646430515
 40
0.03
100
AcDbArc
 50
0.0
 51
90.0
  0
ARC
  5
3C7
100
AcDbEntity
  8
0
100
AcDbCircle
 62
9
  6
CONTINUOUS
 10
15.5263183383
 20
8.3656430515
 40
0.03
100
AcDbArc
 50
270.0
 51
360.0
  0
ARC
  5
3C8
100
AcDbEntity
  8
0
100
AcDbCircle
 62
9
  6
CONTINUOUS
 10
15.8598183383
 20
8.0321430515
 40
0.03
100
AcDbArc
 50
270.0
 51
360.0
  0
ARC
  5
3C9
100
AcDbEntity
  8
0
100
AcDbCircle
 62
7
  6
CONTINUOUS
 10
15.3573183383
 20
9.2481430515
 40
0.06
100
AcDbArc
 50
180.0
 51
270.0
  0
ARC
  5
3CA
100
AcDbEntity
  8
0
100
AcDbCircle
 62
7
  6
CONTINUOUS
 10
15.5263183383
 20
9.3236430515
 40
0.06
100
AcDbArc
 50
0.0
 51
90.0
  0
ARC
  5
3CB
100
AcDbEntity
  8
0
100
AcDbCircle
 62
7
  6
CONTINUOUS
 10
15.8598183383
 20
9.6571430515
 40
0.06
100
AcDbArc
 50
0.0
 51
90.0
  0
ARC
  5
3CC
100
AcDbEntity
  8
0
100
AcDbCircle
 62
7
  6
CONTINUOUS
 10
16.1823183383
 20
9.9796430515
 40
0.06
100
AcDbArc
 50
359.9999998864
 51
90.0
  0
ARC
  5
3CD
100
AcDbEntity
  8
0
100
AcDbCircle
 62
7
  6
CONTINUOUS
 10
15.4508183383
 20
9.1546430515
 40
0.06
100
AcDbArc
 50
180.0000000107
 51
270.0
  0
ARC
  5
3CE
100
AcDbEntity
  8
0
100
AcDbCircle
 62
7
  6
CONTINUOUS
 10
15.3608183383
 20
9.1581430515
 40
0.03
100
AcDbArc
 50
0.0
 51
90.0
  0
ARC
  5
3CF
100
AcDbEntity
  8
0
100
AcDbCircle
 62
7
  6
CONTINUOUS
 10
15.2673183383
 20
10.2521430515
 40
0.03
100
AcDbArc
 50
0.0
 51
90.0
  0
ARC
  5
3D0
100
AcDbEntity
  8
0
100
AcDbCircle
 62
9
  6
CONTINUOUS
 10
16.1823183383
 20
9.9796430515
 40
0.03
100
AcDbArc
 50
0.0
 51
90.0
  0
ARC
  5
3D1
100
AcDbEntity
  8
0
100
AcDbCircle
 62
9
  6
CONTINUOUS
 10
15.8598183383
 20
9.6571430515
 40
0.03
100
AcDbArc
 50
0.0
 51
90.0
  0
ARC
  5
3D2
100
AcDbEntity
  8
0
100
AcDbCircle
 62
9
  6
CONTINUOUS
 10
15.5263183383
 20
9.3236430515
 40
0.03
100
AcDbArc
 50
0.0
 51
90.0
  0
SPLINE
  5
3D3
100
AcDbEntity
  8
0
100
AcDbSpline
 62
9
  6
CONTINUOUS
 70
0
 71
3
 72
19
 73
15
 74
0
 42
0.0000001
 43
0.0000001
 44
0.0000000001
 40
0.0
 40
0.0
 40
0.0
 40
0.0
 40
0.1248821343
 40
0.187466047
 40
0.2500150186
 40
0.3125420486
 40
0.3750741966
 40
0.5000126058
 40
0.6249413076
 40
0.6874677259
 40
0.7499884584
 40
0.8125311244
 40
0.8751128254
 40
1.0
 40
1.0
 40
1.0
 40
1.0
 10
15.8199300183
 20
8.1606640692
 30
0.0
 10
15.8199296018
 20
8.1548666331
 30
0.0
 10
15.8190875166
 20
8.1461335245
 30
0.0
 10
15.8163165948
 20
8.1348496887
 30
0.0
 10
15.8134161043
 20
8.1266190629
 30
0.0
 10
15.8097248127
 20
8.1187145792
 30
0.0
 10
15.8037860221
 20
8.108724878
 30
0.0
 10
15.7945442695
 20
8.0974149581
 30
0.0
 10
15.7832327314
 20
8.0881759937
 30
0.0
 10
15.7732443094
 20
8.0822372127
 30
0.0
 10
15.7653416891
 20
8.0785440299
 30
0.0
 10
15.7571123348
 20
8.0756418303
 30
0.0
 10
15.7458283745
 20
8.072871557
 30
0.0
 10
15.7370949907
 20
8.072031761
 30
0.0
 10
15.7312973205
 20
8.0720313714
 30
0.0
  0
SPLINE
  5
3D4
100
AcDbEntity
  8
0
100
AcDbSpline
 62
9
  6
CONTINUOUS
 70
0
 71
3
 72
15
 73
11
 74
0
 42
0.0000001
 43
0.0000001
 44
0.0000000001
 40
0.0
 40
0.0
 40
0.0
 40
0.0
 40
0.1256015401
 40
0.2507762965
 40
0.375531504
 40
0.5000153021
 40
0.6244925566
 40
0.7492361723
 40
0.8744027395
 40
1.0
 40
1.0
 40
1.0
 40
1.0
 10
15.7903857321
 20
8.1606652689
 30
0.0
 10
15.7904418389
 20
8.1567600104
 30
0.0
 10
15.789802142
 20
8.1489315911
 30
0.0
 10
15.7866059856
 20
8.1376228788
 30
0.0
 10
15.7812028977
 20
8.1272184324
 30
0.0
 10
15.7738329781
 20
8.1181274993
 30
0.0
 10
15.764742286
 20
8.1107578322
 30
0.0
 10
15.754338431
 20
8.1053554049
 30
0.0
 10
15.7430304835
 20
8.1021594052
 30
0.0
 10
15.7352024642
 20
8.1015195951
 30
0.0
 10
15.7312973379
 20
8.1015756402
 30
0.0
  0
SPLINE
  5
3D5
100
AcDbEntity
  8
0
100
AcDbSpline
 62
9
  6
CONTINUOUS
 70
0
 71
3
 72
15
 73
11
 74
0
 42
0.0000001
 43
0.0000001
 44
0.0000000001
 40
0.0
 40
0.0
 40
0.0
 40
0.0
 40
0.1256015418
 40
0.2507763011
 40
0.3755315097
 40
0.5000153081
 40
0.6244925611
 40
0.7492361749
 40
0.8744027405
 40
1.0
 40
1.0
 40
1.0
 40
1.0
 10
15.7312960135
 20
9.5877104437
 30
0.0
 10
15.7352012765
 20
9.5877665575
 30
0.0
 10
15.7430297061
 20
9.5871268727
 30
0.0
 10
15.7543384363
 20
9.5839307293
 30
0.0
 10
15.7647429018
 20
9.5785276484
 30
0.0
 10
15.7738338532
 20
9.5711577298
 30
0.0
 10
15.7812035364
 20
9.5620670333
 30
0.0
 10
15.7866059759
 20
9.5516631695
 30
0.0
 10
15.789801983
 20
9.5403552102
 30
0.0
 10
15.7904417947
 20
9.5325271819
 30
0.0
 10
15.7903857495
 20
9.5286220511
 30
0.0
  0
SPLINE
  5
3D6
100
AcDbEntity
  8
0
100
AcDbSpline
 62
9
  6
CONTINUOUS
 70
0
 71
3
 72
19
 73
15
 74
0
 42
0.0000001
 43
0.0000001
 44
0.0000000001
 40
0.0
 40
0.0
 40
0.0
 40
0.0
 40
0.1248821343
 40
0.187466047
 40
0.2500150186
 40
0.3125420486
 40
0.3750741966
 40
0.5000126058
 40
0.6249413076
 40
0.6874677259
 40
0.7499884584
 40
0.8125311244
 40
0.8751128254
 40
1.0
 40
1.0
 40
1.0
 40
1.0
 10
15.7312973206
 20
9.6172547315
 30
0.0
 10
15.7370947567
 20
9.617254315
 30
0.0
 10
15.7458278653
 20
9.6164122298
 30
0.0
 10
15.757111701
 20
9.613641308
 30
0.0
 10
15.7653423269
 20
9.6107408176
 30
0.0
 10
15.7732468106
 20
9.6070495259
 30
0.0
 10
15.7832365118
 20
9.6011107353
 30
0.0
 10
15.7945464317
 20
9.5918689827
 30
0.0
 10
15.8037853961
 20
9.5805574446
 30
0.0
 10
15.8097241771
 20
9.5705690226
 30
0.0
 10
15.8134173599
 20
9.5626664023
 30
0.0
 10
15.8163195595
 20
9.554437048
 30
0.0
 10
15.8190898327
 20
9.5431530877
 30
0.0
 10
15.8199296287
 20
9.5344197039
 30
0.0
 10
15.8199300183
 20
9.5286220338
 30
0.0
  0
SPLINE
  5
3D7
100
AcDbEntity
  8
0
100
AcDbSpline
 62
9
  6
CONTINUOUS
 70
0
 71
3
 72
15
 73
11
 74
0
 42
0.0000001
 43
0.0000001
 44
0.0000000001
 40
0.0
 40
0.0
 40
0.0
 40
0.0
 40
0.1256015032
 40
0.2507761949
 40
0.3755313753
 40
0.5000151694
 40
0.6244924584
 40
0.7492361129
 40
0.8744027175
 40
1.0
 40
1.0
 40
1.0
 40
1.0
 10
14.3042509102
 20
9.5286232208
 30
0.0
 10
14.3041949581
 20
9.5325283809
 30
0.0
 10
14.304834923
 20
9.5403565719
 30
0.0
 10
14.3080313692
 20
9.5516648843
 30
0.0
 10
14.3134346121
 20
9.562068906
 30
0.0
 10
14.3208045552
 20
9.5711594314
 30
0.0
 10
14.3298951491
 20
9.5785287431
 30
0.0
 10
14.3402988077
 20
9.5839308989
 30
0.0
 10
14.3516064907
 20
9.5871267312
 30
0.0
 10
14.3594343111
 20
9.5877665064
 30
0.0
 10
14.3633393387
 20
9.5877104628
 30
0.0
  0
SPLINE
  5
3D8
100
AcDbEntity
  8
0
100
AcDbSpline
 62
9
  6
CONTINUOUS
 70
0
 71
3
 72
19
 73
15
 74
0
 42
0.0000001
 43
0.0000001
 44
0.0000000001
 40
0.0
 40
0.0
 40
0.0
 40
0.0
 40
0.1248821343
 40
0.187466047
 40
0.2500150186
 40
0.3125420486
 40
0.3750741966
 40
0.5000126058
 40
0.6249413076
 40
0.6874677259
 40
0.7499884584
 40
0.8125311244
 40
0.8751128254
 40
1.0
 40
1.0
 40
1.0
 40
1.0
 10
14.2747066582
 20
9.5286220338
 30
0.0
 10
14.2747070748
 20
9.5344194699
 30
0.0
 10
14.27554916
 20
9.5431525785
 30
0.0
 10
14.2783200818
 20
9.5544364143
 30
0.0
 10
14.2812205722
 20
9.5626670401
 30
0.0
 10
14.2849118639
 20
9.5705715238
 30
0.0
 10
14.2908506544
 20
9.580561225
 30
0.0
 10
14.3000924071
 20
9.5918711449
 30
0.0
 10
14.3114039452
 20
9.6011101093
 30
0.0
 10
14.3213923672
 20
9.6070488903
 30
0.0
 10
14.3292949875
 20
9.6107420731
 30
0.0
 10
14.3375243417
 20
9.6136442727
 30
0.0
 10
14.3488083021
 20
9.6164145459
 30
0.0
 10
14.3575416859
 20
9.6172543419
 30
0.0
 10
14.363339356
 20
9.6172547315
 30
0.0
  0
SPLINE
  5
3D9
100
AcDbEntity
  8
0
100
AcDbSpline
 62
9
  6
CONTINUOUS
 70
0
 71
3
 72
15
 73
11
 74
0
 42
0.0000001
 43
0.0000001
 44
0.0000000001
 40
0.0
 40
0.0
 40
0.0
 40
0.0
 40
0.1256015036
 40
0.2507761961
 40
0.3755313768
 40
0.5000151709
 40
0.6244924595
 40
0.7492361136
 40
0.8744027177
 40
1.0
 40
1.0
 40
1.0
 40
1.0
 10
14.3633381968
 20
8.1015756239
 30
0.0
 10
14.3594330355
 20
8.1015196699
 30
0.0
 10
14.3516048418
 20
8.1021596317
 30
0.0
 10
14.3402965249
 20
8.1053560746
 30
0.0
 10
14.3298924981
 20
8.1107593156
 30
0.0
 10
14.320801968
 20
8.1181292584
 30
0.0
 10
14.3134326522
 20
8.1272198535
 30
0.0
 10
14.3080304932
 20
8.1376235144
 30
0.0
 10
14.304834659
 20
8.1489312004
 30
0.0
 10
14.3041948833
 20
8.1567590232
 30
0.0
 10
14.304250927
 20
8.1606640519
 30
0.0
  0
SPLINE
  5
3DA
100
AcDbEntity
  8
0
100
AcDbSpline
 62
9
  6
CONTINUOUS
 70
0
 71
3
 72
19
 73
15
 74
0
 42
0.0000001
 43
0.0000001
 44
0.0000000001
 40
0.0
 40
0.0
 40
0.0
 40
0.0
 40
0.1248821343
 40
0.187466047
 40
0.2500150186
 40
0.3125420486
 40
0.3750741966
 40
0.5000126058
 40
0.6249413076
 40
0.6874677259
 40
0.7499884584
 40
0.8125311244
 40
0.8751128254
 40
1.0
 40
1.0
 40
1.0
 40
1.0
 10
14.363339356
 20
8.0720313714
 30
0.0
 10
14.3575419199
 20
8.072031788
 30
0.0
 10
14.3488088112
 20
8.0728738732
 30
0.0
 10
14.3375249755
 20
8.075644795
 30
0.0
 10
14.3292943497
 20
8.0785452854
 30
0.0
 10
14.3213898659
 20
8.0822365771
 30
0.0
 10
14.3114001648
 20
8.0881753676
 30
0.0
 10
14.3000902448
 20
8.0974171203
 30
0.0
 10
14.2908512805
 20
8.1087286584
 30
0.0
 10
14.2849124995
 20
8.1187170804
 30
0.0
 10
14.2812193167
 20
8.1266197007
 30
0.0
 10
14.2783171171
 20
8.134849055
 30
0.0
 10
14.2755468438
 20
8.1461330153
 30
0.0
 10
14.2747070478
 20
8.1548663991
 30
0.0
 10
14.2747066582
 20
8.1606640692
 30
0.0
  0
SPLINE
  5
3DB
100
AcDbEntity
  8
0
100
AcDbSpline
 62
9
  6
CONTINUOUS
 70
0
 71
3
 72
19
 73
15
 74
0
 42
0.0000001
 43
0.0000001
 44
0.0000000001
 40
0.0
 40
0.0
 40
0.0
 40
0.0
 40
0.1248821343
 40
0.187466047
 40
0.2500150186
 40
0.3125420486
 40
0.3750741966
 40
0.5000126058
 40
0.6249413076
 40
0.6874677259
 40
0.7499884584
 40
0.8125311244
 40
0.8751128254
 40
1.0
 40
1.0
 40
1.0
 40
1.0
 10
6.2747066582
 20
9.5286220338
 30
0.0
 10
6.2747070748
 20
9.5344194699
 30
0.0
 10
6.27554916
 20
9.5431525785
 30
0.0
 10
6.2783200818
 20
9.5544364143
 30
0.0
 10
6.2812205722
 20
9.5626670401
 30
0.0
 10
6.2849118639
 20
9.5705715238
 30
0.0
 10
6.2908506544
 20
9.580561225
 30
0.0
 10
6.3000924071
 20
9.5918711449
 30
0.0
 10
6.3114039452
 20
9.6011101093
 30
0.0
 10
6.3213923672
 20
9.6070488903
 30
0.0
 10
6.3292949875
 20
9.6107420731
 30
0.0
 10
6.3375243417
 20
9.6136442727
 30
0.0
 10
6.3488083021
 20
9.6164145459
 30
0.0
 10
6.3575416859
 20
9.6172543419
 30
0.0
 10
6.363339356
 20
9.6172547315
 30
0.0
  0
SPLINE
  5
3DC
100
AcDbEntity
  8
0
100
AcDbSpline
 62
9
  6
CONTINUOUS
 70
0
 71
3
 72
15
 73
11
 74
0
 42
0.0000001
 43
0.0000001
 44
0.0000000001
 40
0.0
 40
0.0
 40
0.0
 40
0.0
 40
0.1256015401
 40
0.2507762965
 40
0.375531504
 40
0.5000153021
 40
0.6244925566
 40
0.7492361723
 40
0.8744027395
 40
1.0
 40
1.0
 40
1.0
 40
1.0
 10
6.3042509445
 20
9.5286208341
 30
0.0
 10
6.3041948377
 20
9.5325260926
 30
0.0
 10
6.3048345345
 20
9.5403545119
 30
0.0
 10
6.3080306909
 20
9.5516632242
 30
0.0
 10
6.3134337789
 20
9.5620676706
 30
0.0
 10
6.3208036985
 20
9.5711586037
 30
0.0
 10
6.3298943906
 20
9.5785282708
 30
0.0
 10
6.3402982455
 20
9.5839306981
 30
0.0
 10
6.351606193
 20
9.5871266977
 30
0.0
 10
6.3594342124
 20
9.5877665078
 30
0.0
 10
6.3633393387
 20
9.5877104628
 30
0.0
  0
SPLINE
  5
3DD
100
AcDbEntity
  8
0
100
AcDbSpline
 62
9
  6
CONTINUOUS
 70
0
 71
3
 72
15
 73
11
 74
0
 42
0.0000001
 43
0.0000001
 44
0.0000000001
 40
0.0
 40
0.0
 40
0.0
 40
0.0
 40
0.1256015418
 40
0.2507763011
 40
0.3755315097
 40
0.5000153081
 40
0.6244925611
 40
0.7492361749
 40
0.8744027405
 40
1.0
 40
1.0
 40
1.0
 40
1.0
 10
6.363340663
 20
8.1015756592
 30
0.0
 10
6.3594354001
 20
8.1015195455
 30
0.0
 10
6.3516069705
 20
8.1021592303
 30
0.0
 10
6.3402982403
 20
8.1053553737
 30
0.0
 10
6.3298937748
 20
8.1107584546
 30
0.0
 10
6.3208028233
 20
8.1181283732
 30
0.0
 10
6.3134331402
 20
8.1272190697
 30
0.0
 10
6.3080307007
 20
8.1376229335
 30
0.0
 10
6.3048346935
 20
8.1489308928
 30
0.0
 10
6.3041948819
 20
8.1567589211
 30
0.0
 10
6.304250927
 20
8.1606640519
 30
0.0
  0
SPLINE
  5
3DE
100
AcDbEntity
  8
0
100
AcDbSpline
 62
9
  6
CONTINUOUS
 70
0
 71
3
 72
19
 73
15
 74
0
 42
0.0000001
 43
0.0000001
 44
0.0000000001
 40
0.0
 40
0.0
 40
0.0
 40
0.0
 40
0.1248821343
 40
0.187466047
 40
0.2500150186
 40
0.3125420486
 40
0.3750741966
 40
0.5000126058
 40
0.6249413076
 40
0.6874677259
 40
0.7499884584
 40
0.8125311244
 40
0.8751128254
 40
1.0
 40
1.0
 40
1.0
 40
1.0
 10
6.363339356
 20
8.0720313714
 30
0.0
 10
6.3575419199
 20
8.072031788
 30
0.0
 10
6.3488088112
 20
8.0728738732
 30
0.0
 10
6.3375249755
 20
8.075644795
 30
0.0
 10
6.3292943497
 20
8.0785452854
 30
0.0
 10
6.3213898659
 20
8.0822365771
 30
0.0
 10
6.3114001648
 20
8.0881753676
 30
0.0
 10
6.3000902448
 20
8.0974171203
 30
0.0
 10
6.2908512805
 20
8.1087286584
 30
0.0
 10
6.2849124995
 20
8.1187170804
 30
0.0
 10
6.2812193167
 20
8.1266197007
 30
0.0
 10
6.2783171171
 20
8.134849055
 30
0.0
 10
6.2755468438
 20
8.1461330153
 30
0.0
 10
6.2747070478
 20
8.1548663991
 30
0.0
 10
6.2747066582
 20
8.1606640692
 30
0.0
  0
SPLINE
  5
3DF
100
AcDbEntity
  8
0
100
AcDbSpline
 62
9
  6
CONTINUOUS
 70
0
 71
3
 72
15
 73
11
 74
0
 42
0.0000001
 43
0.0000001
 44
0.0000000001
 40
0.0
 40
0.0
 40
0.0
 40
0.0
 40
0.1256015032
 40
0.2507761949
 40
0.3755313753
 40
0.5000151694
 40
0.6244924584
 40
0.7492361129
 40
0.8744027175
 40
1.0
 40
1.0
 40
1.0
 40
1.0
 10
7.7903857663
 20
8.1606628822
 30
0.0
 10
7.7904417185
 20
8.156757722
 30
0.0
 10
7.7898017536
 20
8.1489295311
 30
0.0
 10
7.7866053073
 20
8.1376212187
 30
0.0
 10
7.7812020645
 20
8.127217197
 30
0.0
 10
7.7738321214
 20
8.1181266716
 30
0.0
 10
7.7647415275
 20
8.1107573599
 30
0.0
 10
7.7543378688
 20
8.1053552041
 30
0.0
 10
7.7430301859
 20
8.1021593718
 30
0.0
 10
7.7352023655
 20
8.1015195966
 30
0.0
 10
7.7312973379
 20
8.1015756402
 30
0.0
  0
SPLINE
  5
3E0
100
AcDbEntity
  8
0
100
AcDbSpline
 62
9
  6
CONTINUOUS
 70
0
 71
3
 72
19
 73
15
 74
0
 42
0.0000001
 43
0.0000001
 44
0.0000000001
 40
0.0
 40
0.0
 40
0.0
 40
0.0
 40
0.1248821343
 40
0.187466047
 40
0.2500150186
 40
0.3125420486
 40
0.3750741966
 40
0.5000126058
 40
0.6249413076
 40
0.6874677259
 40
0.7499884584
 40
0.8125311244
 40
0.8751128254
 40
1.0
 40
1.0
 40
1.0
 40
1.0
 10
7.8199300183
 20
8.1606640692
 30
0.0
 10
7.8199296018
 20
8.1548666331
 30
0.0
 10
7.8190875166
 20
8.1461335245
 30
0.0
 10
7.8163165948
 20
8.1348496887
 30
0.0
 10
7.8134161043
 20
8.1266190629
 30
0.0
 10
7.8097248127
 20
8.1187145792
 30
0.0
 10
7.8037860221
 20
8.108724878
 30
0.0
 10
7.7945442695
 20
8.0974149581
 30
0.0
 10
7.7832327314
 20
8.0881759937
 30
0.0
 10
7.7732443094
 20
8.0822372127
 30
0.0
 10
7.7653416891
 20
8.0785440299
 30
0.0
 10
7.7571123348
 20
8.0756418303
 30
0.0
 10
7.7458283745
 20
8.072871557
 30
0.0
 10
7.7370949907
 20
8.072031761
 30
0.0
 10
7.7312973205
 20
8.0720313714
 30
0.0
  0
SPLINE
  5
3E1
100
AcDbEntity
  8
0
100
AcDbSpline
 62
9
  6
CONTINUOUS
 70
0
 71
3
 72
15
 73
11
 74
0
 42
0.0000001
 43
0.0000001
 44
0.0000000001
 40
0.0
 40
0.0
 40
0.0
 40
0.0
 40
0.1256015036
 40
0.2507761961
 40
0.3755313768
 40
0.5000151709
 40
0.6244924595
 40
0.7492361136
 40
0.8744027177
 40
1.0
 40
1.0
 40
1.0
 40
1.0
 10
7.7312984798
 20
9.5877104791
 30
0.0
 10
7.7352036411
 20
9.5877664331
 30
0.0
 10
7.7430318347
 20
9.5871264713
 30
0.0
 10
7.7543401517
 20
9.5839300284
 30
0.0
 10
7.7647441784
 20
9.5785267874
 30
0.0
 10
7.7738347086
 20
9.5711568446
 30
0.0
 10
7.7812040244
 20
9.5620662495
 30
0.0
 10
7.7866061833
 20
9.5516625886
 30
0.0
 10
7.7898020176
 20
9.5403549026
 30
0.0
 10
7.7904417932
 20
9.5325270798
 30
0.0
 10
7.7903857495
 20
9.5286220511
 30
0.0
  0
SPLINE
  5
3E2
100
AcDbEntity
  8
0
100
AcDbSpline
 62
9
  6
CONTINUOUS
 70
0
 71
3
 72
19
 73
15
 74
0
 42
0.0000001
 43
0.0000001
 44
0.0000000001
 40
0.0
 40
0.0
 40
0.0
 40
0.0
 40
0.1248821343
 40
0.187466047
 40
0.2500150186
 40
0.3125420486
 40
0.3750741966
 40
0.5000126058
 40
0.6249413076
 40
0.6874677259
 40
0.7499884584
 40
0.8125311244
 40
0.8751128254
 40
1.0
 40
1.0
 40
1.0
 40
1.0
 10
7.7312973206
 20
9.6172547315
 30
0.0
 10
7.7370947567
 20
9.617254315
 30
0.0
 10
7.7458278653
 20
9.6164122298
 30
0.0
 10
7.757111701
 20
9.613641308
 30
0.0
 10
7.7653423269
 20
9.6107408176
 30
0.0
 10
7.7732468106
 20
9.6070495259
 30
0.0
 10
7.7832365118
 20
9.6011107353
 30
0.0
 10
7.7945464317
 20
9.5918689827
 30
0.0
 10
7.8037853961
 20
9.5805574446
 30
0.0
 10
7.8097241771
 20
9.5705690226
 30
0.0
 10
7.8134173599
 20
9.5626664023
 30
0.0
 10
7.8163195595
 20
9.554437048
 30
0.0
 10
7.8190898327
 20
9.5431530877
 30
0.0
 10
7.8199296287
 20
9.5344197039
 30
0.0
 10
7.8199300183
 20
9.5286220338
 30
0.0
  0
ENDSEC
  0
SECTION
  2
OBJECTS
  0
DICTIONARY
  5
C
100
AcDbDictionary
280
0
281
1
  3
ACAD_GROUP
350
D
  3
ACAD_MLINESTYLE
350
17
  3
ACAD_LAYOUT
350
1A
  3
ACAD_PLOTSETTINGS
350
19
  3
ACAD_PLOTSTYLENAME
350
E
  0
DICTIONARY
  5
D
102
{ACAD_REACTORS
330
C
102
}
100
AcDbDictionary
280
0
281
1
  0
ACDBDICTIONARYWDFLT
  5
E
102
{ACAD_REACTORS
330
C
102
}
100
AcDbDictionary
281
1
  3
Normal
350
F
100
AcDbDictionaryWithDefault
340
F
  0
DICTIONARY
  5
17
102
{ACAD_REACTORS
330
C
102
}
100
AcDbDictionary
280
0
281
1
  3
Standard
350
18
  0
DICTIONARY
  5
19
102
{ACAD_REACTORS
330
C
102
}
100
AcDbDictionary
281
1
  0
DICTIONARY
  5
1A
102
{ACAD_REACTORS
330
C
102
}
100
AcDbDictionary
281
1
  3
Model
350
3E3
  3
Layout1
350
3E4
  0
ACDBPLACEHOLDER
  5
F
102
{ACAD_REACTORS
330
E
102
}
  0
MLINESTYLE
  5
18
102
{ACAD_REACTORS
330
17
102
}
100
AcDbMlineStyle
  2
STANDARD
 70
0
  3

 62
256
 51
90.0
 52
90.0
 71
2
 49
0.5
 62
256
  6
BYLAYER
 49
-0.5
 62
256
  6
BYLAYER
  0
LAYOUT
  5
3E3
102
{ACAD_REACTORS
330
1A
102
}
100
AcDbPlotSettings
  1

  2
none_device
  4
ANSI_C_(22.00_x_17.00_Inches)
  6

 40
0.0
 41
0.0
 42
0.0
 43
0.0
 44
558.8
 45
431.8
 46
0.0
 47
0.0
 48
0.0
 49
0.0
140
0.0
141
0.0
142
1.0
143
1.0
 70
1024
 72
0
 73
0
 74
0
  7

 75
0
147
1.0
148
0.0
149
0.0
100
AcDbLayout
  1
Model
 70
0
 71
0
 10
0.0
 20
0.0
 11
22.0
 21
17.0
 12
0.0
 22
0.0
 32
0.0
 14
0.0
 24
0.0
 34
0.0
 15
0.0
 25
0.0
 35
0.0
146
0.0
 13
0.0
 23
0.0
 33
0.0
 16
1.0
 26
0.0
 36
0.0
 17
0.0
 27
1.0
 37
0.0
 76
0
330
202
345
0
346
0
  0
LAYOUT
  5
3E4
102
{ACAD_REACTORS
330
1A
102
}
100
AcDbPlotSettings
  1

  2
none_device
  4
ANSI_C_(22.00_x_17.00_Inches)
  6

 40
0.0
 41
0.0
 42
0.0
 43
0.0
 44
558.8
 45
431.8
 46
0.0
 47
0.0
 48
0.0
 49
0.0
140
0.0
141
0.0
142
1.0
143
1.0
 70
0
 72
0
 73
0
 74
0
  7

 75
0
147
1.0
148
0.0
149
0.0
100
AcDbLayout
  1
Layout1
 70
0
 71
1
 10
0.0
 20
0.0
 11
22.0
 21
17.0
 12
0.0
 22
0.0
 32
0.0
 14
0.0
 24
0.0
 34
0.0
 15
0.0
 25
0.0
 35
0.0
146
0.0
 13
0.0
 23
0.0
 33
0.0
 16
1.0
 26
0.0
 36
0.0
 17
0.0
 27
1.0
 37
0.0
 76
0
330
203
345
0
346
0
  0
ENDSEC
  0
EOF
