999
DXF file: E:\BT Custom\CADOUTPUT\_RIGHT.dxf
999
Pro/ENGINEER 2018400 by Parametric Technology Corporation
  0
SECTION
  2
HEADER
  9
$ACADVER
  1
AC1018
  9
$DWGCODEPAGE
  3
ANSI_1252
  9
$EXTMAX
 10
22.0
 20
17.0
 30
0.0
  9
$EXTMIN
 10
0.0
 20
0.0
 30
0.0
  9
$LIMMIN
 10
0.0
 20
0.0
  9
$LIMMAX
 10
22.0
 20
17.0
  9
$VIEWCTR
 10
11.0
 20
8.5
  9
$VIEWSIZE
 40
17.0
  9
$CLAYER
  8
0
  9
$LTSCALE
 40
1.21
  9
$CELTYPE
  6
BYLAYER
  9
$DIMSCALE
 40
1.0
  9
$DIMASZ
 40
0.1
  9
$DIMEXO
 40
0.0625
  9
$DIMDLI
 40
0.836
  9
$DIMEXE
 40
0.125
  9
$DIMCEN
 40
0.198
  9
$DIMLFAC
 40
1.0
  9
$DIMBLK
  1
_FILLED
  9
$DIMALT
 70
1
  9
$DIMALTD
 70
2
  9
$DIMALTTD
 70
2
  9
$DIMALTF
 40
25.4
  9
$DIMTXT
 40
0.08
  9
$DIMTOL
 70
1
  9
$DIMLIM
 70
0
  9
$DIMTFAC
 40
1.0
  9
$DIMTP
 40
0.001
  9
$DIMTM
 40
0.001
  9
$DIMGAP
 40
0.09
  9
$DIMDSEP
 70
46
  9
$AUNITS
 70
0
  9
$PDMODE
 70
3
  9
$PDSIZE
 40
0.06
  9
$HANDSEED
  5
408
  9
$TILEMODE
 70
1
  9
$MEASUREMENT
 70
0
  9
$INSUNITS
 70
1
  0
ENDSEC
  0
SECTION
  2
CLASSES
  0
CLASS
  1
ACDBDICTIONARYWDFLT
  2
AcDbDictionaryWithDefault
  3
AutoCAD 2000
 90
0
 91
1
280
0
281
0
  0
CLASS
  1
ACDBPLACEHOLDER
  2
AcDbPlaceHolder
  3
AutoCAD 2000
 90
0
 91
1
280
0
281
0
  0
CLASS
  1
LAYOUT
  2
AcDbLayout
  3
AutoCAD 2000
 90
0
 91
0
280
0
281
0
  0
ENDSEC
  0
SECTION
  2
TABLES
  0
TABLE
  2
VPORT
  5
8
100
AcDbSymbolTable
 70
2
  0
VPORT
  5
1F4
100
AcDbSymbolTableRecord
100
AcDbViewportTableRecord
  2
*ACTIVE
 70
0
 10
0.0
 20
0.0
 11
1.0
 21
1.0
 12
11.0
 22
8.5
 13
0.0
 23
0.0
 14
1.0
 24
1.0
 15
0.0
 25
0.0
 16
0.0
 26
0.0
 36
1.0
 17
0.0
 27
0.0
 37
0.0
 40
17.0
 41
1.2941176471
 42
50.0
 43
0.0
 44
0.0
 50
0.0
 51
0.0
 71
0
 72
100
 73
1
 74
1
 75
0
 76
0
 77
0
 78
0
  0
ENDTAB
  0
TABLE
  2
LTYPE
  5
5
100
AcDbSymbolTable
 70
6
  0
LTYPE
  5
14
100
AcDbSymbolTableRecord
100
AcDbLinetypeTableRecord
  2
BYBLOCK
 70
0
  3

 72
65
 73
0
 40
0.0
  0
LTYPE
  5
15
100
AcDbSymbolTableRecord
100
AcDbLinetypeTableRecord
  2
BYLAYER
 70
0
  3

 72
65
 73
0
 40
0.0
  0
LTYPE
  5
16
100
AcDbSymbolTableRecord
100
AcDbLinetypeTableRecord
  2
CONTINUOUS
 70
64
  3
Solid line
 72
65
 73
0
 40
0.0
  0
LTYPE
  5
1F5
100
AcDbSymbolTableRecord
100
AcDbLinetypeTableRecord
  2
CENTER
 70
64
  3
____ _ ____ _ ____ _ ____ _ ____ _ ____ _ ____
 72
65
 73
4
 40
0.6
 49
0.375
 74
0
 49
-0.075
 74
0
 49
0.075
 74
0
 49
-0.075
 74
0
  0
LTYPE
  5
1F6
100
AcDbSymbolTableRecord
100
AcDbLinetypeTableRecord
  2
HIDDEN
 70
64
  3
- - - - - - - - - - - - - - - - - - - -
 72
65
 73
2
 40
0.2
 49
0.1
 74
0
 49
-0.1
 74
0
  0
LTYPE
  5
1F7
100
AcDbSymbolTableRecord
100
AcDbLinetypeTableRecord
  2
PHANTOM
 70
64
  3
_____ _ _ _____ _ _ _____ _ _ _____
 72
65
 73
6
 40
0.8
 49
0.45
 74
0
 49
-0.05
 74
0
 49
0.1
 74
0
 49
-0.05
 74
0
 49
0.1
 74
0
 49
-0.05
 74
0
  0
LTYPE
  5
1F8
100
AcDbSymbolTableRecord
100
AcDbLinetypeTableRecord
  2
DOT
 70
64
  3
. . . . . . . . . . . . . . . . . . . .
 72
65
 73
2
 40
0.2
 49
0.1
 74
0
 49
-0.1
 74
0
  0
LTYPE
  5
1F9
100
AcDbSymbolTableRecord
100
AcDbLinetypeTableRecord
  2
DASHED
 70
64
  3
- - - - - - - - - - - - - - - - - - - -
 72
65
 73
2
 40
0.2
 49
0.1
 74
0
 49
-0.1
 74
0
  0
ENDTAB
  0
TABLE
  2
LAYER
  5
2
100
AcDbSymbolTable
 70
36
  0
LAYER
  5
10
100
AcDbSymbolTableRecord
100
AcDbLayerTableRecord
  2
0
 70
0
 62
7
  6
CONTINUOUS
370
-3
390
F
  0
LAYER
  5
1FA
100
AcDbSymbolTableRecord
100
AcDbLayerTableRecord
  2
DEFAULT_1
 70
0
 62
7
  6
CENTER
370
-3
390
F
  0
LAYER
  5
1FB
100
AcDbSymbolTableRecord
100
AcDbLayerTableRecord
  2
DEFAULT_2
 70
0
 62
8
  6
HIDDEN
370
-3
390
F
  0
LAYER
  5
1FC
100
AcDbSymbolTableRecord
100
AcDbLayerTableRecord
  2
DEFAULT_3
 70
0
 62
7
  6
PHANTOM
370
-3
390
F
  0
LAYER
  5
1FD
100
AcDbSymbolTableRecord
100
AcDbLayerTableRecord
  2
ALL_FEATURES
 70
0
 62
7
  6
CONTINUOUS
370
-3
390
F
  0
LAYER
  5
1FE
100
AcDbSymbolTableRecord
100
AcDbLayerTableRecord
  2
AXES_FEATURES
 70
0
 62
7
  6
CONTINUOUS
370
-3
390
F
  0
LAYER
  5
1FF
100
AcDbSymbolTableRecord
100
AcDbLayerTableRecord
  2
DEFAULT_COORDINATE_SYSTEM
 70
0
 62
7
  6
CONTINUOUS
370
-3
390
F
  0
LAYER
  5
200
100
AcDbSymbolTableRecord
100
AcDbLayerTableRecord
  2
DEFAULT_DATUM_AXES
 70
0
 62
7
  6
CONTINUOUS
370
-3
390
F
  0
LAYER
  5
201
100
AcDbSymbolTableRecord
100
AcDbLayerTableRecord
  2
DEFAULT_DATUM_PLANES
 70
0
 62
7
  6
CONTINUOUS
370
-3
390
F
  0
LAYER
  5
202
100
AcDbSymbolTableRecord
100
AcDbLayerTableRecord
  2
DIMENSIONS
 70
0
 62
7
  6
CONTINUOUS
370
-3
390
F
  0
ENDTAB
  0
TABLE
  2
STYLE
  5
3
100
AcDbSymbolTable
 70
1
  0
STYLE
  5
11
100
AcDbSymbolTableRecord
100
AcDbTextStyleTableRecord
  2
STANDARD
 70
0
 40
0.0
 41
0.8
 50
0.0
 71
0
 42
0.2
  3
txt
  4

  0
STYLE
  5
203
100
AcDbSymbolTableRecord
100
AcDbTextStyleTableRecord
  2
TEXTSTYLE_1
 70
0
 40
0.0
 41
0.8
 50
0.0
 71
0
 42
0.2
  3
gdt
  4

  0
ENDTAB
  0
TABLE
  2
VIEW
  5
6
100
AcDbSymbolTable
 70
0
  0
ENDTAB
  0
TABLE
  2
UCS
  5
7
100
AcDbSymbolTable
 70
0
  0
ENDTAB
  0
TABLE
  2
APPID
  5
9
100
AcDbSymbolTable
 70
1
  0
APPID
  5
204
100
AcDbSymbolTableRecord
100
AcDbRegAppTableRecord
  2
ACAD
 70
0
  0
ENDTAB
  0
TABLE
  2
BLOCK_RECORD
  5
1
100
AcDbSymbolTable
 70
0
  0
BLOCK_RECORD
  5
205
100
AcDbSymbolTableRecord
100
AcDbBlockTableRecord
  2
*Model_Space
  0
BLOCK_RECORD
  5
206
100
AcDbSymbolTableRecord
100
AcDbBlockTableRecord
  2
*Paper_Space
  0
BLOCK_RECORD
  5
207
100
AcDbSymbolTableRecord
100
AcDbBlockTableRecord
  2
_FILLED
  0
ENDTAB
  0
TABLE
  2
DIMSTYLE
  5
A
100
AcDbSymbolTable
 70
1
100
AcDbDimStyleTable
 71
0
  0
DIMSTYLE
105
208
100
AcDbSymbolTableRecord
100
AcDbDimStyleTableRecord
  2
STANDARD
 70
0
  3

  4

 40
1.0
 41
0.1
 42
0.0625
 43
0.38
 44
0.125
 45
0.0
 46
0.0
 47
0.001
 48
0.001
140
0.08
141
0.09
142
0.0
143
25.4
144
1.0
145
0.0
146
1.0
147
0.09
 71
1.0
 72
0.0
 73
1
 74
1
 75
0
 76
0
 77
0
 78
4
 79
1
170
1
171
2
172
0
173
0
174
0
175
0
176
0
177
0
178
0
270
2
179
3
271
3
272
3
273
2
274
2
275
0
280
0
281
0
282
0
283
1
284
4
285
0
286
0
287
3
288
0
340
11
278
46
341
207
342
207
343
207
344
207
  0
ENDTAB
  0
ENDSEC
  0
SECTION
  2
BLOCKS
  0
BLOCK
  5
20
100
AcDbEntity
  8
0
100
AcDbBlockBegin
  2
*Model_Space
 70
0
 10
0.0
 20
0.0
 30
0.0
  3
*Model_Space
  1

  0
ENDBLK
  5
21
100
AcDbEntity
  8
0
100
AcDbBlockEnd
  0
BLOCK
  5
1C
100
AcDbEntity
  8
0
100
AcDbBlockBegin
  2
*Paper_Space
 70
0
 10
0.0
 20
0.0
 30
0.0
  3
*Paper_Space
  1

  0
ENDBLK
  5
1D
100
AcDbEntity
  8
0
100
AcDbBlockEnd
  0
BLOCK
  5
209
100
AcDbEntity
  8
0
100
AcDbBlockBegin
  2
_FILLED
 70
64
 10
0.0
 20
0.0
  3
_FILLED
  1

  0
SOLID
  5
20A
100
AcDbEntity
  8
0
  6
BYBLOCK
 62
0
100
AcDbTrace
 10
0.0
 20
0.0
 11
-1.0
 21
0.2
 12
-1.0
 22
-0.2
 13
-1.0
 23
-0.2
  0
ENDBLK
  5
20B
100
AcDbEntity
  8
0
  6
BYBLOCK
 62
0
100
AcDbBlockEnd
  0
ENDSEC
  0
SECTION
  2
ENTITIES
  0
LINE
  5
20C
100
AcDbEntity
  8
0
100
AcDbLine
 62
7
  6
CONTINUOUS
 10
13.7589473134
 20
0.4551758657
 11
16.0229473134
 21
0.4551758657
  0
LINE
  5
20D
100
AcDbEntity
  8
0
100
AcDbLine
 62
9
  6
CONTINUOUS
 10
16.0229473134
 20
0.5342212212
 11
13.7589473134
 21
0.5342212212
  0
LINE
  5
20E
100
AcDbEntity
  8
0
100
AcDbLine
 62
9
  6
CONTINUOUS
 10
15.910193731
 20
0.560647342
 11
14.8909583528
 21
0.5606474185
  0
LINE
  5
20F
100
AcDbEntity
  8
0
100
AcDbLine
 62
9
  6
CONTINUOUS
 10
13.860060264
 20
0.5606473477
 11
13.7747474444
 21
0.5606474185
  0
LINE
  5
210
100
AcDbEntity
  8
0
100
AcDbLine
 62
9
  6
CONTINUOUS
 10
15.9439473134
 20
0.6663542884
 11
13.8379473134
 21
0.6663542884
  0
LINE
  5
211
100
AcDbEntity
  8
0
100
AcDbLine
 62
9
  6
CONTINUOUS
 10
13.9132202722
 20
0.8253690312
 11
13.9381374634
 21
0.8253690312
  0
LINE
  5
212
100
AcDbEntity
  8
0
100
AcDbLine
 62
9
  6
CONTINUOUS
 10
15.8437571634
 20
0.8253690312
 11
15.8686743545
 21
0.8253690312
  0
LINE
  5
213
100
AcDbEntity
  8
0
100
AcDbLine
 62
9
  6
CONTINUOUS
 10
13.8577428603
 20
0.9846817478
 11
14.7852389367
 21
0.9846817478
  0
LINE
  5
214
100
AcDbEntity
  8
0
100
AcDbLine
 62
9
  6
CONTINUOUS
 10
14.9966556901
 20
0.9846817478
 11
15.9241517665
 21
0.9846817478
  0
LINE
  5
215
100
AcDbEntity
  8
0
100
AcDbLine
 62
9
  6
CONTINUOUS
 10
13.8648593469
 20
1.0309469725
 11
15.9170352799
 21
1.0309469725
  0
LINE
  5
216
100
AcDbEntity
  8
0
100
AcDbLine
 62
9
  6
CONTINUOUS
 10
13.8638770949
 20
1.1021056126
 11
15.9180175319
 21
1.1021056126
  0
LINE
  5
217
100
AcDbEntity
  8
0
100
AcDbLine
 62
9
  6
CONTINUOUS
 10
13.8701352332
 20
1.1499479765
 11
15.9117593936
 21
1.1499479765
  0
LINE
  5
218
100
AcDbEntity
  8
0
100
AcDbLine
 62
7
  6
CONTINUOUS
 10
15.8754473134
 20
1.2031758657
 11
13.9064473134
 21
1.2031758657
  0
LWPOLYLINE
  5
219
100
AcDbEntity
  8
0
100
AcDbPolyline
 62
7
  6
CONTINUOUS
 90
6
 70
0
 10
6.0868262809
 20
13.3470483485
 10
6.0844657037
 20
13.344706506
 10
6.0826164481
 20
13.3421558274
 10
6.0811906921
 20
13.3393463966
 10
6.0802238147
 20
13.3363479298
 10
6.0800311014
 20
13.3354436331
  0
LINE
  5
21A
100
AcDbEntity
  8
0
100
AcDbLine
 62
7
  6
CONTINUOUS
 10
6.1138737989
 20
13.3697494258
 11
6.0868248643
 21
13.347050036
  0
LINE
  5
21B
100
AcDbEntity
  8
0
100
AcDbLine
 62
7
  6
CONTINUOUS
 10
5.4199536846
 20
11.1328626616
 11
5.397249759
 21
10.9845908444
  0
LINE
  5
21C
100
AcDbEntity
  8
0
100
AcDbLine
 62
7
  6
CONTINUOUS
 10
6.0800296169
 20
13.3354439134
 11
5.9511144916
 21
12.6535530394
  0
LINE
  5
21D
100
AcDbEntity
  8
0
100
AcDbLine
 62
7
  6
CONTINUOUS
 10
5.8826097524
 20
10.8398313673
 11
5.8849753943
 21
10.8763565894
  0
LINE
  5
21E
100
AcDbEntity
  8
0
100
AcDbLine
 62
7
  6
CONTINUOUS
 10
5.910322469
 20
10.8724753522
 11
5.9079568272
 21
10.8359501301
  0
LINE
  5
21F
100
AcDbEntity
  8
0
100
AcDbLine
 62
7
  6
CONTINUOUS
 10
5.983306462
 20
10.861299775
 11
5.9809408201
 21
10.8247745528
  0
LINE
  5
220
100
AcDbEntity
  8
0
100
AcDbLine
 62
7
  6
CONTINUOUS
 10
6.0951244265
 20
10.8441777973
 11
6.0927587846
 21
10.8076525752
  0
LINE
  5
221
100
AcDbEntity
  8
0
100
AcDbLine
 62
7
  6
CONTINUOUS
 10
5.7546411006
 20
10.9082625425
 11
5.7548460915
 21
10.9096012697
  0
LINE
  5
222
100
AcDbEntity
  8
0
100
AcDbLine
 62
7
  6
CONTINUOUS
 10
6.0926607329
 20
10.8445550471
 11
6.0839884922
 21
10.8089955146
  0
LINE
  5
223
100
AcDbEntity
  8
0
100
AcDbLine
 62
7
  6
CONTINUOUS
 10
6.2044786973
 20
10.8274330694
 11
6.1958064567
 21
10.7918735369
  0
LINE
  5
224
100
AcDbEntity
  8
0
100
AcDbLine
 62
7
  6
CONTINUOUS
 10
6.3416437366
 20
10.8064298545
 11
6.3329714959
 21
10.770870322
  0
LWPOLYLINE
  5
225
100
AcDbEntity
  8
0
100
AcDbPolyline
 62
7
  6
CONTINUOUS
 90
9
 70
0
 10
5.8266533702
 20
12.4977413673
 10
5.8259322755
 20
12.4974111325
 10
5.8233192862
 20
12.4958981893
 10
5.8209638283
 20
12.4940091318
 10
5.8189195871
 20
12.4917870143
 10
5.8172331545
 20
12.489282482
 10
5.8159429674
 20
12.4865526171
 10
5.8150784317
 20
12.4836596373
 10
5.8149607673
 20
12.4830792709
  0
LINE
  5
226
100
AcDbEntity
  8
0
100
AcDbLine
 62
7
  6
CONTINUOUS
 10
6.2322894657
 20
10.8231745824
 11
6.2299238238
 21
10.7866493603
  0
LINE
  5
227
100
AcDbEntity
  8
0
100
AcDbLine
 62
7
  6
CONTINUOUS
 10
6.3782574516
 20
10.8008234279
 11
6.3758918098
 21
10.7642982058
  0
LINE
  5
228
100
AcDbEntity
  8
0
100
AcDbLine
 62
7
  6
CONTINUOUS
 10
6.5154224908
 20
10.779820213
 11
6.513056849
 21
10.7432949909
  0
LINE
  5
229
100
AcDbEntity
  8
0
100
AcDbLine
 62
7
  6
CONTINUOUS
 10
6.6272404553
 20
10.7626982353
 11
6.6248748135
 21
10.7261730132
  0
LINE
  5
22A
100
AcDbEntity
  8
0
100
AcDbLine
 62
7
  6
CONTINUOUS
 10
6.9688355089
 20
10.7223406324
 11
6.9690404997
 21
10.7236793595
  0
LINE
  5
22B
100
AcDbEntity
  8
0
100
AcDbLine
 62
7
  6
CONTINUOUS
 10
6.4876117225
 20
10.7840787001
 11
6.4789394818
 21
10.7485191675
  0
LINE
  5
22C
100
AcDbEntity
  8
0
100
AcDbLine
 62
7
  6
CONTINUOUS
 10
6.6247767617
 20
10.7630754852
 11
6.616104521
 21
10.7275159526
  0
LINE
  5
22D
100
AcDbEntity
  8
0
100
AcDbLine
 62
7
  6
CONTINUOUS
 10
6.7365947262
 20
10.7459535075
 11
6.7279224855
 21
10.710393975
  0
LINE
  5
22E
100
AcDbEntity
  8
0
100
AcDbLine
 62
7
  6
CONTINUOUS
 10
6.8095787192
 20
10.7347779303
 11
6.8009064785
 21
10.6992183977
  0
LINE
  5
22F
100
AcDbEntity
  8
0
100
AcDbLine
 62
7
  6
CONTINUOUS
 10
6.8262535532
 20
10.6953371605
 11
6.8349257939
 21
10.730896693
  0
LINE
  5
230
100
AcDbEntity
  8
0
100
AcDbLine
 62
7
  6
CONTINUOUS
 10
7.600713314
 20
11.8542433045
 11
7.5963193034
 21
11.8498080814
  0
LINE
  5
231
100
AcDbEntity
  8
0
100
AcDbLine
 62
9
  6
CONTINUOUS
 10
14.6598436548
 20
4.8480357654
 11
15.1220509719
 21
4.8480357654
  0
LINE
  5
232
100
AcDbEntity
  8
0
100
AcDbLine
 62
9
  6
CONTINUOUS
 10
14.6544473134
 20
4.8569130582
 11
15.1274473134
 21
4.8569130582
  0
LINE
  5
233
100
AcDbEntity
  8
0
100
AcDbLine
 62
9
  6
CONTINUOUS
 10
15.1274473134
 20
4.8602274589
 11
14.6544473134
 21
4.8602274589
  0
LINE
  5
234
100
AcDbEntity
  8
0
100
AcDbLine
 62
9
  6
CONTINUOUS
 10
15.1353758848
 20
4.870010566
 11
14.6465187419
 21
4.870010566
  0
LINE
  5
235
100
AcDbEntity
  8
0
100
AcDbLine
 62
9
  6
CONTINUOUS
 10
15.1825020938
 20
4.9360049691
 11
14.5993925329
 21
4.9360049691
  0
LINE
  5
236
100
AcDbEntity
  8
0
100
AcDbLine
 62
9
  6
CONTINUOUS
 10
15.2074747036
 20
4.9923320817
 11
14.5744199232
 21
4.9923320817
  0
LINE
  5
237
100
AcDbEntity
  8
0
100
AcDbLine
 62
9
  6
CONTINUOUS
 10
14.5659473134
 20
5.0086758657
 11
15.2159473134
 21
5.0086758657
  0
LWPOLYLINE
  5
238
100
AcDbEntity
  8
0
100
AcDbPolyline
 62
7
  6
CONTINUOUS
 90
4
 70
0
 10
7.3206677351
 20
11.4235202559
 10
7.3227857631
 20
11.4583248673
 10
7.3272874639
 20
11.4954478538
 10
7.3341316689
 20
11.5325128813
  0
LWPOLYLINE
  5
239
100
AcDbEntity
  8
0
100
AcDbPolyline
 62
7
  6
CONTINUOUS
 90
6
 70
0
 10
7.3846432732
 20
13.1356766227
 10
7.3847299838
 20
13.1365971509
 10
7.3847046433
 20
13.1397475498
 10
7.3841848843
 20
13.142854885
 10
7.3831836034
 20
13.1458420482
 10
7.381631939
 20
13.1487829475
  0
LINE
  5
23A
100
AcDbEntity
  8
0
100
AcDbLine
 62
7
  6
CONTINUOUS
 10
7.3846447736
 20
13.1356764459
 11
7.382061056
 21
13.1137012395
  0
LINE
  5
23B
100
AcDbEntity
  8
0
100
AcDbLine
 62
7
  6
CONTINUOUS
 10
7.3553951379
 20
10.8365007532
 11
7.3326912123
 21
10.6882289361
  0
LINE
  5
23C
100
AcDbEntity
  8
0
100
AcDbLine
 62
7
  6
CONTINUOUS
 10
7.3341316689
 20
11.5325128813
 11
7.3426461857
 21
11.5670035606
  0
LINE
  5
23D
100
AcDbEntity
  8
0
100
AcDbLine
 62
9
  6
CONTINUOUS
 10
14.5659473134
 20
5.6776758657
 11
15.2159473134
 21
5.6776758657
  0
LINE
  5
23E
100
AcDbEntity
  8
0
100
AcDbLine
 62
9
  6
CONTINUOUS
 10
15.2075011714
 20
5.6940009497
 11
14.5743934554
 21
5.6940009497
  0
LINE
  5
23F
100
AcDbEntity
  8
0
100
AcDbLine
 62
9
  6
CONTINUOUS
 10
7.5381159452
 20
11.7775993964
 11
7.5335925811
 21
12.7466698007
  0
LINE
  5
240
100
AcDbEntity
  8
0
100
AcDbLine
 62
7
  6
CONTINUOUS
 10
7.5966283377
 20
11.7836016037
 11
7.5921584191
 21
12.7412220392
  0
LINE
  5
241
100
AcDbEntity
  8
0
100
AcDbLine
 62
9
  6
CONTINUOUS
 10
7.6002032252
 20
11.9635230204
 11
7.600713314
 21
11.8542433045
  0
LINE
  5
242
100
AcDbEntity
  8
0
100
AcDbLine
 62
7
  6
CONTINUOUS
 10
7.6041342471
 20
11.8624818674
 11
7.6037009184
 21
11.9553167518
  0
LINE
  5
243
100
AcDbEntity
  8
0
100
AcDbLine
 62
9
  6
CONTINUOUS
 10
15.1825550293
 20
5.7498260336
 11
14.5993395974
 21
5.7498260336
  0
LINE
  5
244
100
AcDbEntity
  8
0
100
AcDbLine
 62
9
  6
CONTINUOUS
 10
15.163741243
 20
5.8006742214
 11
14.6181533837
 21
5.8006742214
  0
LINE
  5
245
100
AcDbEntity
  8
0
100
AcDbLine
 62
9
  6
CONTINUOUS
 10
15.1576697746
 20
5.836795086
 11
14.6242248522
 21
5.836795086
  0
LINE
  5
246
100
AcDbEntity
  8
0
100
AcDbLine
 62
9
  6
CONTINUOUS
 10
15.1521071122
 20
5.8817505952
 11
14.6297875146
 21
5.8817505952
  0
LINE
  5
247
100
AcDbEntity
  8
0
100
AcDbLine
 62
9
  6
CONTINUOUS
 10
15.1522768933
 20
5.922230844
 11
14.6296177334
 21
5.922230844
  0
LINE
  5
248
100
AcDbEntity
  8
0
100
AcDbLine
 62
7
  6
CONTINUOUS
 10
13.8824473134
 20
7.3551758657
 11
14.5715572413
 21
7.3551758657
  0
LINE
  5
249
100
AcDbEntity
  8
0
100
AcDbLine
 62
7
  6
CONTINUOUS
 10
15.2103373854
 20
7.3551758657
 11
15.8994473134
 21
7.3551758657
  0
LINE
  5
24A
100
AcDbEntity
  8
0
100
AcDbLine
 62
9
  6
CONTINUOUS
 10
13.8624473134
 20
7.3751758657
 11
14.5710335229
 21
7.3751758657
  0
LINE
  5
24B
100
AcDbEntity
  8
0
100
AcDbLine
 62
9
  6
CONTINUOUS
 10
15.2108611039
 20
7.3751758657
 11
15.9194473134
 21
7.3751758657
  0
LINE
  5
24C
100
AcDbEntity
  8
0
100
AcDbLine
 62
9
  6
CONTINUOUS
 10
13.8624473134
 20
7.5011548523
 11
14.567734647
 21
7.5011548523
  0
LINE
  5
24D
100
AcDbEntity
  8
0
100
AcDbLine
 62
9
  6
CONTINUOUS
 10
15.2141599797
 20
7.5011548523
 11
15.9194473134
 21
7.5011548523
  0
LINE
  5
24E
100
AcDbEntity
  8
0
100
AcDbLine
 62
9
  6
CONTINUOUS
 10
13.8722410126
 20
7.518354603
 11
14.5672842557
 21
7.518354603
  0
LINE
  5
24F
100
AcDbEntity
  8
0
100
AcDbLine
 62
9
  6
CONTINUOUS
 10
15.214610371
 20
7.518354603
 11
15.9096536141
 21
7.518354603
  0
LINE
  5
250
100
AcDbEntity
  8
0
100
AcDbLine
 62
9
  6
CONTINUOUS
 10
14.0695695189
 20
7.7164886038
 11
14.5620959343
 21
7.7164886038
  0
LINE
  5
251
100
AcDbEntity
  8
0
100
AcDbLine
 62
9
  6
CONTINUOUS
 10
15.2197986924
 20
7.7164886038
 11
15.7123251078
 21
7.7164886038
  0
LINE
  5
252
100
AcDbEntity
  8
0
100
AcDbLine
 62
9
  6
CONTINUOUS
 10
14.081012959
 20
7.7254936699
 11
14.5618601284
 21
7.7254936699
  0
LINE
  5
253
100
AcDbEntity
  8
0
100
AcDbLine
 62
9
  6
CONTINUOUS
 10
15.2200344984
 20
7.7254936699
 11
15.7008816677
 21
7.7254936699
  0
LINE
  5
254
100
AcDbEntity
  8
0
100
AcDbLine
 62
9
  6
CONTINUOUS
 10
15.5708788166
 20
7.7580610663
 11
15.2208873057
 21
7.7580610663
  0
LINE
  5
255
100
AcDbEntity
  8
0
100
AcDbLine
 62
9
  6
CONTINUOUS
 10
14.5610073211
 20
7.7580610663
 11
14.2110158101
 21
7.7580610663
  0
LINE
  5
256
100
AcDbEntity
  8
0
100
AcDbLine
 62
9
  6
CONTINUOUS
 10
15.548536819
 20
7.7976940631
 11
15.2219251322
 21
7.7976940631
  0
LINE
  5
257
100
AcDbEntity
  8
0
100
AcDbLine
 62
9
  6
CONTINUOUS
 10
14.5599694945
 20
7.7976940631
 11
14.2333578078
 21
7.7976940631
  0
LINE
  5
258
100
AcDbEntity
  8
0
100
AcDbLine
 62
9
  6
CONTINUOUS
 10
15.5437482908
 20
7.8385816147
 11
15.2229958104
 21
7.8385816147
  0
LINE
  5
259
100
AcDbEntity
  8
0
100
AcDbLine
 62
9
  6
CONTINUOUS
 10
14.5588988163
 20
7.8385816147
 11
14.238146336
 21
7.8385816147
  0
LINE
  5
25A
100
AcDbEntity
  8
0
100
AcDbLine
 62
9
  6
CONTINUOUS
 10
15.5381374642
 20
7.8818586242
 11
15.2241290588
 21
7.8818586242
  0
LINE
  5
25B
100
AcDbEntity
  8
0
100
AcDbLine
 62
9
  6
CONTINUOUS
 10
14.5577655679
 20
7.8818586242
 11
14.2437571626
 21
7.8818586242
  0
LINE
  5
25C
100
AcDbEntity
  8
0
100
AcDbLine
 62
7
  6
CONTINUOUS
 10
15.5099473134
 20
7.9251758657
 11
15.2252633607
 21
7.9251758657
  0
LINE
  5
25D
100
AcDbEntity
  8
0
100
AcDbLine
 62
7
  6
CONTINUOUS
 10
14.556631266
 20
7.9251758657
 11
14.2719473134
 21
7.9251758657
  0
LINE
  5
25E
100
AcDbEntity
  8
0
100
AcDbLine
 62
9
  6
CONTINUOUS
 10
15.2477134634
 20
8.7825106986
 11
15.1866709203
 21
8.7825106986
  0
LINE
  5
25F
100
AcDbEntity
  8
0
100
AcDbLine
 62
9
  6
CONTINUOUS
 10
15.1718331651
 20
8.7825106986
 11
14.6100614616
 21
8.7825106986
  0
LINE
  5
260
100
AcDbEntity
  8
0
100
AcDbLine
 62
9
  6
CONTINUOUS
 10
14.5952237065
 20
8.7825106986
 11
14.5341811634
 21
8.7825106986
  0
LINE
  5
261
100
AcDbEntity
  8
0
100
AcDbLine
 62
9
  6
CONTINUOUS
 10
14.465787632
 20
8.9596958995
 11
14.5451452349
 21
8.9596958995
  0
LINE
  5
262
100
AcDbEntity
  8
0
100
AcDbLine
 62
9
  6
CONTINUOUS
 10
14.5563273155
 20
8.9596958995
 11
15.2255673113
 21
8.9596958995
  0
LINE
  5
263
100
AcDbEntity
  8
0
100
AcDbLine
 62
9
  6
CONTINUOUS
 10
15.2367493919
 20
8.9596958995
 11
15.3161069948
 21
8.9596958995
  0
LINE
  5
264
100
AcDbEntity
  8
0
100
AcDbLine
 62
9
  6
CONTINUOUS
 10
14.4609473134
 20
8.9727413608
 11
14.5408203978
 21
8.9727413608
  0
LINE
  5
265
100
AcDbEntity
  8
0
100
AcDbLine
 62
9
  6
CONTINUOUS
 10
14.5541537311
 20
8.9727413608
 11
15.2277408956
 21
8.9727413608
  0
LINE
  5
266
100
AcDbEntity
  8
0
100
AcDbLine
 62
9
  6
CONTINUOUS
 10
15.2410742289
 20
8.9727413608
 11
15.3209473134
 21
8.9727413608
  0
LINE
  5
267
100
AcDbEntity
  8
0
100
AcDbLine
 62
9
  6
CONTINUOUS
 10
15.3209473134
 20
9.0241758657
 11
14.4609473134
 21
9.0241758657
  0
LINE
  5
268
100
AcDbEntity
  8
0
100
AcDbLine
 62
9
  6
CONTINUOUS
 10
15.3046332958
 20
9.0438332697
 11
15.2252720535
 21
9.0438332697
  0
LINE
  5
269
100
AcDbEntity
  8
0
100
AcDbLine
 62
9
  6
CONTINUOUS
 10
15.2228422595
 20
9.0438332697
 11
14.5590523673
 21
9.0438332697
  0
LINE
  5
26A
100
AcDbEntity
  8
0
100
AcDbLine
 62
9
  6
CONTINUOUS
 10
14.5566225732
 20
9.0438332697
 11
14.4772613309
 21
9.0438332697
  0
LINE
  5
26B
100
AcDbEntity
  8
0
100
AcDbLine
 62
9
  6
CONTINUOUS
 10
15.2750571491
 20
9.0601758657
 11
15.2057996788
 21
9.0601758657
  0
LINE
  5
26C
100
AcDbEntity
  8
0
100
AcDbLine
 62
9
  6
CONTINUOUS
 10
15.19546847
 20
9.0601758657
 11
14.5864261567
 21
9.0601758657
  0
LINE
  5
26D
100
AcDbEntity
  8
0
100
AcDbLine
 62
9
  6
CONTINUOUS
 10
14.5760949479
 20
9.0601758657
 11
14.5068374777
 21
9.0601758657
  0
LINE
  5
26E
100
AcDbEntity
  8
0
100
AcDbLine
 62
7
  6
CONTINUOUS
 10
7.5957680021
 20
11.967917031
 11
7.6002032252
 21
11.9635230204
  0
LINE
  5
26F
100
AcDbEntity
  8
0
100
AcDbLine
 62
7
  6
CONTINUOUS
 10
7.3626165953
 20
13.1785373395
 11
7.3816337956
 21
13.1487841338
  0
LINE
  5
270
100
AcDbEntity
  8
0
100
AcDbLine
 62
7
  6
CONTINUOUS
 10
14.6051990555
 20
9.1031758657
 11
15.1766955712
 21
9.1031758657
  0
LINE
  5
271
100
AcDbEntity
  8
0
100
AcDbLine
 62
7
  6
CONTINUOUS
 10
6.3197051863
 20
10.7619944177
 11
6.2399263306
 21
10.7742104493
  0
LINE
  5
272
100
AcDbEntity
  8
0
100
AcDbLine
 62
7
  6
CONTINUOUS
 10
6.1825090425
 20
10.7830023955
 11
6.1027923959
 21
10.7952089014
  0
LINE
  5
273
100
AcDbEntity
  8
0
100
AcDbLine
 62
7
  6
CONTINUOUS
 10
5.8926083705
 20
10.8273930518
 11
6.0707258204
 21
10.8001190533
  0
LINE
  5
274
100
AcDbEntity
  8
0
100
AcDbLine
 62
7
  6
CONTINUOUS
 10
6.3858906458
 20
10.7518598569
 11
6.4656768429
 21
10.7396427012
  0
LINE
  5
275
100
AcDbEntity
  8
0
100
AcDbLine
 62
7
  6
CONTINUOUS
 10
6.5230554671
 20
10.7308566754
 11
6.6028421001
 21
10.7186394529
  0
LINE
  5
276
100
AcDbEntity
  8
0
100
AcDbLine
 62
7
  6
CONTINUOUS
 10
6.6348736827
 20
10.7137346593
 11
6.8129911323
 21
10.6864606608
  0
LINE
  5
277
100
AcDbEntity
  8
0
100
AcDbLine
 62
9
  6
CONTINUOUS
 10
5.8826097524
 20
10.8398313673
 11
6.0839884922
 21
10.8089955146
  0
LINE
  5
278
100
AcDbEntity
  8
0
100
AcDbLine
 62
9
  6
CONTINUOUS
 10
6.0927587846
 20
10.8076525752
 11
6.1958064567
 21
10.7918735369
  0
LINE
  5
279
100
AcDbEntity
  8
0
100
AcDbLine
 62
9
  6
CONTINUOUS
 10
6.2299238238
 20
10.7866493603
 11
6.3329714959
 21
10.770870322
  0
LINE
  5
27A
100
AcDbEntity
  8
0
100
AcDbLine
 62
9
  6
CONTINUOUS
 10
6.3758918098
 20
10.7642982058
 11
6.4789394818
 21
10.7485191675
  0
LINE
  5
27B
100
AcDbEntity
  8
0
100
AcDbLine
 62
9
  6
CONTINUOUS
 10
6.513056849
 20
10.7432949909
 11
6.616104521
 21
10.7275159526
  0
LINE
  5
27C
100
AcDbEntity
  8
0
100
AcDbLine
 62
9
  6
CONTINUOUS
 10
6.6248748135
 20
10.7261730132
 11
6.8262535532
 21
10.6953371605
  0
LINE
  5
27D
100
AcDbEntity
  8
0
100
AcDbLine
 62
7
  6
CONTINUOUS
 10
6.5153962711
 20
10.7796489805
 11
6.4875855027
 21
10.7839074675
  0
LINE
  5
27E
100
AcDbEntity
  8
0
100
AcDbLine
 62
7
  6
CONTINUOUS
 10
6.3782312318
 20
10.8006521954
 11
6.3416175168
 21
10.806258622
  0
LINE
  5
27F
100
AcDbEntity
  8
0
100
AcDbLine
 62
7
  6
CONTINUOUS
 10
6.2322632459
 20
10.8230033498
 11
6.2044524776
 21
10.8272618369
  0
LINE
  5
280
100
AcDbEntity
  8
0
100
AcDbLine
 62
7
  6
CONTINUOUS
 10
5.7645283362
 20
10.8947998856
 11
6.955372852
 21
10.7124533968
  0
LINE
  5
281
100
AcDbEntity
  8
0
100
AcDbLine
 62
9
  6
CONTINUOUS
 10
5.7546411006
 20
10.9082625425
 11
6.9688355089
 21
10.7223406324
  0
LINE
  5
282
100
AcDbEntity
  8
0
100
AcDbLine
 62
7
  6
CONTINUOUS
 10
7.3098944466
 20
10.6714865505
 11
5.4139921446
 21
10.9617940787
  0
LINE
  5
283
100
AcDbEntity
  8
0
100
AcDbLine
 62
9
  6
CONTINUOUS
 10
5.397249759
 20
10.9845908444
 11
7.3326912123
 21
10.6882289361
  0
LINE
  5
284
100
AcDbEntity
  8
0
100
AcDbLine
 62
9
  6
CONTINUOUS
 10
5.4199536846
 20
11.1328626616
 11
7.3553951379
 21
10.8365007532
  0
LINE
  5
285
100
AcDbEntity
  8
0
100
AcDbLine
 62
7
  6
CONTINUOUS
 10
7.3386527524
 20
10.8592975189
 11
5.4427504503
 21
11.1496050471
  0
LINE
  5
286
100
AcDbEntity
  8
0
100
AcDbLine
 62
9
  6
CONTINUOUS
 10
7.319113501
 20
10.8721112176
 11
5.4652286847
 21
11.155984874
  0
LINE
  5
287
100
AcDbEntity
  8
0
100
AcDbLine
 62
7
  6
CONTINUOUS
 10
14.6296177334
 20
5.922230844
 11
14.6135103309
 21
5.939780571
  0
LWPOLYLINE
  5
288
100
AcDbEntity
  8
0
100
AcDbPolyline
 62
7
  6
CONTINUOUS
 90
15
 70
0
 10
7.4842751101
 20
12.9540863948
 10
7.4715745857
 20
12.9615413039
 10
7.456840218
 20
12.9711858509
 10
7.4432344633
 20
12.9813128169
 10
7.4308341657
 20
12.9919172883
 10
7.4197349742
 20
13.0029616297
 10
7.4100360464
 20
13.0143654067
 10
7.401790686
 20
13.0260423469
 10
7.3950023957
 20
13.0379157412
 10
7.3896113578
 20
13.0499872854
 10
7.3855494046
 20
13.0623178726
 10
7.3827760263
 20
13.0749942035
 10
7.3812894277
 20
13.0880945103
 10
7.3811192147
 20
13.1017247407
 10
7.3820467957
 20
13.1137029162
  0
LINE
  5
289
100
AcDbEntity
  8
0
100
AcDbLine
 62
7
  6
CONTINUOUS
 10
7.3392598038
 20
11.6825767476
 11
7.4995225258
 21
11.6847234906
  0
LINE
  5
28A
100
AcDbEntity
  8
0
100
AcDbLine
 62
7
  6
CONTINUOUS
 10
13.7589473134
 20
0.4551758657
 11
13.7589473134
 21
0.5342208463
  0
LINE
  5
28B
100
AcDbEntity
  8
0
100
AcDbLine
 62
7
  6
CONTINUOUS
 10
13.8379473134
 20
0.6663542885
 11
13.8379473134
 21
0.958826238
  0
LINE
  5
28C
100
AcDbEntity
  8
0
100
AcDbLine
 62
9
  6
CONTINUOUS
 10
13.8444799449
 20
0.5342208463
 11
13.8444799449
 21
0.4551758657
  0
LINE
  5
28D
100
AcDbEntity
  8
0
100
AcDbLine
 62
7
  6
CONTINUOUS
 10
13.8624473134
 20
7.3751758657
 11
13.8624473134
 21
7.5011548523
  0
LINE
  5
28E
100
AcDbEntity
  8
0
100
AcDbLine
 62
9
  6
CONTINUOUS
 10
13.8690753348
 20
0.5342213633
 11
13.8690753348
 21
0.4551758657
  0
LINE
  5
28F
100
AcDbEntity
  8
0
100
AcDbLine
 62
9
  6
CONTINUOUS
 10
13.9132202722
 20
0.8253690312
 11
13.9132202722
 21
0.6663533555
  0
LINE
  5
290
100
AcDbEntity
  8
0
100
AcDbLine
 62
9
  6
CONTINUOUS
 10
13.9381374634
 20
0.8253690312
 11
13.9381374582
 21
0.6663530742
  0
LINE
  5
291
100
AcDbEntity
  8
0
100
AcDbLine
 62
7
  6
CONTINUOUS
 10
13.9409473134
 20
1.2031758657
 11
13.9409473134
 21
5.0855377185
  0
LINE
  5
292
100
AcDbEntity
  8
0
100
AcDbLine
 62
7
  6
CONTINUOUS
 10
13.9409473134
 20
5.6008140129
 11
13.9409473134
 21
7.3551758657
  0
LINE
  5
293
100
AcDbEntity
  8
0
100
AcDbLine
 62
9
  6
CONTINUOUS
 10
7.1940015328
 20
12.4632376078
 11
7.152361443
 21
12.4696136914
  0
LINE
  5
294
100
AcDbEntity
  8
0
100
AcDbLine
 62
9
  6
CONTINUOUS
 10
6.1023630307
 20
12.6303933072
 11
5.9511144916
 21
12.6535530394
  0
LINE
  5
295
100
AcDbEntity
  8
0
100
AcDbLine
 62
9
  6
CONTINUOUS
 10
6.1113126014
 20
12.6290229161
 11
7.1434118723
 21
12.4709840826
  0
LINE
  5
296
100
AcDbEntity
  8
0
100
AcDbLine
 62
7
  6
CONTINUOUS
 10
7.5103718972
 20
12.8377749633
 11
7.4769993552
 21
12.8434989575
  0
LWPOLYLINE
  5
297
100
AcDbEntity
  8
0
100
AcDbPolyline
 62
7
  6
CONTINUOUS
 90
7
 70
0
 10
14.6082812425
 20
5.952749208
 10
14.6082995116
 20
5.9522706145
 10
14.6086556863
 20
5.9493860529
 10
14.609426191
 20
5.9465835726
 10
14.610594754
 20
5.9439223603
 10
14.6121366967
 20
5.9414586194
 10
14.613510662
 20
5.9397808725
  0
LINE
  5
298
100
AcDbEntity
  8
0
100
AcDbLine
 62
7
  6
CONTINUOUS
 10
14.5341811634
 20
8.7825106986
 11
14.6082810759
 21
5.9527492042
  0
LINE
  5
299
100
AcDbEntity
  8
0
100
AcDbLine
 62
7
  6
CONTINUOUS
 10
14.3209473134
 20
12.9161758657
 11
14.3209473134
 21
7.9251758657
  0
LINE
  5
29A
100
AcDbEntity
  8
0
100
AcDbLine
 62
7
  6
CONTINUOUS
 10
14.4609473134
 20
9.0241758657
 11
14.4609473134
 21
8.9727413608
  0
LINE
  5
29B
100
AcDbEntity
  8
0
100
AcDbLine
 62
9
  6
CONTINUOUS
 10
14.5408203978
 20
8.9727413608
 11
14.5408203978
 21
9.0241758657
  0
LINE
  5
29C
100
AcDbEntity
  8
0
100
AcDbLine
 62
7
  6
CONTINUOUS
 10
14.5534473134
 20
5.0106758657
 11
14.5534473134
 21
5.3556758657
  0
LINE
  5
29D
100
AcDbEntity
  8
0
100
AcDbLine
 62
9
  6
CONTINUOUS
 10
14.5541537311
 20
8.9727413608
 11
14.5541537311
 21
9.0241758657
  0
LINE
  5
29E
100
AcDbEntity
  8
0
100
AcDbLine
 62
7
  6
CONTINUOUS
 10
14.5659473134
 20
5.0086758657
 11
14.5659473134
 21
5.6776758657
  0
LINE
  5
29F
100
AcDbEntity
  8
0
100
AcDbLine
 62
7
  6
CONTINUOUS
 10
14.6544473134
 20
4.8569130582
 11
14.6544473134
 21
4.8602274589
  0
LINE
  5
2A0
100
AcDbEntity
  8
0
100
AcDbLine
 62
9
  6
CONTINUOUS
 10
7.5927376826
 20
12.6171225571
 11
7.6006116126
 21
12.6171593105
  0
LINE
  5
2A1
100
AcDbEntity
  8
0
100
AcDbLine
 62
9
  6
CONTINUOUS
 10
14.3209473134
 20
12.9161758657
 11
15.4609473134
 21
12.9161758657
  0
LINE
  5
2A2
100
AcDbEntity
  8
0
100
AcDbLine
 62
9
  6
CONTINUOUS
 10
7.3820608675
 20
13.1136996363
 11
7.382046694
 21
13.1137016036
  0
LINE
  5
2A3
100
AcDbEntity
  8
0
100
AcDbLine
 62
9
  6
CONTINUOUS
 10
7.3626165953
 20
13.1785373395
 11
6.1138737989
 21
13.3697494258
  0
LINE
  5
2A4
100
AcDbEntity
  8
0
100
AcDbLine
 62
9
  6
CONTINUOUS
 10
7.3730785677
 20
13.2441582751
 11
6.1235270267
 21
13.4354941994
  0
LINE
  5
2A5
100
AcDbEntity
  8
0
100
AcDbLine
 62
9
  6
CONTINUOUS
 10
7.386102344
 20
13.3211375345
 11
6.134134597
 21
13.5128434371
  0
LINE
  5
2A6
100
AcDbEntity
  8
0
100
AcDbLine
 62
9
  6
CONTINUOUS
 10
7.3841430503
 20
13.3698761615
 11
6.1505882405
 21
13.5587626075
  0
LINE
  5
2A7
100
AcDbEntity
  8
0
100
AcDbLine
 62
7
  6
CONTINUOUS
 10
6.1914588431
 20
13.604565048
 11
7.3588506387
 21
13.4258097259
  0
LINE
  5
2A8
100
AcDbEntity
  8
0
100
AcDbLine
 62
9
  6
CONTINUOUS
 10
7.382046694
 20
13.1137016036
 11
7.3731734888
 21
13.1150616296
  0
LINE
  5
2A9
100
AcDbEntity
  8
0
100
AcDbLine
 62
7
  6
CONTINUOUS
 10
15.1274473134
 20
4.8569130582
 11
15.1274473134
 21
4.8602274589
  0
LINE
  5
2AA
100
AcDbEntity
  8
0
100
AcDbLine
 62
7
  6
CONTINUOUS
 10
15.2159473134
 20
5.0086758657
 11
15.2159473134
 21
5.6776758657
  0
LINE
  5
2AB
100
AcDbEntity
  8
0
100
AcDbLine
 62
9
  6
CONTINUOUS
 10
15.2277408956
 20
8.9727413608
 11
15.2277408956
 21
9.0241758657
  0
LINE
  5
2AC
100
AcDbEntity
  8
0
100
AcDbLine
 62
7
  6
CONTINUOUS
 10
15.2284473134
 20
5.3556758657
 11
15.2284473134
 21
5.0106758657
  0
LINE
  5
2AD
100
AcDbEntity
  8
0
100
AcDbLine
 62
9
  6
CONTINUOUS
 10
15.2410742289
 20
8.9727413608
 11
15.2410742289
 21
9.0241758657
  0
LINE
  5
2AE
100
AcDbEntity
  8
0
100
AcDbLine
 62
7
  6
CONTINUOUS
 10
15.3209473134
 20
9.0241758657
 11
15.3209473134
 21
8.9727413608
  0
LINE
  5
2AF
100
AcDbEntity
  8
0
100
AcDbLine
 62
7
  6
CONTINUOUS
 10
15.4609473134
 20
7.9251758657
 11
15.4609473134
 21
12.9161758657
  0
LINE
  5
2B0
100
AcDbEntity
  8
0
100
AcDbLine
 62
7
  6
CONTINUOUS
 10
15.2477134634
 20
8.7825106986
 11
15.1736135509
 21
5.9527492042
  0
LWPOLYLINE
  5
2B1
100
AcDbEntity
  8
0
100
AcDbPolyline
 62
7
  6
CONTINUOUS
 90
10
 70
0
 10
15.9439473138
 20
0.958826238
 10
15.9438927907
 20
0.9606341125
 10
15.9433792983
 20
0.9646364236
 10
15.942333317
 20
0.9685336955
 10
15.9407737545
 20
0.9722553818
 10
15.9387288267
 20
0.975734116
 10
15.9362355423
 20
0.9789069371
 10
15.9333390139
 20
0.9817164424
 10
15.9300916441
 20
0.9841118065
 10
15.9273302595
 20
0.9856757456
  0
LINE
  5
2B2
100
AcDbEntity
  8
0
100
AcDbLine
 62
7
  6
CONTINUOUS
 10
15.8409473134
 20
1.2031758657
 11
15.8409473134
 21
5.0855377185
  0
LINE
  5
2B3
100
AcDbEntity
  8
0
100
AcDbLine
 62
7
  6
CONTINUOUS
 10
15.8409473134
 20
5.6008140129
 11
15.8409473134
 21
7.3551758657
  0
LINE
  5
2B4
100
AcDbEntity
  8
0
100
AcDbLine
 62
9
  6
CONTINUOUS
 10
15.8437571634
 20
0.8253690312
 11
15.8437571634
 21
0.6663533555
  0
LINE
  5
2B5
100
AcDbEntity
  8
0
100
AcDbLine
 62
9
  6
CONTINUOUS
 10
15.8686743545
 20
0.8253690312
 11
15.8686743537
 21
0.6663530742
  0
LINE
  5
2B6
100
AcDbEntity
  8
0
100
AcDbLine
 62
9
  6
CONTINUOUS
 10
15.912819292
 20
0.5342208463
 11
15.912819292
 21
0.4551758657
  0
LINE
  5
2B7
100
AcDbEntity
  8
0
100
AcDbLine
 62
7
  6
CONTINUOUS
 10
15.9194473134
 20
7.3751758657
 11
15.9194473134
 21
7.5011548523
  0
LINE
  5
2B8
100
AcDbEntity
  8
0
100
AcDbLine
 62
9
  6
CONTINUOUS
 10
15.9374146819
 20
0.5342213619
 11
15.9374146819
 21
0.4551758657
  0
LINE
  5
2B9
100
AcDbEntity
  8
0
100
AcDbLine
 62
7
  6
CONTINUOUS
 10
15.9439473134
 20
0.6663542885
 11
15.9439473134
 21
0.958826238
  0
LINE
  5
2BA
100
AcDbEntity
  8
0
100
AcDbLine
 62
7
  6
CONTINUOUS
 10
16.0229473134
 20
0.4551758657
 11
16.0229473134
 21
0.5342208463
  0
LWPOLYLINE
  5
2BB
100
AcDbEntity
  8
0
100
AcDbPolyline
 62
7
  6
CONTINUOUS
 90
7
 70
0
 10
15.1683839647
 20
5.9397808725
 10
15.1697579301
 20
5.9414586194
 10
15.1712998728
 20
5.9439223603
 10
15.1724684358
 20
5.9465835726
 10
15.1732389405
 20
5.9493860529
 10
15.1735951152
 20
5.9522706145
 10
15.1736133843
 20
5.952749208
  0
LINE
  5
2BC
100
AcDbEntity
  8
0
100
AcDbLine
 62
7
  6
CONTINUOUS
 10
15.1522768933
 20
5.922230844
 11
15.1683842958
 21
5.939780571
  0
LWPOLYLINE
  5
2BD
100
AcDbEntity
  8
0
100
AcDbPolyline
 62
7
  6
CONTINUOUS
 90
10
 70
0
 10
13.8545643673
 20
0.9856757456
 10
13.8518029826
 20
0.9841118065
 10
13.8485556129
 20
0.9817164424
 10
13.8456590844
 20
0.9789069371
 10
13.8431658
 20
0.975734116
 10
13.8411208723
 20
0.9722553818
 10
13.8395613097
 20
0.9685336955
 10
13.8385153284
 20
0.9646364236
 10
13.838001836
 20
0.9606341125
 10
13.8379473129
 20
0.958826238
  0
ARC
  5
2BE
100
AcDbEntity
  8
0
100
AcDbCircle
 62
9
  6
CONTINUOUS
 10
5.9265134526
 20
-6.168506621
 40
18.4102031078
100
AcDbArc
 50
85.5705964266
 51
85.9292761935
  0
ARC
  5
2BF
100
AcDbEntity
  8
0
100
AcDbCircle
 62
7
  6
CONTINUOUS
 10
-3.502882428
 20
14.2289936716
 40
9.48
100
AcDbArc
 50
341.0854872857
 51
349.3873614439
  0
ARC
  5
2C0
100
AcDbEntity
  8
0
100
AcDbCircle
 62
7
  6
CONTINUOUS
 10
5.7418219151
 20
12.693120923
 40
0.213
100
AcDbArc
 50
293.4699063347
 51
349.2942799924
  0
ARC
  5
2C1
100
AcDbEntity
  8
0
100
AcDbCircle
 62
7
  6
CONTINUOUS
 10
6.1731651365
 20
13.4680888686
 40
0.0593831156
100
AcDbArc
 50
131.0917411725
 51
213.2907466796
  0
ARC
  5
2C2
100
AcDbEntity
  8
0
100
AcDbCircle
 62
7
  6
CONTINUOUS
 10
6.0817322257
 20
13.408049808
 40
0.05
100
AcDbArc
 50
310.0032799925
 51
33.2907466796
  0
ARC
  5
2C3
100
AcDbEntity
  8
0
100
AcDbCircle
 62
7
  6
CONTINUOUS
 10
6.1012712661
 20
13.5505263442
 40
0.05
100
AcDbArc
 50
311.0917411725
 51
9.4812750381
  0
ARC
  5
2C4
100
AcDbEntity
  8
0
100
AcDbCircle
 62
7
  6
CONTINUOUS
 10
6.1894205039
 20
13.5652478542
 40
0.0393700787
100
AcDbArc
 50
87.0334504697
 51
189.4812750381
  0
ARC
  5
2C5
100
AcDbEntity
  8
0
100
AcDbCircle
 62
7
  6
CONTINUOUS
 10
5.4170193346
 20
10.9815636544
 40
0.02
100
AcDbArc
 50
171.2942799925
 51
261.2942799924
  0
ARC
  5
2C6
100
AcDbEntity
  8
0
100
AcDbCircle
 62
7
  6
CONTINUOUS
 10
5.4397232602
 20
11.1298354715
 40
0.02
100
AcDbArc
 50
81.2942799924
 51
171.2942799924
  0
ARC
  5
2C7
100
AcDbEntity
  8
0
100
AcDbCircle
 62
7
  6
CONTINUOUS
 10
6.4674647715
 20
10.7513176141
 40
0.0118110236
100
AcDbArc
 50
261.2942799924
 51
346.2942799925
  0
ARC
  5
2C8
100
AcDbEntity
  8
0
100
AcDbCircle
 62
7
  6
CONTINUOUS
 10
6.3876781385
 20
10.7635348365
 40
0.0118110236
100
AcDbArc
 50
176.2942799924
 51
261.2942799924
  0
ARC
  5
2C9
100
AcDbEntity
  8
0
100
AcDbCircle
 62
7
  6
CONTINUOUS
 10
6.6046298108
 20
10.7303143991
 40
0.0118110236
100
AcDbArc
 50
261.2942799924
 51
346.2942799925
  0
ARC
  5
2CA
100
AcDbEntity
  8
0
100
AcDbCircle
 62
7
  6
CONTINUOUS
 10
6.5248431778
 20
10.7425316216
 40
0.0118110236
100
AcDbArc
 50
176.2942799925
 51
261.2942799924
  0
ARC
  5
2CB
100
AcDbEntity
  8
0
100
AcDbCircle
 62
7
  6
CONTINUOUS
 10
6.6366611423
 20
10.7254096439
 40
0.0118110236
100
AcDbArc
 50
176.2942799925
 51
261.2942799924
  0
ARC
  5
2CC
100
AcDbEntity
  8
0
100
AcDbCircle
 62
7
  6
CONTINUOUS
 10
5.9197431559
 20
10.8351867608
 40
0.0118110236
100
AcDbArc
 50
176.2942799925
 51
261.2942799924
  0
ARC
  5
2CD
100
AcDbEntity
  8
0
100
AcDbCircle
 62
7
  6
CONTINUOUS
 10
5.9927271489
 20
10.8240111836
 40
0.0118110236
100
AcDbArc
 50
176.2942799925
 51
261.2942799925
  0
ARC
  5
2CE
100
AcDbEntity
  8
0
100
AcDbCircle
 62
7
  6
CONTINUOUS
 10
6.0725137819
 20
10.8117939611
 40
0.0118110236
100
AcDbArc
 50
261.2942799924
 51
346.2942799925
  0
ARC
  5
2CF
100
AcDbEntity
  8
0
100
AcDbCircle
 62
7
  6
CONTINUOUS
 10
6.1045451134
 20
10.8068892059
 40
0.0118110236
100
AcDbArc
 50
176.2942799925
 51
261.2942799925
  0
ARC
  5
2D0
100
AcDbEntity
  8
0
100
AcDbCircle
 62
7
  6
CONTINUOUS
 10
6.1843317464
 20
10.7946719834
 40
0.0118110236
100
AcDbArc
 50
261.2942799924
 51
346.2942799924
  0
ARC
  5
2D1
100
AcDbEntity
  8
0
100
AcDbCircle
 62
7
  6
CONTINUOUS
 10
6.2417101526
 20
10.785885991
 40
0.0118110236
100
AcDbArc
 50
176.2942799925
 51
261.2942799924
  0
ARC
  5
2D2
100
AcDbEntity
  8
0
100
AcDbCircle
 62
7
  6
CONTINUOUS
 10
6.3214967856
 20
10.7736687685
 40
0.0118110236
100
AcDbArc
 50
261.2942799924
 51
346.2942799924
  0
ARC
  5
2D3
100
AcDbEntity
  8
0
100
AcDbCircle
 62
7
  6
CONTINUOUS
 10
5.7663160469
 20
10.9064748318
 40
0.0118110236
100
AcDbArc
 50
171.2942799924
 51
261.2942799924
  0
ARC
  5
2D4
100
AcDbEntity
  8
0
100
AcDbCircle
 62
7
  6
CONTINUOUS
 10
5.8943960812
 20
10.839067998
 40
0.0118110236
100
AcDbArc
 50
176.2942799969
 51
261.2942799924
  0
ARC
  5
2D5
100
AcDbEntity
  8
0
100
AcDbCircle
 62
7
  6
CONTINUOUS
 10
5.454065846
 20
11.1598099271
 40
0.0118
100
AcDbArc
 50
261.2942799924
 51
341.0854872857
  0
ARC
  5
2D6
100
AcDbEntity
  8
0
100
AcDbCircle
 62
9
  6
CONTINUOUS
 10
14.8858555634
 20
-5.127251243
 40
6.1129328587
100
AcDbArc
 50
88.9614276979
 51
89.9522756112
  0
ARC
  5
2D7
100
AcDbEntity
  8
0
100
AcDbCircle
 62
7
  6
CONTINUOUS
 10
13.7179465881
 20
0.6663537891
 40
0.1200007252
100
AcDbArc
 50
298.2511669167
 51
359.9997929674
  0
ARC
  5
2D8
100
AcDbEntity
  8
0
100
AcDbCircle
 62
7
  6
CONTINUOUS
 10
13.9114261515
 20
1.0671758657
 40
0.059
100
AcDbArc
 50
143.6988320172
 51
217.8828541757
  0
ARC
  5
2D9
100
AcDbEntity
  8
0
100
AcDbCircle
 62
7
  6
CONTINUOUS
 10
13.8235812842
 20
1.1317070929
 40
0.05
100
AcDbArc
 50
323.6988320172
 51
21.3963623323
  0
ARC
  5
2DA
100
AcDbEntity
  8
0
100
AcDbCircle
 62
7
  6
CONTINUOUS
 10
13.9064473134
 20
1.1641758657
 40
0.039
100
AcDbArc
 50
90.0
 51
201.3963623323
  0
ARC
  5
2DB
100
AcDbEntity
  8
0
100
AcDbCircle
 62
9
  6
CONTINUOUS
 10
13.8688615474
 20
0.9568127538
 40
0.0300045946
100
AcDbArc
 50
111.7501524582
 51
179.951800872
  0
ARC
  5
2DC
100
AcDbEntity
  8
0
100
AcDbCircle
 62
7
  6
CONTINUOUS
 10
13.7889491409
 20
0.5342197536
 40
0.0300019117
100
AcDbArc
 50
118.2526515957
 51
179.9979132962
  0
ARC
  5
2DD
100
AcDbEntity
  8
0
100
AcDbCircle
 62
7
  6
CONTINUOUS
 10
13.8411813106
 20
1.0125255013
 40
0.03
100
AcDbArc
 50
296.493611078
 51
37.8828541757
  0
ARC
  5
2DE
100
AcDbEntity
  8
0
100
AcDbCircle
 62
7
  6
CONTINUOUS
 10
14.4804775887
 20
6.4066638819
 40
1.378
100
AcDbArc
 50
101.2765953117
 51
106.8512059291
  0
ARC
  5
2DF
100
AcDbEntity
  8
0
100
AcDbCircle
 62
9
  6
CONTINUOUS
 10
14.8806327375
 20
5.4880412594
 40
0.8567324503
100
AcDbArc
 50
64.2491260942
 51
69.3547716027
  0
ARC
  5
2E0
100
AcDbEntity
  8
0
100
AcDbCircle
 62
7
  6
CONTINUOUS
 10
13.5859542772
 20
8.0008076112
 40
0.561
100
AcDbArc
 50
300.684816439
 51
329.5485880972
  0
ARC
  5
2E1
100
AcDbEntity
  8
0
100
AcDbCircle
 62
9
  6
CONTINUOUS
 10
14.8909442098
 20
5.0045515965
 40
0.3640375638
100
AcDbArc
 50
270.0004884716
 51
0.0072659092
  0
ARC
  5
2E2
100
AcDbEntity
  8
0
100
AcDbCircle
 62
9
  6
CONTINUOUS
 10
14.8909430553
 20
5.3559062956
 40
0.3640082552
100
AcDbArc
 50
359.9995250573
 51
26.744309877
  0
ARC
  5
2E3
100
AcDbEntity
  8
0
100
AcDbCircle
 62
7
  6
CONTINUOUS
 10
14.2512781404
 20
8.7751026222
 40
0.283
100
AcDbArc
 50
1.5
 51
40.7132012388
  0
ARC
  5
2E4
100
AcDbEntity
  8
0
100
AcDbCircle
 62
7
  6
CONTINUOUS
 10
14.6051990555
 20
8.9691758657
 40
0.134
100
AcDbArc
 50
90.0
 51
137.2262966616
  0
ARC
  5
2E5
100
AcDbEntity
  8
0
100
AcDbCircle
 62
7
  6
CONTINUOUS
 10
14.5398377525
 20
4.9433007298
 40
0.06
100
AcDbArc
 50
353.0157780445
 51
54.8044035675
  0
ARC
  5
2E6
100
AcDbEntity
  8
0
100
AcDbCircle
 62
7
  6
CONTINUOUS
 10
14.5397318815
 20
5.7429762015
 40
0.06
100
AcDbArc
 50
305.2884364884
 51
6.5554006173
  0
ARC
  5
2E7
100
AcDbEntity
  8
0
100
AcDbCircle
 62
7
  6
CONTINUOUS
 10
14.6589473134
 20
4.9287092083
 40
0.06
100
AcDbArc
 50
173.0157780445
 51
258.0450312918
  0
ARC
  5
2E8
100
AcDbEntity
  8
0
100
AcDbCircle
 62
7
  6
CONTINUOUS
 10
14.6589473134
 20
5.7566758657
 40
0.06
100
AcDbArc
 50
132.8357375926
 51
186.5554006173
  0
ARC
  5
2E9
100
AcDbEntity
  8
0
100
AcDbCircle
 62
9
  6
CONTINUOUS
 10
14.5540946998
 20
8.9162907284
 40
0.0564506632
100
AcDbArc
 50
89.940084934
 51
92.0694497141
  0
ARC
  5
2EA
100
AcDbEntity
  8
0
100
AcDbCircle
 62
7
  6
CONTINUOUS
 10
14.4673460382
 20
9.0967116866
 40
0.0538
100
AcDbArc
 50
280.6202724305
 51
317.2262966616
  0
ARC
  5
2EB
100
AcDbEntity
  8
0
100
AcDbCircle
 62
7
  6
CONTINUOUS
 10
14.1963373173
 20
7.8660043417
 40
0.05
100
AcDbArc
 50
326.7389476229
 51
18.4867686301
  0
ARC
  5
2EC
100
AcDbEntity
  8
0
100
AcDbCircle
 62
7
  6
CONTINUOUS
 10
14.2766106332
 20
7.8133527059
 40
0.046
100
AcDbArc
 50
146.7389476232
 51
199.9015676802
  0
ARC
  5
2ED
100
AcDbEntity
  8
0
100
AcDbCircle
 62
7
  6
CONTINUOUS
 10
14.6589473134
 20
5.8553205392
 40
0.0393553265
100
AcDbArc
 50
137.811254196
 51
208.0812313324
  0
ARC
  5
2EE
100
AcDbEntity
  8
0
100
AcDbCircle
 62
7
  6
CONTINUOUS
 10
14.2750542604
 20
7.8923224507
 40
0.033
100
AcDbArc
 50
95.4023939818
 51
198.4867686299
  0
ARC
  5
2EF
100
AcDbEntity
  8
0
100
AcDbCircle
 62
7
  6
CONTINUOUS
 10
14.2051494434
 20
7.7874819048
 40
0.03
100
AcDbArc
 50
281.2765953115
 51
19.9015676805
  0
ARC
  5
2F0
100
AcDbEntity
  8
0
100
AcDbCircle
 62
7
  6
CONTINUOUS
 10
14.6075594189
 20
5.9018978471
 40
0.03
100
AcDbArc
 50
317.811254196
 51
42.6693597798
  0
ARC
  5
2F1
100
AcDbEntity
  8
0
100
AcDbCircle
 62
7
  6
CONTINUOUS
 10
14.5977564189
 20
5.8226733992
 40
0.03
100
AcDbArc
 50
312.8357375926
 51
28.0812313324
  0
ARC
  5
2F2
100
AcDbEntity
  8
0
100
AcDbCircle
 62
7
  6
CONTINUOUS
 10
14.086810704
 20
7.7063524538
 40
0.02
100
AcDbArc
 50
106.851205929
 51
149.548588097
  0
ARC
  5
2F3
100
AcDbEntity
  8
0
100
AcDbCircle
 62
7
  6
CONTINUOUS
 10
13.8824473134
 20
7.5011548523
 40
0.02
100
AcDbArc
 50
120.6848164389
 51
180.0
  0
ARC
  5
2F4
100
AcDbEntity
  8
0
100
AcDbCircle
 62
7
  6
CONTINUOUS
 10
13.8824473134
 20
7.3751758657
 40
0.02
100
AcDbArc
 50
180.0
 51
270.0
  0
ARC
  5
2F5
100
AcDbEntity
  8
0
100
AcDbCircle
 62
7
  6
CONTINUOUS
 10
14.4809473134
 20
8.9727413608
 40
0.02
100
AcDbArc
 50
180.0
 51
220.7132012388
  0
ARC
  5
2F6
100
AcDbEntity
  8
0
100
AcDbCircle
 62
7
  6
CONTINUOUS
 10
14.5859473134
 20
5.0086758657
 40
0.02
100
AcDbArc
 50
180.0
 51
234.8044035675
  0
ARC
  5
2F7
100
AcDbEntity
  8
0
100
AcDbCircle
 62
7
  6
CONTINUOUS
 10
14.5859473134
 20
5.6776758657
 40
0.02
100
AcDbArc
 50
125.2884364884
 51
180.0
  0
ARC
  5
2F8
100
AcDbEntity
  8
0
100
AcDbCircle
 62
7
  6
CONTINUOUS
 10
14.4809473134
 20
9.0241758657
 40
0.02
100
AcDbArc
 50
100.6202724305
 51
180.0
  0
ARC
  5
2F9
100
AcDbEntity
  8
0
100
AcDbCircle
 62
9
  6
CONTINUOUS
 10
14.5578374701
 20
9.028707453
 40
0.0151745281
100
AcDbArc
 50
85.407893514
 51
94.5921064945
  0
ARC
  5
2FA
100
AcDbEntity
  8
0
100
AcDbCircle
 62
7
  6
CONTINUOUS
 10
14.6444473134
 20
4.8602274589
 40
0.01
100
AcDbArc
 50
0.0
 51
78.0450312918
  0
ARC
  5
2FB
100
AcDbEntity
  8
0
100
AcDbCircle
 62
7
  6
CONTINUOUS
 10
14.6644473134
 20
4.8569130582
 40
0.01
100
AcDbArc
 50
180.0
 51
242.5892821107
  0
ARC
  5
2FC
100
AcDbEntity
  8
0
100
AcDbCircle
 62
9
  6
CONTINUOUS
 10
14.5563171682
 20
8.9524224029
 40
0.0072735036
100
AcDbArc
 50
89.9200663614
 51
95.5605639838
  0
ARC
  5
2FD
100
AcDbEntity
  8
0
100
AcDbCircle
 62
9
  6
CONTINUOUS
 10
14.8960370583
 20
-5.127050089
 40
6.1127317007
100
AcDbArc
 50
90.0477071655
 51
91.0385876862
  0
ARC
  5
2FE
100
AcDbEntity
  8
0
100
AcDbCircle
 62
7
  6
CONTINUOUS
 10
16.0639480386
 20
0.6663537891
 40
0.1200007252
100
AcDbArc
 50
180.0002070326
 51
241.7488330833
  0
ARC
  5
2FF
100
AcDbEntity
  8
0
100
AcDbCircle
 62
7
  6
CONTINUOUS
 10
15.8704684753
 20
1.0671758657
 40
0.059
100
AcDbArc
 50
322.1171458243
 51
36.3011679828
  0
ARC
  5
300
100
AcDbEntity
  8
0
100
AcDbCircle
 62
7
  6
CONTINUOUS
 10
15.9583133426
 20
1.1317070929
 40
0.05
100
AcDbArc
 50
158.6036376677
 51
216.3011679828
  0
ARC
  5
301
100
AcDbEntity
  8
0
100
AcDbCircle
 62
7
  6
CONTINUOUS
 10
15.8754473134
 20
1.1641758657
 40
0.039
100
AcDbArc
 50
338.6036376677
 51
90.0
  0
ARC
  5
302
100
AcDbEntity
  8
0
100
AcDbCircle
 62
9
  6
CONTINUOUS
 10
15.9130330777
 20
0.9568127532
 40
0.0300045947
100
AcDbArc
 50
0.0482002702
 51
68.2498450985
  0
ARC
  5
303
100
AcDbEntity
  8
0
100
AcDbCircle
 62
7
  6
CONTINUOUS
 10
15.9929454856
 20
0.5342197535
 40
0.0300019117
100
AcDbArc
 50
0.0020869151
 51
61.747348193
  0
ARC
  5
304
100
AcDbEntity
  8
0
100
AcDbCircle
 62
7
  6
CONTINUOUS
 10
15.9407133161
 20
1.0125255013
 40
0.03
100
AcDbArc
 50
142.1171458243
 51
243.506388922
  0
ARC
  5
305
100
AcDbEntity
  8
0
100
AcDbCircle
 62
7
  6
CONTINUOUS
 10
15.3014170381
 20
6.4066638819
 40
1.378
100
AcDbArc
 50
73.1487940709
 51
78.7234046883
  0
ARC
  5
306
100
AcDbEntity
  8
0
100
AcDbCircle
 62
7
  6
CONTINUOUS
 10
14.8909473134
 20
5.3431758657
 40
0.985
100
AcDbArc
 50
107.2049992314
 51
72.7950007687
  0
ARC
  5
307
100
AcDbEntity
  8
0
100
AcDbCircle
 62
9
  6
CONTINUOUS
 10
14.8909473134
 20
5.3431758657
 40
0.9763703636
100
AcDbArc
 50
107.3489836559
 51
72.6510163441
  0
ARC
  5
308
100
AcDbEntity
  8
0
100
AcDbCircle
 62
9
  6
CONTINUOUS
 10
14.9003230292
 20
5.4902372877
 40
0.8543466061
100
AcDbArc
 50
110.6382346987
 51
115.7586660679
  0
ARC
  5
309
100
AcDbEntity
  8
0
100
AcDbCircle
 62
7
  6
CONTINUOUS
 10
14.8909473134
 20
5.3431758657
 40
0.792
100
AcDbArc
 50
111.1791348771
 51
68.8208651229
  0
ARC
  5
30A
100
AcDbEntity
  8
0
100
AcDbCircle
 62
9
  6
CONTINUOUS
 10
14.8909473134
 20
5.3431758657
 40
0.7785830733
100
AcDbArc
 50
111.5355834465
 51
68.4644165527
  0
ARC
  5
30B
100
AcDbEntity
  8
0
100
AcDbCircle
 62
7
  6
CONTINUOUS
 10
14.8909473134
 20
5.3431758657
 40
0.772
100
AcDbArc
 50
111.7067646366
 51
68.2932353634
  0
ARC
  5
30C
100
AcDbEntity
  8
0
100
AcDbCircle
 62
9
  6
CONTINUOUS
 10
14.8909473134
 20
5.3431758657
 40
0.733
100
AcDbArc
 50
112.8326054318
 51
67.1673945683
  0
ARC
  5
30D
100
AcDbEntity
  8
0
100
AcDbCircle
 62
7
  6
CONTINUOUS
 10
14.8909473134
 20
5.3431758657
 40
0.7045
100
AcDbArc
 50
113.7467612889
 51
66.2532387111
  0
ARC
  5
30E
100
AcDbEntity
  8
0
100
AcDbCircle
 62
7
  6
CONTINUOUS
 10
14.8909473134
 20
5.2936758657
 40
0.502
100
AcDbArc
 50
242.5892821107
 51
297.4107178893
  0
ARC
  5
30F
100
AcDbEntity
  8
0
100
AcDbCircle
 62
9
  6
CONTINUOUS
 10
14.8909502167
 20
5.0045517347
 40
0.3640376076
100
AcDbArc
 50
179.9927558419
 51
269.9995430496
  0
ARC
  5
310
100
AcDbEntity
  8
0
100
AcDbCircle
 62
9
  6
CONTINUOUS
 10
14.890950616
 20
5.3559064294
 40
0.3640072997
100
AcDbArc
 50
153.256507066
 51
180.0004960061
  0
ARC
  5
311
100
AcDbEntity
  8
0
100
AcDbCircle
 62
7
  6
CONTINUOUS
 10
14.8909473134
 20
5.3556758657
 40
0.3375
100
AcDbArc
 50
164.5463807214
 51
180.0
  0
ARC
  5
312
100
AcDbEntity
  8
0
100
AcDbCircle
 62
7
  6
CONTINUOUS
 10
14.8909473134
 20
5.3556758657
 40
0.3375
100
AcDbArc
 50
0.0
 51
15.4528492337
  0
ARC
  5
313
100
AcDbEntity
  8
0
100
AcDbCircle
 62
7
  6
CONTINUOUS
 10
14.8909473134
 20
5.0106758657
 40
0.3375
100
AcDbArc
 50
180.0
 51
360.0
  0
ARC
  5
314
100
AcDbEntity
  8
0
100
AcDbCircle
 62
7
  6
CONTINUOUS
 10
15.2420568743
 20
4.9433007298
 40
0.06
100
AcDbArc
 50
125.1955964325
 51
186.9842219555
  0
ARC
  5
315
100
AcDbEntity
  8
0
100
AcDbCircle
 62
7
  6
CONTINUOUS
 10
15.2421627453
 20
5.7429762015
 40
0.06
100
AcDbArc
 50
173.4445993827
 51
234.7115635116
  0
ARC
  5
316
100
AcDbEntity
  8
0
100
AcDbCircle
 62
7
  6
CONTINUOUS
 10
15.1229473134
 20
4.9287092083
 40
0.06
100
AcDbArc
 50
281.9549687082
 51
6.9842219555
  0
ARC
  5
317
100
AcDbEntity
  8
0
100
AcDbCircle
 62
7
  6
CONTINUOUS
 10
15.1229473134
 20
5.7566758657
 40
0.06
100
AcDbArc
 50
353.4445993827
 51
47.1642624074
  0
ARC
  5
318
100
AcDbEntity
  8
0
100
AcDbCircle
 62
7
  6
CONTINUOUS
 10
15.1229473134
 20
5.8553205392
 40
0.0393553265
100
AcDbArc
 50
331.9187686676
 51
42.188745804
  0
ARC
  5
319
100
AcDbEntity
  8
0
100
AcDbCircle
 62
7
  6
CONTINUOUS
 10
15.1743352079
 20
5.9018978471
 40
0.03
100
AcDbArc
 50
137.3306402202
 51
222.188745804
  0
ARC
  5
31A
100
AcDbEntity
  8
0
100
AcDbCircle
 62
7
  6
CONTINUOUS
 10
15.1841382079
 20
5.8226733992
 40
0.03
100
AcDbArc
 50
151.9187686676
 51
227.1642624074
  0
ARC
  5
31B
100
AcDbEntity
  8
0
100
AcDbCircle
 62
7
  6
CONTINUOUS
 10
15.1959473134
 20
5.0086758657
 40
0.02
100
AcDbArc
 50
305.1955964325
 51
360.0
  0
ARC
  5
31C
100
AcDbEntity
  8
0
100
AcDbCircle
 62
7
  6
CONTINUOUS
 10
15.1959473134
 20
5.6776758657
 40
0.02
100
AcDbArc
 50
0.0
 51
54.7115635116
  0
ARC
  5
31D
100
AcDbEntity
  8
0
100
AcDbCircle
 62
7
  6
CONTINUOUS
 10
15.1374473134
 20
4.8602274589
 40
0.01
100
AcDbArc
 50
101.9549687082
 51
180.0
  0
ARC
  5
31E
100
AcDbEntity
  8
0
100
AcDbCircle
 62
7
  6
CONTINUOUS
 10
15.1174473134
 20
4.8569130582
 40
0.01
100
AcDbArc
 50
297.4107178893
 51
360.0
  0
ARC
  5
31F
100
AcDbEntity
  8
0
100
AcDbCircle
 62
7
  6
CONTINUOUS
 10
15.5306164864
 20
8.7751026222
 40
0.283
100
AcDbArc
 50
139.2867987612
 51
178.5
  0
ARC
  5
320
100
AcDbEntity
  8
0
100
AcDbCircle
 62
7
  6
CONTINUOUS
 10
15.1766955712
 20
8.9691758657
 40
0.134
100
AcDbArc
 50
42.7737033384
 51
90.0
  0
ARC
  5
321
100
AcDbEntity
  8
0
100
AcDbCircle
 62
9
  6
CONTINUOUS
 10
15.2277513278
 20
8.913506252
 40
0.0592351096
100
AcDbArc
 50
87.9807234552
 51
90.0100906365
  0
ARC
  5
322
100
AcDbEntity
  8
0
100
AcDbCircle
 62
7
  6
CONTINUOUS
 10
15.3145485886
 20
9.0967116866
 40
0.0538
100
AcDbArc
 50
222.7737033384
 51
259.3797275695
  0
ARC
  5
323
100
AcDbEntity
  8
0
100
AcDbCircle
 62
7
  6
CONTINUOUS
 10
15.5052839935
 20
7.8133527059
 40
0.046
100
AcDbArc
 50
340.0984323198
 51
33.2610523768
  0
ARC
  5
324
100
AcDbEntity
  8
0
100
AcDbCircle
 62
7
  6
CONTINUOUS
 10
15.5068403663
 20
7.8923224507
 40
0.033
100
AcDbArc
 50
341.5132313701
 51
84.5976060182
  0
ARC
  5
325
100
AcDbEntity
  8
0
100
AcDbCircle
 62
7
  6
CONTINUOUS
 10
15.3009473134
 20
8.9727413608
 40
0.02
100
AcDbArc
 50
319.2867987612
 51
360.0
  0
ARC
  5
326
100
AcDbEntity
  8
0
100
AcDbCircle
 62
7
  6
CONTINUOUS
 10
15.3009473134
 20
9.0241758657
 40
0.02
100
AcDbArc
 50
0.0
 51
79.3797275695
  0
ARC
  5
327
100
AcDbEntity
  8
0
100
AcDbCircle
 62
9
  6
CONTINUOUS
 10
15.2240571567
 20
9.0285542843
 40
0.0153272101
100
AcDbArc
 50
85.4537345066
 51
94.5462655019
  0
ARC
  5
328
100
AcDbEntity
  8
0
100
AcDbCircle
 62
9
  6
CONTINUOUS
 10
15.2255706694
 20
8.9522805124
 40
0.0074153878
100
AcDbArc
 50
84.4931726869
 51
90.0259465186
  0
ARC
  5
329
100
AcDbEntity
  8
0
100
AcDbCircle
 62
7
  6
CONTINUOUS
 10
16.1959403496
 20
8.0008076112
 40
0.561
100
AcDbArc
 50
210.4514119028
 51
239.315183561
  0
ARC
  5
32A
100
AcDbEntity
  8
0
100
AcDbCircle
 62
7
  6
CONTINUOUS
 10
15.5855573095
 20
7.8660043417
 40
0.05
100
AcDbArc
 50
161.5132313699
 51
213.2610523771
  0
ARC
  5
32B
100
AcDbEntity
  8
0
100
AcDbCircle
 62
7
  6
CONTINUOUS
 10
15.5767451834
 20
7.7874819048
 40
0.03
100
AcDbArc
 50
160.0984323195
 51
258.7234046885
  0
ARC
  5
32C
100
AcDbEntity
  8
0
100
AcDbCircle
 62
7
  6
CONTINUOUS
 10
15.6950839227
 20
7.7063524538
 40
0.02
100
AcDbArc
 50
30.451411903
 51
73.148794071
  0
ARC
  5
32D
100
AcDbEntity
  8
0
100
AcDbCircle
 62
7
  6
CONTINUOUS
 10
15.8994473134
 20
7.5011548523
 40
0.02
100
AcDbArc
 50
0.0
 51
59.3151835611
  0
ARC
  5
32E
100
AcDbEntity
  8
0
100
AcDbCircle
 62
7
  6
CONTINUOUS
 10
15.8994473134
 20
7.3751758657
 40
0.02
100
AcDbArc
 50
270.0
 51
360.0
  0
ARC
  5
32F
100
AcDbEntity
  8
0
100
AcDbCircle
 62
7
  6
CONTINUOUS
 10
7.498204224
 20
11.7831398584
 40
0.0984251969
100
AcDbArc
 50
270.7674395812
 51
0.2674395874
  0
ARC
  5
330
100
AcDbEntity
  8
0
100
AcDbCircle
 62
7
  6
CONTINUOUS
 10
7.313736329
 20
11.5750172977
 40
0.03
100
AcDbArc
 50
344.5067647751
 51
3.1549753418
  0
ARC
  5
331
100
AcDbEntity
  8
0
100
AcDbCircle
 62
9
  6
CONTINUOUS
 10
7.3136642369
 20
11.5768936063
 40
0.0299691539
100
AcDbArc
 50
337.7528593201
 51
3.1277775931
  0
ARC
  5
332
100
AcDbEntity
  8
0
100
AcDbCircle
 62
7
  6
CONTINUOUS
 10
7.3129216367
 20
10.6912561261
 40
0.02
100
AcDbArc
 50
261.2942799924
 51
351.2942799924
  0
ARC
  5
333
100
AcDbEntity
  8
0
100
AcDbCircle
 62
7
  6
CONTINUOUS
 10
7.3356255623
 20
10.8395279433
 40
0.02
100
AcDbArc
 50
351.2942799924
 51
81.2942799924
  0
ARC
  5
334
100
AcDbEntity
  8
0
100
AcDbCircle
 62
7
  6
CONTINUOUS
 10
6.7164477752
 20
10.7131924215
 40
0.0118110236
100
AcDbArc
 50
261.2942799924
 51
346.2942799925
  0
ARC
  5
335
100
AcDbEntity
  8
0
100
AcDbCircle
 62
7
  6
CONTINUOUS
 10
6.7894317682
 20
10.7020168442
 40
0.0118110236
100
AcDbArc
 50
261.2942799924
 51
346.2942799925
  0
ARC
  5
336
100
AcDbEntity
  8
0
100
AcDbCircle
 62
7
  6
CONTINUOUS
 10
6.9571605627
 20
10.7241283431
 40
0.0118110236
100
AcDbArc
 50
261.2942799924
 51
351.2942799924
  0
ARC
  5
337
100
AcDbEntity
  8
0
100
AcDbCircle
 62
7
  6
CONTINUOUS
 10
6.814778843
 20
10.698135607
 40
0.0118110236
100
AcDbArc
 50
261.2942799924
 51
346.294279988
  0
ARC
  5
338
100
AcDbEntity
  8
0
100
AcDbCircle
 62
7
  6
CONTINUOUS
 10
7.5918906262
 20
11.9551324914
 40
0.0118110236
100
AcDbArc
 50
0.2673196891
 51
45.2673168822
  0
ARC
  5
339
100
AcDbEntity
  8
0
100
AcDbCircle
 62
7
  6
CONTINUOUS
 10
7.5923227494
 20
11.8625558675
 40
0.0118110236
100
AcDbArc
 50
315.2675622926
 51
0.2675594856
  0
ARC
  5
33A
100
AcDbEntity
  8
0
100
AcDbCircle
 62
7
  6
CONTINUOUS
 10
7.3309094409
 20
10.8724207382
 40
0.0118
100
AcDbArc
 50
181.5030726992
 51
261.2942799924
  0
ARC
  5
33B
100
AcDbEntity
  8
0
100
AcDbCircle
 62
9
  6
CONTINUOUS
 10
7.3357036232
 20
11.5716732529
 40
0.0083669127
100
AcDbArc
 50
312.9310713672
 51
326.0745332534
  0
ARC
  5
33C
100
AcDbEntity
  8
0
100
AcDbCircle
 62
9
  6
CONTINUOUS
 10
8.8499938566
 20
12.1017286991
 40
1.6192810093
100
AcDbArc
 50
173.0948619176
 51
176.6890176463
  0
ARC
  5
33D
100
AcDbEntity
  8
0
100
AcDbCircle
 62
9
  6
CONTINUOUS
 10
7.3018517424
 20
12.4531215754
 40
0.1552646365
100
AcDbArc
 50
245.4367898687
 51
246.8576201754
  0
ARC
  5
33E
100
AcDbEntity
  8
0
100
AcDbCircle
 62
7
  6
CONTINUOUS
 10
7.4937342779
 20
12.7407661544
 40
0.0984251969
100
AcDbArc
 50
0.2674395874
 51
80.2680966397
  0
ARC
  5
33F
100
AcDbEntity
  8
0
100
AcDbCircle
 62
7
  6
CONTINUOUS
 10
7.3354681919
 20
13.2901127531
 40
0.0593831156
100
AcDbArc
 50
309.2978133053
 51
31.4968188123
  0
ARC
  5
340
100
AcDbEntity
  8
0
100
AcDbCircle
 62
7
  6
CONTINUOUS
 10
7.4047461346
 20
13.205465056
 40
0.05
100
AcDbArc
 50
129.2978133053
 51
212.5852799924
  0
ARC
  5
341
100
AcDbEntity
  8
0
100
AcDbCircle
 62
7
  6
CONTINUOUS
 10
7.4287358027
 20
13.3472600957
 40
0.05
100
AcDbArc
 50
153.1072849468
 51
211.4968188123
  0
ARC
  5
342
100
AcDbEntity
  8
0
100
AcDbCircle
 62
7
  6
CONTINUOUS
 10
7.5536928901
 20
12.547342424
 40
0.0472440945
100
AcDbArc
 50
326.7101298255
 51
33.8247493493
  0
ARC
  5
343
100
AcDbEntity
  8
0
100
AcDbCircle
 62
7
  6
CONTINUOUS
 10
7.5533680327
 20
12.61693879
 40
0.0472440945
100
AcDbArc
 50
326.7101298255
 51
33.8247493493
  0
ARC
  5
344
100
AcDbEntity
  8
0
100
AcDbCircle
 62
7
  6
CONTINUOUS
 10
7.5530431753
 20
12.6865351559
 40
0.0472440945
100
AcDbArc
 50
326.7101298255
 51
33.8247493493
  0
ARC
  5
345
100
AcDbEntity
  8
0
100
AcDbCircle
 62
7
  6
CONTINUOUS
 10
7.552908615
 20
12.7153629146
 40
0.0472440945
100
AcDbArc
 50
342.4758366954
 51
33.8268821135
  0
ARC
  5
346
100
AcDbEntity
  8
0
100
AcDbCircle
 62
7
  6
CONTINUOUS
 10
7.5538274505
 20
12.5185146653
 40
0.0472440945
100
AcDbArc
 50
326.7101298255
 51
18.0590424795
  0
ARC
  5
347
100
AcDbEntity
  8
0
100
AcDbCircle
 62
7
  6
CONTINUOUS
 10
7.3490306468
 20
13.3876840874
 40
0.0393700787
100
AcDbArc
 50
333.1072849468
 51
75.5551095152
  0
ARC
  5
348
100
AcDbEntity
  8
0
100
AcDbCircle
 62
7
  6
CONTINUOUS
 10
7.4696155288
 20
12.9279120425
 40
0.03
100
AcDbArc
 50
343.6998631879
 51
60.7479342899
  0
ARC
  5
349
100
AcDbEntity
  8
0
100
AcDbCircle
 62
9
  6
CONTINUOUS
 10
7.4693974135
 20
12.927161066
 40
0.0299987032
100
AcDbArc
 50
343.7123684262
 51
62.5704604165
  0
ARC
  5
34A
100
AcDbEntity
  8
0
100
AcDbCircle
 62
7
  6
CONTINUOUS
 10
11.3376281468
 20
11.7968159426
 40
4.0
100
AcDbArc
 50
163.6998552007
 51
183.1551765376
  0
ARC
  5
34B
100
AcDbEntity
  8
0
100
AcDbCircle
 62
9
  6
CONTINUOUS
 10
10.9077107418
 20
11.8475758105
 40
3.5754842483
100
AcDbArc
 50
173.1672034853
 51
174.5573245963
  0
ARC
  5
34C
100
AcDbEntity
  8
0
100
AcDbCircle
 62
9
  6
CONTINUOUS
 10
8.3023023309
 20
25.7766653258
 40
14.0997790708
100
AcDbArc
 50
265.5884053775
 51
266.0431149817
  0
ARC
  5
34D
100
AcDbEntity
  8
0
100
AcDbCircle
 62
7
  6
CONTINUOUS
 10
16.7958516198
 20
11.1207769132
 40
9.48
100
AcDbArc
 50
178.1699545945
 51
181.5030726992
  0
SPLINE
  5
34E
100
AcDbEntity
  8
0
100
AcDbSpline
 62
7
  6
CONTINUOUS
 70
0
 71
3
 72
150
 73
146
 74
0
 42
0.0000001
 43
0.0000001
 44
0.0000000001
 40
0.0
 40
0.0
 40
0.0
 40
0.0
 40
0.0149550343
 40
0.030051682
 40
0.0376508121
 40
0.0452830212
 40
0.0529483505
 40
0.0606471334
 40
0.0683801593
 40
0.0761488406
 40
0.0839552477
 40
0.0918021383
 40
0.0957419067
 40
0.0996930276
 40
0.1036544325
 40
0.1076241364
 40
0.1155803161
 40
0.1195630376
 40
0.1235461913
 40
0.1275278862
 40
0.1315071762
 40
0.1394589393
 40
0.1474029953
 40
0.1553404802
 40
0.163272292
 40
0.1711991026
 40
0.179121369
 40
0.1870393488
 40
0.1949532523
 40
0.2028633514
 40
0.2186717576
 40
0.2344672515
 40
0.2502508906
 40
0.2660241717
 40
0.2817919687
 40
0.2896765878
 40
0.2975635969
 40
0.3054555393
 40
0.3133549704
 40
0.3212612105
 40
0.3291693341
 40
0.3331225681
 40
0.3370743397
 40
0.3410240236
 40
0.344971308
 40
0.3528586935
 40
0.3607369271
 40
0.3686059841
 40
0.3764655453
 40
0.3921530491
 40
0.4078038216
 40
0.4156185824
 40
0.4234269428
 40
0.4312293924
 40
0.4390262369
 40
0.4546029804
 40
0.4701580527
 40
0.4856893191
 40
0.5011922476
 40
0.508931037
 40
0.5166595527
 40
0.5243764422
 40
0.5320802345
 40
0.5397693474
 40
0.5436079129
 40
0.5474423832
 40
0.5551008279
 40
0.5627488677
 40
0.5703908236
 40
0.578031163
 40
0.5856744964
 40
0.5933255724
 40
0.6009892725
 40
0.6086697576
 40
0.6163687542
 40
0.6240878535
 40
0.6318290636
 40
0.6395948236
 40
0.6473880151
 40
0.6552119731
 40
0.6630704941
 40
0.6709676101
 40
0.6789067407
 40
0.6868916558
 40
0.6949257341
 40
0.7030047566
 40
0.7070590239
 40
0.7111219946
 40
0.715192966
 40
0.719270637
 40
0.7233493897
 40
0.7274218366
 40
0.7314809119
 40
0.7355250546
 40
0.7395569385
 40
0.7435792713
 40
0.7516031686
 40
0.759606802
 40
0.7675978403
 40
0.7715910553
 40
0.7755838106
 40
0.7835689251
 40
0.791554569
 40
0.7995417557
 40
0.8075296203
 40
0.8155083022
 40
0.8234650829
 40
0.8274312952
 40
0.8313871681
 40
0.8353318249
 40
0.8392650833
 40
0.8470963761
 40
0.8548789322
 40
0.8587510631
 40
0.8626107175
 40
0.8664610814
 40
0.8703058078
 40
0.8722271915
 40
0.8741485369
 40
0.8779957378
 40
0.8818596776
 40
0.8857533988
 40
0.8896900656
 40
0.8936777671
 40
0.8977079981
 40
0.8997354324
 40
0.9017691596
 40
0.9038077419
 40
0.9058494714
 40
0.9099348329
 40
0.9140101759
 40
0.9180604301
 40
0.9260618127
 40
0.9339409237
 40
0.9378384855
 40
0.9417097658
 40
0.9455559461
 40
0.9493777596
 40
0.9569468236
 40
0.9644127676
 40
0.9717701144
 40
0.9790128222
 40
0.9861356375
 40
0.9931332507
 40
1.0
 40
1.0
 40
1.0
 40
1.0
 10
15.4609473134
 20
12.9161758657
 30
0.0
 10
15.4609473134
 20
12.9865566231
 30
0.0
 10
15.4589828583
 20
13.1279937372
 30
0.0
 10
15.4509695242
 20
13.305038185
 30
0.0
 10
15.4407802808
 20
13.4474091456
 30
0.0
 10
15.4311069001
 20
13.5547360141
 30
0.0
 10
15.4193097329
 20
13.6623225233
 30
0.0
 10
15.405257127
 20
13.7701171983
 30
0.0
 10
15.3888060951
 20
13.8780649398
 30
0.0
 10
15.3698163582
 20
13.9861105341
 30
0.0
 10
15.3481471213
 20
14.0941980131
 30
0.0
 10
15.327766618
 20
14.1841368257
 30
0.0
 10
15.3099919281
 20
14.256038668
 30
0.0
 10
15.2958861965
 20
14.3100061559
 30
0.0
 10
15.2810218925
 20
14.3639158767
 30
0.0
 10
15.2601837985
 20
14.4357231868
 30
0.0
 10
15.2378684907
 20
14.5072000922
 30
0.0
 10
15.2140823169
 20
14.5782581197
 30
0.0
 10
15.1955032988
 20
14.6313290582
 30
0.0
 10
15.1761946112
 20
14.6841216975
 30
0.0
 10
15.1494925241
 20
14.7540895206
 30
0.0
 10
15.1143328479
 20
14.8407790667
 30
0.0
 10
15.0693492758
 20
14.9435413721
 30
0.0
 10
15.0216527597
 20
15.0449692634
 30
0.0
 10
14.9713112746
 20
15.1450193472
 30
0.0
 10
14.9183927997
 20
15.2436490237
 30
0.0
 10
14.8629646709
 20
15.3408152188
 30
0.0
 10
14.8050963079
 20
15.4364766354
 30
0.0
 10
14.7448451623
 20
15.530588231
 30
0.0
 10
14.661417355
 20
15.6538972049
 30
0.0
 10
14.5513932192
 20
15.8039226154
 30
0.0
 10
14.4105498794
 20
15.9769516929
 30
0.0
 10
14.2612790909
 20
16.1425478198
 30
0.0
 10
14.103939936
 20
16.3003091191
 30
0.0
 10
13.9663751726
 20
16.4249468414
 30
0.0
 10
13.8526541585
 20
16.5203551748
 30
0.0
 10
13.7655293351
 20
16.5897393184
 30
0.0
 10
13.6765966325
 20
16.6569052749
 30
0.0
 10
13.5858849701
 20
16.7218049047
 30
0.0
 10
13.4934608894
 20
16.7843769002
 30
0.0
 10
13.415091468
 20
16.8345249823
 30
0.0
 10
13.3516358501
 20
16.8734073967
 30
0.0
 10
13.303688792
 20
16.9019344367
 30
0.0
 10
13.2553966831
 20
16.9298174374
 30
0.0
 10
13.1905846936
 20
16.9661179408
 30
0.0
 10
13.108770477
 20
17.0098803675
 30
0.0
 10
13.0093826058
 20
17.0598437842
 30
0.0
 10
12.9089004833
 20
17.1072635159
 30
0.0
 10
12.7736807168
 20
17.1670850701
 30
0.0
 10
12.6023412428
 20
17.2356379672
 30
0.0
 10
12.4282196164
 20
17.2961208546
 30
0.0
 10
12.2876408382
 20
17.3397376648
 30
0.0
 10
12.1816494112
 20
17.370096107
 30
0.0
 10
12.075112117
 20
17.3981486348
 30
0.0
 10
11.9324638351
 20
17.4325094583
 30
0.0
 10
11.753046994
 20
17.4698471431
 30
0.0
 10
11.5363581616
 20
17.5058595764
 30
0.0
 10
11.3187649629
 20
17.5332565092
 30
0.0
 10
11.136932971
 20
17.5490784333
 30
0.0
 10
10.9914277318
 20
17.5576498134
 30
0.0
 10
10.88240229
 20
17.5620660278
 30
0.0
 10
10.773480008
 20
17.5645053238
 30
0.0
 10
10.6647171869
 20
17.564999795
 30
0.0
 10
10.5742135665
 20
17.5638169656
 30
0.0
 10
10.5019407413
 20
17.5619289731
 30
0.0
 10
10.4298312451
 20
17.5594194686
 30
0.0
 10
10.3398493479
 20
17.5551003096
 30
0.0
 10
10.2320792265
 20
17.5479842579
 30
0.0
 10
10.1245423063
 20
17.5388993587
 30
0.0
 10
10.0172158962
 20
17.5278076689
 30
0.0
 10
9.910077053
 20
17.5146712794
 30
0.0
 10
9.8031029396
 20
17.4994519964
 30
0.0
 10
9.6962745477
 20
17.4821134132
 30
0.0
 10
9.5895889463
 20
17.4626180498
 30
0.0
 10
9.4830728465
 20
17.440870128
 30
0.0
 10
9.3767683715
 20
17.416779411
 30
0.0
 10
9.2707202257
 20
17.3902552244
 30
0.0
 10
9.1649731165
 20
17.3612071258
 30
0.0
 10
9.0595718063
 20
17.3295445581
 30
0.0
 10
8.9545610103
 20
17.2951771257
 30
0.0
 10
8.849986805
 20
17.2580142221
 30
0.0
 10
8.7458999343
 20
17.2179697304
 30
0.0
 10
8.6423740134
 20
17.1749197744
 30
0.0
 10
8.5394969475
 20
17.1287412954
 30
0.0
 10
8.4373971586
 20
17.0793366165
 30
0.0
 10
8.3532217554
 20
17.0354545146
 30
0.0
 10
8.2864710385
 20
16.9986501404
 30
0.0
 10
8.2366855449
 20
16.970157549
 30
0.0
 10
8.1872747087
 20
16.9408038147
 30
0.0
 10
8.1382958726
 20
16.9105929383
 30
0.0
 10
8.0898135023
 20
16.8795789313
 30
0.0
 10
8.041911413
 20
16.8478342079
 30
0.0
 10
7.9946597189
 20
16.8154163508
 30
0.0
 10
7.9480835069
 20
16.7823642832
 30
0.0
 10
7.9021636875
 20
16.7486977906
 30
0.0
 10
7.8418209393
 20
16.7030418725
 30
0.0
 10
7.7678343092
 20
16.644457158
 30
0.0
 10
7.6812867544
 20
16.5717255898
 30
0.0
 10
7.6110342981
 20
16.50915029
 30
0.0
 10
7.5559638376
 20
16.4579531217
 30
0.0
 10
7.5016393728
 20
16.4060053788
 30
0.0
 10
7.4351125417
 20
16.3396457734
 30
0.0
 10
7.3575569515
 20
16.2577862627
 30
0.0
 10
7.2823446245
 20
16.173750444
 30
0.0
 10
7.2095782084
 20
16.0876312518
 30
0.0
 10
7.1393329109
 20
15.9996279794
 30
0.0
 10
7.0829278147
 20
15.9248408345
 30
0.0
 10
7.0391552704
 20
15.8642719747
 30
0.0
 10
7.0070598975
 20
15.8185669849
 30
0.0
 10
6.9756671421
 20
15.7725643408
 30
0.0
 10
6.9347941341
 20
15.7109583047
 30
0.0
 10
6.8854023596
 20
15.6333386025
 30
0.0
 10
6.8380521758
 20
15.5547941121
 30
0.0
 10
6.8014392335
 20
15.491623173
 30
0.0
 10
6.7746341666
 20
15.444160821
 30
0.0
 10
6.7484074407
 20
15.3965238242
 30
0.0
 10
6.7269965791
 20
15.3566513077
 30
0.0
 10
6.7101227604
 20
15.3246488278
 30
0.0
 10
6.6934007476
 20
15.2925536425
 30
0.0
 10
6.6727564107
 20
15.2521942204
 30
0.0
 10
6.6484235991
 20
15.2032987477
 30
0.0
 10
6.6244915827
 20
15.1537376532
 30
0.0
 10
6.6009412701
 20
15.1033502042
 30
0.0
 10
6.5777956343
 20
15.0520697318
 30
0.0
 10
6.5589721162
 20
15.0087015588
 30
0.0
 10
6.5442249724
 20
14.9735933368
 30
0.0
 10
6.5333263319
 20
14.9470359454
 30
0.0
 10
6.5226333783
 20
14.9203225708
 30
0.0
 10
6.508659629
 20
14.8845238489
 30
0.0
 10
6.4917620802
 20
14.8395786902
 30
0.0
 10
6.4724046567
 20
14.7854677909
 30
0.0
 10
6.4479584764
 20
14.7136137503
 30
0.0
 10
6.4197681832
 20
14.6241378164
 30
0.0
 10
6.394270122
 20
14.5346081925
 30
0.0
 10
6.3754280428
 20
14.4634162729
 30
0.0
 10
6.3620593993
 20
14.4104128573
 30
0.0
 10
6.3493515152
 20
14.3576139776
 30
0.0
 10
6.3332752635
 20
14.2877302464
 30
0.0
 10
6.3146065767
 20
14.2009676315
 30
0.0
 10
6.2941336478
 20
14.0975895545
 30
0.0
 10
6.2753710083
 20
13.9954497596
 30
0.0
 10
6.2580231824
 20
13.8946994771
 30
0.0
 10
6.241824223
 20
13.7954738399
 30
0.0
 10
6.2265084582
 20
13.6978992056
 30
0.0
 10
6.2166129691
 20
13.6334060237
 30
0.0
 10
6.2117218389
 20
13.6014623036
 30
0.0
  0
SPLINE
  5
34F
100
AcDbEntity
  8
0
100
AcDbSpline
 62
7
  6
CONTINUOUS
 70
0
 71
3
 72
127
 73
123
 74
0
 42
0.0000001
 43
0.0000001
 44
0.0000000001
 40
0.0
 40
0.0
 40
0.0
 40
0.0
 40
0.0088295131
 40
0.0175544367
 40
0.0261657361
 40
0.0346547622
 40
0.0430140246
 40
0.0512387081
 40
0.0593252277
 40
0.0633158736
 40
0.067270894
 40
0.0711886946
 40
0.0750672904
 40
0.0826991028
 40
0.0864488599
 40
0.0901521934
 40
0.0938084268
 40
0.0974295203
 40
0.1010366564
 40
0.1046512959
 40
0.1082935472
 40
0.1119797861
 40
0.1157256489
 40
0.1195422025
 40
0.1234184128
 40
0.1273363172
 40
0.1312778551
 40
0.1352258246
 40
0.1391710107
 40
0.1431083043
 40
0.1509396451
 40
0.1587008242
 40
0.1663960907
 40
0.174031485
 40
0.1778288825
 40
0.1816144396
 40
0.1891580744
 40
0.1966792779
 40
0.2041949843
 40
0.2117180261
 40
0.2192463439
 40
0.2267745987
 40
0.2342972519
 40
0.2418054032
 40
0.2492877328
 40
0.2567329985
 40
0.264128333
 40
0.2714531073
 40
0.2750879432
 40
0.2787153687
 40
0.2823459505
 40
0.2859878254
 40
0.2933120596
 40
0.3006968238
 40
0.3081490037
 40
0.3156688997
 40
0.3232428084
 40
0.330854635
 40
0.3384924903
 40
0.346158968
 40
0.3538592822
 40
0.3693796318
 40
0.3772095252
 40
0.3850909133
 40
0.3930274333
 40
0.4010211997
 40
0.409067846
 40
0.4171608524
 40
0.4252935486
 40
0.4334591355
 40
0.4416507058
 40
0.4498612616
 40
0.4580837699
 40
0.4663126797
 40
0.4827753005
 40
0.4992237578
 40
0.5156336568
 40
0.5319826791
 40
0.5482516377
 40
0.5644233135
 40
0.5724682253
 40
0.5804832313
 40
0.5964165295
 40
0.612213442
 40
0.6278661332
 40
0.6356401316
 40
0.6433825174
 40
0.6510964892
 40
0.6587854554
 40
0.6664530551
 40
0.6741048329
 40
0.6817494208
 40
0.689395721
 40
0.697052165
 40
0.7047210024
 40
0.7200842603
 40
0.7354716793
 40
0.7431761539
 40
0.7508886665
 40
0.7663341293
 40
0.7817943153
 40
0.7972516023
 40
0.8049743804
 40
0.812690065
 40
0.8280899518
 40
0.8434279548
 40
0.8510657947
 40
0.8586780322
 40
0.8662615535
 40
0.8738135271
 40
0.8813408388
 40
0.8888674284
 40
0.8964188681
 40
0.9040193925
 40
0.9116798014
 40
0.9194018431
 40
0.9350336879
 40
0.9509191318
 40
0.9589561219
 40
0.9670536519
 40
0.9834208375
 40
1.0
 40
1.0
 40
1.0
 40
1.0
 10
7.3385876514
 20
13.428912469
 30
0.0
 10
7.3433584901
 20
13.4600714544
 30
0.0
 10
7.3528736302
 20
13.5220157812
 30
0.0
 10
7.367368887
 20
13.6142985033
 30
0.0
 10
7.3822120812
 20
13.7052949493
 30
0.0
 10
7.3976094819
 20
13.7948756486
 30
0.0
 10
7.4137675217
 20
13.8829202615
 30
0.0
 10
7.4308593242
 20
13.9693248157
 30
0.0
 10
7.446093186
 20
14.040189531
 30
0.0
 10
7.4589346487
 20
14.0959675313
 30
0.0
 10
7.4688661825
 20
14.1371410475
 30
0.0
 10
7.4791509383
 20
14.1778154387
 30
0.0
 10
7.4932696915
 20
14.2310560176
 30
0.0
 10
7.5081892379
 20
14.2834608961
 30
0.0
 10
7.5239893649
 20
14.3349468546
 30
0.0
 10
7.5361661581
 20
14.372694121
 30
0.0
 10
7.5487635723
 20
14.4098184439
 30
0.0
 10
7.5618367521
 20
14.4464136034
 30
0.0
 10
7.5754632528
 20
14.4826478461
 30
0.0
 10
7.5897301211
 20
14.5187160727
 30
0.0
 10
7.604713124
 20
14.5547985986
 30
0.0
 10
7.620454784
 20
14.5910677049
 30
0.0
 10
7.6369887227
 20
14.6276662639
 30
0.0
 10
7.6543051274
 20
14.664651188
 30
0.0
 10
7.6723453894
 20
14.7019717011
 30
0.0
 10
7.6910109013
 20
14.7394823922
 30
0.0
 10
7.7101946279
 20
14.777018539
 30
0.0
 10
7.7298016377
 20
14.8144452541
 30
0.0
 10
7.7497821558
 20
14.8516568274
 30
0.0
 10
7.7768389304
 20
14.9008014773
 30
0.0
 10
7.8114542598
 20
14.9613321257
 30
0.0
 10
7.8543807579
 20
15.0325412644
 30
0.0
 10
7.8986421896
 20
15.1021013634
 30
0.0
 10
7.9367577562
 20
15.1587733174
 30
0.0
 10
7.9679736397
 20
15.2032430993
 30
0.0
 10
7.999595751
 20
15.2470213987
 30
0.0
 10
8.0401147761
 20
15.3007652887
 30
0.0
 10
8.0904218175
 20
15.3637696577
 30
0.0
 10
8.1424325876
 20
15.4252794208
 30
0.0
 10
8.1961752363
 20
15.4853159032
 30
0.0
 10
8.2516172539
 20
15.5438484087
 30
0.0
 10
8.3086862361
 20
15.6007939235
 30
0.0
 10
8.3672926583
 20
15.6560511224
 30
0.0
 10
8.4273244269
 20
15.7095103267
 30
0.0
 10
8.4886519004
 20
15.7610498936
 30
0.0
 10
8.5511349531
 20
15.8105367463
 30
0.0
 10
8.6146027984
 20
15.857818571
 30
0.0
 10
8.6683363117
 20
15.8953455101
 30
0.0
 10
8.7117413838
 20
15.9241241596
 30
0.0
 10
8.7445020702
 20
15.9450808704
 30
0.0
 10
8.7776263991
 20
15.9655059129
 30
0.0
 10
8.8224304551
 20
15.9921217173
 30
0.0
 10
8.8795645604
 20
16.0242058812
 30
0.0
 10
8.949736711
 20
16.060775256
 30
0.0
 10
9.0216048681
 20
16.0955227209
 30
0.0
 10
9.0950587745
 20
16.1284627134
 30
0.0
 10
9.1699175154
 20
16.1595859385
 30
0.0
 10
9.2459683764
 20
16.188862589
 30
0.0
 10
9.323059204
 20
16.2162804094
 30
0.0
 10
9.4011157405
 20
16.2418485837
 30
0.0
 10
9.5067238872
 20
16.2736007745
 30
0.0
 10
9.6140025409
 20
16.3017110572
 30
0.0
 10
9.7227515115
 20
16.3263523219
 30
0.0
 10
9.8054796915
 20
16.3432265242
 30
0.0
 10
9.8891165427
 20
16.3584747465
 30
0.0
 10
9.9736254585
 20
16.3721317359
 30
0.0
 10
10.0589383065
 20
16.3842107061
 30
0.0
 10
10.1449585262
 20
16.3947173834
 30
0.0
 10
10.2315824302
 20
16.4036567917
 30
0.0
 10
10.3187063462
 20
16.411033794
 30
0.0
 10
10.4062266128
 20
16.4168534478
 30
0.0
 10
10.4940395862
 20
16.4211201863
 30
0.0
 10
10.5820476498
 20
16.423840935
 30
0.0
 10
10.6995481055
 20
16.4254029927
 30
0.0
 10
10.8464425185
 20
16.4234389411
 30
0.0
 10
11.0223442787
 20
16.4146999657
 30
0.0
 10
11.1973983309
 20
16.3994552894
 30
0.0
 10
11.3711039962
 20
16.37757654
 30
0.0
 10
11.5429768085
 20
16.3490260711
 30
0.0
 10
11.6845307735
 20
16.3195953712
 30
0.0
 10
11.7964100415
 20
16.2926554794
 30
0.0
 10
11.9068696827
 20
16.2635663217
 30
0.0
 10
12.0428972229
 20
16.2230157455
 30
0.0
 10
12.2027515173
 20
16.1675125536
 30
0.0
 10
12.3328308976
 20
16.115510756
 30
0.0
 10
12.434607855
 20
16.0705009743
 30
0.0
 10
12.5096207193
 20
16.0351084399
 30
0.0
 10
12.5834565778
 20
15.9979933069
 30
0.0
 10
12.6560918805
 20
15.9591424424
 30
0.0
 10
12.7275066236
 20
15.9185379588
 30
0.0
 10
12.7976990654
 20
15.8761608867
 30
0.0
 10
12.8666967013
 20
15.8320060354
 30
0.0
 10
12.9345345156
 20
15.7860598584
 30
0.0
 10
13.0012313473
 20
15.7383230056
 30
0.0
 10
13.0886644083
 20
15.6722836471
 30
0.0
 10
13.194912582
 20
15.5854397388
 30
0.0
 10
13.2967003027
 20
15.4932200827
 30
0.0
 10
13.3753425231
 20
15.4163303703
 30
0.0
 10
13.452157284
 20
15.3373259964
 30
0.0
 10
13.544495046
 20
15.2348589057
 30
0.0
 10
13.6490277553
 20
15.1064394136
 30
0.0
 10
13.7306639012
 20
14.9951598203
 30
0.0
 10
13.7924880014
 20
14.9038021914
 30
0.0
 10
13.8518551764
 20
14.8110720839
 30
0.0
 10
13.9214061199
 20
14.6926372165
 30
0.0
 10
13.9845982399
 20
14.5710011214
 30
0.0
 10
14.0310700562
 20
14.4721688706
 30
0.0
 10
14.0637799392
 20
14.3974902808
 30
0.0
 10
14.0943426984
 20
14.322238618
 30
0.0
 10
14.1227195976
 20
14.2464589239
 30
0.0
 10
14.1489055475
 20
14.1701092981
 30
0.0
 10
14.1729578928
 20
14.0930631127
 30
0.0
 10
14.1949562007
 20
14.0151341389
 30
0.0
 10
14.2149679576
 20
13.936179232
 30
0.0
 10
14.2330667717
 20
13.8561398517
 30
0.0
 10
14.254813869
 20
13.7475632534
 30
0.0
 10
14.2774336258
 20
13.6092610473
 30
0.0
 10
14.294210582
 20
13.4690078882
 30
0.0
 10
14.3044651368
 20
13.355149172
 30
0.0
 10
14.312733695
 20
13.2394043408
 30
0.0
 10
14.3193248785
 20
13.092993876
 30
0.0
 10
14.3209473134
 20
12.9753648766
 30
0.0
 10
14.3209473134
 20
12.9161758657
 30
0.0
  0
LINE
  5
350
100
AcDbEntity
  8
0
100
AcDbLine
 62
9
  6
CONTINUOUS
 10
14.5408203978
 20
8.9727413608
 11
14.5419818634
 21
8.9727045784
  0
SPLINE
  5
351
100
AcDbEntity
  8
0
100
AcDbSpline
 62
9
  6
CONTINUOUS
 70
0
 71
3
 72
11
 73
7
 74
0
 42
0.0000001
 43
0.0000001
 44
0.0000000001
 40
0.0
 40
0.0
 40
0.0
 40
0.0
 40
0.2031400483
 40
0.4398172901
 40
0.7067383354
 40
1.0
 40
1.0
 40
1.0
 40
1.0
 10
14.5419818634
 20
8.9727045784
 30
0.0
 10
14.5426630774
 20
8.9726646935
 30
0.0
 10
14.5441397739
 20
8.9726089674
 30
0.0
 10
14.5465138918
 20
8.9725848478
 30
0.0
 10
14.5491906721
 20
8.9726155411
 30
0.0
 10
14.551071725
 20
8.9726696043
 30
0.0
 10
14.5520562179
 20
8.972704574
 30
0.0
  0
SPLINE
  5
352
100
AcDbEntity
  8
0
100
AcDbSpline
 62
9
  6
CONTINUOUS
 70
0
 71
3
 72
11
 73
7
 74
0
 42
0.0000001
 43
0.0000001
 44
0.0000000001
 40
0.0
 40
0.0
 40
0.0
 40
0.0
 40
0.2177890074
 40
0.4568579157
 40
0.7178462759
 40
1.0
 40
1.0
 40
1.0
 40
1.0
 10
14.5760949478
 20
9.0601758656
 30
0.0
 10
14.5768195546
 20
9.0603953515
 30
0.0
 10
14.578383338
 20
9.060716445
 30
0.0
 10
14.5808812633
 20
9.0608606447
 30
0.0
 10
14.5836006681
 20
9.0606889533
 30
0.0
 10
14.5854663775
 20
9.0603782038
 30
0.0
 10
14.5864261566
 20
9.0601758656
 30
0.0
  0
LINE
  5
353
100
AcDbEntity
  8
0
100
AcDbLine
 62
9
  6
CONTINUOUS
 10
15.2399128309
 20
8.972704574
 11
15.2410742289
 21
8.9727413608
  0
SPLINE
  5
354
100
AcDbEntity
  8
0
100
AcDbSpline
 62
9
  6
CONTINUOUS
 70
0
 71
3
 72
11
 73
7
 74
0
 42
0.0000001
 43
0.0000001
 44
0.0000000001
 40
0.0
 40
0.0
 40
0.0
 40
0.0
 40
0.2932621417
 40
0.5601834947
 40
0.7968604485
 40
1.0
 40
1.0
 40
1.0
 40
1.0
 10
15.2298385201
 20
8.9727045784
 30
0.0
 10
15.2308230094
 20
8.9726695812
 30
0.0
 10
15.232704058
 20
8.9726155497
 30
0.0
 10
15.2353808275
 20
8.9725848503
 30
0.0
 10
15.2377549348
 20
8.9726089528
 30
0.0
 10
15.2392316197
 20
8.9726647204
 30
0.0
 10
15.2399128309
 20
8.972704574
 30
0.0
  0
SPLINE
  5
355
100
AcDbEntity
  8
0
100
AcDbSpline
 62
9
  6
CONTINUOUS
 70
0
 71
3
 72
11
 73
7
 74
0
 42
0.0000001
 43
0.0000001
 44
0.0000000001
 40
0.0
 40
0.0
 40
0.0
 40
0.0
 40
0.2821537235
 40
0.5431420842
 40
0.7822109932
 40
1.0
 40
1.0
 40
1.0
 40
1.0
 10
15.1954684701
 20
9.0601758656
 30
0.0
 10
15.1964282493
 20
9.0603782039
 30
0.0
 10
15.1982939587
 20
9.0606889533
 30
0.0
 10
15.2010133634
 20
9.0608606447
 30
0.0
 10
15.2035112888
 20
9.060716445
 30
0.0
 10
15.2050750722
 20
9.0603953514
 30
0.0
 10
15.2057996789
 20
9.0601758656
 30
0.0
  0
LINE
  5
356
100
AcDbEntity
  8
0
100
AcDbLine
 62
9
  6
CONTINUOUS
 10
14.526912209
 20
5.0045977616
 11
14.5269433163
 21
5.3559032782
  0
SPLINE
  5
357
100
AcDbEntity
  8
0
100
AcDbSpline
 62
9
  6
CONTINUOUS
 70
0
 71
3
 72
12
 73
8
 74
0
 42
0.0000001
 43
0.0000001
 44
0.0000000001
 40
0.0
 40
0.0
 40
0.0
 40
0.0
 40
0.253642896
 40
0.5057063097
 40
0.6307820952
 40
0.754992679
 40
1.0
 40
1.0
 40
1.0
 40
1.0
 10
15.2410742289
 20
8.9727413608
 30
0.0
 10
15.2410742289
 20
8.9715595571
 30
0.0
 10
15.2408872425
 20
8.9691992694
 30
0.0
 10
15.2401896269
 20
8.9663306976
 30
0.0
 10
15.2393642996
 20
8.9641427468
 30
0.0
 10
15.2383764958
 20
8.9620603181
 30
0.0
 10
15.2374452252
 20
8.9606008817
 30
0.0
 10
15.2367493919
 20
8.9596958995
 30
0.0
  0
SPLINE
  5
358
100
AcDbEntity
  8
0
100
AcDbSpline
 62
9
  6
CONTINUOUS
 70
0
 71
3
 72
12
 73
8
 74
0
 42
0.0000001
 43
0.0000001
 44
0.0000000001
 40
0.0
 40
0.0
 40
0.0
 40
0.0
 40
0.2573170541
 40
0.5107112186
 40
0.6354909904
 40
0.7587565345
 40
1.0
 40
1.0
 40
1.0
 40
1.0
 10
15.2399127321
 20
8.972704574
 30
0.0
 10
15.2399687032
 20
8.9715266126
 30
0.0
 10
15.2399021317
 20
8.9691763134
 30
0.0
 10
15.2393658783
 20
8.9663005991
 30
0.0
 10
15.238671509
 20
8.964107263
 30
0.0
 10
15.2378192803
 20
8.9620312664
 30
0.0
 10
15.2369884018
 20
8.9605690216
 30
0.0
 10
15.2363566288
 20
8.9596616799
 30
0.0
  0
SPLINE
  5
359
100
AcDbEntity
  8
0
100
AcDbSpline
 62
9
  6
CONTINUOUS
 70
0
 71
3
 72
11
 73
7
 74
0
 42
0.0000001
 43
0.0000001
 44
0.0000000001
 40
0.0
 40
0.0
 40
0.0
 40
0.0
 40
0.2619756721
 40
0.5197566398
 40
0.7675041656
 40
1.0
 40
1.0
 40
1.0
 40
1.0
 10
15.2298385772
 20
8.9727045784
 30
0.0
 10
15.2297458845
 20
8.9715202574
 30
0.0
 10
15.2294537992
 20
8.9691776337
 30
0.0
 10
15.2287053125
 20
8.9657735973
 30
0.0
 10
15.2276701898
 20
8.9625854382
 30
0.0
 10
15.2267760398
 20
8.9605932446
 30
0.0
 10
15.2262824385
 20
8.9596616695
 30
0.0
  0
SPLINE
  5
35A
100
AcDbEntity
  8
0
100
AcDbSpline
 62
9
  6
CONTINUOUS
 70
0
 71
3
 72
11
 73
7
 74
0
 42
0.0000001
 43
0.0000001
 44
0.0000000001
 40
0.0
 40
0.0
 40
0.0
 40
0.0
 40
0.2661074692
 40
0.5255607909
 40
0.7720532093
 40
1.0
 40
1.0
 40
1.0
 40
1.0
 10
15.2277408956
 20
8.9727413608
 30
0.0
 10
15.2277408939
 20
8.9715623391
 30
0.0
 10
15.2276489148
 20
8.9692326984
 30
0.0
 10
15.227237617
 20
8.9658328892
 30
0.0
 10
15.2265668042
 20
8.962646941
 30
0.0
 10
15.2259313487
 20
8.9606379546
 30
0.0
 10
15.2255673113
 20
8.9596958995
 30
0.0
  0
SPLINE
  5
35B
100
AcDbEntity
  8
0
100
AcDbSpline
 62
9
  6
CONTINUOUS
 70
0
 71
3
 72
11
 73
7
 74
0
 42
0.0000001
 43
0.0000001
 44
0.0000000001
 40
0.0
 40
0.0
 40
0.0
 40
0.0
 40
0.2661074332
 40
0.5255607176
 40
0.7720531378
 40
1.0
 40
1.0
 40
1.0
 40
1.0
 10
14.5541537311
 20
8.9727413608
 30
0.0
 10
14.5541537311
 20
8.9715623392
 30
0.0
 10
14.5542457076
 20
8.9692326984
 30
0.0
 10
14.5546570037
 20
8.9658328889
 30
0.0
 10
14.5553278182
 20
8.9626469406
 30
0.0
 10
14.5559632763
 20
8.9606379544
 30
0.0
 10
14.5563273155
 20
8.9596958995
 30
0.0
  0
SPLINE
  5
35C
100
AcDbEntity
  8
0
100
AcDbSpline
 62
9
  6
CONTINUOUS
 70
0
 71
3
 72
11
 73
7
 74
0
 42
0.0000001
 43
0.0000001
 44
0.0000000001
 40
0.0
 40
0.0
 40
0.0
 40
0.0
 40
0.2619761514
 40
0.5197573262
 40
0.7675047092
 40
1.0
 40
1.0
 40
1.0
 40
1.0
 10
14.5520562779
 20
8.972704574
 30
0.0
 10
14.5521489641
 20
8.971520252
 30
0.0
 10
14.5524410385
 20
8.9691776271
 30
0.0
 10
14.5531895121
 20
8.9657735904
 30
0.0
 10
14.5542246291
 20
8.9625854365
 30
0.0
 10
14.5551187804
 20
8.9605932502
 30
0.0
 10
14.5556123824
 20
8.9596616799
 30
0.0
  0
SPLINE
  5
35D
100
AcDbEntity
  8
0
100
AcDbSpline
 62
9
  6
CONTINUOUS
 70
0
 71
3
 72
12
 73
8
 74
0
 42
0.0000001
 43
0.0000001
 44
0.0000000001
 40
0.0
 40
0.0
 40
0.0
 40
0.0
 40
0.2573170389
 40
0.5107111463
 40
0.635490906
 40
0.7587564567
 40
1.0
 40
1.0
 40
1.0
 40
1.0
 10
14.5419817693
 20
8.9727045784
 30
0.0
 10
14.5419257937
 20
8.9715266186
 30
0.0
 10
14.5419923545
 20
8.969176322
 30
0.0
 10
14.5425285889
 20
8.966300608
 30
0.0
 10
14.5432229415
 20
8.9641072695
 30
0.0
 10
14.544075153
 20
8.962031268
 30
0.0
 10
14.5449060175
 20
8.9605690171
 30
0.0
 10
14.5455377805
 20
8.9596616695
 30
0.0
  0
SPLINE
  5
35E
100
AcDbEntity
  8
0
100
AcDbSpline
 62
9
  6
CONTINUOUS
 70
0
 71
3
 72
12
 73
8
 74
0
 42
0.0000001
 43
0.0000001
 44
0.0000000001
 40
0.0
 40
0.0
 40
0.0
 40
0.0
 40
0.2536428654
 40
0.5057062472
 40
0.6307820284
 40
0.75499262
 40
1.0
 40
1.0
 40
1.0
 40
1.0
 10
14.5408203978
 20
8.9727413608
 30
0.0
 10
14.5408203969
 20
8.9715595571
 30
0.0
 10
14.541007382
 20
8.9691992694
 30
0.0
 10
14.541704997
 20
8.9663306975
 30
0.0
 10
14.5425303246
 20
8.9641427467
 30
0.0
 10
14.5435181292
 20
8.9620603179
 30
0.0
 10
14.5444494007
 20
8.9606008816
 30
0.0
 10
14.5451452349
 20
8.9596958995
 30
0.0
  0
LINE
  5
35F
100
AcDbEntity
  8
0
100
AcDbLine
 62
9
  6
CONTINUOUS
 10
15.9241517665
 20
0.9846817478
 11
15.9273303044
 21
0.9856744277
  0
SPLINE
  5
360
100
AcDbEntity
  8
0
100
AcDbSpline
 62
9
  6
CONTINUOUS
 70
0
 71
3
 72
22
 73
18
 74
0
 42
0.0000001
 43
0.0000001
 44
0.0000000001
 40
0.0
 40
0.0
 40
0.0
 40
0.0
 40
0.1621384452
 40
0.3275934282
 40
0.4880479909
 40
0.5638904447
 40
0.635563066
 40
0.70223682
 40
0.7632075221
 40
0.8179209046
 40
0.8660292653
 40
0.9074879748
 40
0.9258448711
 40
0.9427477242
 40
0.9728364525
 40
0.9866249477
 40
1.0
 40
1.0
 40
1.0
 40
1.0
 10
15.2549824178
 20
5.0045977616
 30
0.0
 10
15.2534414863
 20
5.0044264526
 30
0.0
 10
15.2503121743
 20
5.0042135394
 30
0.0
 10
15.2456415717
 20
5.0042490081
 30
0.0
 10
15.2418085697
 20
5.0045704202
 30
0.0
 10
15.2388955217
 20
5.005008499
 30
0.0
 10
15.2368861393
 20
5.0054096977
 30
0.0
 10
15.2350390159
 20
5.0058839053
 30
0.0
 10
15.2333796221
 20
5.0064241775
 30
0.0
 10
15.2319301802
 20
5.0070229711
 30
0.0
 10
15.2307101341
 20
5.0076723903
 30
0.0
 10
15.2298643611
 20
5.0082715245
 30
0.0
 10
15.229328764
 20
5.0087748572
 30
0.0
 10
15.2289204891
 20
5.0092484965
 30
0.0
 10
15.2286212685
 20
5.0097583384
 30
0.0
 10
15.2284718951
 20
5.0102876104
 30
0.0
 10
15.2284473134
 20
5.0105479688
 30
0.0
 10
15.2284473134
 20
5.0106758657
 30
0.0
  0
SPLINE
  5
361
100
AcDbEntity
  8
0
100
AcDbSpline
 62
9
  6
CONTINUOUS
 70
0
 71
3
 72
32
 73
28
 74
0
 42
0.0000001
 43
0.0000001
 44
0.0000000001
 40
0.0
 40
0.0
 40
0.0
 40
0.0
 40
0.1749283665
 40
0.2644979537
 40
0.353798239
 40
0.4415754863
 40
0.5265801341
 40
0.607614544
 40
0.6835388867
 40
0.7532763733
 40
0.8158474532
 40
0.8441639945
 40
0.8703685458
 40
0.8943641271
 40
0.916067456
 40
0.9354058184
 40
0.9523071548
 40
0.966711149
 40
0.9785728198
 40
0.9835367177
 40
0.9878489012
 40
0.9915057685
 40
0.9945059722
 40
0.9968488647
 40
0.9985352549
 40
0.9995711157
 40
1.0
 40
1.0
 40
1.0
 40
1.0
 10
15.2549513105
 20
5.3559032782
 30
0.0
 10
15.2534054764
 20
5.3559096703
 30
0.0
 10
15.2510681028
 20
5.355915557
 30
0.0
 10
15.2479415768
 20
5.3559168365
 30
0.0
 10
15.2455852085
 20
5.3559144395
 30
0.0
 10
15.2432691865
 20
5.3559087314
 30
0.0
 10
15.2410262211
 20
5.3558997852
 30
0.0
 10
15.2388880161
 20
5.3558877374
 30
0.0
 10
15.2368847492
 20
5.3558727737
 30
0.0
 10
15.235044672
 20
5.3558551082
 30
0.0
 10
15.2336253255
 20
5.3558378605
 30
0.0
 10
15.2325906897
 20
5.3558226561
 30
0.0
 10
15.2318969307
 20
5.3558111327
 30
0.0
 10
15.2312616301
 20
5.3557991463
 30
0.0
 10
15.2306870265
 20
5.3557867449
 30
0.0
 10
15.2301751406
 20
5.3557739853
 30
0.0
 10
15.2297277879
 20
5.3557609271
 30
0.0
 10
15.2293465538
 20
5.3557476218
 30
0.0
 10
15.229070814
 20
5.3557358297
 30
0.0
 10
15.2288842906
 20
5.3557260326
 30
0.0
 10
15.2287701736
 20
5.35571909
 30
0.0
 10
15.2286735928
 20
5.3557121726
 30
0.0
 10
15.228594056
 20
5.3557051782
 30
0.0
 10
15.2285330843
 20
5.3556985057
 30
0.0
 10
15.2284870263
 20
5.3556914089
 30
0.0
 10
15.2284631124
 20
5.355685915
 30
0.0
 10
15.2284473134
 20
5.3556796558
 30
0.0
 10
15.2284473134
 20
5.3556758657
 30
0.0
  0
SPLINE
  5
362
100
AcDbEntity
  8
0
100
AcDbSpline
 62
9
  6
CONTINUOUS
 70
0
 71
3
 72
32
 73
28
 74
0
 42
0.0000001
 43
0.0000001
 44
0.0000000001
 40
0.0
 40
0.0
 40
0.0
 40
0.0
 40
0.1749283665
 40
0.2644979537
 40
0.353798239
 40
0.4415754863
 40
0.5265801341
 40
0.607614544
 40
0.6835388867
 40
0.7532763733
 40
0.8158474532
 40
0.8441639945
 40
0.8703685458
 40
0.8943641272
 40
0.916067456
 40
0.9354058184
 40
0.9523071548
 40
0.966711149
 40
0.9785728198
 40
0.9835367178
 40
0.9878489012
 40
0.9915057685
 40
0.9945059722
 40
0.9968488647
 40
0.9985352549
 40
0.9995711157
 40
1.0
 40
1.0
 40
1.0
 40
1.0
 10
14.5269433163
 20
5.3559032782
 30
0.0
 10
14.5284891503
 20
5.3559096703
 30
0.0
 10
14.5308265239
 20
5.355915557
 30
0.0
 10
14.53395305
 20
5.3559168365
 30
0.0
 10
14.5363094183
 20
5.3559144395
 30
0.0
 10
14.5386254402
 20
5.3559087314
 30
0.0
 10
14.5408684057
 20
5.3558997852
 30
0.0
 10
14.5430066106
 20
5.3558877374
 30
0.0
 10
14.5450098776
 20
5.3558727737
 30
0.0
 10
14.5468499548
 20
5.3558551082
 30
0.0
 10
14.5482693012
 20
5.3558378605
 30
0.0
 10
14.5493039371
 20
5.3558226561
 30
0.0
 10
14.5499976961
 20
5.3558111327
 30
0.0
 10
14.5506329967
 20
5.3557991463
 30
0.0
 10
14.5512076002
 20
5.3557867449
 30
0.0
 10
14.5517194862
 20
5.3557739853
 30
0.0
 10
14.5521668388
 20
5.3557609271
 30
0.0
 10
14.5525480729
 20
5.3557476218
 30
0.0
 10
14.5528238128
 20
5.3557358297
 30
0.0
 10
14.5530103362
 20
5.3557260326
 30
0.0
 10
14.5531244531
 20
5.35571909
 30
0.0
 10
14.5532210339
 20
5.3557121726
 30
0.0
 10
14.5533005708
 20
5.3557051782
 30
0.0
 10
14.5533615424
 20
5.3556985057
 30
0.0
 10
14.5534076005
 20
5.3556914089
 30
0.0
 10
14.5534315143
 20
5.355685915
 30
0.0
 10
14.5534473134
 20
5.3556796558
 30
0.0
 10
14.5534473134
 20
5.3556758657
 30
0.0
  0
SPLINE
  5
363
100
AcDbEntity
  8
0
100
AcDbSpline
 62
9
  6
CONTINUOUS
 70
0
 71
3
 72
22
 73
18
 74
0
 42
0.0000001
 43
0.0000001
 44
0.0000000001
 40
0.0
 40
0.0
 40
0.0
 40
0.0
 40
0.1621384464
 40
0.327593431
 40
0.4880479955
 40
0.5638904501
 40
0.6355630721
 40
0.7022368267
 40
0.7632075291
 40
0.8179209117
 40
0.8660292722
 40
0.907487981
 40
0.9258448767
 40
0.942747729
 40
0.9728364552
 40
0.9866249491
 40
1.0
 40
1.0
 40
1.0
 40
1.0
 10
14.526912209
 20
5.0045977616
 30
0.0
 10
14.5284531404
 20
5.0044264526
 30
0.0
 10
14.5315824525
 20
5.0042135395
 30
0.0
 10
14.5362530551
 20
5.0042490083
 30
0.0
 10
14.540086057
 20
5.0045704205
 30
0.0
 10
14.542999105
 20
5.0050084993
 30
0.0
 10
14.5450084875
 20
5.0054096981
 30
0.0
 10
14.5468556109
 20
5.0058839056
 30
0.0
 10
14.5485150046
 20
5.0064241778
 30
0.0
 10
14.5499644465
 20
5.0070229714
 30
0.0
 10
14.5511844926
 20
5.0076723906
 30
0.0
 10
14.5520302657
 20
5.0082715247
 30
0.0
 10
14.5525658628
 20
5.0087748573
 30
0.0
 10
14.5529741377
 20
5.0092484966
 30
0.0
 10
14.5532733582
 20
5.0097583385
 30
0.0
 10
14.5534227317
 20
5.0102876105
 30
0.0
 10
14.5534473134
 20
5.0105479688
 30
0.0
 10
14.5534473134
 20
5.0106758657
 30
0.0
  0
SPLINE
  5
364
100
AcDbEntity
  8
0
100
AcDbSpline
 62
9
  6
CONTINUOUS
 70
0
 71
3
 72
13
 73
9
 74
0
 42
0.0000001
 43
0.0000001
 44
0.0000000001
 40
0.0
 40
0.0
 40
0.0
 40
0.0
 40
0.0702633772
 40
0.1611110055
 40
0.2704860829
 40
0.3960108848
 40
0.6840730781
 40
1.0
 40
1.0
 40
1.0
 40
1.0
 10
14.9966556901
 20
0.9846817478
 30
0.0
 10
14.996661875
 20
0.9840294552
 30
0.0
 10
14.9966612635
 20
0.9825336513
 30
0.0
 10
14.9966374019
 20
0.9800225753
 30
0.0
 10
14.9965895821
 20
0.9769987095
 30
0.0
 10
14.9964904132
 20
0.9721445561
 30
0.0
 10
14.9963139351
 20
0.9653740309
 30
0.0
 10
14.9961379539
 20
0.9597693611
 30
0.0
 10
14.9960385749
 20
0.9568379943
 30
0.0
  0
SPLINE
  5
365
100
AcDbEntity
  8
0
100
AcDbSpline
 62
9
  6
CONTINUOUS
 70
0
 71
3
 72
18
 73
14
 74
0
 42
0.0000001
 43
0.0000001
 44
0.0000000001
 40
0.0
 40
0.0
 40
0.0
 40
0.0
 40
0.0295453458
 40
0.0645921137
 40
0.1050652037
 40
0.1508159162
 40
0.2016343929
 40
0.2572845874
 40
0.3818503129
 40
0.5217608137
 40
0.6737855137
 40
0.8344973329
 40
1.0
 40
1.0
 40
1.0
 40
1.0
 10
13.9343344889
 20
0.8528469495
 30
0.0
 10
13.9342760354
 20
0.8525787326
 30
0.0
 10
13.9341836973
 20
0.8519846504
 30
0.0
 10
13.9341067
 20
0.8510109888
 30
0.0
 10
13.9340808976
 20
0.849884038
 30
0.0
 10
13.9341069298
 20
0.8486107193
 30
0.0
 10
13.934184555
 20
0.8471983105
 30
0.0
 10
13.9343637635
 20
0.8450589802
 30
0.0
 10
13.9347216258
 20
0.8421052082
 30
0.0
 10
13.9353258214
 20
0.8382822431
 30
0.0
 10
13.9361067774
 20
0.8341491601
 30
0.0
 10
13.9370463779
 20
0.8298057633
 30
0.0
 10
13.9377586943
 20
0.8268593752
 30
0.0
 10
13.9381374629
 20
0.8253690311
 30
0.0
  0
SPLINE
  5
366
100
AcDbEntity
  8
0
100
AcDbSpline
 62
9
  6
CONTINUOUS
 70
0
 71
3
 72
15
 73
11
 74
0
 42
0.0000001
 43
0.0000001
 44
0.0000000001
 40
0.0
 40
0.0
 40
0.0
 40
0.0
 40
0.1260568005
 40
0.2523108621
 40
0.3783913846
 40
0.5041249431
 40
0.6292794716
 40
0.753675372
 40
0.8772892233
 40
1.0
 40
1.0
 40
1.0
 40
1.0
 10
15.8475601379
 20
0.8528469495
 30
0.0
 10
15.8490276862
 20
0.8523593247
 30
0.0
 10
15.8518965938
 20
0.8511619429
 30
0.0
 10
15.8558837405
 20
0.8487532641
 30
0.0
 10
15.8594688692
 20
0.8457835883
 30
0.0
 10
15.862565643
 20
0.8423258677
 30
0.0
 10
15.8650994415
 20
0.8384610937
 30
0.0
 10
15.8670107083
 20
0.8342814352
 30
0.0
 10
15.8682512196
 20
0.8298880163
 30
0.0
 10
15.8686135739
 20
0.826873195
 30
0.0
 10
15.8686743545
 20
0.8253690311
 30
0.0
  0
SPLINE
  5
367
100
AcDbEntity
  8
0
100
AcDbSpline
 62
9
  6
CONTINUOUS
 70
0
 71
3
 72
13
 73
9
 74
0
 42
0.0000001
 43
0.0000001
 44
0.0000000001
 40
0.0
 40
0.0
 40
0.0
 40
0.0
 40
0.0702633771
 40
0.1611110056
 40
0.2704860832
 40
0.3960108852
 40
0.6840730784
 40
1.0
 40
1.0
 40
1.0
 40
1.0
 10
14.7852389367
 20
0.9846817478
 30
0.0
 10
14.7852327517
 20
0.9840294552
 30
0.0
 10
14.7852333633
 20
0.9825336513
 30
0.0
 10
14.7852572246
 20
0.9800225753
 30
0.0
 10
14.785305044
 20
0.9769987095
 30
0.0
 10
14.7854042125
 20
0.9721445561
 30
0.0
 10
14.7855806903
 20
0.9653740309
 30
0.0
 10
14.7857566722
 20
0.9597693611
 30
0.0
 10
14.7858560519
 20
0.9568379943
 30
0.0
  0
SPLINE
  5
368
100
AcDbEntity
  8
0
100
AcDbSpline
 62
9
  6
CONTINUOUS
 70
0
 71
3
 72
15
 73
11
 74
0
 42
0.0000001
 43
0.0000001
 44
0.0000000001
 40
0.0
 40
0.0
 40
0.0
 40
0.0
 40
0.1454761767
 40
0.2875350716
 40
0.4236803493
 40
0.5526287639
 40
0.674150789
 40
0.7886714152
 40
0.8969891199
 40
1.0
 40
1.0
 40
1.0
 40
1.0
 10
13.9132202653
 20
0.6663533555
 30
0.0
 10
13.9132201336
 20
0.6603795908
 30
0.0
 10
13.912475366
 20
0.6485585216
 30
0.0
 10
13.9092028259
 20
0.6314269073
 30
0.0
 10
13.9040337563
 20
0.6154808926
 30
0.0
 10
13.8972907647
 20
0.6010635558
 30
0.0
 10
13.8892974708
 20
0.5883403125
 30
0.0
 10
13.8803330614
 20
0.5773568187
 30
0.0
 10
13.8706262288
 20
0.5680991238
 30
0.0
 10
13.8636209532
 20
0.5629308335
 30
0.0
 10
13.860060264
 20
0.5606473477
 30
0.0
  0
SPLINE
  5
369
100
AcDbEntity
  8
0
100
AcDbSpline
 62
9
  6
CONTINUOUS
 70
0
 71
3
 72
19
 73
15
 74
0
 42
0.0000001
 43
0.0000001
 44
0.0000000001
 40
0.0
 40
0.0
 40
0.0
 40
0.0
 40
0.1512482269
 40
0.2261132963
 40
0.2999573575
 40
0.4433122712
 40
0.578885578
 40
0.7043343485
 40
0.7625744703
 40
0.8174972807
 40
0.8688642422
 40
0.9164680529
 40
0.9601945863
 40
1.0
 40
1.0
 40
1.0
 40
1.0
 10
13.8690752948
 20
0.5342211046
 30
0.0
 10
13.8690907724
 20
0.5355636737
 30
0.0
 10
13.8691117259
 20
0.5375708491
 30
0.0
 10
13.8691738716
 20
0.5402329682
 30
0.0
 10
13.8692716095
 20
0.5428239195
 30
0.0
 10
13.8694571887
 20
0.5459504503
 30
0.0
 10
13.8697585171
 20
0.5495278582
 30
0.0
 10
13.8700782992
 20
0.5523445105
 30
0.0
 10
13.8703766902
 20
0.5544417035
 30
0.0
 10
13.8706093307
 20
0.5558837111
 30
0.0
 10
13.8708527387
 20
0.5572280693
 30
0.0
 10
13.8711054765
 20
0.5584695289
 30
0.0
 10
13.8713780415
 20
0.5596015816
 30
0.0
 10
13.8715892523
 20
0.560313045
 30
0.0
 10
13.8717031417
 20
0.5606475484
 30
0.0
  0
SPLINE
  5
36A
100
AcDbEntity
  8
0
100
AcDbSpline
 62
9
  6
CONTINUOUS
 70
0
 71
3
 72
15
 73
11
 74
0
 42
0.0000001
 43
0.0000001
 44
0.0000000001
 40
0.0
 40
0.0
 40
0.0
 40
0.0
 40
0.1254714011
 40
0.2510117663
 40
0.3763403947
 40
0.5015073487
 40
0.6264712954
 40
0.751203652
 40
0.8758342736
 40
1.0
 40
1.0
 40
1.0
 40
1.0
 10
15.937414919
 20
0.5342210983
 30
0.0
 10
15.937417534
 20
0.5355665651
 30
0.0
 10
15.9372371516
 20
0.5382619254
 30
0.0
 10
15.9364338554
 20
0.542228134
 30
0.0
 10
15.9351154399
 20
0.5460516431
 30
0.0
 10
15.9333013272
 20
0.5496593974
 30
0.0
 10
15.9310268672
 20
0.5529882913
 30
0.0
 10
15.9283306858
 20
0.5559787627
 30
0.0
 10
15.9252615569
 20
0.5585706182
 30
0.0
 10
15.9230034628
 20
0.5600090408
 30
0.0
 10
15.9218350805
 20
0.5606475471
 30
0.0
  0
LINE
  5
36B
100
AcDbEntity
  8
0
100
AcDbLine
 62
9
  6
CONTINUOUS
 10
14.8909583528
 20
0.5606480103
 11
13.8717034972
 21
0.5606478673
  0
SPLINE
  5
36C
100
AcDbEntity
  8
0
100
AcDbSpline
 62
9
  6
CONTINUOUS
 70
0
 71
3
 72
20
 73
16
 74
0
 42
0.0000001
 43
0.0000001
 44
0.0000000001
 40
0.0
 40
0.0
 40
0.0
 40
0.0
 40
0.1366607792
 40
0.2043881271
 40
0.2713879799
 40
0.3375124685
 40
0.4026396359
 40
0.4667191652
 40
0.5297255115
 40
0.5916790779
 40
0.6526063286
 40
0.7125658516
 40
0.7716089422
 40
0.8872134284
 40
1.0
 40
1.0
 40
1.0
 40
1.0
 10
13.9381374665
 20
0.6663530742
 30
0.0
 10
13.9381372651
 20
0.6603726078
 30
0.0
 10
13.9374239495
 20
0.6514074842
 30
0.0
 10
13.9350991169
 20
0.6397528757
 30
0.0
 10
13.9327166556
 20
0.6312826173
 30
0.0
 10
13.9297405255
 20
0.6231248842
 30
0.0
 10
13.9262219232
 20
0.6153262905
 30
0.0
 10
13.9222166407
 20
0.6079215322
 30
0.0
 10
13.9177760622
 20
0.6009338881
 30
0.0
 10
13.9129515307
 20
0.594376673
 30
0.0
 10
13.907788624
 20
0.5882564678
 30
0.0
 10
13.902329304
 20
0.5825746951
 30
0.0
 10
13.8947601242
 20
0.5756298898
 30
0.0
 10
13.8847259164
 20
0.5679918352
 30
0.0
 10
13.8760930919
 20
0.5629045399
 30
0.0
 10
13.8717034972
 20
0.5606478673
 30
0.0
  0
SPLINE
  5
36D
100
AcDbEntity
  8
0
100
AcDbSpline
 62
9
  6
CONTINUOUS
 70
0
 71
3
 72
18
 73
14
 74
0
 42
0.0000001
 43
0.0000001
 44
0.0000000001
 40
0.0
 40
0.0
 40
0.0
 40
0.0
 40
0.0295453371
 40
0.0645920908
 40
0.1050651731
 40
0.1508158861
 40
0.2016343665
 40
0.2572845641
 40
0.3818502936
 40
0.5217607991
 40
0.6737855038
 40
0.8344973281
 40
1.0
 40
1.0
 40
1.0
 40
1.0
 10
15.8475601379
 20
0.8528469495
 30
0.0
 10
15.8476185913
 20
0.8525787327
 30
0.0
 10
15.8477109288
 20
0.8519846506
 30
0.0
 10
15.8477879247
 20
0.8510109893
 30
0.0
 10
15.8478137263
 20
0.8498840387
 30
0.0
 10
15.8477876941
 20
0.84861072
 30
0.0
 10
15.8477100693
 20
0.8471983111
 30
0.0
 10
15.8475308611
 20
0.8450589808
 30
0.0
 10
15.8471729987
 20
0.8421052087
 30
0.0
 10
15.8465688035
 20
0.8382822436
 30
0.0
 10
15.8457878477
 20
0.8341491606
 30
0.0
 10
15.8448482477
 20
0.8298057636
 30
0.0
 10
15.8441359318
 20
0.8268593753
 30
0.0
 10
15.8437571634
 20
0.8253690312
 30
0.0
  0
SPLINE
  5
36E
100
AcDbEntity
  8
0
100
AcDbSpline
 62
9
  6
CONTINUOUS
 70
0
 71
3
 72
15
 73
11
 74
0
 42
0.0000001
 43
0.0000001
 44
0.0000000001
 40
0.0
 40
0.0
 40
0.0
 40
0.0
 40
0.1260568018
 40
0.2523108595
 40
0.3783913795
 40
0.5041249347
 40
0.6292794614
 40
0.7536753601
 40
0.8772892148
 40
1.0
 40
1.0
 40
1.0
 40
1.0
 10
13.9343344889
 20
0.8528469495
 30
0.0
 10
13.9328669405
 20
0.8523593247
 30
0.0
 10
13.9299980323
 20
0.8511619443
 30
0.0
 10
13.926010885
 20
0.8487532659
 30
0.0
 10
13.9224257568
 20
0.8457835895
 30
0.0
 10
13.919328983
 20
0.842325869
 30
0.0
 10
13.9167951846
 20
0.8384610948
 30
0.0
 10
13.9148839178
 20
0.8342814361
 30
0.0
 10
13.9136434067
 20
0.8298880168
 30
0.0
 10
13.9132810527
 20
0.8268731953
 30
0.0
 10
13.9132202722
 20
0.8253690312
 30
0.0
  0
SPLINE
  5
36F
100
AcDbEntity
  8
0
100
AcDbSpline
 62
9
  6
CONTINUOUS
 70
0
 71
3
 72
20
 73
16
 74
0
 42
0.0000001
 43
0.0000001
 44
0.0000000001
 40
0.0
 40
0.0
 40
0.0
 40
0.0
 40
0.0684982139
 40
0.1367607189
 40
0.2044842125
 40
0.2714799771
 40
0.3376017775
 40
0.4027254054
 40
0.4668008184
 40
0.5298032852
 40
0.5917533791
 40
0.6526775392
 40
0.7716157357
 40
0.8872156579
 40
1.0
 40
1.0
 40
1.0
 40
1.0
 10
15.8437571194
 20
0.6663533555
 30
0.0
 10
15.8437572619
 20
0.6633555818
 30
0.0
 10
15.8439981444
 20
0.6573677306
 30
0.0
 10
15.8450591233
 20
0.6484730818
 30
0.0
 10
15.8467953314
 20
0.6397517585
 30
0.0
 10
15.8491775491
 20
0.6312820997
 30
0.0
 10
15.8521547643
 20
0.6231244164
 30
0.0
 10
15.8556734529
 20
0.6153258345
 30
0.0
 10
15.8596785588
 20
0.6079208911
 30
0.0
 10
15.8641189118
 20
0.6009331427
 30
0.0
 10
15.868943646
 20
0.5943756483
 30
0.0
 10
15.8757715422
 20
0.5862820385
 30
0.0
 10
15.8850472172
 20
0.5772184107
 30
0.0
 10
15.8971698109
 20
0.567991795
 30
0.0
 10
15.905803869
 20
0.5629039883
 30
0.0
 10
15.910193731
 20
0.560647342
 30
0.0
  0
SPLINE
  5
370
100
AcDbEntity
  8
0
100
AcDbSpline
 62
9
  6
CONTINUOUS
 70
0
 71
3
 72
18
 73
14
 74
0
 42
0.0000001
 43
0.0000001
 44
0.0000000001
 40
0.0
 40
0.0
 40
0.0
 40
0.0
 40
0.1207152886
 40
0.2429296172
 40
0.3665657271
 40
0.4288852002
 40
0.4915100884
 40
0.6175637317
 40
0.6809482334
 40
0.7445226496
 40
0.8082542328
 40
0.8721095784
 40
1.0
 40
1.0
 40
1.0
 40
1.0
 10
14.5290407603
 20
4.4266616698
 30
0.0
 10
14.5426149621
 20
4.4201148135
 30
0.0
 10
14.57028314
 20
4.4076537334
 30
0.0
 10
14.6129696923
 20
4.3911000261
 30
0.0
 10
14.6495657051
 20
4.3791603552
 30
0.0
 10
14.679447411
 20
4.3707703891
 30
0.0
 10
14.709845575
 20
4.3631502436
 30
0.0
 10
14.7406867823
 20
4.3567972824
 30
0.0
 10
14.771872577
 20
4.3517580983
 30
0.0
 10
14.7954779773
 20
4.3486437309
 30
0.0
 10
14.8192227082
 20
4.346212695
 30
0.0
 10
14.8510352957
 20
4.3438853414
 30
0.0
 10
14.8749810349
 20
4.3431779567
 30
0.0
 10
14.8909473134
 20
4.3431758657
 30
0.0
  0
LINE
  5
371
100
AcDbEntity
  8
0
100
AcDbLine
 62
9
  6
CONTINUOUS
 10
16.0071474766
 20
0.5606480103
 11
15.9218347929
 21
0.5606478669
  0
SPLINE
  5
372
100
AcDbEntity
  8
0
100
AcDbSpline
 62
9
  6
CONTINUOUS
 70
0
 71
3
 72
18
 73
14
 74
0
 42
0.0000001
 43
0.0000001
 44
0.0000000001
 40
0.0
 40
0.0
 40
0.0
 40
0.0
 40
0.127890237
 40
0.1917455055
 40
0.2554770185
 40
0.3190513632
 40
0.3824358111
 40
0.5084894275
 40
0.5711143022
 40
0.6334337803
 40
0.757070006
 40
0.8792844729
 40
1.0
 40
1.0
 40
1.0
 40
1.0
 10
14.8909473134
 20
4.3431758657
 30
0.0
 10
14.9069130128
 20
4.3431780404
 30
0.0
 10
14.9308578815
 20
4.3438853084
 30
0.0
 10
14.962669336
 20
4.3462123674
 30
0.0
 10
14.9864132275
 20
4.3486431746
 30
0.0
 10
15.0100177893
 20
4.3517573813
 30
0.0
 10
15.0412024734
 20
4.3567964182
 30
0.0
 10
15.0720426489
 20
4.3631488525
 30
0.0
 10
15.10243986
 20
4.3707682985
 30
0.0
 10
15.1323205963
 20
4.3791577783
 30
0.0
 10
15.168915421
 20
4.3910968428
 30
0.0
 10
15.2116009048
 20
4.4076490578
 30
0.0
 10
15.2392682951
 20
4.4201094439
 30
0.0
 10
15.252842121
 20
4.4266559402
 30
0.0
  0
SPLINE
  5
373
100
AcDbEntity
  8
0
100
AcDbSpline
 62
9
  6
CONTINUOUS
 70
0
 71
3
 72
15
 73
11
 74
0
 42
0.0000001
 43
0.0000001
 44
0.0000000001
 40
0.0
 40
0.0
 40
0.0
 40
0.0
 40
0.145473337
 40
0.2875319728
 40
0.4236744613
 40
0.5526232173
 40
0.6741452144
 40
0.788665622
 40
0.8969852363
 40
1.0
 40
1.0
 40
1.0
 40
1.0
 10
15.8686743123
 20
0.6663530742
 30
0.0
 10
15.8686744355
 20
0.6603794372
 30
0.0
 10
15.869418916
 20
0.6485584889
 30
0.0
 10
15.8726917715
 20
0.6314272147
 30
0.0
 10
15.8778604518
 20
0.6154812351
 30
0.0
 10
15.8846035163
 20
0.6010640628
 30
0.0
 10
15.8925967656
 20
0.5883408278
 30
0.0
 10
15.9015612543
 20
0.5773573368
 30
0.0
 10
15.9112683369
 20
0.5680996037
 30
0.0
 10
15.9182739056
 20
0.5629313246
 30
0.0
 10
15.9218347929
 20
0.5606478669
 30
0.0
  0
SPLINE
  5
374
100
AcDbEntity
  8
0
100
AcDbSpline
 62
9
  6
CONTINUOUS
 70
0
 71
3
 72
16
 73
12
 74
0
 42
0.0000001
 43
0.0000001
 44
0.0000000001
 40
0.0
 40
0.0
 40
0.0
 40
0.0
 40
0.1242456272
 40
0.2487733992
 40
0.3735460002
 40
0.4985358435
 40
0.6237104729
 40
0.7490356771
 40
0.8117467961
 40
0.8744843582
 40
1.0
 40
1.0
 40
1.0
 40
1.0
 10
13.9381374634
 20
0.8253690312
 30
0.0
 10
13.9725974209
 20
0.8343039745
 30
0.0
 10
14.0417767392
 20
0.8515051947
 30
0.0
 10
14.1461866236
 20
0.8750826378
 30
0.0
 10
14.2513301712
 20
0.8962553698
 30
0.0
 10
14.3571625567
 20
0.9147800639
 30
0.0
 10
14.463623077
 20
0.9304077665
 30
0.0
 10
14.552777837
 20
0.9407980504
 30
0.0
 10
14.6243280111
 20
0.9474192308
 30
0.0
 10
14.6960304546
 20
0.9528751828
 30
0.0
 10
14.7499131542
 20
0.955625126
 30
0.0
 10
14.7858560519
 20
0.9568379943
 30
0.0
  0
SPLINE
  5
375
100
AcDbEntity
  8
0
100
AcDbSpline
 62
9
  6
CONTINUOUS
 70
0
 71
3
 72
40
 73
36
 74
0
 42
0.0000001
 43
0.0000001
 44
0.0000000001
 40
0.0
 40
0.0
 40
0.0
 40
0.0
 40
0.2157405071
 40
0.3158738225
 40
0.4104685975
 40
0.4992208805
 40
0.5818220406
 40
0.6579515721
 40
0.7272727324
 40
0.7894485346
 40
0.8177549311
 40
0.8441534001
 40
0.8686036965
 40
0.8910669328
 40
0.9115098491
 40
0.929900582
 40
0.9462072389
 40
0.9603982129
 40
0.9724487718
 40
0.9776657542
 40
0.982340918
 40
0.9864720474
 40
0.990056926
 40
0.9930933368
 40
0.9955790736
 40
0.9966149201
 40
0.9975127077
 40
0.9982724327
 40
0.9988940919
 40
0.9993776816
 40
0.9997231984
 40
0.9998441784
 40
0.9999306389
 40
0.9999825795
 40
1.0
 40
1.0
 40
1.0
 40
1.0
 10
15.1318576104
 20
6.005800113
 30
0.0
 10
15.1349919082
 20
6.0020909336
 30
0.0
 10
15.1395435041
 20
5.9966283488
 30
0.0
 10
15.1453825125
 20
5.9894679902
 30
0.0
 10
15.1493815445
 20
5.9844956734
 30
0.0
 10
15.1531030155
 20
5.9798067292
 30
0.0
 10
15.1565389992
 20
5.9754219775
 30
0.0
 10
15.1596813684
 20
5.9713629322
 30
0.0
 10
15.1625220054
 20
5.9676518216
 30
0.0
 10
15.1646939342
 20
5.9647845239
 30
0.0
 10
15.1662750429
 20
5.9626817653
 30
0.0
 10
15.1673427425
 20
5.9612554052
 30
0.0
 10
15.1683289734
 20
5.959932357
 30
0.0
 10
15.1692328711
 20
5.9587151389
 30
0.0
 10
15.1700535465
 20
5.9576060128
 30
0.0
 10
15.1707902044
 20
5.9566071115
 30
0.0
 10
15.1714420622
 20
5.9557205285
 30
0.0
 10
15.1720084634
 20
5.9549482488
 30
0.0
 10
15.1724266635
 20
5.9543768328
 30
0.0
 10
15.1727180584
 20
5.9539780403
 30
0.0
 10
15.1729041679
 20
5.9537230922
 30
0.0
 10
15.1730685204
 20
5.9534977459
 30
0.0
 10
15.1732110625
 20
5.9533021475
 30
0.0
 10
15.1733317387
 20
5.9531364421
 30
0.0
 10
15.1734186154
 20
5.9530171003
 30
0.0
 10
15.1734771553
 20
5.9529366737
 30
0.0
 10
15.1735128339
 20
5.9528876579
 30
0.0
 10
15.1735430111
 20
5.9528461742
 30
0.0
 10
15.1735677359
 20
5.952812238
 30
0.0
 10
15.1735868778
 20
5.9527858099
 30
0.0
 10
15.1735995959
 20
5.9527685567
 30
0.0
 10
15.1736067233
 20
5.9527584302
 30
0.0
 10
15.1736104653
 20
5.9527538007
 30
0.0
 10
15.1736119731
 20
5.9527507936
 30
0.0
 10
15.1736134601
 20
5.9527497022
 30
0.0
 10
15.1736134504
 20
5.9527493102
 30
0.0
  0
SPLINE
  5
376
100
AcDbEntity
  8
0
100
AcDbSpline
 62
9
  6
CONTINUOUS
 70
0
 71
3
 72
9
 73
5
 74
0
 42
0.0000001
 43
0.0000001
 44
0.0000000001
 40
0.0
 40
0.0
 40
0.0
 40
0.0
 40
0.4999986949
 40
1.0
 40
1.0
 40
1.0
 40
1.0
 10
15.1318576104
 20
6.005800113
 30
0.0
 10
15.1410806759
 20
6.4685822681
 30
0.0
 10
15.1594259644
 20
7.3941510064
 30
0.0
 10
15.1776108801
 20
8.3197229063
 30
0.0
 10
15.1866709203
 20
8.7825106986
 30
0.0
  0
SPLINE
  5
377
100
AcDbEntity
  8
0
100
AcDbSpline
 62
9
  6
CONTINUOUS
 70
0
 71
3
 72
11
 73
7
 74
0
 42
0.0000001
 43
0.0000001
 44
0.0000000001
 40
0.0
 40
0.0
 40
0.0
 40
0.0
 40
0.2499833752
 40
0.4999810291
 40
0.7499883327
 40
1.0
 40
1.0
 40
1.0
 40
1.0
 10
14.7858560519
 20
0.9568379943
 30
0.0
 10
14.7946100698
 20
0.9571333902
 30
0.0
 10
14.8121200065
 20
0.9576845552
 30
0.0
 10
14.8383907879
 20
0.9583266114
 30
0.0
 10
14.8646673568
 20
0.9587335703
 30
0.0
 10
14.8821873216
 20
0.9588265114
 30
0.0
 10
14.8909473134
 20
0.9588265153
 30
0.0
  0
LINE
  5
378
100
AcDbEntity
  8
0
100
AcDbLine
 62
9
  6
CONTINUOUS
 10
15.2363566281
 20
8.9596616798
 11
15.2367493919
 21
8.9596958995
  0
SPLINE
  5
379
100
AcDbEntity
  8
0
100
AcDbSpline
 62
9
  6
CONTINUOUS
 70
0
 71
3
 72
11
 73
7
 74
0
 42
0.0000001
 43
0.0000001
 44
0.0000000001
 40
0.0
 40
0.0
 40
0.0
 40
0.0
 40
0.2500116664
 40
0.5000189713
 40
0.7500166242
 40
1.0
 40
1.0
 40
1.0
 40
1.0
 10
14.8909473134
 20
0.9588265153
 30
0.0
 10
14.8997073051
 20
0.9588265233
 30
0.0
 10
14.9172272698
 20
0.9587335396
 30
0.0
 10
14.9435038379
 20
0.9583265635
 30
0.0
 10
14.96977462
 20
0.9576845401
 30
0.0
 10
14.9872845569
 20
0.9571333876
 30
0.0
 10
14.9960385749
 20
0.9568379943
 30
0.0
  0
SPLINE
  5
37A
100
AcDbEntity
  8
0
100
AcDbSpline
 62
9
  6
CONTINUOUS
 70
0
 71
3
 72
16
 73
12
 74
0
 42
0.0000001
 43
0.0000001
 44
0.0000000001
 40
0.0
 40
0.0
 40
0.0
 40
0.0
 40
0.1255156504
 40
0.1882532211
 40
0.2509643442
 40
0.3762895447
 40
0.5014641706
 40
0.6264540124
 40
0.751226608
 40
0.875754375
 40
1.0
 40
1.0
 40
1.0
 40
1.0
 10
14.9960385749
 20
0.9568379943
 30
0.0
 10
15.0319814748
 20
0.9556251211
 30
0.0
 10
15.0858641785
 20
0.9528751649
 30
0.0
 10
15.1575666275
 20
0.947419207
 30
0.0
 10
15.2291168036
 20
0.9407980213
 30
0.0
 10
15.3182715618
 20
0.930407733
 30
0.0
 10
15.424732085
 20
0.9147800707
 30
0.0
 10
15.5305644703
 20
0.8962553911
 30
0.0
 10
15.6357080105
 20
0.8750826395
 30
0.0
 10
15.7401178886
 20
0.8515051867
 30
0.0
 10
15.8092972058
 20
0.8343039714
 30
0.0
 10
15.8437571634
 20
0.8253690312
 30
0.0
  0
SPLINE
  5
37B
100
AcDbEntity
  8
0
100
AcDbSpline
 62
9
  6
CONTINUOUS
 70
0
 71
3
 72
14
 73
10
 74
0
 42
0.0000001
 43
0.0000001
 44
0.0000000001
 40
0.0
 40
0.0
 40
0.0
 40
0.0
 40
0.1314137255
 40
0.2620027039
 40
0.3911750779
 40
0.5184005636
 40
0.6432301412
 40
0.7653005988
 40
1.0
 40
1.0
 40
1.0
 40
1.0
 10
15.1866709203
 20
8.7825106986
 30
0.0
 10
15.1868269319
 20
8.7906615492
 30
0.0
 10
15.1876494458
 20
8.8069071212
 30
0.0
 10
15.1904149126
 20
8.8310315429
 30
0.0
 10
15.1946683033
 20
8.8546759108
 30
0.0
 10
15.2003574931
 20
8.8776478474
 30
0.0
 10
15.2074168933
 20
8.8997776666
 30
0.0
 10
15.218404066
 20
8.9275747753
 30
0.0
 10
15.2286619065
 20
8.9473013645
 30
0.0
 10
15.2363566281
 20
8.9596616798
 30
0.0
  0
SPLINE
  5
37C
100
AcDbEntity
  8
0
100
AcDbSpline
 62
9
  6
CONTINUOUS
 70
0
 71
3
 72
15
 73
11
 74
0
 42
0.0000001
 43
0.0000001
 44
0.0000000001
 40
0.0
 40
0.0
 40
0.0
 40
0.0
 40
0.1274665057
 40
0.2546031097
 40
0.381122502
 40
0.5067940725
 40
0.6314915816
 40
0.755180287
 40
0.8779825068
 40
1.0
 40
1.0
 40
1.0
 40
1.0
 10
15.2410742289
 20
9.0241758657
 30
0.0
 10
15.2410742261
 20
9.0253355555
 30
0.0
 10
15.2408777105
 20
9.0276567003
 30
0.0
 10
15.2400033462
 20
9.0310284999
 30
0.0
 10
15.2385779997
 20
9.0341900529
 30
0.0
 10
15.236649427
 20
9.0370454701
 30
0.0
 10
15.2342785427
 20
9.0395103045
 30
0.0
 10
15.2315394135
 20
9.0415151397
 30
0.0
 10
15.2285154235
 20
9.0430003665
 30
0.0
 10
15.2263622726
 20
9.0436221817
 30
0.0
 10
15.2252724119
 20
9.0438332697
 30
0.0
  0
SPLINE
  5
37D
100
AcDbEntity
  8
0
100
AcDbSpline
 62
9
  6
CONTINUOUS
 70
0
 71
3
 72
14
 73
10
 74
0
 42
0.0000001
 43
0.0000001
 44
0.0000000001
 40
0.0
 40
0.0
 40
0.0
 40
0.0
 40
0.1106846716
 40
0.2241789589
 40
0.3412165418
 40
0.4625021512
 40
0.5886205266
 40
0.720050444
 40
1.0
 40
1.0
 40
1.0
 40
1.0
 10
15.2252720535
 20
9.0438332697
 30
0.0
 10
15.2243491713
 20
9.0440955751
 30
0.0
 10
15.2225092198
 20
9.0447355692
 30
0.0
 10
15.2198344104
 20
9.0460104709
 30
0.0
 10
15.2172291997
 20
9.0476060459
 30
0.0
 10
15.2147076536
 20
9.0495169434
 30
0.0
 10
15.2122826672
 20
9.0517380992
 30
0.0
 10
15.2091318488
 20
9.0551761969
 30
0.0
 10
15.2070603587
 20
9.0581023814
 30
0.0
 10
15.2057996788
 20
9.0601758657
 30
0.0
  0
SPLINE
  5
37E
100
AcDbEntity
  8
0
100
AcDbSpline
 62
9
  6
CONTINUOUS
 70
0
 71
3
 72
17
 73
13
 74
0
 42
0.0000001
 43
0.0000001
 44
0.0000000001
 40
0.0
 40
0.0
 40
0.0
 40
0.0
 40
0.1359067361
 40
0.2678989984
 40
0.3961695779
 40
0.4590516373
 40
0.5211580575
 40
0.6432842764
 40
0.7632718227
 40
0.8227319548
 40
0.8819575356
 40
1.0
 40
1.0
 40
1.0
 40
1.0
 10
15.2057996788
 20
9.0601758657
 30
0.0
 10
15.2033591152
 20
9.0635586143
 30
0.0
 10
15.1982136899
 20
9.0699940853
 30
0.0
 10
15.1896473699
 20
9.0786544211
 30
0.0
 10
15.1819176738
 20
9.0849061953
 30
0.0
 10
15.1754671126
 20
9.0892503634
 30
0.0
 10
15.1689338431
 20
9.0931101667
 30
0.0
 10
15.1604787559
 20
9.0971293885
 30
0.0
 10
15.1516659484
 20
9.1000429593
 30
0.0
 10
15.1445188013
 20
9.1016697836
 30
0.0
 10
15.1373420862
 20
9.1028262109
 30
0.0
 10
15.1318931594
 20
9.1031728724
 30
0.0
 10
15.1282701996
 20
9.1031758657
 30
0.0
  0
SPLINE
  5
37F
100
AcDbEntity
  8
0
100
AcDbSpline
 62
9
  6
CONTINUOUS
 70
0
 71
3
 72
33
 73
29
 74
0
 42
0.0000001
 43
0.0000001
 44
0.0000000001
 40
0.0
 40
0.0
 40
0.0
 40
0.0
 40
0.0000701277
 40
0.0002778973
 40
0.0006231812
 40
0.0011058518
 40
0.0017257814
 40
0.0024828423
 40
0.0044078475
 40
0.0068798458
 40
0.0098978161
 40
0.013460737
 40
0.0175675874
 40
0.0274076741
 40
0.0393991564
 40
0.0535190098
 40
0.0697442
 40
0.0880513491
 40
0.1084113
 40
0.1551539744
 40
0.2096985171
 40
0.2717452868
 40
0.3409764748
 40
0.4170696195
 40
0.4996968051
 40
0.5885358283
 40
0.783632885
 40
1.0
 40
1.0
 40
1.0
 40
1.0
 10
14.6135103307
 20
5.9397805719
 30
0.0
 10
14.6135111126
 20
5.9397819915
 30
0.0
 10
14.6135155894
 20
5.9397867074
 30
0.0
 10
14.6135239932
 20
5.9397983578
 30
0.0
 10
14.613539066
 20
5.939816992
 30
0.0
 10
14.6135596288
 20
5.9398433753
 30
0.0
 10
14.6135862521
 20
5.9398771214
 30
0.0
 10
14.6136334258
 20
5.939937104
 30
0.0
 10
14.6137071296
 20
5.9400306814
 30
0.0
 10
14.6138131683
 20
5.9401653016
 30
0.0
 10
14.613942677
 20
5.9403296228
 30
0.0
 10
14.6140956114
 20
5.9405235884
 30
0.0
 10
14.6143462345
 20
5.9408413106
 30
0.0
 10
14.6147176461
 20
5.9413118547
 30
0.0
 10
14.6152328504
 20
5.9419637137
 30
0.0
 10
14.6158401668
 20
5.9427308627
 30
0.0
 10
14.6165388701
 20
5.9436118284
 30
0.0
 10
14.6173281324
 20
5.9446050369
 30
0.0
 10
14.6185578643
 20
5.9461490872
 30
0.0
 10
14.6203136658
 20
5.9483447967
 30
0.0
 10
14.6226796946
 20
5.9512860993
 30
0.0
 10
14.6253826439
 20
5.9546233712
 30
0.0
 10
14.6284129509
 20
5.9583363342
 30
0.0
 10
14.6317606599
 20
5.9624041362
 30
0.0
 10
14.6354159016
 20
5.9668056662
 30
0.0
 10
14.6408591017
 20
5.9732973018
 30
0.0
 10
14.6483568552
 20
5.9820996473
 30
0.0
 10
14.6546019937
 20
5.9892711986
 30
0.0
 10
14.6579068509
 20
5.9930238916
 30
0.0
  0
SPLINE
  5
380
100
AcDbEntity
  8
0
100
AcDbSpline
 62
9
  6
CONTINUOUS
 70
0
 71
3
 72
39
 73
35
 74
0
 42
0.0000001
 43
0.0000001
 44
0.0000000001
 40
0.0
 40
0.0
 40
0.0
 40
0.0
 40
0.0000174808
 40
0.0000694796
 40
0.000155997
 40
0.0002770337
 40
0.0006226662
 40
0.0011063805
 40
0.0017281802
 40
0.0024880688
 40
0.0033860496
 40
0.0044221263
 40
0.0069084526
 40
0.0099456128
 40
0.0135313788
 40
0.0176635125
 40
0.0223397763
 40
0.0275579331
 40
0.0396109799
 40
0.0538044811
 40
0.0701135418
 40
0.0885064714
 40
0.1089513032
 40
0.1314160998
 40
0.1558675356
 40
0.2105735214
 40
0.272749381
 40
0.3420698591
 40
0.4181980343
 40
0.5007972016
 40
0.5895469011
 40
0.6841385069
 40
0.7842680987
 40
1.0
 40
1.0
 40
1.0
 40
1.0
 10
14.6082811765
 20
5.9527493101
 30
0.0
 10
14.6082815332
 20
5.9527494763
 30
0.0
 10
14.6082821662
 20
5.9527510973
 30
0.0
 10
14.6082845196
 20
5.9527535857
 30
0.0
 10
14.6082878061
 20
5.9527584996
 30
0.0
 10
14.6082952415
 20
5.9527684398
 30
0.0
 10
14.6083077727
 20
5.9527858138
 30
0.0
 10
14.6083270463
 20
5.952812168
 30
0.0
 10
14.6083517599
 20
5.9528461198
 30
0.0
 10
14.6083819802
 20
5.9528875876
 30
0.0
 10
14.608417682
 20
5.9529366023
 30
0.0
 10
14.6084762637
 20
5.9530170269
 30
0.0
 10
14.608563185
 20
5.9531363797
 30
0.0
 10
14.6086839118
 20
5.9533021104
 30
0.0
 10
14.6088265014
 20
5.9534977476
 30
0.0
 10
14.6089908995
 20
5.953723144
 30
0.0
 10
14.6091770522
 20
5.9539781519
 30
0.0
 10
14.6094685028
 20
5.9543770364
 30
0.0
 10
14.6098867638
 20
5.9549485804
 30
0.0
 10
14.6104532301
 20
5.9557210194
 30
0.0
 10
14.6111051456
 20
5.9566077589
 30
0.0
 10
14.6118418529
 20
5.957606806
 30
0.0
 10
14.6126625698
 20
5.9587160601
 30
0.0
 10
14.6135665021
 20
5.9599333817
 30
0.0
 10
14.6149335519
 20
5.9617673572
 30
0.0
 10
14.6168428055
 20
5.9643120267
 30
0.0
 10
14.6193735371
 20
5.9676529838
 30
0.0
 10
14.6222141497
 20
5.9713640572
 30
0.0
 10
14.6253564669
 20
5.9754230273
 30
0.0
 10
14.6287923719
 20
5.9798076705
 30
0.0
 10
14.6325137379
 20
5.9844964748
 30
0.0
 10
14.6365126397
 20
5.989468622
 30
0.0
 10
14.6423514319
 20
5.9966287058
 30
0.0
 10
14.6469028486
 20
6.0020910779
 30
0.0
 10
14.6500370163
 20
6.005800113
 30
0.0
  0
SPLINE
  5
381
100
AcDbEntity
  8
0
100
AcDbSpline
 62
9
  6
CONTINUOUS
 70
0
 71
3
 72
14
 73
10
 74
0
 42
0.0000001
 43
0.0000001
 44
0.0000000001
 40
0.0
 40
0.0
 40
0.0
 40
0.0
 40
0.1211357693
 40
0.2436839965
 40
0.4924187516
 40
0.6183835346
 40
0.7451303981
 40
0.8724242844
 40
1.0
 40
1.0
 40
1.0
 40
1.0
 10
14.6667541056
 20
6.005800113
 30
0.0
 10
14.6752773322
 20
6.0018987688
 30
0.0
 10
14.6925784235
 20
5.9943821375
 30
0.0
 10
14.7281384332
 20
5.9806735297
 30
0.0
 10
14.7649831915
 20
5.9693168905
 30
0.0
 10
14.802885846
 20
5.9609273202
 30
0.0
 10
14.8319376825
 20
5.9562604221
 30
0.0
 10
14.8613470619
 20
5.953393532
 30
0.0
 10
14.8810752999
 20
5.9527487829
 30
0.0
 10
14.8909473134
 20
5.9527487768
 30
0.0
  0
SPLINE
  5
382
100
AcDbEntity
  8
0
100
AcDbSpline
 62
9
  6
CONTINUOUS
 70
0
 71
3
 72
9
 73
5
 74
0
 42
0.0000001
 43
0.0000001
 44
0.0000000001
 40
0.0
 40
0.0
 40
0.0
 40
0.0
 40
0.4999991359
 40
1.0
 40
1.0
 40
1.0
 40
1.0
 10
14.6667541056
 20
6.005800113
 30
0.0
 10
14.6571781506
 20
6.4685818001
 30
0.0
 10
14.6381716237
 20
7.3941497861
 30
0.0
 10
14.6193995212
 20
8.3197225498
 30
0.0
 10
14.6100614616
 20
8.7825106986
 30
0.0
  0
SPLINE
  5
383
100
AcDbEntity
  8
0
100
AcDbSpline
 62
9
  6
CONTINUOUS
 70
0
 71
3
 72
9
 73
5
 74
0
 42
0.0000001
 43
0.0000001
 44
0.0000000001
 40
0.0
 40
0.0
 40
0.0
 40
0.0
 40
0.4999991359
 40
1.0
 40
1.0
 40
1.0
 40
1.0
 10
15.1151405212
 20
6.005800113
 30
0.0
 10
15.1247164762
 20
6.4685818001
 30
0.0
 10
15.1437230031
 20
7.3941497861
 30
0.0
 10
15.1624951055
 20
8.3197225498
 30
0.0
 10
15.1718331651
 20
8.7825106986
 30
0.0
  0
SPLINE
  5
384
100
AcDbEntity
  8
0
100
AcDbSpline
 62
9
  6
CONTINUOUS
 70
0
 71
3
 72
14
 73
10
 74
0
 42
0.0000001
 43
0.0000001
 44
0.0000000001
 40
0.0
 40
0.0
 40
0.0
 40
0.0
 40
0.1275757796
 40
0.2548696834
 40
0.3816165421
 40
0.5075813229
 40
0.7563160652
 40
0.878864247
 40
1.0
 40
1.0
 40
1.0
 40
1.0
 10
14.8909473134
 20
5.9527487768
 30
0.0
 10
14.9008193317
 20
5.9527487823
 30
0.0
 10
14.9205475728
 20
5.9533935639
 30
0.0
 10
14.9499569685
 20
5.9562603609
 30
0.0
 10
14.9790087849
 20
5.960927393
 30
0.0
 10
15.0169114469
 20
5.9693169038
 30
0.0
 10
15.0537562062
 20
5.9806735327
 30
0.0
 10
15.0893162083
 20
5.9943821425
 30
0.0
 10
15.1066172901
 20
6.0018987819
 30
0.0
 10
15.1151405212
 20
6.005800113
 30
0.0
  0
SPLINE
  5
385
100
AcDbEntity
  8
0
100
AcDbSpline
 62
9
  6
CONTINUOUS
 70
0
 71
3
 72
14
 73
10
 74
0
 42
0.0000001
 43
0.0000001
 44
0.0000000001
 40
0.0
 40
0.0
 40
0.0
 40
0.0
 40
0.1302801119
 40
0.2598899307
 40
0.5150581678
 40
0.6399565083
 40
0.7625681295
 40
0.8826445564
 40
1.0
 40
1.0
 40
1.0
 40
1.0
 10
15.1718331651
 20
8.7825106986
 30
0.0
 10
15.1720059074
 20
8.7906636006
 30
0.0
 10
15.1729207839
 20
8.806922276
 30
0.0
 10
15.1769732094
 20
8.8389240014
 30
0.0
 10
15.1842908924
 20
8.8701069604
 30
0.0
 10
15.1947116077
 20
8.8998171911
 30
0.0
 10
15.2038680421
 20
8.9209487805
 30
0.0
 10
15.2143154442
 20
8.9409387122
 30
0.0
 10
15.2221675327
 20
8.9535765681
 30
0.0
 10
15.2262822823
 20
8.9596616765
 30
0.0
  0
SPLINE
  5
386
100
AcDbEntity
  8
0
100
AcDbSpline
 62
9
  6
CONTINUOUS
 70
0
 71
3
 72
14
 73
10
 74
0
 42
0.0000001
 43
0.0000001
 44
0.0000000001
 40
0.0
 40
0.0
 40
0.0
 40
0.0
 40
0.1302801981
 40
0.2598899368
 40
0.5150582175
 40
0.6399565519
 40
0.7625682161
 40
0.8826444786
 40
1.0
 40
1.0
 40
1.0
 40
1.0
 10
14.6100614616
 20
8.7825106986
 30
0.0
 10
14.609888749
 20
8.7906636037
 30
0.0
 10
14.6089730261
 20
8.806922218
 30
0.0
 10
14.6049217457
 20
8.8389240555
 30
0.0
 10
14.5976035884
 20
8.8701069462
 30
0.0
 10
14.5871830138
 20
8.8998172057
 30
0.0
 10
14.5780264672
 20
8.9209487293
 30
0.0
 10
14.5675792831
 20
8.9409387597
 30
0.0
 10
14.5597271485
 20
8.9535765807
 30
0.0
 10
14.5556123811
 20
8.9596616798
 30
0.0
  0
SPLINE
  5
387
100
AcDbEntity
  8
0
100
AcDbSpline
 62
9
  6
CONTINUOUS
 70
0
 71
3
 72
19
 73
15
 74
0
 42
0.0000001
 43
0.0000001
 44
0.0000000001
 40
0.0
 40
0.0
 40
0.0
 40
0.0
 40
0.1670026056
 40
0.3292618275
 40
0.4822768846
 40
0.6220342433
 40
0.6858763538
 40
0.7452393201
 40
0.7998624512
 40
0.8495366763
 40
0.8941551508
 40
0.9338994034
 40
0.9691125218
 40
1.0
 40
1.0
 40
1.0
 40
1.0
 10
14.5541537311
 20
9.0241758657
 30
0.0
 10
14.5541537349
 20
9.025331793
 30
0.0
 10
14.5542114927
 20
9.0276112705
 30
0.0
 10
14.5544710201
 20
9.0309408932
 30
0.0
 10
14.5548930964
 20
9.0340638581
 30
0.0
 10
14.5553853872
 20
9.0364852282
 30
0.0
 10
14.5558595357
 20
9.0382430703
 30
0.0
 10
14.5562366877
 20
9.0394153145
 30
0.0
 10
14.5566442371
 20
9.0404729946
 30
0.0
 10
14.5570770311
 20
9.0414094074
 30
0.0
 10
14.5575311352
 20
9.0422197373
 30
0.0
 10
14.558008527
 20
9.0428983337
 30
0.0
 10
14.5585084748
 20
9.0434370791
 30
0.0
 10
14.5588715253
 20
9.0437203678
 30
0.0
 10
14.5590530737
 20
9.0438332697
 30
0.0
  0
SPLINE
  5
388
100
AcDbEntity
  8
0
100
AcDbSpline
 62
9
  6
CONTINUOUS
 70
0
 71
3
 72
19
 73
15
 74
0
 42
0.0000001
 43
0.0000001
 44
0.0000000001
 40
0.0
 40
0.0
 40
0.0
 40
0.0
 40
0.16700355
 40
0.3292629225
 40
0.4822800397
 40
0.6220370774
 40
0.6858797732
 40
0.7452426356
 40
0.7998634967
 40
0.8495361037
 40
0.8941564179
 40
0.9339023762
 40
0.9691132026
 40
1.0
 40
1.0
 40
1.0
 40
1.0
 10
15.2277408956
 20
9.0241758657
 30
0.0
 10
15.2277408973
 20
9.0253317976
 30
0.0
 10
15.227683055
 20
9.0276112728
 30
0.0
 10
15.2274237529
 20
9.0309409353
 30
0.0
 10
15.2270013161
 20
9.034063858
 30
0.0
 10
15.2265091766
 20
9.0364852678
 30
0.0
 10
15.2260349536
 20
9.0382430903
 30
0.0
 10
15.2256577916
 20
9.0394153135
 30
0.0
 10
15.2252503683
 20
9.0404730086
 30
0.0
 10
15.2248176538
 20
9.0414094443
 30
0.0
 10
15.2243634642
 20
9.0422197441
 30
0.0
 10
15.2238860153
 20
9.0428983032
 30
0.0
 10
15.223386133
 20
9.0434370902
 30
0.0
 10
15.2230231058
 20
9.0437203828
 30
0.0
 10
15.2228415541
 20
9.0438332697
 30
0.0
  0
SPLINE
  5
389
100
AcDbEntity
  8
0
100
AcDbSpline
 62
9
  6
CONTINUOUS
 70
0
 71
3
 72
11
 73
7
 74
0
 42
0.0000001
 43
0.0000001
 44
0.0000000001
 40
0.0
 40
0.0
 40
0.0
 40
0.0
 40
0.2402133306
 40
0.4859804207
 40
0.7388680122
 40
1.0
 40
1.0
 40
1.0
 40
1.0
 10
14.5590523673
 20
9.0438332697
 30
0.0
 10
14.5615942595
 20
9.0443570856
 30
0.0
 10
14.5666552377
 20
9.0458609606
 30
0.0
 10
14.5738585075
 20
9.0493801262
 30
0.0
 10
14.5805866594
 20
9.0541420524
 30
0.0
 10
14.5845723695
 20
9.058049067
 30
0.0
 10
14.5864261567
 20
9.0601758657
 30
0.0
  0
SPLINE
  5
38A
100
AcDbEntity
  8
0
100
AcDbSpline
 62
9
  6
CONTINUOUS
 70
0
 71
3
 72
11
 73
7
 74
0
 42
0.0000001
 43
0.0000001
 44
0.0000000001
 40
0.0
 40
0.0
 40
0.0
 40
0.0
 40
0.240213329
 40
0.4859804995
 40
0.7388681032
 40
1.0
 40
1.0
 40
1.0
 40
1.0
 10
15.2228422595
 20
9.0438332697
 30
0.0
 10
15.2203003674
 20
9.0443570857
 30
0.0
 10
15.2152393899
 20
9.0458609635
 30
0.0
 10
15.208036114
 20
9.0493801221
 30
0.0
 10
15.2013079772
 20
9.0541420648
 30
0.0
 10
15.1973222423
 20
9.0580490553
 30
0.0
 10
15.19546847
 20
9.0601758657
 30
0.0
  0
SPLINE
  5
38B
100
AcDbEntity
  8
0
100
AcDbSpline
 62
9
  6
CONTINUOUS
 70
0
 71
3
 72
16
 73
12
 74
0
 42
0.0000001
 43
0.0000001
 44
0.0000000001
 40
0.0
 40
0.0
 40
0.0
 40
0.0
 40
0.1435339416
 40
0.2130248663
 40
0.280970296
 40
0.4123011392
 40
0.5379517807
 40
0.6585506738
 40
0.7749826823
 40
0.88835938
 40
1.0
 40
1.0
 40
1.0
 40
1.0
 10
14.5864261567
 20
9.0601758657
 30
0.0
 10
14.58856063
 20
9.0635369577
 30
0.0
 10
14.5919635102
 20
9.0683834006
 30
0.0
 10
14.5969208174
 20
9.0744012888
 30
0.0
 10
14.6019595374
 20
9.0799003138
 30
0.0
 10
14.6085822714
 20
9.0860446696
 30
0.0
 10
14.6170665484
 20
9.0922302986
 30
0.0
 10
14.6259072495
 20
9.0970926281
 30
0.0
 10
14.6350092047
 20
9.1005936765
 30
0.0
 10
14.6442760227
 20
9.1027043848
 30
0.0
 10
14.6505275641
 20
9.1031728645
 30
0.0
 10
14.6536244271
 20
9.1031758657
 30
0.0
  0
SPLINE
  5
38C
100
AcDbEntity
  8
0
100
AcDbSpline
 62
9
  6
CONTINUOUS
 70
0
 71
3
 72
16
 73
12
 74
0
 42
0.0000001
 43
0.0000001
 44
0.0000000001
 40
0.0
 40
0.0
 40
0.0
 40
0.0
 40
0.143535013
 40
0.2130257202
 40
0.2809701765
 40
0.4123004498
 40
0.5379521127
 40
0.6585509265
 40
0.7749830165
 40
0.88836056
 40
1.0
 40
1.0
 40
1.0
 40
1.0
 10
15.19546847
 20
9.0601758657
 30
0.0
 10
15.1933339905
 20
9.0635369877
 30
0.0
 10
15.1899309071
 20
9.0683833161
 30
0.0
 10
15.1849736593
 20
9.074401238
 30
0.0
 10
15.1799351313
 20
9.0799003707
 30
0.0
 10
15.1733124131
 20
9.0860447367
 30
0.0
 10
15.1648280507
 20
9.0922302564
 30
0.0
 10
15.1559873505
 20
9.0970926316
 30
0.0
 10
15.146885372
 20
9.1005936899
 30
0.0
 10
15.1376185567
 20
9.102704359
 30
0.0
 10
15.1313670291
 20
9.1031728645
 30
0.0
 10
15.1282701996
 20
9.1031758657
 30
0.0
  0
SPLINE
  5
38D
100
AcDbEntity
  8
0
100
AcDbSpline
 62
9
  6
CONTINUOUS
 70
0
 71
3
 72
9
 73
5
 74
0
 42
0.0000001
 43
0.0000001
 44
0.0000000001
 40
0.0
 40
0.0
 40
0.0
 40
0.0
 40
0.4999986949
 40
1.0
 40
1.0
 40
1.0
 40
1.0
 10
14.6500370163
 20
6.005800113
 30
0.0
 10
14.6408139508
 20
6.4685822681
 30
0.0
 10
14.6224686624
 20
7.3941510064
 30
0.0
 10
14.6042837467
 20
8.3197229063
 30
0.0
 10
14.5952237065
 20
8.7825106986
 30
0.0
  0
LINE
  5
38E
100
AcDbEntity
  8
0
100
AcDbLine
 62
9
  6
CONTINUOUS
 10
14.5451452349
 20
8.9596958995
 11
14.5455380203
 21
8.9596616765
  0
SPLINE
  5
38F
100
AcDbEntity
  8
0
100
AcDbSpline
 62
9
  6
CONTINUOUS
 70
0
 71
3
 72
14
 73
10
 74
0
 42
0.0000001
 43
0.0000001
 44
0.0000000001
 40
0.0
 40
0.0
 40
0.0
 40
0.0
 40
0.1314139095
 40
0.2620026813
 40
0.3911750618
 40
0.5184005952
 40
0.6432302043
 40
0.7653007833
 40
1.0
 40
1.0
 40
1.0
 40
1.0
 10
14.5952237065
 20
8.7825106986
 30
0.0
 10
14.5950677168
 20
8.7906615594
 30
0.0
 10
14.5942447952
 20
8.806907103
 30
0.0
 10
14.5914797596
 20
8.8310315587
 30
0.0
 10
14.5872262766
 20
8.8546759056
 30
0.0
 10
14.5815371075
 20
8.8776478429
 30
0.0
 10
14.5744777201
 20
8.8997776774
 30
0.0
 10
14.563490501
 20
8.9275747556
 30
0.0
 10
14.5532327598
 20
8.9473013892
 30
0.0
 10
14.5455380203
 20
8.9596616765
 30
0.0
  0
SPLINE
  5
390
100
AcDbEntity
  8
0
100
AcDbSpline
 62
9
  6
CONTINUOUS
 70
0
 71
3
 72
15
 73
11
 74
0
 42
0.0000001
 43
0.0000001
 44
0.0000000001
 40
0.0
 40
0.0
 40
0.0
 40
0.0
 40
0.1274658382
 40
0.2546017407
 40
0.3811193017
 40
0.5067900122
 40
0.6314860837
 40
0.7551750664
 40
0.8779747017
 40
1.0
 40
1.0
 40
1.0
 40
1.0
 10
14.5408203978
 20
9.0241758657
 30
0.0
 10
14.5408204046
 20
9.0253355649
 30
0.0
 10
14.5410168846
 20
9.0276567364
 30
0.0
 10
14.5418913576
 20
9.0310285196
 30
0.0
 10
14.5433165709
 20
9.0341901493
 30
0.0
 10
14.545245227
 20
9.0370455249
 30
0.0
 10
14.5476160985
 20
9.0395104124
 30
0.0
 10
14.5503553144
 20
9.0415151402
 30
0.0
 10
14.5533793468
 20
9.0430005095
 30
0.0
 10
14.5555326277
 20
9.0436221677
 30
0.0
 10
14.5566225732
 20
9.0438332697
 30
0.0
  0
SPLINE
  5
391
100
AcDbEntity
  8
0
100
AcDbSpline
 62
9
  6
CONTINUOUS
 70
0
 71
3
 72
10
 73
6
 74
0
 42
0.0000001
 43
0.0000001
 44
0.0000000001
 40
0.0
 40
0.0
 40
0.0
 40
0.0
 40
0.3188716627
 40
0.620025708
 40
1.0
 40
1.0
 40
1.0
 40
1.0
 10
13.8577428603
 20
0.9846817478
 30
0.0
 10
13.8653878823
 20
0.9703893167
 30
0.0
 10
13.8805986242
 20
0.9427820361
 30
0.0
 10
13.906096301
 20
0.8988050926
 30
0.0
 10
13.9241105878
 20
0.8692336535
 30
0.0
 10
13.9343344889
 20
0.8528469495
 30
0.0
  0
SPLINE
  5
392
100
AcDbEntity
  8
0
100
AcDbSpline
 62
9
  6
CONTINUOUS
 70
0
 71
3
 72
14
 73
10
 74
0
 42
0.0000001
 43
0.0000001
 44
0.0000000001
 40
0.0
 40
0.0
 40
0.0
 40
0.0
 40
0.1106847048
 40
0.2241790567
 40
0.341216668
 40
0.4625021602
 40
0.5886205442
 40
0.7200507176
 40
1.0
 40
1.0
 40
1.0
 40
1.0
 10
14.5566225732
 20
9.0438332697
 30
0.0
 10
14.5575454557
 20
9.0440955752
 30
0.0
 10
14.5593854081
 20
9.0447355694
 30
0.0
 10
14.5620602185
 20
9.0460104715
 30
0.0
 10
14.5646654292
 20
9.0476060464
 30
0.0
 10
14.5671869742
 20
9.0495169444
 30
0.0
 10
14.5696119599
 20
9.0517381024
 30
0.0
 10
14.5727627839
 20
9.0551761956
 30
0.0
 10
14.574834262
 20
9.0581023879
 30
0.0
 10
14.5760949479
 20
9.0601758657
 30
0.0
  0
SPLINE
  5
393
100
AcDbEntity
  8
0
100
AcDbSpline
 62
9
  6
CONTINUOUS
 70
0
 71
3
 72
17
 73
13
 74
0
 42
0.0000001
 43
0.0000001
 44
0.0000000001
 40
0.0
 40
0.0
 40
0.0
 40
0.0
 40
0.1359055957
 40
0.2678991586
 40
0.3961702583
 40
0.4590518461
 40
0.5211578105
 40
0.6432840919
 40
0.7632715868
 40
0.8227311437
 40
0.8819566284
 40
1.0
 40
1.0
 40
1.0
 40
1.0
 10
14.5760949479
 20
9.0601758657
 30
0.0
 10
14.5785355
 20
9.0635585799
 30
0.0
 10
14.5836808068
 20
9.0699941548
 30
0.0
 10
14.5922472655
 20
9.0786543959
 30
0.0
 10
14.5999769965
 20
9.0849061831
 30
0.0
 10
14.6064275325
 20
9.0892503681
 30
0.0
 10
14.6129607675
 20
9.0931101794
 30
0.0
 10
14.6214158517
 20
9.0971293805
 30
0.0
 10
14.6302286408
 20
9.1000429491
 30
0.0
 10
14.6373757634
 20
9.101669785
 30
0.0
 10
14.6445524871
 20
9.10282621
 30
0.0
 10
14.6500014392
 20
9.1031728723
 30
0.0
 10
14.6536244271
 20
9.1031758657
 30
0.0
  0
SPLINE
  5
394
100
AcDbEntity
  8
0
100
AcDbSpline
 62
9
  6
CONTINUOUS
 70
0
 71
3
 72
15
 73
11
 74
0
 42
0.0000001
 43
0.0000001
 44
0.0000000001
 40
0.0
 40
0.0
 40
0.0
 40
0.0
 40
0.1278197572
 40
0.255324964
 40
0.382217993
 40
0.5082440846
 40
0.633189568
 40
0.7568816943
 40
0.8791918222
 40
1.0
 40
1.0
 40
1.0
 40
1.0
 10
14.8909473134
 20
5.9397803402
 30
0.0
 10
14.9009668673
 20
5.939780343
 30
0.0
 10
14.9209871222
 20
5.9404192471
 30
0.0
 10
14.9508316686
 20
5.9432637748
 30
0.0
 10
14.9803072835
 20
5.9479051436
 30
0.0
 10
15.0092646939
 20
5.9542097825
 30
0.0
 10
15.0375908953
 20
5.9620183373
 30
0.0
 10
15.0652061734
 20
5.9711615463
 30
0.0
 10
15.0920570672
 20
5.9814735318
 30
0.0
 10
15.1095406692
 20
5.98907367
 30
0.0
 10
15.1181473706
 20
5.9930238916
 30
0.0
  0
SPLINE
  5
395
100
AcDbEntity
  8
0
100
AcDbSpline
 62
9
  6
CONTINUOUS
 70
0
 71
3
 72
15
 73
11
 74
0
 42
0.0000001
 43
0.0000001
 44
0.0000000001
 40
0.0
 40
0.0
 40
0.0
 40
0.0
 40
0.1611117453
 40
0.3140953306
 40
0.4565281915
 40
0.5867669721
 40
0.7043405839
 40
0.8103490523
 40
0.907653802
 40
1.0
 40
1.0
 40
1.0
 40
1.0
 10
15.1181473706
 20
5.9930238916
 30
0.0
 10
15.1184514502
 20
5.9931634528
 30
0.0
 10
15.1190539984
 20
5.9934151756
 30
0.0
 10
15.1199575718
 20
5.9937064453
 30
0.0
 10
15.1208240888
 20
5.9938905979
 30
0.0
 10
15.1216344166
 20
5.993957393
 30
0.0
 10
15.1223708391
 20
5.9939027165
 30
0.0
 10
15.123018436
 20
5.9937258035
 30
0.0
 10
15.1235646962
 20
5.9934337873
 30
0.0
 10
15.1238610237
 20
5.9931678041
 30
0.0
 10
15.1239877759
 20
5.9930238916
 30
0.0
  0
SPLINE
  5
396
100
AcDbEntity
  8
0
100
AcDbSpline
 62
9
  6
CONTINUOUS
 70
0
 71
3
 72
44
 73
40
 74
0
 42
0.0000001
 43
0.0000001
 44
0.0000000001
 40
0.0
 40
0.0
 40
0.0
 40
0.0
 40
0.1107075006
 40
0.2163819159
 40
0.3167398116
 40
0.4114906097
 40
0.500333772
 40
0.5829641414
 40
0.6590594364
 40
0.7282916746
 40
0.790338318
 40
0.8185675934
 40
0.844881478
 40
0.8692441139
 40
0.8916215218
 40
0.911979719
 40
0.9302848458
 40
0.9465077584
 40
0.9606250218
 40
0.9668868159
 40
0.9726135337
 40
0.9778022859
 40
0.9824502016
 40
0.9865551746
 40
0.9901161152
 40
0.9931320042
 40
0.9944352358
 40
0.9956018224
 40
0.9966316363
 40
0.9975245504
 40
0.998280437
 40
0.9988991689
 40
0.9993806185
 40
0.9995698226
 40
0.9997246584
 40
0.99984511
 40
0.9999311613
 40
0.9999827966
 40
1.0
 40
1.0
 40
1.0
 40
1.0
 10
15.1239877759
 20
5.9930238916
 30
0.0
 10
15.1256787589
 20
5.9911037667
 30
0.0
 10
15.1289731248
 20
5.9873413517
 30
0.0
 10
15.1337642623
 20
5.9818068213
 30
0.0
 10
15.1382852122
 20
5.9765262975
 30
0.0
 10
15.142526816
 20
5.9715188163
 30
0.0
 10
15.1464800671
 20
5.9668041214
 30
0.0
 10
15.15013544
 20
5.962402405
 30
0.0
 10
15.1534832381
 20
5.9583344742
 30
0.0
 10
15.1565135798
 20
5.9546214383
 30
0.0
 10
15.1588337689
 20
5.9517567534
 30
0.0
 10
15.1605242389
 20
5.9496584781
 30
0.0
 10
15.161666122
 20
5.9482366385
 30
0.0
 10
15.1627214039
 20
5.9469187102
 30
0.0
 10
15.1636889978
 20
5.9457069007
 30
0.0
 10
15.1645678472
 20
5.9446033814
 30
0.0
 10
15.1653569788
 20
5.9436102452
 30
0.0
 10
15.1660555155
 20
5.9427293484
 30
0.0
 10
15.1665805071
 20
5.9420660596
 30
0.0
 10
15.166954658
 20
5.9415927492
 30
0.0
 10
15.1672007353
 20
5.9412812308
 30
0.0
 10
15.1674236085
 20
5.9409989145
 30
0.0
 10
15.1676232027
 20
5.9407459728
 30
0.0
 10
15.1677994584
 20
5.9405225376
 30
0.0
 10
15.1679523233
 20
5.9403286913
 30
0.0
 10
15.1680650717
 20
5.9401856725
 30
0.0
 10
15.1681435504
 20
5.9400861009
 30
0.0
 10
15.1681936121
 20
5.9400225758
 30
0.0
 10
15.1682378007
 20
5.939966495
 30
0.0
 10
15.1682761122
 20
5.9399178706
 30
0.0
 10
15.1683085421
 20
5.9398766982
 30
0.0
 10
15.168335087
 20
5.9398430208
 30
0.0
 10
15.1683535259
 20
5.939819569
 30
0.0
 10
15.1683653342
 20
5.9398046495
 30
0.0
 10
15.1683719746
 20
5.9397960786
 30
0.0
 10
15.1683771534
 20
5.9397898792
 30
0.0
 10
15.1683808265
 20
5.9397843819
 30
0.0
 10
15.1683830816
 20
5.9397829978
 30
0.0
 10
15.168384031
 20
5.9397802753
 30
0.0
 10
15.1683842963
 20
5.9397805715
 30
0.0
  0
SPLINE
  5
397
100
AcDbEntity
  8
0
100
AcDbSpline
 62
9
  6
CONTINUOUS
 70
0
 71
3
 72
15
 73
11
 74
0
 42
0.0000001
 43
0.0000001
 44
0.0000000001
 40
0.0
 40
0.0
 40
0.0
 40
0.0
 40
0.1242255537
 40
0.2487336059
 40
0.3734954254
 40
0.4984817354
 40
0.6236606568
 40
0.7489982566
 40
0.8744576674
 40
1.0
 40
1.0
 40
1.0
 40
1.0
 10
13.9343344889
 20
0.8528469495
 30
0.0
 10
13.9689147248
 20
0.8618254808
 30
0.0
 10
14.0383378489
 20
0.8791040582
 30
0.0
 10
14.1431224001
 20
0.9027743159
 30
0.0
 10
14.2486520668
 20
0.9240128113
 30
0.0
 10
14.3548815624
 20
0.9425827635
 30
0.0
 10
14.4617495233
 20
0.958234506
 30
0.0
 10
14.5691732368
 20
0.9707183206
 30
0.0
 10
14.6770432715
 20
0.9798034528
 30
0.0
 10
14.7491538164
 20
0.9834677356
 30
0.0
 10
14.7852389367
 20
0.9846817478
 30
0.0
  0
SPLINE
  5
398
100
AcDbEntity
  8
0
100
AcDbSpline
 62
9
  6
CONTINUOUS
 70
0
 71
3
 72
48
 73
44
 74
0
 42
0.0000001
 43
0.0000001
 44
0.0000000001
 40
0.0
 40
0.0
 40
0.0
 40
0.0
 40
0.0000040748
 40
0.0000162358
 40
0.0000364826
 40
0.0000648151
 40
0.0001457355
 40
0.0002589939
 40
0.0004045871
 40
0.0005825123
 40
0.0007927661
 40
0.0010353457
 40
0.0016174697
 40
0.0023288597
 40
0.003169491
 40
0.0041393392
 40
0.0052383796
 40
0.0064665876
 40
0.0093104084
 40
0.0126705309
 40
0.0165461985
 40
0.0209364588
 40
0.0258403587
 40
0.0312569454
 40
0.0371852664
 40
0.0505728726
 40
0.0659922352
 40
0.0834312192
 40
0.102877502
 40
0.1243169307
 40
0.1477343345
 40
0.1731143813
 40
0.2004393074
 40
0.2296894337
 40
0.2608450266
 40
0.328789878
 40
0.4041031135
 40
0.4866022285
 40
0.5760952781
 40
0.6723834817
 40
0.7752673038
 40
0.8845465908
 40
1.0
 40
1.0
 40
1.0
 40
1.0
 10
6.0800296169
 20
13.3354439135
 30
0.0
 10
6.0800295757
 20
13.3354436983
 30
0.0
 10
6.0800307944
 20
13.3354433712
 30
0.0
 10
6.0800318722
 20
13.3354420181
 30
0.0
 10
6.0800347836
 20
13.3354401871
 30
0.0
 10
6.0800402202
 20
13.3354359975
 30
0.0
 10
6.0800499894
 20
13.335428964
 30
0.0
 10
6.0800646538
 20
13.3354181328
 30
0.0
 10
6.0800836111
 20
13.335404252
 30
0.0
 10
6.0801067422
 20
13.3353872772
 30
0.0
 10
6.0801340911
 20
13.3353672252
 30
0.0
 10
6.080178961
 20
13.3353343235
 30
0.0
 10
6.0802455624
 20
13.3352854947
 30
0.0
 10
6.0803380934
 20
13.3352176561
 30
0.0
 10
6.0804474352
 20
13.3351374923
 30
0.0
 10
6.0805735824
 20
13.3350450035
 30
0.0
 10
6.0807165306
 20
13.3349401899
 30
0.0
 10
6.0809407202
 20
13.3347757952
 30
0.0
 10
6.0812629231
 20
13.3345394972
 30
0.0
 10
6.081699868
 20
13.3342189821
 30
0.0
 10
6.0822038568
 20
13.3338493018
 30
0.0
 10
6.0827748123
 20
13.3334305931
 30
0.0
 10
6.083412648
 20
13.3329629981
 30
0.0
 10
6.084117278
 20
13.3324466593
 30
0.0
 10
6.0851899912
 20
13.3316609889
 30
0.0
 10
6.0866969982
 20
13.3305581743
 30
0.0
 10
6.0887044101
 20
13.3290912866
 30
0.0
 10
6.090976149
 20
13.3274340521
 30
0.0
 10
6.0935110039
 20
13.3255883364
 30
0.0
 10
6.0963075671
 20
13.3235560144
 30
0.0
 10
6.099364291
 20
13.3213390454
 30
0.0
 10
6.1026794322
 20
13.3189394512
 30
0.0
 10
6.1062513119
 20
13.3163597582
 30
0.0
 10
6.1100782178
 20
13.3136028548
 30
0.0
 10
6.1156822869
 20
13.3095768222
 30
0.0
 10
6.1233092552
 20
13.3041221849
 30
0.0
 10
6.1332017922
 20
13.2970903762
 30
0.0
 10
6.1440627401
 20
13.2894215174
 30
0.0
 10
6.1558732883
 20
13.2811426499
 30
0.0
 10
6.1686130506
 20
13.2722802863
 30
0.0
 10
6.1822614237
 20
13.2628615126
 30
0.0
 10
6.1967970789
 20
13.2529146439
 30
0.0
 10
6.2067955377
 20
13.24613187
 30
0.0
 10
6.2119391193
 20
13.2426576998
 30
0.0
  0
SPLINE
  5
399
100
AcDbEntity
  8
0
100
AcDbSpline
 62
9
  6
CONTINUOUS
 70
0
 71
3
 72
15
 73
11
 74
0
 42
0.0000001
 43
0.0000001
 44
0.0000000001
 40
0.0
 40
0.0
 40
0.0
 40
0.0
 40
0.0923487196
 40
0.1896562113
 40
0.2956651177
 40
0.4132393943
 40
0.5434820622
 40
0.6859137596
 40
0.8388919557
 40
1.0
 40
1.0
 40
1.0
 40
1.0
 10
14.6579068509
 20
5.9930238916
 30
0.0
 10
14.6580336026
 20
5.9931678116
 30
0.0
 10
14.6583299545
 20
5.9934337851
 30
0.0
 10
14.6588762134
 20
5.9937258219
 30
0.0
 10
14.6595238189
 20
5.9939027465
 30
0.0
 10
14.6602602553
 20
5.9939573921
 30
0.0
 10
14.6610705868
 20
5.9938905722
 30
0.0
 10
14.6619370994
 20
5.9937064289
 30
0.0
 10
14.6628406562
 20
5.9934151739
 30
0.0
 10
14.6634431823
 20
5.9931634469
 30
0.0
 10
14.6637472561
 20
5.9930238916
 30
0.0
  0
SPLINE
  5
39A
100
AcDbEntity
  8
0
100
AcDbSpline
 62
9
  6
CONTINUOUS
 70
0
 71
3
 72
15
 73
11
 74
0
 42
0.0000001
 43
0.0000001
 44
0.0000000001
 40
0.0
 40
0.0
 40
0.0
 40
0.0
 40
0.1208081682
 40
0.2431182512
 40
0.3668103549
 40
0.4917558583
 40
0.6177819706
 40
0.7446750281
 40
0.8721802868
 40
1.0
 40
1.0
 40
1.0
 40
1.0
 10
14.6637472561
 20
5.9930238916
 30
0.0
 10
14.6723539542
 20
5.9890736645
 30
0.0
 10
14.6898375532
 20
5.9814735289
 30
0.0
 10
14.7166884436
 20
5.9711615514
 30
0.0
 10
14.7443037185
 20
5.9620183444
 30
0.0
 10
14.7726299171
 20
5.9542097748
 30
0.0
 10
14.801587331
 20
5.9479051217
 30
0.0
 10
14.8310629591
 20
5.9432637851
 30
0.0
 10
14.8609075069
 20
5.9404192467
 30
0.0
 10
14.8809277628
 20
5.9397803419
 30
0.0
 10
14.8909473134
 20
5.9397803402
 30
0.0
  0
SPLINE
  5
39B
100
AcDbEntity
  8
0
100
AcDbSpline
 62
9
  6
CONTINUOUS
 70
0
 71
3
 72
15
 73
11
 74
0
 42
0.0000001
 43
0.0000001
 44
0.0000000001
 40
0.0
 40
0.0
 40
0.0
 40
0.0
 40
0.1254759504
 40
0.251001184
 40
0.3763336321
 40
0.5015039497
 40
0.6264685111
 40
0.7511974147
 40
0.8757650755
 40
1.0
 40
1.0
 40
1.0
 40
1.0
 10
13.8444799449
 20
0.5342208463
 30
0.0
 10
13.8444799454
 20
0.5355663763
 30
0.0
 10
13.8446597269
 20
0.5382613209
 30
0.0
 10
13.8454600837
 20
0.5422282777
 30
0.0
 10
13.8467797617
 20
0.5460513782
 30
0.0
 10
13.8485939487
 20
0.5496591426
 30
0.0
 10
13.850868431
 20
0.5529881353
 30
0.0
 10
13.853564463
 20
0.5559777283
 30
0.0
 10
13.8566318786
 20
0.5585715947
 30
0.0
 10
13.8588904494
 20
0.560009893
 30
0.0
 10
13.8600602643
 20
0.5606473477
 30
0.0
  0
SPLINE
  5
39C
100
AcDbEntity
  8
0
100
AcDbSpline
 62
9
  6
CONTINUOUS
 70
0
 71
3
 72
15
 73
11
 74
0
 42
0.0000001
 43
0.0000001
 44
0.0000000001
 40
0.0
 40
0.0
 40
0.0
 40
0.0
 40
0.2999706241
 40
0.443333678
 40
0.5789138537
 40
0.7043723702
 40
0.817546279
 40
0.9166226267
 40
0.9603666543
 40
1.0
 40
1.0
 40
1.0
 40
1.0
 10
15.912819292
 20
0.5342208463
 30
0.0
 10
15.912819298
 20
0.5368835089
 30
0.0
 10
15.9127345069
 20
0.5408196437
 30
0.0
 10
15.9124388805
 20
0.5459502072
 30
0.0
 10
15.9121387829
 20
0.5495277482
 30
0.0
 10
15.9117633201
 20
0.5528287272
 30
0.0
 10
15.9113190118
 20
0.5557939254
 30
0.0
 10
15.9108836725
 20
0.5580253703
 30
0.0
 10
15.9104995057
 20
0.5595989429
 30
0.0
 10
15.9102977074
 20
0.5603112559
 30
0.0
 10
15.9101937327
 20
0.560647342
 30
0.0
  0
SPLINE
  5
39D
100
AcDbEntity
  8
0
100
AcDbSpline
 62
9
  6
CONTINUOUS
 70
0
 71
3
 72
11
 73
7
 74
0
 42
0.0000001
 43
0.0000001
 44
0.0000000001
 40
0.0
 40
0.0
 40
0.0
 40
0.0
 40
0.1991152387
 40
0.3798929796
 40
0.6810366701
 40
1.0
 40
1.0
 40
1.0
 40
1.0
 10
15.8686743545
 20
0.8253690312
 30
0.0
 10
15.8739160359
 20
0.8339170659
 30
0.0
 10
15.8838163412
 20
0.8502877454
 30
0.0
 10
15.9011940218
 20
0.8798560932
 30
0.0
 10
15.921029045
 20
0.9149768562
 30
0.0
 10
15.9357019844
 20
0.9425481348
 30
0.0
 10
15.9430372111
 20
0.9568379943
 30
0.0
  0
SPLINE
  5
39E
100
AcDbEntity
  8
0
100
AcDbSpline
 62
9
  6
CONTINUOUS
 70
0
 71
3
 72
11
 73
7
 74
0
 42
0.0000001
 43
0.0000001
 44
0.0000000001
 40
0.0
 40
0.0
 40
0.0
 40
0.0
 40
0.2714202296
 40
0.5267276531
 40
0.7682632782
 40
1.0
 40
1.0
 40
1.0
 40
1.0
 10
13.8717031417
 20
0.5606475484
 30
0.0
 10
13.8706829428
 20
0.560985955
 30
0.0
 10
13.8686542298
 20
0.5615084376
 30
0.0
 10
13.8656105581
 20
0.5617916989
 30
0.0
 10
13.862719844
 20
0.5615373532
 30
0.0
 10
13.860907413
 20
0.5610011801
 30
0.0
 10
13.8600605319
 20
0.5606476535
 30
0.0
  0
LINE
  5
39F
100
AcDbEntity
  8
0
100
AcDbLine
 62
9
  6
CONTINUOUS
 10
13.8545643225
 20
0.9856744276
 11
13.8577428603
 21
0.9846817478
  0
SPLINE
  5
3A0
100
AcDbEntity
  8
0
100
AcDbSpline
 62
9
  6
CONTINUOUS
 70
0
 71
3
 72
11
 73
7
 74
0
 42
0.0000001
 43
0.0000001
 44
0.0000000001
 40
0.0
 40
0.0
 40
0.0
 40
0.0
 40
0.231732314
 40
0.4732658731
 40
0.7285757043
 40
1.0
 40
1.0
 40
1.0
 40
1.0
 10
15.9218350805
 20
0.5606475471
 30
0.0
 10
15.9209882888
 20
0.5610010642
 30
0.0
 10
15.9191760423
 20
0.5615372705
 30
0.0
 10
15.9162855622
 20
0.5617916554
 30
0.0
 10
15.9132420967
 20
0.5615084673
 30
0.0
 10
15.9112135027
 20
0.5609860329
 30
0.0
 10
15.9101933711
 20
0.5606476283
 30
0.0
  0
LINE
  5
3A1
100
AcDbEntity
  8
0
100
AcDbLine
 62
7
  6
CONTINUOUS
 10
7.4634743773
 20
12.7922719039
 11
7.4636933026
 21
12.7922338786
  0
LINE
  5
3A2
100
AcDbEntity
  8
0
100
AcDbLine
 62
7
  6
CONTINUOUS
 10
7.4636933026
 20
12.7922338786
 11
7.5008762576
 21
12.7857523947
  0
SPLINE
  5
3A3
100
AcDbEntity
  8
0
100
AcDbSpline
 62
9
  6
CONTINUOUS
 70
0
 71
3
 72
15
 73
11
 74
0
 42
0.0000001
 43
0.0000001
 44
0.0000000001
 40
0.0
 40
0.0
 40
0.0
 40
0.0
 40
0.1252916317
 40
0.2505200341
 40
0.3756623881
 40
0.5007005203
 40
0.6256349391
 40
0.7504796653
 40
0.8752557569
 40
1.0
 40
1.0
 40
1.0
 40
1.0
 10
7.5008762628
 20
12.7857524648
 30
0.0
 10
7.5031510579
 20
12.785360729
 30
0.0
 10
7.5076376982
 20
12.7841591982
 30
0.0
 10
7.513934405
 20
12.7812059511
 30
0.0
 10
7.5196148528
 20
12.7771970395
 30
0.0
 10
7.5245018616
 20
12.7722610834
 30
0.0
 10
7.5284590736
 20
12.766559852
 30
0.0
 10
7.5313713179
 20
12.7602656722
 30
0.0
 10
7.5331654285
 20
12.7535729255
 30
0.0
 10
7.5335835462
 20
12.7489679767
 30
0.0
 10
7.5335925811
 20
12.7466698007
 30
0.0
  0
SPLINE
  5
3A4
100
AcDbEntity
  8
0
100
AcDbSpline
 62
9
  6
CONTINUOUS
 70
0
 71
3
 72
17
 73
13
 74
0
 42
0.0000001
 43
0.0000001
 44
0.0000000001
 40
0.0
 40
0.0
 40
0.0
 40
0.0
 40
0.1246750026
 40
0.2493920958
 40
0.3118528186
 40
0.3743368552
 40
0.4992437342
 40
0.6242678867
 40
0.6868970448
 40
0.7495519434
 40
0.8747600639
 40
1.0
 40
1.0
 40
1.0
 40
1.0
 10
7.5381159452
 20
11.7775993964
 30
0.0
 10
7.5381307598
 20
11.7750316155
 30
0.0
 10
7.5376586714
 20
11.7698797887
 30
0.0
 10
7.5358532601
 20
11.7636735462
 30
0.0
 10
7.5337223787
 20
11.7589859401
 30
0.0
 10
7.5311471095
 20
11.7545226295
 30
0.0
 10
7.5271316544
 20
11.7494396775
 30
0.0
 10
7.5222025557
 20
11.7452308733
 30
0.0
 10
7.5178264319
 20
11.7424916602
 30
0.0
 10
7.5131975034
 20
11.7401964763
 30
0.0
 10
7.5070201093
 20
11.7382003473
 30
0.0
 10
7.5018550934
 20
11.7376091522
 30
0.0
 10
7.4992758101
 20
11.7375790404
 30
0.0
  0
LINE
  5
3A5
100
AcDbEntity
  8
0
100
AcDbLine
 62
7
  6
CONTINUOUS
 10
7.4992760696
 20
11.7375584082
 11
7.3384917208
 21
11.7354080114
  0
LINE
  5
3A6
100
AcDbEntity
  8
0
100
AcDbLine
 62
7
  6
CONTINUOUS
 10
7.3384917208
 20
11.7354080114
 11
7.3380996228
 21
11.7354027236
  0
LINE
  5
3A7
100
AcDbEntity
  8
0
100
AcDbLine
 62
9
  6
CONTINUOUS
 10
13.837947327
 20
0.9588230907
 11
13.8388574157
 21
0.9568379943
  0
SPLINE
  5
3A8
100
AcDbEntity
  8
0
100
AcDbSpline
 62
9
  6
CONTINUOUS
 70
0
 71
3
 72
10
 73
6
 74
0
 42
0.0000001
 43
0.0000001
 44
0.0000000001
 40
0.0
 40
0.0
 40
0.0
 40
0.0
 40
0.3799744153
 40
0.6811283936
 40
1.0
 40
1.0
 40
1.0
 40
1.0
 10
15.8475601379
 20
0.8528469495
 30
0.0
 10
15.8577840414
 20
0.8692336595
 30
0.0
 10
15.8757983943
 20
0.8988050622
 30
0.0
 10
15.9012959952
 20
0.942782051
 30
0.0
 10
15.9165067249
 20
0.9703893303
 30
0.0
 10
15.9241517665
 20
0.9846817478
 30
0.0
  0
LINE
  5
3A9
100
AcDbEntity
  8
0
100
AcDbLine
 62
9
  6
CONTINUOUS
 10
15.9430372111
 20
0.9568379943
 11
15.9439472998
 21
0.9588230907
  0
SPLINE
  5
3AA
100
AcDbEntity
  8
0
100
AcDbSpline
 62
9
  6
CONTINUOUS
 70
0
 71
3
 72
15
 73
11
 74
0
 42
0.0000001
 43
0.0000001
 44
0.0000000001
 40
0.0
 40
0.0
 40
0.0
 40
0.0
 40
0.1255423958
 40
0.2510018443
 40
0.3763394628
 40
0.5015183884
 40
0.6265046851
 40
0.751266487
 40
0.8757744879
 40
1.0
 40
1.0
 40
1.0
 40
1.0
 10
14.9966556901
 20
0.9846817478
 30
0.0
 10
15.0327408284
 20
0.9834677318
 30
0.0
 10
15.1048514022
 20
0.979803447
 30
0.0
 10
15.2127214719
 20
0.9707183188
 30
0.0
 10
15.3201452017
 20
0.9582344925
 30
0.0
 10
15.4270131652
 20
0.9425827486
 30
0.0
 10
15.5332426534
 20
0.9240127982
 30
0.0
 10
15.6387722966
 20
0.902774306
 30
0.0
 10
15.7435568171
 20
0.8791040559
 30
0.0
 10
15.8129799131
 20
0.8618254764
 30
0.0
 10
15.8475601379
 20
0.8528469495
 30
0.0
  0
SPLINE
  5
3AB
100
AcDbEntity
  8
0
100
AcDbSpline
 62
9
  6
CONTINUOUS
 70
0
 71
3
 72
14
 73
10
 74
0
 42
0.0000001
 43
0.0000001
 44
0.0000000001
 40
0.0
 40
0.0
 40
0.0
 40
0.0
 40
0.2499258859
 40
0.3748867636
 40
0.499847533
 40
0.6248281106
 40
0.749842361
 40
0.8749114161
 40
1.0
 40
1.0
 40
1.0
 40
1.0
 10
7.1994799067
 20
12.3832883159
 30
0.0
 10
7.2014332692
 20
12.3768042912
 30
0.0
 10
7.204818045
 20
12.3672057092
 30
0.0
 10
7.210237406
 20
12.3547895072
 30
0.0
 10
7.2147557366
 20
12.3456865399
 30
0.0
 10
7.2197208537
 20
12.3368181557
 30
0.0
 10
7.2251246806
 20
12.3282061839
 30
0.0
 10
7.2309650439
 20
12.319880655
 30
0.0
 10
7.2351391576
 20
12.314535876
 30
0.0
 10
7.2372916053
 20
12.3119177499
 30
0.0
  0
SPLINE
  5
3AC
100
AcDbEntity
  8
0
100
AcDbSpline
 62
9
  6
CONTINUOUS
 70
0
 71
3
 72
35
 73
31
 74
0
 42
0.0000001
 43
0.0000001
 44
0.0000000001
 40
0.0
 40
0.0
 40
0.0
 40
0.0
 40
0.0001140415
 40
0.0003313532
 40
0.0011413975
 40
0.0024760796
 40
0.0043470456
 40
0.0067627049
 40
0.0097305599
 40
0.0132577605
 40
0.0173512914
 40
0.0220180494
 40
0.0272648809
 40
0.0395259867
 40
0.0541889362
 40
0.0713078647
 40
0.0909156017
 40
0.1129595147
 40
0.1373654443
 40
0.1640592055
 40
0.1929665969
 40
0.2240134064
 40
0.2922283894
 40
0.3679819381
 40
0.4500348099
 40
0.5370176424
 40
0.6275610406
 40
0.7203273647
 40
0.8141072792
 40
1.0
 40
1.0
 40
1.0
 40
1.0
 10
7.499522525
 20
11.6847237308
 30
0.0
 10
7.4995245336
 20
11.6847237576
 30
0.0
 10
7.4995292138
 20
11.6847287561
 30
0.0
 10
7.4995357535
 20
11.6847471299
 30
0.0
 10
7.4995439228
 20
11.6847887095
 30
0.0
 10
7.4995522076
 20
11.6848585778
 30
0.0
 10
7.4995607294
 20
11.6849574125
 30
0.0
 10
7.4995689187
 20
11.6850848711
 30
0.0
 10
7.4995768752
 20
11.6852416543
 30
0.0
 10
7.4995844927
 20
11.6854280042
 30
0.0
 10
7.4995917662
 20
11.6856443232
 30
0.0
 10
7.4995986674
 20
11.6858909541
 30
0.0
 10
7.4996078306
 20
11.6862814425
 30
0.0
 10
7.4996178967
 20
11.6868480286
 30
0.0
 10
7.4996277665
 20
11.6876237596
 30
0.0
 10
7.4996358097
 20
11.6885289241
 30
0.0
 10
7.4996419149
 20
11.689564117
 30
0.0
 10
7.4996460723
 20
11.6907276764
 30
0.0
 10
7.4996482492
 20
11.6920160575
 30
0.0
 10
7.4996484184
 20
11.6934253365
 30
0.0
 10
7.4996465559
 20
11.6949515895
 30
0.0
 10
7.4996411551
 20
11.6972092096
 30
0.0
 10
7.4996288626
 20
11.7002919812
 30
0.0
 10
7.4996062798
 20
11.7042731548
 30
0.0
 10
7.4995760858
 20
11.7085848714
 30
0.0
 10
7.4995389618
 20
11.7131570573
 30
0.0
 10
7.4994956215
 20
11.7179179078
 30
0.0
 10
7.4994467578
 20
11.7227984376
 30
0.0
 10
7.4993758058
 20
11.7293583513
 30
0.0
 10
7.4993172015
 20
11.7342842765
 30
0.0
 10
7.4992760688
 20
11.737558411
 30
0.0
  0
SPLINE
  5
3AD
100
AcDbEntity
  8
0
100
AcDbSpline
 62
9
  6
CONTINUOUS
 70
0
 71
3
 72
28
 73
24
 74
0
 42
0.0000001
 43
0.0000001
 44
0.0000000001
 40
0.0
 40
0.0
 40
0.0
 40
0.0
 40
0.1799793663
 40
0.3634840651
 40
0.4533893797
 40
0.5400931952
 40
0.6220468878
 40
0.6978764885
 40
0.7663354764
 40
0.8265006597
 40
0.8776289089
 40
0.899683507
 40
0.9193546313
 40
0.9366324133
 40
0.951581771
 40
0.9642939479
 40
0.9748760846
 40
0.9834648033
 40
0.990255528
 40
0.9930753914
 40
0.9955833708
 40
0.9978584735
 40
1.0
 40
1.0
 40
1.0
 40
1.0
 10
7.5335925811
 20
12.7466698
 30
0.0
 10
7.5371578075
 20
12.7466834288
 30
0.0
 10
7.544358457
 20
12.7466466925
 30
0.0
 10
7.5533379963
 20
12.7464386352
 30
0.0
 10
7.5604660486
 20
12.7461541652
 30
0.0
 10
7.5655811728
 20
12.745887349
 30
0.0
 10
7.5704138548
 20
12.7455670868
 30
0.0
 10
7.5748805915
 20
12.7451985395
 30
0.0
 10
7.5789099247
 20
12.7447859051
 30
0.0
 10
7.5824427357
 20
12.7443376643
 30
0.0
 10
7.5850522054
 20
12.7439227389
 30
0.0
 10
7.5868579537
 20
12.743571782
 30
0.0
 10
7.5879990558
 20
12.7433179614
 30
0.0
 10
7.5889947552
 20
12.7430610955
 30
0.0
 10
7.5898469329
 20
12.7428024649
 30
0.0
 10
7.5905592364
 20
12.7425432038
 30
0.0
 10
7.5911361975
 20
12.742284139
 30
0.0
 10
7.5915821305
 20
12.7420261154
 30
0.0
 10
7.5918655627
 20
12.741798815
 30
0.0
 10
7.5920210183
 20
12.7416148859
 30
0.0
 10
7.5920994391
 20
12.7414853991
 30
0.0
 10
7.5921470468
 20
12.7413557334
 30
0.0
 10
7.5921581083
 20
12.7412679943
 30
0.0
 10
7.5921583063
 20
12.7412255727
 30
0.0
  0
SPLINE
  5
3AE
100
AcDbEntity
  8
0
100
AcDbSpline
 62
9
  6
CONTINUOUS
 70
0
 71
3
 72
28
 73
24
 74
0
 42
0.0000001
 43
0.0000001
 44
0.0000000001
 40
0.0
 40
0.0
 40
0.0
 40
0.0
 40
0.0021448023
 40
0.0044230283
 40
0.0069338758
 40
0.0097563168
 40
0.0165513642
 40
0.0251434902
 40
0.0357283076
 40
0.0484425588
 40
0.0633934523
 40
0.0806722655
 40
0.1003440628
 40
0.1223991071
 40
0.1735274851
 40
0.2336919078
 40
0.3021493844
 40
0.3779767986
 40
0.4599278035
 40
0.5466285184
 40
0.6365304989
 40
0.8200279807
 40
1.0
 40
1.0
 40
1.0
 40
1.0
 10
7.5966282238
 20
11.7835992745
 30
0.0
 10
7.5966284244
 20
11.7835567864
 30
0.0
 10
7.5966181894
 20
11.7834688173
 30
0.0
 10
7.5965718038
 20
11.7833385095
 30
0.0
 10
7.5964946014
 20
11.7832080883
 30
0.0
 10
7.5963408891
 20
11.7830224356
 30
0.0
 10
7.5960596056
 20
11.7827921313
 30
0.0
 10
7.5956160868
 20
11.782529528
 30
0.0
 10
7.5950415577
 20
11.7822646619
 30
0.0
 10
7.5943316976
 20
11.7819983378
 30
0.0
 10
7.5934819693
 20
11.7817313399
 30
0.0
 10
7.5924887139
 20
11.7814647691
 30
0.0
 10
7.5913500351
 20
11.7811998908
 30
0.0
 10
7.5895476572
 20
11.7808315188
 30
0.0
 10
7.5869421836
 20
11.7803915666
 30
0.0
 10
7.5834137093
 20
11.7799096199
 30
0.0
 10
7.5793884045
 20
11.7794586965
 30
0.0
 10
7.574925305
 20
11.7790478425
 30
0.0
 10
7.5700958267
 20
11.7786819307
 30
0.0
 10
7.5649834182
 20
11.7783669089
 30
0.0
 10
7.5578583392
 20
11.7780153998
 30
0.0
 10
7.5488811365
 20
11.7777231238
 30
0.0
 10
7.5416811418
 20
11.7776190569
 30
0.0
 10
7.5381159452
 20
11.7775993979
 30
0.0
  0
SPLINE
  5
3AF
100
AcDbEntity
  8
0
100
AcDbSpline
 62
9
  6
CONTINUOUS
 70
0
 71
3
 72
18
 73
14
 74
0
 42
0.0000001
 43
0.0000001
 44
0.0000000001
 40
0.0
 40
0.0
 40
0.0
 40
0.0
 40
0.1249509543
 40
0.1874323298
 40
0.2499262044
 40
0.3124357868
 40
0.3749526769
 40
0.4999495066
 40
0.62492235
 40
0.7499188138
 40
0.8124394247
 40
0.8749735507
 40
1.0
 40
1.0
 40
1.0
 40
1.0
 10
7.1940015328
 20
12.4632376078
 30
0.0
 10
7.1935129642
 20
12.4599099702
 30
0.0
 10
7.1928963671
 20
12.454899783
 30
0.0
 10
7.1923483159
 20
12.4481941403
 30
0.0
 10
7.1920861182
 20
12.4431536484
 30
0.0
 10
7.1919685746
 20
12.4381068426
 30
0.0
 10
7.1919952176
 20
12.4313763725
 30
0.0
 10
7.1923505299
 20
12.422968626
 30
0.0
 10
7.193299564
 20
12.4129158829
 30
0.0
 10
7.1945413151
 20
12.4045919912
 30
0.0
 10
7.1958149706
 20
12.3979821343
 30
0.0
 10
7.1972749169
 20
12.3914101922
 30
0.0
 10
7.1985578314
 20
12.3865248761
 30
0.0
 10
7.1994799067
 20
12.3832883159
 30
0.0
  0
SPLINE
  5
3B0
100
AcDbEntity
  8
0
100
AcDbSpline
 62
9
  6
CONTINUOUS
 70
0
 71
3
 72
13
 73
9
 74
0
 42
0.0000001
 43
0.0000001
 44
0.0000000001
 40
0.0
 40
0.0
 40
0.0
 40
0.0
 40
0.2385457995
 40
0.361475681
 40
0.486457337
 40
0.613173672
 40
0.7412727727
 40
1.0
 40
1.0
 40
1.0
 40
1.0
 10
7.1629206044
 20
12.3482628961
 30
0.0
 10
7.1598200749
 20
12.357520783
 30
0.0
 10
7.1560225422
 20
12.3718693644
 30
0.0
 10
7.1526185226
 20
12.3914926521
 30
0.0
 10
7.1508594389
 20
12.4067332235
 30
0.0
 10
7.1499351177
 20
12.4222583493
 30
0.0
 10
7.1498250851
 20
12.4432835578
 30
0.0
 10
7.1510160772
 20
12.4591102248
 30
0.0
 10
7.152361443
 20
12.4696136914
 30
0.0
  0
SPLINE
  5
3B1
100
AcDbEntity
  8
0
100
AcDbSpline
 62
9
  6
CONTINUOUS
 70
0
 71
3
 72
33
 73
29
 74
0
 42
0.0000001
 43
0.0000001
 44
0.0000000001
 40
0.0
 40
0.0
 40
0.0
 40
0.0
 40
0.000130378
 40
0.0003548823
 40
0.0011697415
 40
0.002504935
 40
0.0043745719
 40
0.0067879282
 40
0.0097529152
 40
0.0132769129
 40
0.0173670523
 40
0.027273634
 40
0.039527946
 40
0.0541846576
 40
0.0712981878
 40
0.0909015976
 40
0.1129423359
 40
0.1373462509
 40
0.1640391521
 40
0.2239950202
 40
0.2922160742
 40
0.3679790974
 40
0.4500427276
 40
0.5370356895
 40
0.6275866584
 40
0.7203563911
 40
0.81413421
 40
1.0
 40
1.0
 40
1.0
 40
1.0
 10
7.5103731302
 20
12.8377745638
 30
0.0
 10
7.5103708766
 20
12.8377750171
 30
0.0
 10
7.5103645364
 20
12.8377717392
 30
0.0
 10
7.5103528159
 20
12.8377549966
 30
0.0
 10
7.5103355446
 20
12.8377163231
 30
0.0
 10
7.5103124384
 20
12.837649523
 30
0.0
 10
7.5102839526
 20
12.8375545329
 30
0.0
 10
7.5102504566
 20
12.8374312406
 30
0.0
 10
7.5102118483
 20
12.8372790847
 30
0.0
 10
7.5101681496
 20
12.8370977546
 30
0.0
 10
7.5100984725
 20
12.8367967986
 30
0.0
 10
7.5099989282
 20
12.8363447823
 30
0.0
 10
7.5098647831
 20
12.8357096505
 30
0.0
 10
7.5097091392
 20
12.8349492052
 30
0.0
 10
7.5095316763
 20
12.8340609778
 30
0.0
 10
7.5093324396
 20
12.8330443462
 30
0.0
 10
7.509111742
 20
12.8319009424
 30
0.0
 10
7.5088702806
 20
12.8306342468
 30
0.0
 10
7.5085073583
 20
12.8287101815
 30
0.0
 10
7.5080080296
 20
12.826025679
 30
0.0
 10
7.5073593273
 20
12.822488969
 30
0.0
 10
7.5066484384
 20
12.8185673854
 30
0.0
 10
7.5058854367
 20
12.8143188899
 30
0.0
 10
7.5050825215
 20
12.8098126664
 30
0.0
 10
7.5042521576
 20
12.8051196029
 30
0.0
 10
7.5034063136
 20
12.8003077984
 30
0.0
 10
7.5022758989
 20
12.7938397385
 30
0.0
 10
7.5014335162
 20
12.7889817757
 30
0.0
 10
7.5008762631
 20
12.7857524648
 30
0.0
  0
SPLINE
  5
3B2
100
AcDbEntity
  8
0
100
AcDbSpline
 62
9
  6
CONTINUOUS
 70
0
 71
3
 72
39
 73
35
 74
0
 42
0.0000001
 43
0.0000001
 44
0.0000000001
 40
0.0
 40
0.0
 40
0.0
 40
0.0
 40
0.0008487806
 40
0.0018013936
 40
0.0026546006
 40
0.0035325723
 40
0.0044197354
 40
0.0052929599
 40
0.0070533694
 40
0.0105717601
 40
0.014093821
 40
0.0176190962
 40
0.0211475494
 40
0.0282139558
 40
0.0352930232
 40
0.0423847437
 40
0.0566061101
 40
0.0708779896
 40
0.0852003163
 40
0.0995730242
 40
0.1139960474
 40
0.1429927707
 40
0.1721899641
 40
0.2015870955
 40
0.2311836367
 40
0.2909728104
 40
0.3515533469
 40
0.4129210826
 40
0.4750719155
 40
0.5380018027
 40
0.6017067746
 40
0.7314257306
 40
0.8641993691
 40
1.0
 40
1.0
 40
1.0
 40
1.0
 10
7.2372916053
 20
12.3119177499
 30
0.0
 10
7.237269463
 20
12.3119254063
 30
0.0
 10
7.2372229627
 20
12.3119434642
 30
0.0
 10
7.2371596558
 20
12.3119809325
 30
0.0
 10
7.2370897554
 20
12.3120060543
 30
0.0
 10
7.2370238852
 20
12.3120357892
 30
0.0
 10
7.2369574245
 20
12.3120655735
 30
0.0
 10
7.2368679311
 20
12.3121034714
 30
0.0
 10
7.2367126064
 20
12.3121721132
 30
0.0
 10
7.2364896997
 20
12.3122686871
 30
0.0
 10
7.236222455
 20
12.3123854605
 30
0.0
 10
7.2359549001
 20
12.3125022167
 30
0.0
 10
7.2355977503
 20
12.3126582695
 30
0.0
 10
7.2351507805
 20
12.3128537542
 30
0.0
 10
7.2346138281
 20
12.3130889518
 30
0.0
 10
7.233896142
 20
12.3134037757
 30
0.0
 10
7.2329969631
 20
12.3137990952
 30
0.0
 10
7.2319156024
 20
12.3142759327
 30
0.0
 10
7.2308309528
 20
12.3147556636
 30
0.0
 10
7.2297430294
 20
12.3152383047
 30
0.0
 10
7.2282855871
 20
12.3158868573
 30
0.0
 10
7.2264556965
 20
12.3167049228
 30
0.0
 10
7.2242507805
 20
12.3176968306
 30
0.0
 10
7.2220331491
 20
12.3187008136
 30
0.0
 10
7.2190495497
 20
12.3200603095
 30
0.0
 10
7.2152890901
 20
12.3217907372
 30
0.0
 10
7.2107428222
 20
12.3239112192
 30
0.0
 10
7.2061490657
 20
12.326083938
 30
0.0
 10
7.2015090624
 20
12.3283103644
 30
0.0
 10
7.1968241153
 20
12.3305920617
 30
0.0
 10
7.1904813716
 20
12.3337290658
 30
0.0
 10
7.1824489846
 20
12.3377980963
 30
0.0
 10
7.1727113964
 20
12.3429024871
 30
0.0
 10
7.1661984838
 20
12.3464445118
 30
0.0
 10
7.1629206044
 20
12.3482628961
 30
0.0
  0
SPLINE
  5
3B3
100
AcDbEntity
  8
0
100
AcDbSpline
 62
9
  6
CONTINUOUS
 70
0
 71
3
 72
23
 73
19
 74
0
 42
0.0000001
 43
0.0000001
 44
0.0000000001
 40
0.0
 40
0.0
 40
0.0
 40
0.0
 40
0.2244289156
 40
0.4232055023
 40
0.5946662081
 40
0.6697498444
 40
0.737462383
 40
0.7976035299
 40
0.8500193742
 40
0.8945721413
 40
0.9311815591
 40
0.9598574081
 40
0.9712334263
 40
0.9806473307
 40
0.9881201154
 40
0.9936999395
 40
0.9975154008
 40
1.0
 40
1.0
 40
1.0
 40
1.0
 10
7.3576200998
 20
12.2729548851
 30
0.0
 10
7.3582440394
 20
12.272863073
 30
0.0
 10
7.3594202599
 20
12.2726875865
 30
0.0
 10
7.3610713807
 20
12.2724302061
 30
0.0
 10
7.3623061389
 20
12.2722267869
 30
0.0
 10
7.363176182
 20
12.2720755745
 30
0.0
 10
7.3637373752
 20
12.2719742311
 30
0.0
 10
7.3642351704
 20
12.271880325
 30
0.0
 10
7.3646681283
 20
12.2717939123
 30
0.0
 10
7.3650351235
 20
12.2717149867
 30
0.0
 10
7.3653354207
 20
12.2716435698
 30
0.0
 10
7.3655434381
 20
12.2715872838
 30
0.0
 10
7.3656759738
 20
12.2715452959
 30
0.0
 10
7.3657506991
 20
12.271518324
 30
0.0
 10
7.365808865
 20
12.2714936404
 30
0.0
 10
7.3658504262
 20
12.2714705361
 30
0.0
 10
7.3658770161
 20
12.271450188
 30
0.0
 10
7.3658853494
 20
12.2714325719
 30
0.0
 10
7.365884744
 20
12.2714256163
 30
0.0
  0
SPLINE
  5
3B4
100
AcDbEntity
  8
0
100
AcDbSpline
 62
9
  6
CONTINUOUS
 70
0
 71
3
 72
19
 73
15
 74
0
 42
0.0000001
 43
0.0000001
 44
0.0000000001
 40
0.0
 40
0.0
 40
0.0
 40
0.0
 40
0.018202619
 40
0.0394717593
 40
0.0656454036
 40
0.0977322728
 40
0.1363041565
 40
0.1816792347
 40
0.23396076
 40
0.2931262444
 40
0.4317559613
 40
0.5965471337
 40
0.7864586514
 40
1.0
 40
1.0
 40
1.0
 40
1.0
 10
7.365884744
 20
12.2714256163
 30
0.0
 10
7.3658908951
 20
12.2714806554
 30
0.0
 10
7.3658758067
 20
12.2716038526
 30
0.0
 10
7.3657802861
 20
12.2717823968
 30
0.0
 10
7.3656185491
 20
12.2719642482
 30
0.0
 10
7.3653900964
 20
12.2721515357
 30
0.0
 10
7.3650944379
 20
12.2723452862
 30
0.0
 10
7.3647311834
 20
12.272545485
 30
0.0
 10
7.3643007495
 20
12.2727518042
 30
0.0
 10
7.3636005528
 20
12.2730500138
 30
0.0
 10
7.3625628333
 20
12.2734264418
 30
0.0
 10
7.3611300767
 20
12.27387473
 30
0.0
 10
7.3594632985
 20
12.2743350107
 30
0.0
 10
7.3582716857
 20
12.2746302332
 30
0.0
 10
7.3576394599
 20
12.2747799103
 30
0.0
  0
LINE
  5
3B5
100
AcDbEntity
  8
0
100
AcDbLine
 62
9
  6
CONTINUOUS
 10
7.4842751107
 20
12.954086395
 11
7.4832165825
 21
12.9537873228
  0
SPLINE
  5
3B6
100
AcDbEntity
  8
0
100
AcDbSpline
 62
9
  6
CONTINUOUS
 70
0
 71
3
 72
13
 73
9
 74
0
 42
0.0000001
 43
0.0000001
 44
0.0000000001
 40
0.0
 40
0.0
 40
0.0
 40
0.0
 40
0.2648932281
 40
0.5175000568
 40
0.6402593613
 40
0.7612086208
 40
0.8809364442
 40
1.0
 40
1.0
 40
1.0
 40
1.0
 10
7.5931487344
 20
12.5290601885
 30
0.0
 10
7.5943838647
 20
12.5303892201
 30
0.0
 10
7.5966016068
 20
12.533177992
 30
0.0
 10
7.5987009097
 20
12.5370584068
 30
0.0
 10
7.5998712917
 20
12.5402551357
 30
0.0
 10
7.6004931162
 20
12.5426700211
 30
0.0
 10
7.6008628531
 20
12.545110243
 30
0.0
 10
7.6009402765
 20
12.5467474431
 30
0.0
 10
7.60093647
 20
12.5475629445
 30
0.0
  0
SPLINE
  5
3B7
100
AcDbEntity
  8
0
100
AcDbSpline
 62
9
  6
CONTINUOUS
 70
0
 71
3
 72
14
 73
10
 74
0
 42
0.0000001
 43
0.0000001
 44
0.0000000001
 40
0.0
 40
0.0
 40
0.0
 40
0.0
 40
0.0776302596
 40
0.1700251711
 40
0.2771016681
 40
0.3983135015
 40
0.5326365717
 40
0.6787612164
 40
1.0
 40
1.0
 40
1.0
 40
1.0
 10
14.6500370088
 20
6.0058000672
 30
0.0
 10
14.6504445118
 20
6.0059550488
 30
0.0
 10
14.6513661871
 20
6.0062177771
 30
0.0
 10
14.6529022914
 20
6.0064783263
 30
0.0
 10
14.6546982253
 20
6.0066336497
 30
0.0
 10
14.6567350996
 20
6.0066819231
 30
0.0
 10
14.6589908849
 20
6.0066222931
 30
0.0
 10
14.6623628423
 20
6.0063914863
 30
0.0
 10
14.6649699586
 20
6.0060676362
 30
0.0
 10
14.6667541047
 20
6.005799993
 30
0.0
  0
SPLINE
  5
3B8
100
AcDbEntity
  8
0
100
AcDbSpline
 62
9
  6
CONTINUOUS
 70
0
 71
3
 72
13
 73
9
 74
0
 42
0.0000001
 43
0.0000001
 44
0.0000000001
 40
0.0
 40
0.0
 40
0.0
 40
0.0
 40
0.2648932281
 40
0.5175000568
 40
0.6402593613
 40
0.7612086208
 40
0.8809364442
 40
1.0
 40
1.0
 40
1.0
 40
1.0
 10
7.5923266308
 20
12.7051849257
 30
0.0
 10
7.5935741141
 20
12.7038674823
 30
0.0
 10
7.5958177935
 20
12.701099535
 30
0.0
 10
7.5979532297
 20
12.6972388869
 30
0.0
 10
7.599153403
 20
12.6940532231
 30
0.0
 10
7.599797744
 20
12.6916442478
 30
0.0
 10
7.6001902449
 20
12.6892075838
 30
0.0
 10
7.6002829486
 20
12.6875711779
 30
0.0
 10
7.6002867551
 20
12.6867556765
 30
0.0
  0
SPLINE
  5
3B9
100
AcDbEntity
  8
0
100
AcDbSpline
 62
9
  6
CONTINUOUS
 70
0
 71
3
 72
20
 73
16
 74
0
 42
0.0000001
 43
0.0000001
 44
0.0000000001
 40
0.0
 40
0.0
 40
0.0
 40
0.0
 40
0.0275572308
 40
0.0381630032
 40
0.0505031896
 40
0.0805945818
 40
0.1180861581
 40
0.1630503406
 40
0.2154626836
 40
0.275245851
 40
0.3422943592
 40
0.41645549
 40
0.5854206675
 40
0.7806004591
 40
1.0
 40
1.0
 40
1.0
 40
1.0
 10
7.3385230415
 20
11.7122088706
 30
0.0
 10
7.3385248798
 20
11.7121219782
 30
0.0
 10
7.3384190671
 20
11.7120184868
 30
0.0
 10
7.3382878356
 20
11.7119357305
 30
0.0
 10
7.3381385994
 20
11.7118572709
 30
0.0
 10
7.3379050724
 20
11.7117630029
 30
0.0
 10
7.3375667635
 20
11.7116541225
 30
0.0
 10
7.3371556116
 20
11.7115449144
 30
0.0
 10
7.3366721143
 20
11.7114352948
 30
0.0
 10
7.3361174563
 20
11.7113258076
 30
0.0
 10
7.3354929564
 20
11.7112167648
 30
0.0
 10
7.334526393
 20
11.7110657456
 30
0.0
 10
7.3331559311
 20
11.7108834791
 30
0.0
 10
7.3313268043
 20
11.7106791208
 30
0.0
 10
7.3300250948
 20
11.7105552826
 30
0.0
 10
7.3293358471
 20
11.7104941095
 30
0.0
  0
SPLINE
  5
3BA
100
AcDbEntity
  8
0
100
AcDbSpline
 62
9
  6
CONTINUOUS
 70
0
 71
3
 72
15
 73
11
 74
0
 42
0.0000001
 43
0.0000001
 44
0.0000000001
 40
0.0
 40
0.0
 40
0.0
 40
0.0
 40
0.1648464651
 40
0.3212697401
 40
0.4673891755
 40
0.601707139
 40
0.7229145359
 40
0.8299873935
 40
0.9223791034
 40
1.0
 40
1.0
 40
1.0
 40
1.0
 10
15.1151405237
 20
6.0058000725
 30
0.0
 10
15.1160560469
 20
6.0059378121
 30
0.0
 10
15.1178441009
 20
6.0061819938
 30
0.0
 10
15.1204553068
 20
6.0064553674
 30
0.0
 10
15.1229037638
 20
6.0066224416
 30
0.0
 10
15.1251595259
 20
6.0066818568
 30
0.0
 10
15.1271963987
 20
6.0066333626
 30
0.0
 10
15.128992311
 20
6.0064778208
 30
0.0
 10
15.130528349
 20
6.0062170709
 30
0.0
 10
15.1314500052
 20
6.0059545765
 30
0.0
 10
15.1318576163
 20
6.0057999848
 30
0.0
  0
SPLINE
  5
3BB
100
AcDbEntity
  8
0
100
AcDbSpline
 62
9
  6
CONTINUOUS
 70
0
 71
3
 72
11
 73
7
 74
0
 42
0.0000001
 43
0.0000001
 44
0.0000000001
 40
0.0
 40
0.0
 40
0.0
 40
0.0
 40
0.2858240586
 40
0.5487590109
 40
0.7870167058
 40
1.0
 40
1.0
 40
1.0
 40
1.0
 10
15.2262824481
 20
8.9596616679
 30
0.0
 10
15.2272350176
 20
8.9595020261
 30
0.0
 10
15.2290751271
 20
8.9592570443
 30
0.0
 10
15.2317346371
 20
8.9591207626
 30
0.0
 10
15.2341495011
 20
8.9592326555
 30
0.0
 10
15.2356589612
 20
8.959485882
 30
0.0
 10
15.236356874
 20
8.9596616717
 30
0.0
  0
LINE
  5
3BC
100
AcDbEntity
  8
0
100
AcDbLine
 62
9
  6
CONTINUOUS
 10
15.1718331651
 20
8.7825106984
 11
15.1866709203
 21
8.7825106984
  0
SPLINE
  5
3BD
100
AcDbEntity
  8
0
100
AcDbSpline
 62
9
  6
CONTINUOUS
 70
0
 71
3
 72
49
 73
45
 74
0
 42
0.0000001
 43
0.0000001
 44
0.0000000001
 40
0.0
 40
0.0
 40
0.0
 40
0.0
 40
0.0000040439
 40
0.0000161844
 40
0.0000364209
 40
0.0000647527
 40
0.0001456998
 40
0.0002590207
 40
0.0004047102
 40
0.0005827633
 40
0.0007931749
 40
0.00103594
 40
0.0016185103
 40
0.0023304336
 40
0.0031716692
 40
0.0041421768
 40
0.0052419155
 40
0.006470845
 40
0.0093161138
 40
0.0126776007
 40
0.0165545438
 40
0.0209460284
 40
0.0258511391
 40
0.0312689609
 40
0.037198579
 40
0.0436390519
 40
0.0505891177
 40
0.0660121259
 40
0.0834557848
 40
0.1029080177
 40
0.1243542676
 40
0.1477785997
 40
0.1731649594
 40
0.2004955384
 40
0.2297511476
 40
0.2609125373
 40
0.3288694949
 40
0.404192131
 40
0.4866961958
 40
0.5761893601
 40
0.6724708288
 40
0.7753384665
 40
0.8845892772
 40
1.0
 40
1.0
 40
1.0
 40
1.0
 10
6.0868248643
 20
13.347050036
 30
0.0
 10
6.0868246971
 20
13.3470498947
 30
0.0
 10
6.0868262407
 20
13.3470494045
 30
0.0
 10
6.0868270267
 20
13.3470482178
 30
0.0
 10
6.0868301414
 20
13.3470462981
 30
0.0
 10
6.0868355331
 20
13.3470421642
 30
0.0
 10
6.0868454868
 20
13.3470350832
 30
0.0
 10
6.0868602734
 20
13.3470242575
 30
0.0
 10
6.0868794521
 20
13.3470103463
 30
0.0
 10
6.0869028305
 20
13.3469933442
 30
0.0
 10
6.0869304799
 20
13.346973254
 30
0.0
 10
6.0869758394
 20
13.3469402905
 30
0.0
 10
6.0870431685
 20
13.346891369
 30
0.0
 10
6.0871367103
 20
13.346823406
 30
0.0
 10
6.0872472469
 20
13.3467431022
 30
0.0
 10
6.0873747727
 20
13.3466504623
 30
0.0
 10
6.0875192832
 20
13.3465454909
 30
0.0
 10
6.0877459167
 20
13.346380876
 30
0.0
 10
6.0880716317
 20
13.3461443151
 30
0.0
 10
6.0885133569
 20
13.3458235312
 30
0.0
 10
6.089022856
 20
13.3454536149
 30
0.0
 10
6.0896000454
 20
13.3450346896
 30
0.0
 10
6.0902448339
 20
13.3445668831
 30
0.0
 10
6.0909571309
 20
13.3440503232
 30
0.0
 10
6.0917368447
 20
13.3434851395
 30
0.0
 10
6.0925838666
 20
13.3428714696
 30
0.0
 10
6.0938473334
 20
13.341956593
 30
0.0
 10
6.0955938726
 20
13.3406931563
 30
0.0
 10
6.0978899567
 20
13.3390345923
 30
0.0
 10
6.1004517655
 20
13.3371870065
 30
0.0
 10
6.1032778733
 20
13.3351523651
 30
0.0
 10
6.1063667034
 20
13.3329327957
 30
0.0
 10
6.1097165146
 20
13.3305305007
 30
0.0
 10
6.113325516
 20
13.327947918
 30
0.0
 10
6.1171918341
 20
13.3251876708
 30
0.0
 10
6.1228529465
 20
13.3211560758
 30
0.0
 10
6.1305560232
 20
13.3156924601
 30
0.0
 10
6.1405455809
 20
13.3086479841
 30
0.0
 10
6.1515107356
 20
13.3009639333
 30
0.0
 10
6.1634313981
 20
13.2926663272
 30
0.0
 10
6.1762869442
 20
13.2837822174
 30
0.0
 10
6.1900559316
 20
13.2743386062
 30
0.0
 10
6.2047151901
 20
13.2643622422
 30
0.0
 10
6.2147962369
 20
13.2575572868
 30
0.0
 10
6.2199817081
 20
13.2540715623
 30
0.0
  0
SPLINE
  5
3BE
100
AcDbEntity
  8
0
100
AcDbSpline
 62
9
  6
CONTINUOUS
 70
0
 71
3
 72
11
 73
7
 74
0
 42
0.0000001
 43
0.0000001
 44
0.0000000001
 40
0.0
 40
0.0
 40
0.0
 40
0.0
 40
0.3189632216
 40
0.6201070551
 40
0.8008848652
 40
1.0
 40
1.0
 40
1.0
 40
1.0
 10
13.8388574157
 20
0.9568379943
 30
0.0
 10
13.8461926182
 20
0.9425481285
 30
0.0
 10
13.8608656065
 20
0.9149768735
 30
0.0
 10
13.8807006027
 20
0.8798560901
 30
0.0
 10
13.8980782785
 20
0.8502877329
 30
0.0
 10
13.9079785914
 20
0.83391706
 30
0.0
 10
13.9132202722
 20
0.8253690312
 30
0.0
  0
SPLINE
  5
3BF
100
AcDbEntity
  8
0
100
AcDbSpline
 62
9
  6
CONTINUOUS
 70
0
 71
3
 72
22
 73
18
 74
0
 42
0.0000001
 43
0.0000001
 44
0.0000000001
 40
0.0
 40
0.0
 40
0.0
 40
0.0
 40
0.0051846145
 40
0.0110924774
 40
0.0182262933
 40
0.026875545
 40
0.0492774888
 40
0.0789547341
 40
0.1161051665
 40
0.1607862091
 40
0.2129712748
 40
0.2725881308
 40
0.3395403348
 40
0.413689576
 40
0.582952642
 40
0.7789886595
 40
1.0
 40
1.0
 40
1.0
 40
1.0
 10
7.3567184332
 20
12.1871463831
 30
0.0
 10
7.356717003
 20
12.1871317967
 30
0.0
 10
7.3567072414
 20
12.187101045
 30
0.0
 10
7.3566752641
 20
12.1870597713
 30
0.0
 10
7.3566271399
 20
12.1870211802
 30
0.0
 10
7.3565329603
 20
12.1869678169
 30
0.0
 10
7.3563705395
 20
12.1869094691
 30
0.0
 10
7.3561252407
 20
12.1868502091
 30
0.0
 10
7.355814199
 20
12.186797644
 30
0.0
 10
7.3554380421
 20
12.1867519789
 30
0.0
 10
7.3549972876
 20
12.1867135256
 30
0.0
 10
7.3544928884
 20
12.1866824511
 30
0.0
 10
7.3539259392
 20
12.1866589108
 30
0.0
 10
7.3530488272
 20
12.1866367168
 30
0.0
 10
7.3518064493
 20
12.1866308754
 30
0.0
 10
7.3501491246
 20
12.1866543129
 30
0.0
 10
7.3489706296
 20
12.186688292
 30
0.0
 10
7.3483462277
 20
12.1867098045
 30
0.0
  0
SPLINE
  5
3C0
100
AcDbEntity
  8
0
100
AcDbSpline
 62
9
  6
CONTINUOUS
 70
0
 71
3
 72
12
 73
8
 74
0
 42
0.0000001
 43
0.0000001
 44
0.0000000001
 40
0.0
 40
0.0
 40
0.0
 40
0.0
 40
0.2420029766
 40
0.3656514363
 40
0.4907561161
 40
0.7441018951
 40
1.0
 40
1.0
 40
1.0
 40
1.0
 10
15.1318576104
 20
6.0058001131
 30
0.0
 10
15.1316292041
 20
6.0045871745
 30
0.0
 10
15.1311024261
 20
6.0027832544
 30
0.0
 10
15.1300810441
 20
6.000495826
 30
0.0
 10
15.1288320947
 20
5.9982565895
 30
0.0
 10
15.1268913891
 20
5.9956475262
 30
0.0
 10
15.1250032102
 20
5.9938437954
 30
0.0
 10
15.1239877735
 20
5.9930238946
 30
0.0
  0
SPLINE
  5
3C1
100
AcDbEntity
  8
0
100
AcDbSpline
 62
9
  6
CONTINUOUS
 70
0
 71
3
 72
13
 73
9
 74
0
 42
0.0000001
 43
0.0000001
 44
0.0000000001
 40
0.0
 40
0.0
 40
0.0
 40
0.0
 40
0.2866642062
 40
0.5542512798
 40
0.6782061471
 40
0.7943076175
 40
0.9018024055
 40
1.0
 40
1.0
 40
1.0
 40
1.0
 10
15.1151405378
 20
6.0058000752
 30
0.0
 10
15.1156093907
 20
6.0046296307
 30
0.0
 10
15.1164430397
 20
6.0023365693
 30
0.0
 10
15.1172582457
 20
5.9994635385
 30
0.0
 10
15.117723839
 20
5.9972790659
 30
0.0
 10
15.1179685842
 20
5.9957693728
 30
0.0
 10
15.1181156939
 20
5.994360874
 30
0.0
 10
15.1181495997
 20
5.9934557962
 30
0.0
 10
15.1181473706
 20
5.9930238916
 30
0.0
  0
SPLINE
  5
3C2
100
AcDbEntity
  8
0
100
AcDbSpline
 62
9
  6
CONTINUOUS
 70
0
 71
3
 72
22
 73
18
 74
0
 42
0.0000001
 43
0.0000001
 44
0.0000000001
 40
0.0
 40
0.0
 40
0.0
 40
0.0
 40
0.007409862
 40
0.015383539
 40
0.0243717156
 40
0.0346899035
 40
0.0600330485
 40
0.0923338997
 40
0.1319077975
 40
0.1788027457
 40
0.232940158
 40
0.2941399
 40
0.3621684742
 40
0.4367300802
 40
0.6040693055
 40
0.7930358365
 40
1.0
 40
1.0
 40
1.0
 40
1.0
 10
7.3749887962
 20
12.3422418104
 30
0.0
 10
7.3749948326
 20
12.3422856666
 30
0.0
 10
7.3749938237
 20
12.3423790201
 30
0.0
 10
7.3749530645
 20
12.342520219
 30
0.0
 10
7.3748750295
 20
12.3426644107
 30
0.0
 10
7.3747107562
 20
12.342875696
 30
0.0
 10
7.3744028592
 20
12.3431448748
 30
0.0
 10
7.3739167025
 20
12.3434639709
 30
0.0
 10
7.3732898054
 20
12.3437981183
 30
0.0
 10
7.3725246839
 20
12.3441457324
 30
0.0
 10
7.3716241321
 20
12.3445048898
 30
0.0
 10
7.3705924023
 20
12.34487375
 30
0.0
 10
7.3694344173
 20
12.3452502973
 30
0.0
 10
7.367660213
 20
12.3457806897
 30
0.0
 10
7.3651716563
 20
12.3464414632
 30
0.0
 10
7.3618944791
 20
12.3472076659
 30
0.0
 10
7.359578379
 20
12.3476895767
 30
0.0
 10
7.3583653175
 20
12.3479291439
 30
0.0
  0
SPLINE
  5
3C3
100
AcDbEntity
  8
0
100
AcDbSpline
 62
9
  6
CONTINUOUS
 70
0
 71
3
 72
27
 73
23
 74
0
 42
0.0000001
 43
0.0000001
 44
0.0000000001
 40
0.0
 40
0.0
 40
0.0
 40
0.0
 40
0.0513063926
 40
0.0776231302
 40
0.1043964429
 40
0.1316331478
 40
0.1593343497
 40
0.1874966578
 40
0.2161137532
 40
0.2451769016
 40
0.2746755156
 40
0.3349269898
 40
0.3967550718
 40
0.4600294561
 40
0.5246085391
 40
0.5903424841
 40
0.6570752752
 40
0.7246463544
 40
0.7928919528
 40
0.8616443136
 40
0.9307385397
 40
1.0
 40
1.0
 40
1.0
 40
1.0
 10
7.1595246944
 20
12.3373805477
 30
0.0
 10
7.1501223104
 20
12.335238667
 30
0.0
 10
7.1357682078
 20
12.3325467155
 30
0.0
 10
7.1163398383
 20
12.3297916146
 30
0.0
 10
7.1013381244
 20
12.3280739836
 30
0.0
 10
7.086041131
 20
12.3266930593
 30
0.0
 10
7.0704576303
 20
12.3256235294
 30
0.0
 10
7.0545973778
 20
12.3248442145
 30
0.0
 10
7.0384702269
 20
12.3243338361
 30
0.0
 10
7.0220859682
 20
12.3240761295
 30
0.0
 10
6.9997538877
 20
12.3240464594
 30
0.0
 10
6.9712658896
 20
12.3245730465
 30
0.0
 10
6.9364539972
 20
12.3259795224
 30
0.0
 10
6.9008627476
 20
12.328081442
 30
0.0
 10
6.864577954
 20
12.3308056856
 30
0.0
 10
6.8276871741
 20
12.3340896538
 30
0.0
 10
6.7902798536
 20
12.3378794438
 30
0.0
 10
6.7524469914
 20
12.3421286135
 30
0.0
 10
6.7142812807
 20
12.3467974222
 30
0.0
 10
6.6758760585
 20
12.3518521808
 30
0.0
 10
6.6373268882
 20
12.3572648032
 30
0.0
 10
6.6116056072
 20
12.3610950555
 30
0.0
 10
6.598737596
 20
12.3630654521
 30
0.0
  0
SPLINE
  5
3C4
100
AcDbEntity
  8
0
100
AcDbSpline
 62
9
  6
CONTINUOUS
 70
0
 71
3
 72
11
 73
7
 74
0
 42
0.0000001
 43
0.0000001
 44
0.0000000001
 40
0.0
 40
0.0
 40
0.0
 40
0.0
 40
0.2531372059
 40
0.5012585297
 40
0.7487252177
 40
1.0
 40
1.0
 40
1.0
 40
1.0
 10
7.1618785939
 20
12.3370201107
 30
0.0
 10
7.1617005768
 20
12.3371230386
 30
0.0
 10
7.1613300301
 20
12.3372979254
 30
0.0
 10
7.16073724
 20
12.3374501396
 30
0.0
 10
7.1601275533
 20
12.3374823591
 30
0.0
 10
7.1597237135
 20
12.3374258879
 30
0.0
 10
7.1595246944
 20
12.3373805477
 30
0.0
  0
SPLINE
  5
3C5
100
AcDbEntity
  8
0
100
AcDbSpline
 62
9
  6
CONTINUOUS
 70
0
 71
3
 72
30
 73
26
 74
0
 42
0.0000001
 43
0.0000001
 44
0.0000000001
 40
0.0
 40
0.0
 40
0.0
 40
0.0
 40
0.0017466365
 40
0.0035041808
 40
0.0052638266
 40
0.007023424
 40
0.0140711798
 40
0.0211314192
 40
0.0282042624
 40
0.0423877163
 40
0.0566214676
 40
0.0709054444
 40
0.0852395753
 40
0.1140580067
 40
0.1430761926
 40
0.1722935579
 40
0.2313234777
 40
0.291143209
 40
0.3517481581
 40
0.413133749
 40
0.4752954339
 40
0.6019284632
 40
0.7316124513
 40
0.8643134699
 40
1.0
 40
1.0
 40
1.0
 40
1.0
 10
7.2387299843
 20
12.2980199586
 30
0.0
 10
7.2386838216
 20
12.2980396741
 30
0.0
 10
7.2385898038
 20
12.2980759101
 30
0.0
 10
7.2384525097
 20
12.2981395507
 30
0.0
 10
7.2383142509
 20
12.2982018303
 30
0.0
 10
7.2380372699
 20
12.2983263666
 30
0.0
 10
7.2376217928
 20
12.2985143265
 30
0.0
 10
7.2370670857
 20
12.2987650001
 30
0.0
 10
7.23632578
 20
12.299100736
 30
0.0
 10
7.2353970075
 20
12.2995222553
 30
0.0
 10
7.2342801181
 20
12.3000307372
 30
0.0
 10
7.2331598782
 20
12.3005423087
 30
0.0
 10
7.2316591705
 20
12.3012297589
 30
0.0
 10
7.2297750249
 20
12.3020969167
 30
0.0
 10
7.2275048592
 20
12.3031483886
 30
0.0
 10
7.2244503449
 20
12.3045722904
 30
0.0
 10
7.2206003199
 20
12.3063847637
 30
0.0
 10
7.2159456845
 20
12.3086057684
 30
0.0
 10
7.2112422315
 20
12.3108814959
 30
0.0
 10
7.20649129
 20
12.3132134249
 30
0.0
 10
7.2000556616
 20
12.3164194119
 30
0.0
 10
7.1919010691
 20
12.3205764079
 30
0.0
 10
7.1820090566
 20
12.3257868325
 30
0.0
 10
7.1719657722
 20
12.3312658677
 30
0.0
 10
7.1652544427
 20
12.3350682591
 30
0.0
 10
7.1618785939
 20
12.3370201107
 30
0.0
  0
LINE
  5
3C6
100
AcDbEntity
  8
0
100
AcDbLine
 62
9
  6
CONTINUOUS
 10
7.2424587139
 20
12.2964080908
 11
7.2387299843
 21
12.2980199586
  0
SPLINE
  5
3C7
100
AcDbEntity
  8
0
100
AcDbSpline
 62
9
  6
CONTINUOUS
 70
0
 71
3
 72
15
 73
11
 74
0
 42
0.0000001
 43
0.0000001
 44
0.0000000001
 40
0.0
 40
0.0
 40
0.0
 40
0.0
 40
0.1267309799
 40
0.2483631183
 40
0.3671465599
 40
0.4853305236
 40
0.6052092044
 40
0.7292619386
 40
0.8600160031
 40
1.0
 40
1.0
 40
1.0
 40
1.0
 10
7.2333886709
 20
12.1952501671
 30
0.0
 10
7.2322194926
 20
12.1751381521
 30
0.0
 10
7.2300480294
 20
12.1357161968
 30
0.0
 10
7.227218924
 20
12.0774204315
 30
0.0
 10
7.2248244436
 20
12.02046507
 30
0.0
 10
7.2227830769
 20
11.9637749855
 30
0.0
 10
7.2210128064
 20
11.9062377351
 30
0.0
 10
7.2195447877
 20
11.8466930046
 30
0.0
 10
7.2184071565
 20
11.7839444059
 30
0.0
 10
7.2179071612
 20
11.7409087075
 30
0.0
 10
7.2177145971
 20
11.7186567856
 30
0.0
  0
SPLINE
  5
3C8
100
AcDbEntity
  8
0
100
AcDbSpline
 62
9
  6
CONTINUOUS
 70
0
 71
3
 72
42
 73
38
 74
0
 42
0.0000001
 43
0.0000001
 44
0.0000000001
 40
0.0
 40
0.0
 40
0.0
 40
0.0
 40
0.0459690406
 40
0.091693965
 40
0.1370560872
 40
0.1819653968
 40
0.2042373842
 40
0.2263803248
 40
0.270231425
 40
0.3134224957
 40
0.3558950881
 40
0.3976034556
 40
0.438495157
 40
0.4785057391
 40
0.5175560423
 40
0.5555811134
 40
0.5925279687
 40
0.6283360273
 40
0.6629340995
 40
0.6962232534
 40
0.7281172469
 40
0.7875579926
 40
0.8150315176
 40
0.8409199761
 40
0.8651333718
 40
0.8876125875
 40
0.9083095157
 40
0.927172635
 40
0.9441389298
 40
0.9591386547
 40
0.9658915932
 40
0.9721464773
 40
0.9779086885
 40
0.9831902189
 40
0.988009472
 40
0.9923927368
 40
1.0
 40
1.0
 40
1.0
 40
1.0
 10
7.217735959
 20
11.7186588628
 30
0.0
 10
7.2176924724
 20
11.7138245512
 30
0.0
 10
7.2177498756
 20
11.7041796433
 30
0.0
 10
7.2182742775
 20
11.689773044
 30
0.0
 10
7.2192251611
 20
11.6754999815
 30
0.0
 10
7.2203562488
 20
11.6637164766
 30
0.0
 10
7.2214356319
 20
11.6543843821
 30
0.0
 10
7.2226131566
 20
11.6451763542
 30
0.0
 10
7.2242751066
 20
11.6338130985
 30
0.0
 10
7.2265873647
 20
11.6203884737
 30
0.0
 10
7.2291773308
 20
11.607244481
 30
0.0
 10
7.232004368
 20
11.5943970904
 30
0.0
 10
7.2350437586
 20
11.5818646266
 30
0.0
 10
7.2382710692
 20
11.5696682198
 30
0.0
 10
7.2416697766
 20
11.557831826
 30
0.0
 10
7.2452162114
 20
11.5463758167
 30
0.0
 10
7.2488806467
 20
11.5353157308
 30
0.0
 10
7.2526398282
 20
11.5246690053
 30
0.0
 10
7.2564697001
 20
11.5144573879
 30
0.0
 10
7.2603546752
 20
11.504708232
 30
0.0
 10
7.2654676544
 20
11.4926393759
 30
0.0
 10
7.2706907911
 20
11.4812838392
 30
0.0
 10
7.2759868427
 20
11.4706675046
 30
0.0
 10
7.2797890264
 20
11.4634482629
 30
0.0
 10
7.2835149336
 20
11.4567851075
 30
0.0
 10
7.2871429733
 20
11.4506957163
 30
0.0
 10
7.2906520573
 20
11.445193778
 30
0.0
 10
7.2940242021
 20
11.4402960884
 30
0.0
 10
7.2972423646
 20
11.4360253762
 30
0.0
 10
7.2998729859
 20
11.4329127092
 30
0.0
 10
7.3019026464
 20
11.4307770076
 30
0.0
 10
7.3033252552
 20
11.4294073779
 30
0.0
 10
7.3047009249
 20
11.4282152736
 30
0.0
 10
7.3060280565
 20
11.4272026489
 30
0.0
 10
7.3073069671
 20
11.426370585
 30
0.0
 10
7.3088696576
 20
11.4255446708
 30
0.0
 10
7.3100851514
 20
11.4251343272
 30
0.0
 10
7.3108769093
 20
11.4250194631
 30
0.0
  0
LINE
  5
3C9
100
AcDbEntity
  8
0
100
AcDbLine
 62
9
  6
CONTINUOUS
 10
7.3108769093
 20
11.4250194631
 11
7.3206870805
 21
11.4235259294
  0
SPLINE
  5
3CA
100
AcDbEntity
  8
0
100
AcDbSpline
 62
9
  6
CONTINUOUS
 70
0
 71
3
 72
24
 73
20
 74
0
 42
0.0000001
 43
0.0000001
 44
0.0000000001
 40
0.0
 40
0.0
 40
0.0
 40
0.0
 40
0.003848936
 40
0.0087935203
 40
0.0153983849
 40
0.0238990309
 40
0.034395856
 40
0.0469301176
 40
0.0615179073
 40
0.0781613485
 40
0.1175571941
 40
0.1649579631
 40
0.2201174357
 40
0.2827335691
 40
0.3524431475
 40
0.4288441277
 40
0.5998777033
 40
0.7917787778
 40
1.0
 40
1.0
 40
1.0
 40
1.0
 10
7.387486067
 20
12.4264011626
 30
0.0
 10
7.387490205
 20
12.4264271253
 30
0.0
 10
7.3874790141
 20
12.4264896632
 30
0.0
 10
7.3874163257
 20
12.4265761168
 30
0.0
 10
7.3873135367
 20
12.4266673778
 30
0.0
 10
7.3871679116
 20
12.4267648739
 30
0.0
 10
7.3869792862
 20
12.426869142
 30
0.0
 10
7.3867473404
 20
12.4269799872
 30
0.0
 10
7.3864722858
 20
12.427097249
 30
0.0
 10
7.3860224849
 20
12.4272718158
 30
0.0
 10
7.3853539939
 20
12.4275013221
 30
0.0
 10
7.3844270103
 20
12.4277860761
 30
0.0
 10
7.3833407781
 20
12.428091427
 30
0.0
 10
7.3821017585
 20
12.428415417
 30
0.0
 10
7.3807172759
 20
12.4287560061
 30
0.0
 10
7.3786076092
 20
12.4292481487
 30
0.0
 10
7.3756747397
 20
12.429884373
 30
0.0
 10
7.3718498875
 20
12.4306534853
 30
0.0
 10
7.3691637758
 20
12.4311582837
 30
0.0
 10
7.3677645814
 20
12.4314134196
 30
0.0
  0
SPLINE
  5
3CB
100
AcDbEntity
  8
0
100
AcDbSpline
 62
9
  6
CONTINUOUS
 70
0
 71
3
 72
13
 73
9
 74
0
 42
0.0000001
 43
0.0000001
 44
0.0000000001
 40
0.0
 40
0.0
 40
0.0
 40
0.0
 40
0.286664294
 40
0.5542514645
 40
0.6782063512
 40
0.7943078042
 40
0.9018025236
 40
1.0
 40
1.0
 40
1.0
 40
1.0
 10
14.6667541056
 20
6.0058001131
 30
0.0
 10
14.6662852527
 20
6.0046296644
 30
0.0
 10
14.6654516034
 20
6.0023365953
 30
0.0
 10
14.6646363956
 20
5.9994635557
 30
0.0
 10
14.6641707994
 20
5.9972790772
 30
0.0
 10
14.6639260516
 20
5.9957693806
 30
0.0
 10
14.6637789386
 20
5.9943608792
 30
0.0
 10
14.6637450305
 20
5.9934557999
 30
0.0
 10
14.6637472585
 20
5.9930238946
 30
0.0
  0
SPLINE
  5
3CC
100
AcDbEntity
  8
0
100
AcDbSpline
 62
9
  6
CONTINUOUS
 70
0
 71
3
 72
24
 73
20
 74
0
 42
0.0000001
 43
0.0000001
 44
0.0000000001
 40
0.0
 40
0.0
 40
0.0
 40
0.0
 40
0.0040842192
 40
0.0092537984
 40
0.0160880503
 40
0.0248361021
 40
0.0356036682
 40
0.0484355908
 40
0.0633494031
 40
0.0803424191
 40
0.1204967772
 40
0.1687045144
 40
0.224671414
 40
0.2880326293
 40
0.3583654721
 40
0.4351873783
 40
0.6061457397
 40
0.7961707534
 40
1.0
 40
1.0
 40
1.0
 40
1.0
 10
7.467358499
 20
12.8072677493
 30
0.0
 10
7.4673665657
 20
12.8072986468
 30
0.0
 10
7.4673616645
 20
12.8073747613
 30
0.0
 10
7.4672996849
 20
12.8074864576
 30
0.0
 10
7.4671912014
 20
12.8076079771
 30
0.0
 10
7.4670336669
 20
12.8077414435
 30
0.0
 10
7.4668269525
 20
12.8078874951
 30
0.0
 10
7.4665707166
 20
12.8080459351
 30
0.0
 10
7.4662652263
 20
12.808216499
 30
0.0
 10
7.4657641285
 20
12.808474258
 30
0.0
 10
7.465016419
 20
12.8088206319
 30
0.0
 10
7.4639767066
 20
12.8092596081
 30
0.0
 10
7.4627573346
 20
12.8097384515
 30
0.0
 10
7.4613667597
 20
12.8102537036
 30
0.0
 10
7.4598146041
 20
12.8108015741
 30
0.0
 10
7.4574586787
 20
12.8115991636
 30
0.0
 10
7.4541981842
 20
12.8126423
 30
0.0
 10
7.4499701076
 20
12.8139176218
 30
0.0
 10
7.4470094378
 20
12.8147649286
 30
0.0
 10
7.4454745616
 20
12.8151938206
 30
0.0
  0
SPLINE
  5
3CD
100
AcDbEntity
  8
0
100
AcDbSpline
 62
9
  6
CONTINUOUS
 70
0
 71
3
 72
12
 73
8
 74
0
 42
0.0000001
 43
0.0000001
 44
0.0000000001
 40
0.0
 40
0.0
 40
0.0
 40
0.0
 40
0.2420030126
 40
0.365651481
 40
0.4907561623
 40
0.7441019257
 40
1.0
 40
1.0
 40
1.0
 40
1.0
 10
14.6500370201
 20
6.0058000702
 30
0.0
 10
14.6502654286
 20
6.0045871351
 30
0.0
 10
14.6507922088
 20
6.0027832207
 30
0.0
 10
14.6518135916
 20
6.0004957995
 30
0.0
 10
14.6530625403
 20
5.9982565703
 30
0.0
 10
14.6550032426
 20
5.9956475155
 30
0.0
 10
14.6568914169
 20
5.9938437902
 30
0.0
 10
14.6579068509
 20
5.9930238916
 30
0.0
  0
LINE
  5
3CE
100
AcDbEntity
  8
0
100
AcDbLine
 62
9
  6
CONTINUOUS
 10
15.2549513105
 20
5.3559032782
 11
15.2549824178
 21
5.0045977616
  0
SPLINE
  5
3CF
100
AcDbEntity
  8
0
100
AcDbSpline
 62
9
  6
CONTINUOUS
 70
0
 71
3
 72
11
 73
7
 74
0
 42
0.0000001
 43
0.0000001
 44
0.0000000001
 40
0.0
 40
0.0
 40
0.0
 40
0.0
 40
0.2129827004
 40
0.4512409977
 40
0.7141762987
 40
1.0
 40
1.0
 40
1.0
 40
1.0
 10
14.5455377869
 20
8.9596616679
 30
0.0
 10
14.5462356999
 20
8.959485889
 30
0.0
 10
14.5477451575
 20
8.9592326608
 30
0.0
 10
14.5501600216
 20
8.9591207623
 30
0.0
 10
14.5528195318
 20
8.9592570381
 30
0.0
 10
14.5546596413
 20
8.9595020173
 30
0.0
 10
14.5556122069
 20
8.9596616717
 30
0.0
  0
SPLINE
  5
3D0
100
AcDbEntity
  8
0
100
AcDbSpline
 62
9
  6
CONTINUOUS
 70
0
 71
3
 72
26
 73
22
 74
0
 42
0.0000001
 43
0.0000001
 44
0.0000000001
 40
0.0
 40
0.0
 40
0.0
 40
0.0
 40
0.1383545889
 40
0.2071070395
 40
0.2753527045
 40
0.3429238537
 40
0.4096567334
 40
0.4753907461
 40
0.5399699212
 40
0.6032443788
 40
0.665072543
 40
0.7253241098
 40
0.754822769
 40
0.7838859544
 40
0.8125030783
 40
0.8406654125
 40
0.8683666419
 40
0.8956033746
 40
0.9223767177
 40
0.9486934977
 40
1.0
 40
1.0
 40
1.0
 40
1.0
 10
6.598737596
 20
12.3630654521
 30
0.0
 10
6.5730328905
 20
12.367001545
 30
0.0
 10
6.5346015915
 20
12.3732068934
 30
0.0
 10
6.4836201994
 20
12.3821170558
 30
0.0
 10
6.4458059281
 20
12.3890815043
 30
0.0
 10
6.4084353245
 20
12.3963491095
 30
0.0
 10
6.3716077842
 20
12.4039255458
 30
0.0
 10
6.3354247398
 20
12.4118313845
 30
0.0
 10
6.2999874394
 20
12.42009003
 30
0.0
 10
6.2653977621
 20
12.4287335122
 30
0.0
 10
6.231760122
 20
12.4378085496
 30
0.0
 10
6.2044199704
 20
12.445831011
 30
0.0
 10
6.1831200386
 20
12.4525418915
 30
0.0
 10
6.1675635803
 20
12.4576903879
 30
0.0
 10
6.1523280394
 20
12.4630029911
 30
0.0
 10
6.137427657
 20
12.4684923891
 30
0.0
 10
6.1228782027
 20
12.4741759361
 30
0.0
 10
6.1086953062
 20
12.4800708812
 30
0.0
 10
6.0948949165
 20
12.4861987675
 30
0.0
 10
6.0771811714
 20
12.4946412771
 30
0.0
 10
6.0642903739
 20
12.501505273
 30
0.0
 10
6.0559596935
 20
12.5063624772
 30
0.0
  0
LINE
  5
3D1
100
AcDbEntity
  8
0
100
AcDbLine
 62
9
  6
CONTINUOUS
 10
14.5952237065
 20
8.7825106984
 11
14.6100614616
 21
8.7825106984
  0
SPLINE
  5
3D2
100
AcDbEntity
  8
0
100
AcDbSpline
 62
9
  6
CONTINUOUS
 70
0
 71
3
 72
51
 73
47
 74
0
 42
0.0000001
 43
0.0000001
 44
0.0000000001
 40
0.0
 40
0.0
 40
0.0
 40
0.0
 40
0.116442172
 40
0.2264651943
 40
0.3298834554
 40
0.4265110247
 40
0.5161594235
 40
0.5986501893
 40
0.6738150666
 40
0.7414985633
 40
0.772490077
 40
0.8015590439
 40
0.8286908014
 40
0.8538708554
 40
0.8770860319
 40
0.8983238736
 40
0.9175727486
 40
0.9348231012
 40
0.9500656998
 40
0.9569315298
 40
0.9632925119
 40
0.9691477473
 40
0.9744963361
 40
0.9793374988
 40
0.98367073
 40
0.9874955611
 40
0.9908115226
 40
0.99227853
 40
0.9936181435
 40
0.9948303126
 40
0.9959150061
 40
0.9968721954
 40
0.9977018518
 40
0.9984039469
 40
0.998978452
 40
0.9992178493
 40
0.9994253384
 40
0.9996009157
 40
0.9997445776
 40
0.9998563206
 40
0.9999002213
 40
0.999936141
 40
0.9999640792
 40
0.9999840353
 40
0.9999960091
 40
1.0
 40
1.0
 40
1.0
 40
1.0
 10
6.053605794
 20
12.5067229142
 30
0.0
 10
6.0445073045
 20
12.5046851904
 30
0.0
 10
6.0267278697
 20
12.5010906405
 30
0.0
 10
6.0006701513
 20
12.4967397168
 30
0.0
 10
5.9760744891
 20
12.4933301303
 30
0.0
 10
5.9530289038
 20
12.4906720325
 30
0.0
 10
5.9316051729
 20
12.4886167196
 30
0.0
 10
5.9118645365
 20
12.4870447493
 30
0.0
 10
5.8938595135
 20
12.4858583709
 30
0.0
 10
5.8799598044
 20
12.4851037163
 30
0.0
 10
5.8697420339
 20
12.4846270099
 30
0.0
 10
5.8627664553
 20
12.4843329177
 30
0.0
 10
5.8562547311
 20
12.4840853962
 30
0.0
 10
5.8502106043
 20
12.4838777749
 30
0.0
 10
5.8446375343
 20
12.4837050724
 30
0.0
 10
5.8395387
 20
12.4835629375
 30
0.0
 10
5.8349169644
 20
12.4834469346
 30
0.0
 10
5.8307748905
 20
12.4833533239
 30
0.0
 10
5.8276239758
 20
12.4832885086
 30
0.0
 10
5.8253447621
 20
12.4832447361
 30
0.0
 10
5.82381706
 20
12.4832167295
 30
0.0
 10
5.8224108069
 20
12.4831921144
 30
0.0
 10
5.8211262146
 20
12.4831706322
 30
0.0
 10
5.8199634633
 20
12.483152025
 30
0.0
 10
5.8189226975
 20
12.4831360576
 30
0.0
 10
5.8180040371
 20
12.4831224924
 30
0.0
 10
5.8173148544
 20
12.4831126302
 30
0.0
 10
5.8168246491
 20
12.4831057174
 30
0.0
 10
5.8165028838
 20
12.4831011984
 30
0.0
 10
5.8162117287
 20
12.4830971042
 30
0.0
 10
5.8159511926
 20
12.4830934376
 30
0.0
 10
5.8157212823
 20
12.4830901991
 30
0.0
 10
5.815522005
 20
12.4830873897
 30
0.0
 10
5.8153533671
 20
12.4830850103
 30
0.0
 10
5.815231989
 20
12.483083297
 30
0.0
 10
5.8151502106
 20
12.4830821414
 30
0.0
 10
5.8151003744
 20
12.4830814386
 30
0.0
 10
5.8150581976
 20
12.4830808391
 30
0.0
 10
5.8150237028
 20
12.4830803617
 30
0.0
 10
5.8149997117
 20
12.4830800004
 30
0.0
 10
5.8149844156
 20
12.4830798189
 30
0.0
 10
5.814975701
 20
12.4830796241
 30
0.0
 10
5.8149692145
 20
12.4830797184
 30
0.0
 10
5.8149639143
 20
12.4830792242
 30
0.0
 10
5.8149619272
 20
12.4830799328
 30
0.0
 10
5.814959729
 20
12.4830791403
 30
0.0
 10
5.8149597872
 20
12.4830794545
 30
0.0
  0
SPLINE
  5
3D3
100
AcDbEntity
  8
0
100
AcDbSpline
 62
9
  6
CONTINUOUS
 70
0
 71
3
 72
11
 73
7
 74
0
 42
0.0000001
 43
0.0000001
 44
0.0000000001
 40
0.0
 40
0.0
 40
0.0
 40
0.0
 40
0.2512747444
 40
0.4987414496
 40
0.7468627521
 40
1.0
 40
1.0
 40
1.0
 40
1.0
 10
6.0559596935
 20
12.5063624772
 30
0.0
 10
6.0557833606
 20
12.5064652926
 30
0.0
 10
6.055414922
 20
12.5066400171
 30
0.0
 10
6.0548235299
 20
12.5067917113
 30
0.0
 10
6.0542123537
 20
12.506823853
 30
0.0
 10
6.0538064537
 20
12.5067678577
 30
0.0
 10
6.053605794
 20
12.5067229142
 30
0.0
  0
LINE
  5
3D4
100
AcDbEntity
  8
0
100
AcDbLine
 62
9
  6
CONTINUOUS
 10
7.3576402378
 20
12.2747746551
 11
7.3576208562
 21
12.2729595106
  0
SPLINE
  5
3D5
100
AcDbEntity
  8
0
100
AcDbSpline
 62
9
  6
CONTINUOUS
 70
0
 71
3
 72
11
 73
7
 74
0
 42
0.0000001
 43
0.0000001
 44
0.0000000001
 40
0.0
 40
0.0
 40
0.0
 40
0.0
 40
0.2621389914
 40
0.5173572226
 40
0.7636125207
 40
1.0
 40
1.0
 40
1.0
 40
1.0
 10
7.2424587905
 20
12.2964080837
 30
0.0
 10
7.2427225568
 20
12.2976304065
 30
0.0
 10
7.2430567806
 20
12.3000879486
 30
0.0
 10
7.2429544203
 20
12.3037458272
 30
0.0
 10
7.2422468384
 20
12.3072122403
 30
0.0
 10
7.2413652555
 20
12.3093582146
 30
0.0
 10
7.2408304629
 20
12.3103509479
 30
0.0
  0
SPLINE
  5
3D6
100
AcDbEntity
  8
0
100
AcDbSpline
 62
9
  6
CONTINUOUS
 70
0
 71
3
 72
15
 73
11
 74
0
 42
0.0000001
 43
0.0000001
 44
0.0000000001
 40
0.0
 40
0.0
 40
0.0
 40
0.0
 40
0.1275400112
 40
0.2538731591
 40
0.3792344462
 40
0.5038643729
 40
0.62800769
 40
0.7519120321
 40
0.8758264666
 40
1.0
 40
1.0
 40
1.0
 40
1.0
 10
7.3414024947
 20
11.5655472601
 30
0.0
 10
7.3390804964
 20
11.55985753
 30
0.0
 10
7.334693824
 20
11.5484340733
 30
0.0
 10
7.3288771112
 20
11.5311061225
 30
0.0
 10
7.3238584907
 20
11.5136758039
 30
0.0
 10
7.3196382582
 20
11.4961436477
 30
0.0
 10
7.3162164875
 20
11.4785097641
 30
0.0
 10
7.3135932665
 20
11.4607742554
 30
0.0
 10
7.3117686544
 20
11.4429377909
 30
0.0
 10
7.3110857819
 20
11.4309989075
 30
0.0
 10
7.3108769093
 20
11.4250194631
 30
0.0
  0
SPLINE
  5
3D7
100
AcDbEntity
  8
0
100
AcDbSpline
 62
9
  6
CONTINUOUS
 70
0
 71
3
 72
40
 73
36
 74
0
 42
0.0000001
 43
0.0000001
 44
0.0000000001
 40
0.0
 40
0.0
 40
0.0
 40
0.0
 40
0.0997667036
 40
0.1981767606
 40
0.2943698253
 40
0.387524794
 40
0.4768672389
 40
0.5615439477
 40
0.6407177662
 40
0.7136794943
 40
0.7476310739
 40
0.7797625514
 40
0.809955068
 40
0.8381154881
 40
0.8641646831
 40
0.8880339501
 40
0.9096624664
 40
0.9290086947
 40
0.9460379688
 40
0.9607124506
 40
0.9671551553
 40
0.9729980869
 40
0.9782403465
 40
0.9828813862
 40
0.9869215582
 40
0.9903637379
 40
0.9932131849
 40
0.9954791563
 40
0.9971804571
 40
0.9978330755
 40
0.9983675638
 40
0.9988056777
 40
0.9991860031
 40
0.9995651173
 40
1.0
 40
1.0
 40
1.0
 40
1.0
 10
7.3293358485
 20
11.7104936893
 30
0.0
 10
7.329346619
 20
11.7056347702
 30
0.0
 10
7.3294078657
 20
11.695983053
 30
0.0
 10
7.3296199412
 20
11.681647732
 30
0.0
 10
7.32998283
 20
11.6676374293
 30
0.0
 10
7.3305024242
 20
11.6540739691
 30
0.0
 10
7.3311724971
 20
11.6410786431
 30
0.0
 10
7.3319909249
 20
11.6287740879
 30
0.0
 10
7.3329387408
 20
11.6172791698
 30
0.0
 10
7.3338281966
 20
11.6082594911
 30
0.0
 10
7.3345778679
 20
11.6015291564
 30
0.0
 10
7.3351380388
 20
11.5968737629
 30
0.0
 10
7.3357080794
 20
11.5925038531
 30
0.0
 10
7.3362812194
 20
11.5884333044
 30
0.0
 10
7.336848936
 20
11.5846731851
 30
0.0
 10
7.3374057266
 20
11.5812333356
 30
0.0
 10
7.3379470215
 20
11.578121896
 30
0.0
 10
7.338467589
 20
11.5753452117
 30
0.0
 10
7.3389623109
 20
11.5729085452
 30
0.0
 10
7.3393637464
 20
11.5710944491
 30
0.0
 10
7.3396692752
 20
11.5698174236
 30
0.0
 10
7.3398786108
 20
11.5689897997
 30
0.0
 10
7.3400778197
 20
11.5682502073
 30
0.0
 10
7.3402665044
 20
11.5675988256
 30
0.0
 10
7.3404442399
 20
11.5670356799
 30
0.0
 10
7.3406108285
 20
11.5665607836
 30
0.0
 10
7.3407659682
 20
11.5661736551
 30
0.0
 10
7.3409095644
 20
11.5658741871
 30
0.0
 10
7.3410275727
 20
11.5656813283
 30
0.0
 10
7.3411199301
 20
11.5655747184
 30
0.0
 10
7.3411807986
 20
11.5655234271
 30
0.0
 10
7.3412405027
 20
11.5654934182
 30
0.0
 10
7.3413001234
 20
11.5654869793
 30
0.0
 10
7.3413566953
 20
11.5655063197
 30
0.0
 10
7.3413877272
 20
11.5655320773
 30
0.0
 10
7.3414024947
 20
11.5655472601
 30
0.0
  0
SPLINE
  5
3D8
100
AcDbEntity
  8
0
100
AcDbSpline
 62
9
  6
CONTINUOUS
 70
0
 71
3
 72
11
 73
7
 74
0
 42
0.0000001
 43
0.0000001
 44
0.0000000001
 40
0.0
 40
0.0
 40
0.0
 40
0.0
 40
0.2902693174
 40
0.5537895172
 40
0.7892359705
 40
1.0
 40
1.0
 40
1.0
 40
1.0
 10
7.2236368105
 20
13.1003882044
 30
0.0
 10
7.2239187655
 20
13.1002557151
 30
0.0
 10
7.2244709209
 20
13.100031094
 30
0.0
 10
7.2252958531
 20
13.0998238737
 30
0.0
 10
7.2260605425
 20
13.0997717433
 30
0.0
 10
7.2265391564
 20
13.0998463419
 30
0.0
 10
7.2267560473
 20
13.0999105754
 30
0.0
  0
SPLINE
  5
3D9
100
AcDbEntity
  8
0
100
AcDbSpline
 62
9
  6
CONTINUOUS
 70
0
 71
3
 72
15
 73
11
 74
0
 42
0.0000001
 43
0.0000001
 44
0.0000000001
 40
0.0
 40
0.0
 40
0.0
 40
0.0
 40
0.1314496716
 40
0.2622411423
 40
0.3917369182
 40
0.5193266934
 40
0.6444431899
 40
0.7665665971
 40
0.8852250144
 40
1.0
 40
1.0
 40
1.0
 40
1.0
 10
6.7342293736
 20
13.2479173699
 30
0.0
 10
6.756442614
 20
13.2445159456
 30
0.0
 10
6.8006380975
 20
13.2369192768
 30
0.0
 10
6.866195868
 20
13.223170284
 30
0.0
 10
6.930571741
 20
13.2072105964
 30
0.0
 10
6.9933980014
 20
13.1892109872
 30
0.0
 10
7.054342777
 20
13.169370453
 30
0.0
 10
7.1131116098
 20
13.1479062917
 30
0.0
 10
7.1694466823
 20
13.1250458255
 30
0.0
 10
7.205878193
 20
13.108732976
 30
0.0
 10
7.2236368105
 20
13.1003882044
 30
0.0
  0
SPLINE
  5
3DA
100
AcDbEntity
  8
0
100
AcDbSpline
 62
9
  6
CONTINUOUS
 70
0
 71
3
 72
15
 73
11
 74
0
 42
0.0000001
 43
0.0000001
 44
0.0000000001
 40
0.0
 40
0.0
 40
0.0
 40
0.0
 40
0.1249947063
 40
0.2499914004
 40
0.3749853614
 40
0.4999806481
 40
0.6249841726
 40
0.7499915119
 40
0.8749958795
 40
1.0
 40
1.0
 40
1.0
 40
1.0
 10
7.3483462277
 20
12.1867098045
 30
0.0
 10
7.3464809464
 20
12.1669308545
 30
0.0
 10
7.3430135102
 20
12.1273472742
 30
0.0
 10
7.3386246902
 20
12.0679069596
 30
0.0
 10
7.3350553108
 20
12.0084116043
 30
0.0
 10
7.3323030104
 20
11.9488718505
 30
0.0
 10
7.3303516856
 20
11.8892983976
 30
0.0
 10
7.3291952051
 20
11.8297027697
 30
0.0
 10
7.328825596
 20
11.7700971212
 30
0.0
 10
7.3290870393
 20
11.730360344
 30
0.0
 10
7.3293357633
 20
11.7104936953
 30
0.0
  0
SPLINE
  5
3DB
100
AcDbEntity
  8
0
100
AcDbSpline
 62
9
  6
CONTINUOUS
 70
0
 71
3
 72
18
 73
14
 74
0
 42
0.0000001
 43
0.0000001
 44
0.0000000001
 40
0.0
 40
0.0
 40
0.0
 40
0.0
 40
0.1340710594
 40
0.2000878667
 40
0.2654183561
 40
0.3300665696
 40
0.3940401404
 40
0.4573502577
 40
0.5200112949
 40
0.6434391075
 40
0.7644721064
 40
0.8832724467
 40
1.0
 40
1.0
 40
1.0
 40
1.0
 10
7.3576211195
 20
12.2729595004
 30
0.0
 10
7.3523417241
 20
12.2731607069
 30
0.0
 10
7.3444655286
 20
12.2735591469
 30
0.0
 10
7.334036384
 20
12.2743571182
 30
0.0
 10
7.3263479992
 20
12.2750980432
 30
0.0
 10
7.3187571318
 20
12.2759936921
 30
0.0
 10
7.3112668871
 20
12.2770470581
 30
0.0
 10
7.303880567
 20
12.2782631071
 30
0.0
 10
7.2942240709
 20
12.2800945579
 30
0.0
 10
7.282418956
 20
12.2827855482
 30
0.0
 10
7.2686351918
 20
12.2866709126
 30
0.0
 10
7.2553189564
 20
12.2911728227
 30
0.0
 10
7.2466879024
 20
12.2945990205
 30
0.0
 10
7.2424589107
 20
12.2964083487
 30
0.0
  0
SPLINE
  5
3DC
100
AcDbEntity
  8
0
100
AcDbSpline
 62
9
  6
CONTINUOUS
 70
0
 71
3
 72
36
 73
32
 74
0
 42
0.0000001
 43
0.0000001
 44
0.0000000001
 40
0.0
 40
0.0
 40
0.0
 40
0.0
 40
0.224653656
 40
0.3275179775
 40
0.4237964581
 40
0.5132872587
 40
0.5957898333
 40
0.6711116608
 40
0.7390683136
 40
0.799485483
 40
0.8522030859
 40
0.8756279669
 40
0.8970749733
 40
0.9165282267
 40
0.9339731707
 40
0.9493976234
 40
0.9627896496
 40
0.9741385698
 40
0.9790444473
 40
0.983436736
 40
0.9873145354
 40
0.9906769452
 40
0.9935232134
 40
0.9958529532
 40
0.9976658331
 40
0.9983783471
 40
0.9989615218
 40
0.9994153159
 40
0.9997396879
 40
0.9999345964
 40
1.0
 40
1.0
 40
1.0
 40
1.0
 10
7.2267560473
 20
13.0999105754
 30
0.0
 10
7.2384177005
 20
13.1033644695
 30
0.0
 10
7.2554002266
 20
13.1084635327
 30
0.0
 10
7.2773374583
 20
13.1151844196
 30
0.0
 10
7.2922618704
 20
13.1198147144
 30
0.0
 10
7.3061188337
 20
13.1241651243
 30
0.0
 10
7.3188806599
 20
13.1282158196
 30
0.0
 10
7.3305203359
 20
13.1319481491
 30
0.0
 10
7.3410121991
 20
13.135344081
 30
0.0
 10
7.3503322517
 20
13.1383862995
 30
0.0
 10
7.3573553208
 20
13.1406960092
 30
0.0
 10
7.3623717516
 20
13.1423540392
 30
0.0
 10
7.3656773039
 20
13.1434498682
 30
0.0
 10
7.3686747539
 20
13.1444462466
 30
0.0
 10
7.3713621549
 20
13.1453417108
 30
0.0
 10
7.3737376967
 20
13.1461350658
 30
0.0
 10
7.3757997772
 20
13.1468251583
 30
0.0
 10
7.377321563
 20
13.1473353458
 30
0.0
 10
7.3783812596
 20
13.147691041
 30
0.0
 10
7.3790574617
 20
13.1479181614
 30
0.0
 10
7.3796544202
 20
13.1481187699
 30
0.0
 10
7.3801720242
 20
13.1482927626
 30
0.0
 10
7.3806101843
 20
13.1484400602
 30
0.0
 10
7.3809688314
 20
13.1485606141
 30
0.0
 10
7.3812179712
 20
13.1486443989
 30
0.0
 10
7.3813775033
 20
13.1486979816
 30
0.0
 10
7.3814672566
 20
13.1487282496
 30
0.0
 10
7.3815371791
 20
13.1487515007
 30
0.0
 10
7.3815869737
 20
13.1487688048
 30
0.0
 10
7.3816172281
 20
13.1487779681
 30
0.0
 10
7.3816303302
 20
13.1487834057
 30
0.0
 10
7.3816337953
 20
13.1487841338
 30
0.0
  0
SPLINE
  5
3DD
100
AcDbEntity
  8
0
100
AcDbSpline
 62
9
  6
CONTINUOUS
 70
0
 71
3
 72
19
 73
15
 74
0
 42
0.0000001
 43
0.0000001
 44
0.0000000001
 40
0.0
 40
0.0
 40
0.0
 40
0.0
 40
0.1326490849
 40
0.1989724928
 40
0.2650521532
 40
0.330706016
 40
0.3957846146
 40
0.5238313788
 40
0.5866212313
 40
0.6484952391
 40
0.7094365426
 40
0.7694369182
 40
0.8865967824
 40
1.0
 40
1.0
 40
1.0
 40
1.0
 10
7.3576407112
 20
12.2747745346
 30
0.0
 10
7.3524025445
 20
12.2761043944
 30
0.0
 10
7.3445540177
 20
12.278133434
 30
0.0
 10
7.3341114029
 20
12.2808835173
 30
0.0
 10
7.3263133516
 20
12.2829576252
 30
0.0
 10
7.3185676842
 20
12.2850313538
 30
0.0
 10
7.3083885281
 20
12.287777437
 30
0.0
 10
7.2983397203
 20
12.2905595151
 30
0.0
 10
7.2884565081
 20
12.2934458038
 30
0.0
 10
7.28122322
 20
12.2956512958
 30
0.0
 10
7.274127451
 20
12.2979161571
 30
0.0
 10
7.2649292687
 20
12.3009986536
 30
0.0
 10
7.2537954642
 20
12.3050274606
 30
0.0
 10
7.2450802071
 20
12.3085391075
 30
0.0
 10
7.2408301177
 20
12.3103510962
 30
0.0
  0
SPLINE
  5
3DE
100
AcDbEntity
  8
0
100
AcDbSpline
 62
9
  6
CONTINUOUS
 70
0
 71
3
 72
13
 73
9
 74
0
 42
0.0000001
 43
0.0000001
 44
0.0000000001
 40
0.0
 40
0.0
 40
0.0
 40
0.0
 40
0.2495224148
 40
0.374412032
 40
0.499391794
 40
0.6244603837
 40
0.7496114159
 40
1.0
 40
1.0
 40
1.0
 40
1.0
 10
7.3583653175
 20
12.3479291439
 30
0.0
 10
7.3579787482
 20
12.3418539973
 30
0.0
 10
7.3575236682
 20
12.3327295049
 30
0.0
 10
7.3571733673
 20
12.3205509264
 30
0.0
 10
7.3570403335
 20
12.3114044628
 30
0.0
 10
7.3570296658
 20
12.3022507197
 30
0.0
 10
7.3571721253
 20
12.2900382482
 30
0.0
 10
7.3574334099
 20
12.2808795807
 30
0.0
 10
7.3576407112
 20
12.2747745346
 30
0.0
  0
SPLINE
  5
3DF
100
AcDbEntity
  8
0
100
AcDbSpline
 62
9
  6
CONTINUOUS
 70
0
 71
3
 72
15
 73
11
 74
0
 42
0.0000001
 43
0.0000001
 44
0.0000000001
 40
0.0
 40
0.0
 40
0.0
 40
0.0
 40
0.114774977
 40
0.2334334214
 40
0.3555568149
 40
0.4806732777
 40
0.6082630863
 40
0.7377588551
 40
0.8685503267
 40
1.0
 40
1.0
 40
1.0
 40
1.0
 10
6.2231009449
 20
13.2535939332
 30
0.0
 10
6.2425428902
 20
13.2562424084
 30
0.0
 10
6.2821864496
 20
13.26090636
 30
0.0
 10
6.3427808476
 20
13.2658621981
 30
0.0
 10
6.4052796754
 20
13.2687574145
 30
0.0
 10
6.4693689045
 20
13.269452167
 30
0.0
 10
6.5347025529
 20
13.2678276237
 30
0.0
 10
6.6009044016
 20
13.26379268
 30
0.0
 10
6.6675724822
 20
13.2572947736
 30
0.0
 10
6.7120161202
 20
13.2513187116
 30
0.0
 10
6.7342293736
 20
13.2479173699
 30
0.0
  0
SPLINE
  5
3E0
100
AcDbEntity
  8
0
100
AcDbSpline
 62
9
  6
CONTINUOUS
 70
0
 71
3
 72
11
 73
7
 74
0
 42
0.0000001
 43
0.0000001
 44
0.0000000001
 40
0.0
 40
0.0
 40
0.0
 40
0.0
 40
0.2107645046
 40
0.4462110081
 40
0.7097310947
 40
1.0
 40
1.0
 40
1.0
 40
1.0
 10
6.2199817081
 20
13.2540715623
 30
0.0
 10
6.2201694408
 20
13.2539453708
 30
0.0
 10
6.220603804
 20
13.2537309751
 30
0.0
 10
6.2213490547
 20
13.253551897
 30
0.0
 10
6.2221981955
 20
13.2535027767
 30
0.0
 10
6.2227922645
 20
13.2535518846
 30
0.0
 10
6.2231009449
 20
13.2535939332
 30
0.0
  0
SPLINE
  5
3E1
100
AcDbEntity
  8
0
100
AcDbSpline
 62
9
  6
CONTINUOUS
 70
0
 71
3
 72
15
 73
11
 74
0
 42
0.0000001
 43
0.0000001
 44
0.0000000001
 40
0.0
 40
0.0
 40
0.0
 40
0.0
 40
0.1576125086
 40
0.3055126311
 40
0.4438459033
 40
0.5727902586
 40
0.6925654812
 40
0.803445893
 40
0.9057773746
 40
1.0
 40
1.0
 40
1.0
 40
1.0
 10
7.3583653047
 20
12.347929145
 30
0.0
 10
7.3497971061
 20
12.3486418493
 30
0.0
 10
7.3332048594
 20
12.3502313097
 30
0.0
 10
7.3091773234
 20
12.3532437207
 30
0.0
 10
7.2868066664
 20
12.3568078609
 30
0.0
 10
7.2660919283
 20
12.3609237877
 30
0.0
 10
7.2470317363
 20
12.3655917122
 30
0.0
 10
7.2296237588
 20
12.3708125847
 30
0.0
 10
7.2138672718
 20
12.3765870966
 30
0.0
 10
7.2040734371
 20
12.3809823152
 30
0.0
 10
7.1994799066
 20
12.3832883162
 30
0.0
  0
SPLINE
  5
3E2
100
AcDbEntity
  8
0
100
AcDbSpline
 62
9
  6
CONTINUOUS
 70
0
 71
3
 72
13
 73
9
 74
0
 42
0.0000001
 43
0.0000001
 44
0.0000000001
 40
0.0
 40
0.0
 40
0.0
 40
0.0
 40
0.2502255634
 40
0.3752853983
 40
0.5003008896
 40
0.6252731215
 40
0.750206053
 40
1.0
 40
1.0
 40
1.0
 40
1.0
 10
7.3677645814
 20
12.4314134196
 30
0.0
 10
7.3666735385
 20
12.4244890171
 30
0.0
 10
7.3651278163
 20
12.4140890907
 30
0.0
 10
7.363294637
 20
12.4001937893
 30
0.0
 10
7.3620443441
 20
12.3897615837
 30
0.0
 10
7.3609222414
 20
12.3793183568
 30
0.0
 10
7.3596055994
 20
12.3653815255
 30
0.0
 10
7.3588151236
 20
12.354912412
 30
0.0
 10
7.3583653047
 20
12.347929145
 30
0.0
  0
SPLINE
  5
3E3
100
AcDbEntity
  8
0
100
AcDbSpline
 62
9
  6
CONTINUOUS
 70
0
 71
3
 72
15
 73
11
 74
0
 42
0.0000001
 43
0.0000001
 44
0.0000000001
 40
0.0
 40
0.0
 40
0.0
 40
0.0
 40
0.1684552615
 40
0.3244908496
 40
0.4681080444
 40
0.5993084899
 40
0.7180943451
 40
0.8244685253
 40
0.9184351009
 40
1.0
 40
1.0
 40
1.0
 40
1.0
 10
7.3677645816
 20
12.4314134196
 30
0.0
 10
7.3580304765
 20
12.4333246445
 30
0.0
 10
7.3392759025
 20
12.4369857231
 30
0.0
 10
7.312206937
 20
12.4421962102
 30
0.0
 10
7.2872776583
 20
12.4469154945
 30
0.0
 10
7.2644880778
 20
12.4511437395
 30
0.0
 10
7.2438382099
 20
12.4548811676
 30
0.0
 10
7.2253280572
 20
12.4581281602
 30
0.0
 10
7.2089576507
 20
12.4608851382
 30
0.0
 10
7.1987496086
 20
12.4625121522
 30
0.0
 10
7.1940015328
 20
12.4632376078
 30
0.0
  0
SPLINE
  5
3E4
100
AcDbEntity
  8
0
100
AcDbSpline
 62
9
  6
CONTINUOUS
 70
0
 71
3
 72
13
 73
9
 74
0
 42
0.0000001
 43
0.0000001
 44
0.0000000001
 40
0.0
 40
0.0
 40
0.0
 40
0.0
 40
0.114943272
 40
0.233717234
 40
0.3559034784
 40
0.4810341947
 40
0.7379877349
 40
1.0
 40
1.0
 40
1.0
 40
1.0
 10
6.2211009688
 20
13.2412548037
 30
0.0
 10
6.2405763333
 20
13.2438862257
 30
0.0
 10
6.280275945
 20
13.2485226865
 30
0.0
 10
6.3409373776
 20
13.2534592765
 30
0.0
 10
6.4034763395
 20
13.2563487746
 30
0.0
 10
6.4897037762
 20
13.2572883907
 30
0.0
 10
6.5998252021
 20
13.2525660891
 30
0.0
 10
6.6880561836
 20
13.242342017
 30
0.0
 10
6.7323374278
 20
13.2355616984
 30
0.0
  0
SPLINE
  5
3E5
100
AcDbEntity
  8
0
100
AcDbSpline
 62
9
  6
CONTINUOUS
 70
0
 71
3
 72
13
 73
9
 74
0
 42
0.0000001
 43
0.0000001
 44
0.0000000001
 40
0.0
 40
0.0
 40
0.0
 40
0.0
 40
0.2620122382
 40
0.5189657781
 40
0.6440965102
 40
0.7662827543
 40
0.8850567317
 40
1.0
 40
1.0
 40
1.0
 40
1.0
 10
6.7323374278
 20
13.2355616984
 30
0.0
 10
6.7766186002
 20
13.2287809466
 30
0.0
 10
6.8638661526
 20
13.2121346979
 30
0.0
 10
6.9703551474
 20
13.183689604
 30
0.0
 10
7.0523504009
 20
13.1569906797
 30
0.0
 10
7.1111593293
 20
13.1355202043
 30
0.0
 10
7.1675640148
 20
13.1126577674
 30
0.0
 10
7.2040572971
 20
13.0963545077
 30
0.0
 10
7.221852895
 20
13.0880159909
 30
0.0
  0
LINE
  5
3E6
100
AcDbEntity
  8
0
100
AcDbLine
 62
9
  6
CONTINUOUS
 10
7.1434118723
 20
12.4709840826
 11
7.221852895
 21
13.0880159909
  0
LINE
  5
3E7
100
AcDbEntity
  8
0
100
AcDbLine
 62
9
  6
CONTINUOUS
 10
6.1113126014
 20
12.6290229161
 11
6.2211009688
 21
13.2412548037
  0
SPLINE
  5
3E8
100
AcDbEntity
  8
0
100
AcDbSpline
 62
9
  6
CONTINUOUS
 70
0
 71
3
 72
27
 73
23
 74
0
 42
0.0000001
 43
0.0000001
 44
0.0000000001
 40
0.0
 40
0.0
 40
0.0
 40
0.0
 40
0.0689234433
 40
0.1376890573
 40
0.206132096
 40
0.2740965628
 40
0.3414237424
 40
0.4079587994
 40
0.473549624
 40
0.5380478213
 40
0.6013101907
 40
0.6632005847
 40
0.7235924999
 40
0.7531910281
 40
0.7823737893
 40
0.8111296999
 40
0.8394492118
 40
0.8673247357
 40
0.8947511229
 40
0.9217270785
 40
0.9482561598
 40
1.0
 40
1.0
 40
1.0
 40
1.0
 10
6.6011991401
 20
12.3791409815
 30
0.0
 10
6.5885335139
 20
12.3810804565
 30
0.0
 10
6.5632460665
 20
12.3850523438
 30
0.0
 10
6.5254357291
 20
12.3912906119
 30
0.0
 10
6.4878521627
 20
12.3978010546
 30
0.0
 10
6.4505883174
 20
12.4045827662
 30
0.0
 10
6.4137365354
 20
12.4116393028
 30
0.0
 10
6.3773901104
 20
12.4189792779
 30
0.0
 10
6.3416427208
 20
12.4266179178
 30
0.0
 10
6.3065888553
 20
12.4345776898
 30
0.0
 10
6.2723237874
 20
12.4428891291
 30
0.0
 10
6.2389440585
 20
12.4515922362
 30
0.0
 10
6.2117680801
 20
12.4592639488
 30
0.0
 10
6.1905584227
 20
12.4656683753
 30
0.0
 10
6.1750422279
 20
12.4705772501
 30
0.0
 10
6.1598245275
 20
12.4756360037
 30
0.0
 10
6.1449185827
 20
12.4808562164
 30
0.0
 10
6.1303391373
 20
12.4862541
 30
0.0
 10
6.1161007734
 20
12.4918456215
 30
0.0
 10
6.1022184935
 20
12.4976509528
 30
0.0
 10
6.0843569128
 20
12.5056408096
 30
0.0
 10
6.0713156357
 20
12.5121236813
 30
0.0
 10
6.062858988
 20
12.5167083736
 30
0.0
  0
SPLINE
  5
3E9
100
AcDbEntity
  8
0
100
AcDbSpline
 62
9
  6
CONTINUOUS
 70
0
 71
3
 72
13
 73
9
 74
0
 42
0.0000001
 43
0.0000001
 44
0.0000000001
 40
0.0
 40
0.0
 40
0.0
 40
0.0
 40
0.2400898868
 40
0.3633147622
 40
0.4883122187
 40
0.742380784
 40
0.8709320247
 40
1.0
 40
1.0
 40
1.0
 40
1.0
 10
6.062858988
 20
12.5167083736
 30
0.0
 10
6.0688739495
 20
12.5245430962
 30
0.0
 10
6.0772015238
 20
12.5370178382
 30
0.0
 10
6.0867914184
 20
12.5546796424
 30
0.0
 10
6.0955512673
 20
12.5734072322
 30
0.0
 10
6.1027099924
 20
12.59308508
 30
0.0
 10
6.1081936923
 20
12.6134172652
 30
0.0
 10
6.1103705246
 20
12.6237972547
 30
0.0
 10
6.1113126014
 20
12.6290229161
 30
0.0
  0
SPLINE
  5
3EA
100
AcDbEntity
  8
0
100
AcDbSpline
 62
9
  6
CONTINUOUS
 70
0
 71
3
 72
12
 73
8
 74
0
 42
0.0000001
 43
0.0000001
 44
0.0000000001
 40
0.0
 40
0.0
 40
0.0
 40
0.0
 40
0.2401149119
 40
0.363352587
 40
0.4883630281
 40
0.7424580898
 40
1.0
 40
1.0
 40
1.0
 40
1.0
 10
7.156037338
 20
12.3493168846
 30
0.0
 10
7.1526423591
 20
12.3585924873
 30
0.0
 10
7.1484291725
 20
12.3729876213
 30
0.0
 10
7.1445636556
 20
12.3927094835
 30
0.0
 10
7.1418090916
 20
12.4132014094
 30
0.0
 10
7.1406270919
 20
12.4394248127
 30
0.0
 10
7.1420855478
 20
12.4604731729
 30
0.0
 10
7.1434118723
 20
12.4709840826
 30
0.0
  0
SPLINE
  5
3EB
100
AcDbEntity
  8
0
100
AcDbSpline
 62
9
  6
CONTINUOUS
 70
0
 71
3
 72
27
 73
23
 74
0
 42
0.0000001
 43
0.0000001
 44
0.0000000001
 40
0.0
 40
0.0
 40
0.0
 40
0.0
 40
0.051743884
 40
0.0782729895
 40
0.1052489482
 40
0.1326753228
 40
0.1605508229
 40
0.1888703033
 40
0.2176261823
 40
0.2468089269
 40
0.276407469
 40
0.3367994551
 40
0.3986898655
 40
0.4619521898
 40
0.5264503087
 40
0.5920411298
 40
0.6585763105
 40
0.7259035971
 40
0.7938679823
 40
0.8623108832
 40
0.9310764896
 40
1.0
 40
1.0
 40
1.0
 40
1.0
 10
7.156037338
 20
12.3493168846
 30
0.0
 10
7.1465962843
 20
12.3474727174
 30
0.0
 10
7.1322126415
 20
12.3451893426
 30
0.0
 10
7.1127786361
 20
12.3429103618
 30
0.0
 10
7.0977952949
 20
12.3415250342
 30
0.0
 10
7.0825361744
 20
12.3404502509
 30
0.0
 10
7.0670095491
 20
12.3396622901
 30
0.0
 10
7.0512245523
 20
12.3391415512
 30
0.0
 10
7.0351903959
 20
12.3388681639
 30
0.0
 10
7.0189162612
 20
12.3388271254
 30
0.0
 10
6.9967620004
 20
12.3390627695
 30
0.0
 10
6.9685355768
 20
12.3398745708
 30
0.0
 10
6.9340810385
 20
12.3415585023
 30
0.0
 10
6.8988989499
 20
12.3438810177
 30
0.0
 10
6.8630694322
 20
12.3467750424
 30
0.0
 10
6.8266742359
 20
12.3501831147
 30
0.0
 10
6.7897968114
 20
12.3540556528
 30
0.0
 10
6.7525220203
 20
12.3583498908
 30
0.0
 10
6.7149362809
 20
12.3630292301
 30
0.0
 10
6.6771265967
 20
12.3680626004
 30
0.0
 10
6.6391820117
 20
12.3734240524
 30
0.0
 10
6.6138647889
 20
12.3772015724
 30
0.0
 10
6.6011991401
 20
12.3791409815
 30
0.0
  0
SPLINE
  5
3EC
100
AcDbEntity
  8
0
100
AcDbSpline
 62
9
  6
CONTINUOUS
 70
0
 71
3
 72
13
 73
9
 74
0
 42
0.0000001
 43
0.0000001
 44
0.0000000001
 40
0.0
 40
0.0
 40
0.0
 40
0.0
 40
0.1249759568
 40
0.2499587104
 40
0.3749488709
 40
0.4999462392
 40
0.7499588961
 40
1.0
 40
1.0
 40
1.0
 40
1.0
 10
7.4454743653
 20
12.8151930323
 30
0.0
 10
7.4415334734
 20
12.7993589593
 30
0.0
 10
7.4338313968
 20
12.7676448573
 30
0.0
 10
7.422819015
 20
12.7199444431
 30
0.0
 10
7.4123440318
 20
12.6721202257
 30
0.0
 10
7.3990665307
 20
12.6082025912
 30
0.0
 10
7.3837414594
 20
12.5280400321
 30
0.0
 10
7.3728512999
 20
12.4636605818
 30
0.0
 10
7.3677645816
 20
12.4314134196
 30
0.0
  0
LINE
  5
3ED
100
AcDbEntity
  8
0
100
AcDbLine
 62
9
  6
CONTINUOUS
 10
6.1023630307
 20
12.6303933072
 11
6.2119391193
 21
13.2426576998
  0
SPLINE
  5
3EE
100
AcDbEntity
  8
0
100
AcDbSpline
 62
9
  6
CONTINUOUS
 70
0
 71
3
 72
20
 73
16
 74
0
 42
0.0000001
 43
0.0000001
 44
0.0000000001
 40
0.0
 40
0.0
 40
0.0
 40
0.0
 40
0.1730850029
 40
0.3324027054
 40
0.4069016785
 40
0.4779623914
 40
0.5455864067
 40
0.6097755383
 40
0.7278573371
 40
0.7817561674
 40
0.8322313059
 40
0.879287123
 40
0.9229290166
 40
0.9631637586
 40
1.0
 40
1.0
 40
1.0
 40
1.0
 10
7.4454746384
 20
12.8151929868
 30
0.0
 10
7.4341963517
 20
12.817074465
 30
0.0
 10
7.4125468692
 20
12.8207481899
 30
0.0
 10
7.3860762959
 20
12.8254250348
 30
0.0
 10
7.366265061
 20
12.8290521146
 30
0.0
 10
7.3524236125
 20
12.8316500791
 30
0.0
 10
7.339263797
 20
12.8341868937
 30
0.0
 10
7.3230711716
 20
12.8373998933
 30
0.0
 10
7.3077944051
 20
12.8405697368
 30
0.0
 10
7.2934409446
 20
12.8437231082
 30
0.0
 10
7.2836891779
 20
12.8459541717
 30
0.0
 10
7.2746188996
 20
12.848123861
 30
0.0
 10
7.2662300296
 20
12.8502321384
 30
0.0
 10
7.2585225085
 20
12.8522788763
 30
0.0
 10
7.2536226009
 20
12.8536631392
 30
0.0
 10
7.2512875108
 20
12.8543479434
 30
0.0
  0
SPLINE
  5
3EF
100
AcDbEntity
  8
0
100
AcDbSpline
 62
9
  6
CONTINUOUS
 70
0
 71
3
 72
44
 73
40
 74
0
 42
0.0000001
 43
0.0000001
 44
0.0000000001
 40
0.0
 40
0.0
 40
0.0
 40
0.0
 40
0.1167256314
 40
0.2269374787
 40
0.3304669475
 40
0.4271454679
 40
0.5167974254
 40
0.5992556535
 40
0.6743622563
 40
0.741970984
 40
0.8019480939
 40
0.829036709
 40
0.8541740221
 40
0.8773470837
 40
0.898544532
 40
0.9177555152
 40
0.9349700814
 40
0.9501801303
 40
0.963377817
 40
0.9692198978
 40
0.9745565159
 40
0.9793869597
 40
0.9837105164
 40
0.9875265275
 40
0.9908346027
 40
0.9936344327
 40
0.9948436591
 40
0.9959257079
 40
0.9968805406
 40
0.9977081184
 40
0.9984084025
 40
0.9989813674
 40
0.9994270103
 40
0.9996020857
 40
0.9997453304
 40
0.9998567443
 40
0.9999363272
 40
0.9999840792
 40
1.0
 40
1.0
 40
1.0
 40
1.0
 10
6.0559757207
 20
12.5177623624
 30
0.0
 10
6.0471889851
 20
12.5159575535
 30
0.0
 10
6.0300347036
 20
12.5127887636
 30
0.0
 10
6.0049218013
 20
12.5089869989
 30
0.0
 10
5.9812471652
 20
12.5060380115
 30
0.0
 10
5.9590866636
 20
12.503765677
 30
0.0
 10
5.9385025743
 20
12.5020324253
 30
0.0
 10
5.9195485438
 20
12.5007284286
 30
0.0
 10
5.9022707718
 20
12.4997646101
 30
0.0
 10
5.8867095139
 20
12.4990678985
 30
0.0
 10
5.8748303503
 20
12.4986465504
 30
0.0
 10
5.8662114518
 20
12.4983926498
 30
0.0
 10
5.8604190882
 20
12.4982427786
 30
0.0
 10
5.8550788926
 20
12.4981215397
 30
0.0
 10
5.8501937072
 20
12.4980248918
 30
0.0
 10
5.8457661209
 20
12.497948898
 30
0.0
 10
5.8417984455
 20
12.4978898096
 30
0.0
 10
5.8382927309
 20
12.4978449017
 30
0.0
 10
5.8356608483
 20
12.4978157358
 30
0.0
 10
5.8337876549
 20
12.4977971215
 30
0.0
 10
5.8325574305
 20
12.4977857643
 30
0.0
 10
5.8314438909
 20
12.4977761994
 30
0.0
 10
5.8304471985
 20
12.4977682047
 30
0.0
 10
5.8295674908
 20
12.4977615459
 30
0.0
 10
5.8288048733
 20
12.4977560977
 30
0.0
 10
5.8282425764
 20
12.4977523069
 30
0.0
 10
5.8278513413
 20
12.49774978
 30
0.0
 10
5.8276018882
 20
12.4977482094
 30
0.0
 10
5.8273817632
 20
12.4977468551
 30
0.0
 10
5.827190976
 20
12.4977456996
 30
0.0
 10
5.8270295326
 20
12.4977447378
 30
0.0
 10
5.8268974441
 20
12.4977439303
 30
0.0
 10
5.8268057058
 20
12.4977434143
 30
0.0
 10
5.8267470087
 20
12.4977430091
 30
0.0
 10
5.8267139616
 20
12.4977429211
 30
0.0
 10
5.8266883364
 20
12.4977424816
 30
0.0
 10
5.8266698529
 20
12.497743016
 30
0.0
 10
5.8266590834
 20
12.4977418187
 30
0.0
 10
5.8266539426
 20
12.4977429597
 30
0.0
 10
5.8266528209
 20
12.4977424712
 30
0.0
  0
SPLINE
  5
3F0
100
AcDbEntity
  8
0
100
AcDbSpline
 62
9
  6
CONTINUOUS
 70
0
 71
3
 72
34
 73
30
 74
0
 42
0.0000001
 43
0.0000001
 44
0.0000000001
 40
0.0
 40
0.0
 40
0.0
 40
0.0
 40
0.0007163998
 40
0.0012367323
 40
0.0018859464
 40
0.003599175
 40
0.005893017
 40
0.008783269
 40
0.0122690865
 40
0.0210063795
 40
0.0320641648
 40
0.0454139983
 40
0.0610175558
 40
0.0788035225
 40
0.0987064964
 40
0.1206965726
 40
0.1447472444
 40
0.1708233746
 40
0.198879783
 40
0.2288458911
 40
0.294175447
 40
0.3661419535
 40
0.4442447117
 40
0.5278444128
 40
0.6161143444
 40
0.7082341541
 40
0.8034639384
 40
0.9009958889
 40
1.0
 40
1.0
 40
1.0
 40
1.0
 10
7.4832165763
 20
12.953787326
 30
0.0
 10
7.4831822389
 20
12.9537879388
 30
0.0
 10
7.483125495
 20
12.9537561604
 30
0.0
 10
7.4830602935
 20
12.9536952366
 30
0.0
 10
7.4829701979
 20
12.9535894038
 30
0.0
 10
7.482847277
 20
12.9534028635
 30
0.0
 10
7.4826852331
 20
12.9531144056
 30
0.0
 10
7.4824983986
 20
12.952743062
 30
0.0
 10
7.4821931159
 20
12.9520859142
 30
0.0
 10
7.4817603551
 20
12.9510568519
 30
0.0
 10
7.4811870943
 20
12.9495748441
 30
0.0
 10
7.4805323213
 20
12.9477718836
 30
0.0
 10
7.4798003807
 20
12.9456541422
 30
0.0
 10
7.4789957661
 20
12.9432293569
 30
0.0
 10
7.4781226474
 20
12.9405049045
 30
0.0
 10
7.4771829661
 20
12.9374865463
 30
0.0
 10
7.4761783836
 20
12.9341785478
 30
0.0
 10
7.4751119652
 20
12.9305854854
 30
0.0
 10
7.4739868982
 20
12.9267141017
 30
0.0
 10
7.4723633998
 20
12.9210280498
 30
0.0
 10
7.4702063143
 20
12.9133053695
 30
0.0
 10
7.4674672481
 20
12.9033494347
 30
0.0
 10
7.464561469
 20
12.8925311573
 30
0.0
 10
7.4615198652
 20
12.8809403295
 30
0.0
 10
7.4583738126
 20
12.8686823983
 30
0.0
 10
7.4551596439
 20
12.8558665452
 30
0.0
 10
7.4519185422
 20
12.8425999513
 30
0.0
 10
7.4486749355
 20
12.82899448
 30
0.0
 10
7.4465398251
 20
12.8198179803
 30
0.0
 10
7.4454746384
 20
12.8151929868
 30
0.0
  0
SPLINE
  5
3F1
100
AcDbEntity
  8
0
100
AcDbSpline
 62
9
  6
CONTINUOUS
 70
0
 71
3
 72
13
 73
9
 74
0
 42
0.0000001
 43
0.0000001
 44
0.0000000001
 40
0.0
 40
0.0
 40
0.0
 40
0.0
 40
0.2385457447
 40
0.3614756516
 40
0.4864573517
 40
0.6131737107
 40
0.7412727269
 40
1.0
 40
1.0
 40
1.0
 40
1.0
 10
6.0559757207
 20
12.5177623624
 30
0.0
 10
6.0617044252
 20
12.5256682877
 30
0.0
 10
6.0696214974
 20
12.5382230851
 30
0.0
 10
6.0787414579
 20
12.5559286527
 30
0.0
 10
6.0849804034
 20
12.5699445379
 30
0.0
 10
6.0905080084
 20
12.5844817149
 30
0.0
 10
6.0969042887
 20
12.6045106694
 30
0.0
 10
6.1005038009
 20
12.6199685231
 30
0.0
 10
6.1023630307
 20
12.6303933072
 30
0.0
  0
SPLINE
  5
3F2
100
AcDbEntity
  8
0
100
AcDbSpline
 62
9
  6
CONTINUOUS
 70
0
 71
3
 72
23
 73
19
 74
0
 42
0.0000001
 43
0.0000001
 44
0.0000000001
 40
0.0
 40
0.0
 40
0.0
 40
0.0
 40
0.0793656994
 40
0.1551782729
 40
0.22761874
 40
0.2968945597
 40
0.3632428834
 40
0.4269335723
 40
0.488271575
 40
0.5475981311
 40
0.605290183
 40
0.661757416
 40
0.7174365583
 40
0.7727829972
 40
0.8282603138
 40
0.8843288428
 40
0.9414346234
 40
1.0
 40
1.0
 40
1.0
 40
1.0
 10
7.4832165825
 20
12.9537873228
 30
0.0
 10
7.4783169827
 20
12.956334336
 30
0.0
 10
7.4688388882
 20
12.9615140572
 30
0.0
 10
7.4553050173
 20
12.9697506469
 30
0.0
 10
7.4427881891
 20
12.9782724329
 30
0.0
 10
7.4312887843
 20
12.9870800759
 30
0.0
 10
7.4208070066
 20
12.9961745683
 30
0.0
 10
7.411343479
 20
13.005556914
 30
0.0
 10
7.4028991964
 20
13.0152280819
 30
0.0
 10
7.3954755938
 20
13.0251888204
 30
0.0
 10
7.3890744924
 20
13.0354394488
 30
0.0
 10
7.3836979353
 20
13.0459796531
 30
0.0
 10
7.3793478993
 20
13.0568083556
 30
0.0
 10
7.3760259456
 20
13.0679237822
 30
0.0
 10
7.3737329036
 20
13.0793235827
 30
0.0
 10
7.3724687544
 20
13.0910056005
 30
0.0
 10
7.3722325611
 20
13.1029667219
 30
0.0
 10
7.3727519332
 20
13.1110086526
 30
0.0
 10
7.3731734888
 20
13.1150616296
 30
0.0
  0
SPLINE
  5
3F3
100
AcDbEntity
  8
0
100
AcDbSpline
 62
9
  6
CONTINUOUS
 70
0
 71
3
 72
11
 73
7
 74
0
 42
0.0000001
 43
0.0000001
 44
0.0000000001
 40
0.0
 40
0.0
 40
0.0
 40
0.0
 40
0.2208388844
 40
0.4639798781
 40
0.725456305
 40
1.0
 40
1.0
 40
1.0
 40
1.0
 10
7.2236368105
 20
13.1003882044
 30
0.0
 10
7.2237577775
 20
13.0994681921
 30
0.0
 10
7.2238438044
 20
13.0975117672
 30
0.0
 10
7.2235718776
 20
13.094468883
 30
0.0
 10
7.2229153576
 20
13.0912553056
 30
0.0
 10
7.2222454889
 20
13.0891007385
 30
0.0
 10
7.2218529016
 20
13.0880160057
 30
0.0
  0
SPLINE
  5
3F4
100
AcDbEntity
  8
0
100
AcDbSpline
 62
9
  6
CONTINUOUS
 70
0
 71
3
 72
9
 73
5
 74
0
 42
0.0000001
 43
0.0000001
 44
0.0000000001
 40
0.0
 40
0.0
 40
0.0
 40
0.0
 40
0.4996079532
 40
1.0
 40
1.0
 40
1.0
 40
1.0
 10
7.2267560473
 20
13.0999105754
 30
0.0
 10
7.2280986133
 20
13.0979809418
 30
0.0
 10
7.230200209
 20
13.0936846903
 30
0.0
 10
7.2309842881
 20
13.0889673251
 30
0.0
 10
7.2310147445
 20
13.0866130948
 30
0.0
  0
SPLINE
  5
3F5
100
AcDbEntity
  8
0
100
AcDbSpline
 62
9
  6
CONTINUOUS
 70
0
 71
3
 72
9
 73
5
 74
0
 42
0.0000001
 43
0.0000001
 44
0.0000000001
 40
0.0
 40
0.0
 40
0.0
 40
0.0
 40
0.499606756
 40
1.0
 40
1.0
 40
1.0
 40
1.0
 10
6.2199817081
 20
13.2540715623
 30
0.0
 10
6.2181237548
 20
13.2526315606
 30
0.0
 10
6.214834121
 20
13.2491603066
 30
0.0
 10
6.2126734465
 20
13.2448946274
 30
0.0
 10
6.211939125
 20
13.2426577148
 30
0.0
  0
SPLINE
  5
3F6
100
AcDbEntity
  8
0
100
AcDbSpline
 62
9
  6
CONTINUOUS
 70
0
 71
3
 72
11
 73
7
 74
0
 42
0.0000001
 43
0.0000001
 44
0.0000000001
 40
0.0
 40
0.0
 40
0.0
 40
0.0
 40
0.2207880689
 40
0.4639243271
 40
0.725425229
 40
1.0
 40
1.0
 40
1.0
 40
1.0
 10
6.2231009449
 20
13.2535939332
 30
0.0
 10
6.2227107871
 20
13.2527522939
 30
0.0
 10
6.2220445183
 20
13.2509111702
 30
0.0
 10
6.2213940143
 20
13.2479265616
 30
0.0
 10
6.2210581734
 20
13.2446638135
 30
0.0
 10
6.2210516116
 20
13.2424074149
 30
0.0
 10
6.2211009688
 20
13.2412548037
 30
0.0
  0
SPLINE
  5
3F7
100
AcDbEntity
  8
0
100
AcDbSpline
 62
9
  6
CONTINUOUS
 70
0
 71
3
 72
10
 73
6
 74
0
 42
0.0000001
 43
0.0000001
 44
0.0000000001
 40
0.0
 40
0.0
 40
0.0
 40
0.0
 40
0.502710269
 40
0.7537630128
 40
1.0
 40
1.0
 40
1.0
 40
1.0
 10
6.0559596935
 20
12.5063624772
 30
0.0
 10
6.0567176044
 20
12.5083186486
 30
0.0
 10
6.058188069
 20
12.5111367698
 30
0.0
 10
6.0606901044
 20
12.5144827519
 30
0.0
 10
6.062113021
 20
12.5160013401
 30
0.0
 10
6.0628588584
 20
12.5167081882
 30
0.0
  0
SPLINE
  5
3F8
100
AcDbEntity
  8
0
100
AcDbSpline
 62
9
  6
CONTINUOUS
 70
0
 71
3
 72
44
 73
40
 74
0
 42
0.0000001
 43
0.0000001
 44
0.0000000001
 40
0.0
 40
0.0
 40
0.0
 40
0.0
 40
0.1154504347
 40
0.2247270798
 40
0.32760839
 40
0.4238943007
 40
0.5133856089
 40
0.5958837933
 40
0.6711963025
 40
0.7391401723
 40
0.7995449279
 40
0.8268700203
 40
0.8522511583
 40
0.8756704255
 40
0.8971116645
 40
0.9165588375
 40
0.9339975708
 40
0.9494164778
 40
0.9628044818
 40
0.9687335605
 40
0.9741511946
 40
0.9790563232
 40
0.9834478847
 40
0.9873248175
 40
0.9906860603
 40
0.9935307884
 40
0.9947593784
 40
0.9958587599
 40
0.9968289138
 40
0.9976698209
 40
0.9983814617
 40
0.9989638171
 40
0.9994168679
 40
0.999594898
 40
0.9997405947
 40
0.9998539556
 40
0.9999349784
 40
0.9999836605
 40
1.0
 40
1.0
 40
1.0
 40
1.0
 10
7.2310147445
 20
13.0866130948
 30
0.0
 10
7.236962076
 20
13.0883889192
 30
0.0
 10
7.248531723
 20
13.0918690307
 30
0.0
 10
7.2653773406
 20
13.0970105519
 30
0.0
 10
7.2812183842
 20
13.1019135554
 30
0.0
 10
7.2960260244
 20
13.106557465
 30
0.0
 10
7.3097724939
 20
13.1109227352
 30
0.0
 10
7.3224303367
 20
13.1149903809
 30
0.0
 10
7.3339735868
 20
13.1187398558
 30
0.0
 10
7.3443774407
 20
13.1221521558
 30
0.0
 10
7.3523227095
 20
13.1247822537
 30
0.0
 10
7.3580919929
 20
13.126704289
 30
0.0
 10
7.361973348
 20
13.1280022375
 30
0.0
 10
7.3655534704
 20
13.129203558
 30
0.0
 10
7.3688301044
 20
13.1303064926
 30
0.0
 10
7.3718011956
 20
13.1313092877
 30
0.0
 10
7.3744648857
 20
13.132210417
 30
0.0
 10
7.3768194188
 20
13.1330088862
 30
0.0
 10
7.3785874962
 20
13.1336099796
 30
0.0
 10
7.3798462397
 20
13.1340387821
 30
0.0
 10
7.3806731943
 20
13.1343208108
 30
0.0
 10
7.3814218397
 20
13.1345763767
 30
0.0
 10
7.3820920466
 20
13.1348053282
 30
0.0
 10
7.382683685
 20
13.1350075161
 30
0.0
 10
7.3831966382
 20
13.1351827923
 30
0.0
 10
7.3835748923
 20
13.1353119386
 30
0.0
 10
7.3838380853
 20
13.1354017431
 30
0.0
 10
7.3840059052
 20
13.1354589807
 30
0.0
 10
7.3841540053
 20
13.1355094709
 30
0.0
 10
7.3842823812
 20
13.1355532133
 30
0.0
 10
7.3843910287
 20
13.1355902224
 30
0.0
 10
7.384479943
 20
13.1356204692
 30
0.0
 10
7.3845417049
 20
13.1356415159
 30
0.0
 10
7.3845812439
 20
13.1356548928
 30
0.0
 10
7.3846034959
 20
13.1356625767
 30
0.0
 10
7.3846208055
 20
13.1356681227
 30
0.0
 10
7.3846331914
 20
13.1356730598
 30
0.0
 10
7.3846406135
 20
13.135674266
 30
0.0
 10
7.3846439445
 20
13.1356767366
 30
0.0
 10
7.3846447735
 20
13.1356764461
 30
0.0
  0
SPLINE
  5
3F9
100
AcDbEntity
  8
0
100
AcDbSpline
 62
9
  6
CONTINUOUS
 70
0
 71
3
 72
10
 73
6
 74
0
 42
0.0000001
 43
0.0000001
 44
0.0000000001
 40
0.0
 40
0.0
 40
0.0
 40
0.0
 40
0.2673113557
 40
0.5247680402
 40
1.0
 40
1.0
 40
1.0
 40
1.0
 10
6.0536058106
 20
12.506722911
 30
0.0
 10
6.0535769085
 20
12.5077381756
 30
0.0
 10
6.0536302536
 20
12.5097376358
 30
0.0
 10
6.0541796507
 20
12.5135002938
 30
0.0
 10
6.0551054727
 20
12.5161802146
 30
0.0
 10
6.055975719
 20
12.5177623621
 30
0.0
  0
SPLINE
  5
3FA
100
AcDbEntity
  8
0
100
AcDbSpline
 62
9
  6
CONTINUOUS
 70
0
 71
3
 72
11
 73
7
 74
0
 42
0.0000001
 43
0.0000001
 44
0.0000000001
 40
0.0
 40
0.0
 40
0.0
 40
0.0
 40
0.263084469
 40
0.5185919503
 40
0.7644944047
 40
1.0
 40
1.0
 40
1.0
 40
1.0
 10
7.2387299843
 20
12.2980199586
 30
0.0
 10
7.2390104086
 20
12.299238103
 30
0.0
 10
7.2393783982
 20
12.3016868537
 30
0.0
 10
7.2393258862
 20
12.3053357046
 30
0.0
 10
7.2386643361
 20
12.3087927123
 30
0.0
 10
7.237809337
 20
12.3109337614
 30
0.0
 10
7.2372865397
 20
12.3119230914
 30
0.0
  0
SPLINE
  5
3FB
100
AcDbEntity
  8
0
100
AcDbSpline
 62
9
  6
CONTINUOUS
 70
0
 71
3
 72
10
 73
6
 74
0
 42
0.0000001
 43
0.0000001
 44
0.0000000001
 40
0.0
 40
0.0
 40
0.0
 40
0.0
 40
0.2673345734
 40
0.5248063012
 40
1.0
 40
1.0
 40
1.0
 40
1.0
 10
7.1618785939
 20
12.3370201107
 30
0.0
 10
7.1622097589
 20
12.3379803286
 30
0.0
 10
7.1627566172
 20
12.3399043462
 30
0.0
 10
7.1633579861
 20
12.3436588548
 30
0.0
 10
7.1632770716
 20
12.3464927218
 30
0.0
 10
7.1629207186
 20
12.3482626732
 30
0.0
  0
SPLINE
  5
3FC
100
AcDbEntity
  8
0
100
AcDbSpline
 62
9
  6
CONTINUOUS
 70
0
 71
3
 72
44
 73
40
 74
0
 42
0.0000001
 43
0.0000001
 44
0.0000000001
 40
0.0
 40
0.0
 40
0.0
 40
0.0
 40
0.0033859774
 40
0.0070165172
 40
0.0109652148
 40
0.0152911494
 40
0.0200346426
 40
0.0252200361
 40
0.0308618571
 40
0.0369691788
 40
0.0435485562
 40
0.0506036482
 40
0.0661445987
 40
0.0835955907
 40
0.1029313545
 40
0.1240909687
 40
0.1470362227
 40
0.1717587779
 40
0.1982167861
 40
0.2263490496
 40
0.2561059129
 40
0.2874504856
 40
0.3203667021
 40
0.3548080441
 40
0.3906873677
 40
0.4279156822
 40
0.4664096131
 40
0.5061064121
 40
0.5469379576
 40
0.5888181289
 40
0.6316694251
 40
0.67542225
 40
0.7200032793
 40
0.7653316086
 40
0.8113125571
 40
0.8578617554
 40
0.9048990951
 40
0.9523202687
 40
1.0
 40
1.0
 40
1.0
 40
1.0
 10
7.3731734888
 20
13.1150616296
 30
0.0
 10
7.3728439982
 20
13.1151133142
 30
0.0
 10
7.3721507323
 20
13.1151599235
 30
0.0
 10
7.3710713577
 20
13.1150648465
 30
0.0
 10
7.3699243409
 20
13.11480675
 30
0.0
 10
7.3687111785
 20
13.1143845644
 30
0.0
 10
7.3674320548
 20
13.1138015532
 30
0.0
 10
7.3660873412
 20
13.1130615177
 30
0.0
 10
7.3646778198
 20
13.1121678763
 30
0.0
 10
7.3632046024
 20
13.1111231628
 30
0.0
 10
7.3616693326
 20
13.1099288193
 30
0.0
 10
7.3594698678
 20
13.1080783412
 30
0.0
 10
7.3565832342
 20
13.1053860635
 30
0.0
 10
7.3530019772
 20
13.1016766896
 30
0.0
 10
7.3492166328
 20
13.0974028239
 30
0.0
 10
7.3452374061
 20
13.0925833097
 30
0.0
 10
7.3410821544
 20
13.0872251979
 30
0.0
 10
7.3367761901
 20
13.081327487
 30
0.0
 10
7.3323367306
 20
13.0748981427
 30
0.0
 10
7.327781615
 20
13.0679490452
 30
0.0
 10
7.323132675
 20
13.0604887257
 30
0.0
 10
7.3184110823
 20
13.0525211076
 30
0.0
 10
7.3136487038
 20
13.044044224
 30
0.0
 10
7.3088709274
 20
13.0350667155
 30
0.0
 10
7.3040985193
 20
13.0256080873
 30
0.0
 10
7.2993544029
 20
13.0156908351
 30
0.0
 10
7.2946596221
 20
13.0053357823
 30
0.0
 10
7.2900431995
 20
12.9945582642
 30
0.0
 10
7.2855310718
 20
12.9833761442
 30
0.0
 10
7.2811427828
 20
12.9718118784
 30
0.0
 10
7.2769025849
 20
12.959886592
 30
0.0
 10
7.2728357868
 20
12.9476203949
 30
0.0
 10
7.2689690765
 20
12.9350340983
 30
0.0
 10
7.2653275517
 20
12.922152581
 30
0.0
 10
7.2619241534
 20
12.9090057371
 30
0.0
 10
7.2587866066
 20
12.8956197925
 30
0.0
 10
7.2559484573
 20
12.8820221075
 30
0.0
 10
7.2534252508
 20
12.8682493363
 30
0.0
 10
7.2519637662
 20
12.8589954656
 30
0.0
 10
7.2512875108
 20
12.8543479434
 30
0.0
  0
LINE
  5
3FD
100
AcDbEntity
  8
0
100
AcDbLine
 62
9
  6
CONTINUOUS
 10
7.2512875416
 20
12.8543479348
 11
7.1940015626
 21
12.4632375997
  0
LINE
  5
3FE
100
AcDbEntity
  8
0
100
AcDbLine
 62
9
  6
CONTINUOUS
 10
7.152361443
 20
12.4696136914
 11
7.2310147445
 21
13.0866130948
  0
SPLINE
  5
3FF
100
AcDbEntity
  8
0
100
AcDbSpline
 62
9
  6
CONTINUOUS
 70
0
 71
3
 72
11
 73
7
 74
0
 42
0.0000001
 43
0.0000001
 44
0.0000000001
 40
0.0
 40
0.0
 40
0.0
 40
0.0
 40
0.2506506486
 40
0.5030859415
 40
0.7539544411
 40
1.0
 40
1.0
 40
1.0
 40
1.0
 10
7.1595246778
 20
12.3373805496
 30
0.0
 10
7.1594556582
 20
12.3384250404
 30
0.0
 10
7.1591992792
 20
12.3405153408
 30
0.0
 10
7.1584797118
 20
12.3435867089
 30
0.0
 10
7.1574399399
 20
12.3465446512
 30
0.0
 10
7.1565371927
 20
12.3484191229
 30
0.0
 10
7.1560373362
 20
12.3493168843
 30
0.0
  0
SPLINE
  5
400
100
AcDbEntity
  8
0
100
AcDbSpline
 62
9
  6
CONTINUOUS
 70
0
 71
3
 72
10
 73
6
 74
0
 42
0.0000001
 43
0.0000001
 44
0.0000000001
 40
0.0
 40
0.0
 40
0.0
 40
0.0
 40
0.2340428124
 40
0.4781507747
 40
1.0
 40
1.0
 40
1.0
 40
1.0
 10
7.1629207164
 20
12.3482626916
 30
0.0
 10
7.1624146289
 20
12.3484702272
 30
0.0
 10
7.1613524716
 20
12.3488284647
 30
0.0
 10
7.1590608192
 20
12.3493076536
 30
0.0
 10
7.1572557517
 20
12.3493734679
 30
0.0
 10
7.1560374467
 20
12.3493166791
 30
0.0
  0
LINE
  5
401
100
AcDbEntity
  8
0
100
AcDbLine
 62
9
  6
CONTINUOUS
 10
7.1434118723
 20
12.4709840826
 11
7.152361443
 21
12.4696136915
  0
SPLINE
  5
402
100
AcDbEntity
  8
0
100
AcDbSpline
 62
9
  6
CONTINUOUS
 70
0
 71
3
 72
11
 73
7
 74
0
 42
0.0000001
 43
0.0000001
 44
0.0000000001
 40
0.0
 40
0.0
 40
0.0
 40
0.0
 40
0.2903759175
 40
0.5557603457
 40
0.7930538522
 40
1.0
 40
1.0
 40
1.0
 40
1.0
 10
7.221852897
 20
13.0880160069
 30
0.0
 10
7.2227249451
 20
13.0877974392
 30
0.0
 10
7.2244016777
 20
13.0874085763
 30
0.0
 10
7.2268177636
 20
13.0869653248
 30
0.0
 10
7.2289987229
 20
13.086689721
 30
0.0
 10
7.2303740341
 20
13.0866157391
 30
0.0
 10
7.2310147466
 20
13.0866131113
 30
0.0
  0
SPLINE
  5
403
100
AcDbEntity
  8
0
100
AcDbSpline
 62
9
  6
CONTINUOUS
 70
0
 71
3
 72
10
 73
6
 74
0
 42
0.0000001
 43
0.0000001
 44
0.0000000001
 40
0.0
 40
0.0
 40
0.0
 40
0.0
 40
0.5218491583
 40
0.7659571572
 40
1.0
 40
1.0
 40
1.0
 40
1.0
 10
6.062858825
 20
12.5167082113
 30
0.0
 10
6.0617133352
 20
12.5171269553
 30
0.0
 10
6.0599712782
 20
12.5176042839
 30
0.0
 10
6.0576412378
 20
12.5178327827
 30
0.0
 10
6.0565205515
 20
12.5178087874
 30
0.0
 10
6.055975551
 20
12.5177621995
 30
0.0
  0
SPLINE
  5
404
100
AcDbEntity
  8
0
100
AcDbSpline
 62
9
  6
CONTINUOUS
 70
0
 71
3
 72
11
 73
7
 74
0
 42
0.0000001
 43
0.0000001
 44
0.0000000001
 40
0.0
 40
0.0
 40
0.0
 40
0.0
 40
0.2069462142
 40
0.4442397972
 40
0.7096241778
 40
1.0
 40
1.0
 40
1.0
 40
1.0
 10
6.2119391222
 20
13.2426577157
 30
0.0
 10
6.2125512432
 20
13.242468434
 30
0.0
 10
6.2138857053
 20
13.2421275794
 30
0.0
 10
6.2160491931
 20
13.2417379184
 30
0.0
 10
6.2184872137
 20
13.2414378861
 30
0.0
 10
6.2202034821
 20
13.2413072741
 30
0.0
 10
6.2211009717
 20
13.2412548201
 30
0.0
  0
LINE
  5
405
100
AcDbEntity
  8
0
100
AcDbLine
 62
9
  6
CONTINUOUS
 10
6.1023630307
 20
12.6303933073
 11
6.1113126014
 21
12.6290229161
  0
ENDSEC
  0
SECTION
  2
OBJECTS
  0
DICTIONARY
  5
C
100
AcDbDictionary
280
0
281
1
  3
ACAD_GROUP
350
D
  3
ACAD_MLINESTYLE
350
17
  3
ACAD_LAYOUT
350
1A
  3
ACAD_PLOTSETTINGS
350
19
  3
ACAD_PLOTSTYLENAME
350
E
  0
DICTIONARY
  5
D
102
{ACAD_REACTORS
330
C
102
}
100
AcDbDictionary
280
0
281
1
  0
ACDBDICTIONARYWDFLT
  5
E
102
{ACAD_REACTORS
330
C
102
}
100
AcDbDictionary
281
1
  3
Normal
350
F
100
AcDbDictionaryWithDefault
340
F
  0
DICTIONARY
  5
17
102
{ACAD_REACTORS
330
C
102
}
100
AcDbDictionary
280
0
281
1
  3
Standard
350
18
  0
DICTIONARY
  5
19
102
{ACAD_REACTORS
330
C
102
}
100
AcDbDictionary
281
1
  0
DICTIONARY
  5
1A
102
{ACAD_REACTORS
330
C
102
}
100
AcDbDictionary
281
1
  3
Model
350
406
  3
Layout1
350
407
  0
ACDBPLACEHOLDER
  5
F
102
{ACAD_REACTORS
330
E
102
}
  0
MLINESTYLE
  5
18
102
{ACAD_REACTORS
330
17
102
}
100
AcDbMlineStyle
  2
STANDARD
 70
0
  3

 62
256
 51
90.0
 52
90.0
 71
2
 49
0.5
 62
256
  6
BYLAYER
 49
-0.5
 62
256
  6
BYLAYER
  0
LAYOUT
  5
406
102
{ACAD_REACTORS
330
1A
102
}
100
AcDbPlotSettings
  1

  2
none_device
  4
ANSI_C_(22.00_x_17.00_Inches)
  6

 40
0.0
 41
0.0
 42
0.0
 43
0.0
 44
558.8
 45
431.8
 46
0.0
 47
0.0
 48
0.0
 49
0.0
140
0.0
141
0.0
142
1.0
143
1.0
 70
1024
 72
0
 73
0
 74
0
  7

 75
0
147
1.0
148
0.0
149
0.0
100
AcDbLayout
  1
Model
 70
0
 71
0
 10
0.0
 20
0.0
 11
22.0
 21
17.0
 12
0.0
 22
0.0
 32
0.0
 14
0.0
 24
0.0
 34
0.0
 15
0.0
 25
0.0
 35
0.0
146
0.0
 13
0.0
 23
0.0
 33
0.0
 16
1.0
 26
0.0
 36
0.0
 17
0.0
 27
1.0
 37
0.0
 76
0
330
205
345
0
346
0
  0
LAYOUT
  5
407
102
{ACAD_REACTORS
330
1A
102
}
100
AcDbPlotSettings
  1

  2
none_device
  4
ANSI_C_(22.00_x_17.00_Inches)
  6

 40
0.0
 41
0.0
 42
0.0
 43
0.0
 44
558.8
 45
431.8
 46
0.0
 47
0.0
 48
0.0
 49
0.0
140
0.0
141
0.0
142
1.0
143
1.0
 70
0
 72
0
 73
0
 74
0
  7

 75
0
147
1.0
148
0.0
149
0.0
100
AcDbLayout
  1
Layout1
 70
0
 71
1
 10
0.0
 20
0.0
 11
22.0
 21
17.0
 12
0.0
 22
0.0
 32
0.0
 14
0.0
 24
0.0
 34
0.0
 15
0.0
 25
0.0
 35
0.0
146
0.0
 13
0.0
 23
0.0
 33
0.0
 16
1.0
 26
0.0
 36
0.0
 17
0.0
 27
1.0
 37
0.0
 76
0
330
206
345
0
346
0
  0
ENDSEC
  0
EOF
