999
DXF file: E:\BT Custom\CADOUTPUT\_TOP.dxf
999
Pro/ENGINEER 2018400 by Parametric Technology Corporation
  0
SECTION
  2
HEADER
  9
$ACADVER
  1
AC1018
  9
$DWGCODEPAGE
  3
ANSI_1252
  9
$EXTMAX
 10
22.0
 20
17.0
 30
0.0
  9
$EXTMIN
 10
0.0
 20
0.0
 30
0.0
  9
$LIMMIN
 10
0.0
 20
0.0
  9
$LIMMAX
 10
22.0
 20
17.0
  9
$VIEWCTR
 10
11.0
 20
8.5
  9
$VIEWSIZE
 40
17.0
  9
$CLAYER
  8
0
  9
$LTSCALE
 40
1.21
  9
$CELTYPE
  6
BYLAYER
  9
$DIMSCALE
 40
1.0
  9
$DIMASZ
 40
0.1
  9
$DIMEXO
 40
0.0625
  9
$DIMDLI
 40
0.836
  9
$DIMEXE
 40
0.125
  9
$DIMCEN
 40
0.198
  9
$DIMLFAC
 40
1.0
  9
$DIMBLK
  1
_FILLED
  9
$DIMALT
 70
1
  9
$DIMALTD
 70
2
  9
$DIMALTTD
 70
2
  9
$DIMALTF
 40
25.4
  9
$DIMTXT
 40
0.08
  9
$DIMTOL
 70
1
  9
$DIMLIM
 70
0
  9
$DIMTFAC
 40
1.0
  9
$DIMTP
 40
0.001
  9
$DIMTM
 40
0.001
  9
$DIMGAP
 40
0.09
  9
$DIMDSEP
 70
46
  9
$AUNITS
 70
0
  9
$PDMODE
 70
3
  9
$PDSIZE
 40
0.06
  9
$HANDSEED
  5
337
  9
$TILEMODE
 70
1
  9
$MEASUREMENT
 70
0
  9
$INSUNITS
 70
1
  0
ENDSEC
  0
SECTION
  2
CLASSES
  0
CLASS
  1
ACDBDICTIONARYWDFLT
  2
AcDbDictionaryWithDefault
  3
AutoCAD 2000
 90
0
 91
1
280
0
281
0
  0
CLASS
  1
ACDBPLACEHOLDER
  2
AcDbPlaceHolder
  3
AutoCAD 2000
 90
0
 91
1
280
0
281
0
  0
CLASS
  1
LAYOUT
  2
AcDbLayout
  3
AutoCAD 2000
 90
0
 91
0
280
0
281
0
  0
ENDSEC
  0
SECTION
  2
TABLES
  0
TABLE
  2
VPORT
  5
8
100
AcDbSymbolTable
 70
2
  0
VPORT
  5
1F4
100
AcDbSymbolTableRecord
100
AcDbViewportTableRecord
  2
*ACTIVE
 70
0
 10
0.0
 20
0.0
 11
1.0
 21
1.0
 12
11.0
 22
8.5
 13
0.0
 23
0.0
 14
1.0
 24
1.0
 15
0.0
 25
0.0
 16
0.0
 26
0.0
 36
1.0
 17
0.0
 27
0.0
 37
0.0
 40
17.0
 41
1.2941176471
 42
50.0
 43
0.0
 44
0.0
 50
0.0
 51
0.0
 71
0
 72
100
 73
1
 74
1
 75
0
 76
0
 77
0
 78
0
  0
ENDTAB
  0
TABLE
  2
LTYPE
  5
5
100
AcDbSymbolTable
 70
6
  0
LTYPE
  5
14
100
AcDbSymbolTableRecord
100
AcDbLinetypeTableRecord
  2
BYBLOCK
 70
0
  3

 72
65
 73
0
 40
0.0
  0
LTYPE
  5
15
100
AcDbSymbolTableRecord
100
AcDbLinetypeTableRecord
  2
BYLAYER
 70
0
  3

 72
65
 73
0
 40
0.0
  0
LTYPE
  5
16
100
AcDbSymbolTableRecord
100
AcDbLinetypeTableRecord
  2
CONTINUOUS
 70
64
  3
Solid line
 72
65
 73
0
 40
0.0
  0
LTYPE
  5
1F5
100
AcDbSymbolTableRecord
100
AcDbLinetypeTableRecord
  2
CENTER
 70
64
  3
____ _ ____ _ ____ _ ____ _ ____ _ ____ _ ____
 72
65
 73
4
 40
0.6
 49
0.375
 74
0
 49
-0.075
 74
0
 49
0.075
 74
0
 49
-0.075
 74
0
  0
LTYPE
  5
1F6
100
AcDbSymbolTableRecord
100
AcDbLinetypeTableRecord
  2
HIDDEN
 70
64
  3
- - - - - - - - - - - - - - - - - - - -
 72
65
 73
2
 40
0.2
 49
0.1
 74
0
 49
-0.1
 74
0
  0
LTYPE
  5
1F7
100
AcDbSymbolTableRecord
100
AcDbLinetypeTableRecord
  2
PHANTOM
 70
64
  3
_____ _ _ _____ _ _ _____ _ _ _____
 72
65
 73
6
 40
0.8
 49
0.45
 74
0
 49
-0.05
 74
0
 49
0.1
 74
0
 49
-0.05
 74
0
 49
0.1
 74
0
 49
-0.05
 74
0
  0
LTYPE
  5
1F8
100
AcDbSymbolTableRecord
100
AcDbLinetypeTableRecord
  2
DOT
 70
64
  3
. . . . . . . . . . . . . . . . . . . .
 72
65
 73
2
 40
0.2
 49
0.1
 74
0
 49
-0.1
 74
0
  0
LTYPE
  5
1F9
100
AcDbSymbolTableRecord
100
AcDbLinetypeTableRecord
  2
DASHED
 70
64
  3
- - - - - - - - - - - - - - - - - - - -
 72
65
 73
2
 40
0.2
 49
0.1
 74
0
 49
-0.1
 74
0
  0
ENDTAB
  0
TABLE
  2
LAYER
  5
2
100
AcDbSymbolTable
 70
36
  0
LAYER
  5
10
100
AcDbSymbolTableRecord
100
AcDbLayerTableRecord
  2
0
 70
0
 62
7
  6
CONTINUOUS
370
-3
390
F
  0
LAYER
  5
1FA
100
AcDbSymbolTableRecord
100
AcDbLayerTableRecord
  2
DEFAULT_1
 70
0
 62
7
  6
CENTER
370
-3
390
F
  0
LAYER
  5
1FB
100
AcDbSymbolTableRecord
100
AcDbLayerTableRecord
  2
DEFAULT_2
 70
0
 62
8
  6
HIDDEN
370
-3
390
F
  0
LAYER
  5
1FC
100
AcDbSymbolTableRecord
100
AcDbLayerTableRecord
  2
DEFAULT_3
 70
0
 62
7
  6
PHANTOM
370
-3
390
F
  0
LAYER
  5
1FD
100
AcDbSymbolTableRecord
100
AcDbLayerTableRecord
  2
ALL_FEATURES
 70
0
 62
7
  6
CONTINUOUS
370
-3
390
F
  0
LAYER
  5
1FE
100
AcDbSymbolTableRecord
100
AcDbLayerTableRecord
  2
AXES_FEATURES
 70
0
 62
7
  6
CONTINUOUS
370
-3
390
F
  0
LAYER
  5
1FF
100
AcDbSymbolTableRecord
100
AcDbLayerTableRecord
  2
DEFAULT_COORDINATE_SYSTEM
 70
0
 62
7
  6
CONTINUOUS
370
-3
390
F
  0
LAYER
  5
200
100
AcDbSymbolTableRecord
100
AcDbLayerTableRecord
  2
DEFAULT_DATUM_AXES
 70
0
 62
7
  6
CONTINUOUS
370
-3
390
F
  0
LAYER
  5
201
100
AcDbSymbolTableRecord
100
AcDbLayerTableRecord
  2
DEFAULT_DATUM_PLANES
 70
0
 62
7
  6
CONTINUOUS
370
-3
390
F
  0
LAYER
  5
202
100
AcDbSymbolTableRecord
100
AcDbLayerTableRecord
  2
DIMENSIONS
 70
0
 62
7
  6
CONTINUOUS
370
-3
390
F
  0
ENDTAB
  0
TABLE
  2
STYLE
  5
3
100
AcDbSymbolTable
 70
1
  0
STYLE
  5
11
100
AcDbSymbolTableRecord
100
AcDbTextStyleTableRecord
  2
STANDARD
 70
0
 40
0.0
 41
0.8
 50
0.0
 71
0
 42
0.2
  3
txt
  4

  0
STYLE
  5
203
100
AcDbSymbolTableRecord
100
AcDbTextStyleTableRecord
  2
TEXTSTYLE_1
 70
0
 40
0.0
 41
0.8
 50
0.0
 71
0
 42
0.2
  3
gdt
  4

  0
ENDTAB
  0
TABLE
  2
VIEW
  5
6
100
AcDbSymbolTable
 70
0
  0
ENDTAB
  0
TABLE
  2
UCS
  5
7
100
AcDbSymbolTable
 70
0
  0
ENDTAB
  0
TABLE
  2
APPID
  5
9
100
AcDbSymbolTable
 70
1
  0
APPID
  5
204
100
AcDbSymbolTableRecord
100
AcDbRegAppTableRecord
  2
ACAD
 70
0
  0
ENDTAB
  0
TABLE
  2
BLOCK_RECORD
  5
1
100
AcDbSymbolTable
 70
0
  0
BLOCK_RECORD
  5
205
100
AcDbSymbolTableRecord
100
AcDbBlockTableRecord
  2
*Model_Space
  0
BLOCK_RECORD
  5
206
100
AcDbSymbolTableRecord
100
AcDbBlockTableRecord
  2
*Paper_Space
  0
BLOCK_RECORD
  5
207
100
AcDbSymbolTableRecord
100
AcDbBlockTableRecord
  2
_FILLED
  0
ENDTAB
  0
TABLE
  2
DIMSTYLE
  5
A
100
AcDbSymbolTable
 70
1
100
AcDbDimStyleTable
 71
0
  0
DIMSTYLE
105
208
100
AcDbSymbolTableRecord
100
AcDbDimStyleTableRecord
  2
STANDARD
 70
0
  3

  4

 40
1.0
 41
0.1
 42
0.0625
 43
0.38
 44
0.125
 45
0.0
 46
0.0
 47
0.001
 48
0.001
140
0.08
141
0.09
142
0.0
143
25.4
144
1.0
145
0.0
146
1.0
147
0.09
 71
1.0
 72
0.0
 73
1
 74
1
 75
0
 76
0
 77
0
 78
4
 79
1
170
1
171
2
172
0
173
0
174
0
175
0
176
0
177
0
178
0
270
2
179
3
271
3
272
3
273
2
274
2
275
0
280
0
281
0
282
0
283
1
284
4
285
0
286
0
287
3
288
0
340
11
278
46
341
207
342
207
343
207
344
207
  0
ENDTAB
  0
ENDSEC
  0
SECTION
  2
BLOCKS
  0
BLOCK
  5
20
100
AcDbEntity
  8
0
100
AcDbBlockBegin
  2
*Model_Space
 70
0
 10
0.0
 20
0.0
 30
0.0
  3
*Model_Space
  1

  0
ENDBLK
  5
21
100
AcDbEntity
  8
0
100
AcDbBlockEnd
  0
BLOCK
  5
1C
100
AcDbEntity
  8
0
100
AcDbBlockBegin
  2
*Paper_Space
 70
0
 10
0.0
 20
0.0
 30
0.0
  3
*Paper_Space
  1

  0
ENDBLK
  5
1D
100
AcDbEntity
  8
0
100
AcDbBlockEnd
  0
BLOCK
  5
209
100
AcDbEntity
  8
0
100
AcDbBlockBegin
  2
_FILLED
 70
64
 10
0.0
 20
0.0
  3
_FILLED
  1

  0
SOLID
  5
20A
100
AcDbEntity
  8
0
  6
BYBLOCK
 62
0
100
AcDbTrace
 10
0.0
 20
0.0
 11
-1.0
 21
0.2
 12
-1.0
 22
-0.2
 13
-1.0
 23
-0.2
  0
ENDBLK
  5
20B
100
AcDbEntity
  8
0
  6
BYBLOCK
 62
0
100
AcDbBlockEnd
  0
ENDSEC
  0
SECTION
  2
ENTITIES
  0
LINE
  5
20C
100
AcDbEntity
  8
0
100
AcDbLine
 62
7
  6
CONTINUOUS
 10
8.8848185034
 20
3.1373188569
 11
8.8848185034
 21
3.1600227825
  0
LINE
  5
20D
100
AcDbEntity
  8
0
100
AcDbLine
 62
7
  6
CONTINUOUS
 10
9.2940735164
 20
11.6635933651
 11
9.2940734401
 21
3.5475031165
  0
LWPOLYLINE
  5
20E
100
AcDbEntity
  8
0
100
AcDbPolyline
 62
7
  6
CONTINUOUS
 90
5
 70
0
 10
10.4991714046
 20
3.7160199784
 10
10.4891148143
 20
3.7544879672
 10
10.4731205161
 20
3.8047712698
 10
10.4540223569
 20
3.8542648051
 10
10.4335635667
 20
3.898948496
  0
LWPOLYLINE
  5
20F
100
AcDbEntity
  8
0
100
AcDbPolyline
 62
7
  6
CONTINUOUS
 90
11
 70
0
 10
10.6381855895
 20
3.5396072289
 10
10.6287881542
 20
3.5774604128
 10
10.6144557595
 20
3.6239812197
 10
10.5973325313
 20
3.6694674193
 10
10.577547395
 20
3.7137028864
 10
10.5553520369
 20
3.7563160335
 10
10.5310992152
 20
3.796919696
 10
10.5052163496
 20
3.8351793165
 10
10.4781976607
 20
3.8708179503
 10
10.4505876426
 20
3.9036263954
 10
10.4335635667
 20
3.9220674989
  0
LINE
  5
210
100
AcDbEntity
  8
0
100
AcDbLine
 62
7
  6
CONTINUOUS
 10
10.4991715397
 20
3.7160195608
 11
10.5224624753
 21
3.6177292131
  0
LINE
  5
211
100
AcDbEntity
  8
0
100
AcDbLine
 62
7
  6
CONTINUOUS
 10
10.6380488068
 20
3.5402220509
 11
10.6381855565
 21
3.53960749
  0
LINE
  5
212
100
AcDbEntity
  8
0
100
AcDbLine
 62
7
  6
CONTINUOUS
 10
9.0895868607
 20
3.5402160431
 11
9.0897919811
 21
3.5411335711
  0
LINE
  5
213
100
AcDbEntity
  8
0
100
AcDbLine
 62
7
  6
CONTINUOUS
 10
9.2283256096
 20
3.7154302328
 11
9.2051745315
 21
3.6177292131
  0
LINE
  5
214
100
AcDbEntity
  8
0
100
AcDbLine
 62
7
  6
CONTINUOUS
 10
10.4335635667
 20
3.5475031165
 11
10.4335635324
 21
11.6634953627
  0
LINE
  5
215
100
AcDbEntity
  8
0
100
AcDbLine
 62
7
  6
CONTINUOUS
 10
10.8428185034
 20
3.1373188569
 11
10.8428185034
 21
3.1600227825
  0
LWPOLYLINE
  5
216
100
AcDbEntity
  8
0
100
AcDbPolyline
 62
7
  6
CONTINUOUS
 90
5
 70
0
 10
9.2940734401
 20
3.89894057
 10
9.2736531013
 20
3.8543554966
 10
9.2545417545
 20
3.8048435488
 10
9.2385385199
 20
3.7545445101
 10
9.2283221859
 20
3.7154144972
  0
LINE
  5
217
100
AcDbEntity
  8
0
100
AcDbLine
 62
7
  6
CONTINUOUS
 10
11.6238185034
 20
10.6782956846
 11
11.6238185034
 21
12.6482956846
  0
LINE
  5
218
100
AcDbEntity
  8
0
100
AcDbLine
 62
9
  6
CONTINUOUS
 10
11.8238185034
 20
10.6782956846
 11
11.8238185034
 21
12.6482956846
  0
LINE
  5
219
100
AcDbEntity
  8
0
100
AcDbLine
 62
9
  6
CONTINUOUS
 10
11.8402719174
 20
10.686925321
 11
11.8402719174
 21
12.6396660483
  0
LINE
  5
21A
100
AcDbEntity
  8
0
100
AcDbLine
 62
9
  6
CONTINUOUS
 10
12.0978757448
 20
10.8732956846
 11
12.0978757448
 21
12.4532956846
  0
LINE
  5
21B
100
AcDbEntity
  8
0
100
AcDbLine
 62
9
  6
CONTINUOUS
 10
12.1025329183
 20
12.4512490892
 11
12.1025329183
 21
10.8753422801
  0
LINE
  5
21C
100
AcDbEntity
  8
0
100
AcDbLine
 62
9
  6
CONTINUOUS
 10
12.1603642818
 20
12.4490325234
 11
12.1603642818
 21
10.8775588459
  0
LINE
  5
21D
100
AcDbEntity
  8
0
100
AcDbLine
 62
9
  6
CONTINUOUS
 10
12.2242775935
 20
12.441878758
 11
12.2242775935
 21
10.8847126113
  0
LWPOLYLINE
  5
21E
100
AcDbEntity
  8
0
100
AcDbPolyline
 62
7
  6
CONTINUOUS
 90
11
 70
0
 10
12.5140888441
 20
12.0113766038
 10
12.5141823152
 20
12.0129848979
 10
12.5142271886
 20
12.0136871694
 10
12.514270504
 20
12.014321246
 10
12.5143119346
 20
12.014886515
 10
12.5143510451
 20
12.0153818754
 10
12.5143872422
 20
12.0158055394
 10
12.5144196986
 20
12.0161547864
 10
12.5144472151
 20
12.0164254276
 10
12.5144679806
 20
12.0166109728
 10
12.5144706172
 20
12.0166330778
  0
LWPOLYLINE
  5
21F
100
AcDbEntity
  8
0
100
AcDbPolyline
 62
7
  6
CONTINUOUS
 90
11
 70
0
 10
9.2940734401
 20
3.9220650306
 10
9.2769017525
 20
3.9034593078
 10
9.2492942731
 20
3.8706365714
 10
9.2222877544
 20
3.8349940438
 10
9.1964224466
 20
3.7967386062
 10
9.1721895997
 20
3.75614504
 10
9.1500138746
 20
3.7135462531
 10
9.1302462215
 20
3.6693260496
 10
9.1131378499
 20
3.6238523802
 10
9.0988169222
 20
3.577344132
 10
9.0897920085
 20
3.5411339696
  0
LINE
  5
220
100
AcDbEntity
  8
0
100
AcDbLine
 62
7
  6
CONTINUOUS
 10
12.5135825487
 20
11.3273154308
 11
12.5133831359
 21
11.333705664
  0
LINE
  5
221
100
AcDbEntity
  8
0
100
AcDbLine
 62
7
  6
CONTINUOUS
 10
12.5133831359
 20
11.333705664
 11
12.5131271098
 21
11.3433617117
  0
LINE
  5
222
100
AcDbEntity
  8
0
100
AcDbLine
 62
7
  6
CONTINUOUS
 10
12.5131271098
 20
11.3433617117
 11
12.512806924
 21
11.3579485529
  0
LINE
  5
223
100
AcDbEntity
  8
0
100
AcDbLine
 62
7
  6
CONTINUOUS
 10
12.512806924
 20
11.3579485529
 11
12.5123590536
 21
11.3838198909
  0
LINE
  5
224
100
AcDbEntity
  8
0
100
AcDbLine
 62
7
  6
CONTINUOUS
 10
12.5123590536
 20
11.3838198909
 11
12.5119670108
 21
11.4130966601
  0
LINE
  5
225
100
AcDbEntity
  8
0
100
AcDbLine
 62
7
  6
CONTINUOUS
 10
12.5119670108
 20
11.4130966601
 11
12.5115863307
 21
11.4499318054
  0
LINE
  5
226
100
AcDbEntity
  8
0
100
AcDbLine
 62
7
  6
CONTINUOUS
 10
12.5115863307
 20
11.4499318054
 11
12.5112369631
 21
11.4956462022
  0
LINE
  5
227
100
AcDbEntity
  8
0
100
AcDbLine
 62
7
  6
CONTINUOUS
 10
12.5112369631
 20
11.4956462022
 11
12.5109878757
 21
11.5421755953
  0
LINE
  5
228
100
AcDbEntity
  8
0
100
AcDbLine
 62
7
  6
CONTINUOUS
 10
12.5109878757
 20
11.5421755953
 11
12.5109355298
 21
11.5550454262
  0
LINE
  5
229
100
AcDbEntity
  8
0
100
AcDbLine
 62
9
  6
CONTINUOUS
 10
12.2722000673
 20
12.4331979213
 11
12.2722000673
 21
10.893393448
  0
LINE
  5
22A
100
AcDbEntity
  8
0
100
AcDbLine
 62
7
  6
CONTINUOUS
 10
12.3238185034
 20
10.9302964076
 11
12.3238185034
 21
12.3962949617
  0
LINE
  5
22B
100
AcDbEntity
  8
0
100
AcDbLine
 62
7
  6
CONTINUOUS
 10
12.5109354254
 20
11.77154505
 11
12.5111538471
 21
11.8173107594
  0
LINE
  5
22C
100
AcDbEntity
  8
0
100
AcDbLine
 62
7
  6
CONTINUOUS
 10
12.5111538471
 20
11.8173107594
 11
12.5114864338
 21
11.8650750619
  0
LINE
  5
22D
100
AcDbEntity
  8
0
100
AcDbLine
 62
7
  6
CONTINUOUS
 10
12.5114864338
 20
11.8650750619
 11
12.5118692714
 21
11.9049666083
  0
LINE
  5
22E
100
AcDbEntity
  8
0
100
AcDbLine
 62
7
  6
CONTINUOUS
 10
12.5118692714
 20
11.9049666083
 11
12.5122826951
 21
11.9376161069
  0
LINE
  5
22F
100
AcDbEntity
  8
0
100
AcDbLine
 62
7
  6
CONTINUOUS
 10
12.5122826951
 20
11.9376161069
 11
12.5127124253
 21
11.9637522756
  0
LINE
  5
230
100
AcDbEntity
  8
0
100
AcDbLine
 62
7
  6
CONTINUOUS
 10
12.5127124253
 20
11.9637522756
 11
12.5130937955
 21
11.9818466155
  0
LINE
  5
231
100
AcDbEntity
  8
0
100
AcDbLine
 62
7
  6
CONTINUOUS
 10
12.5130937955
 20
11.9818466155
 11
12.513365273
 21
11.9922661952
  0
LINE
  5
232
100
AcDbEntity
  8
0
100
AcDbLine
 62
7
  6
CONTINUOUS
 10
12.513365273
 20
11.9922661952
 11
12.5135794879
 21
11.9991850403
  0
LINE
  5
233
100
AcDbEntity
  8
0
100
AcDbLine
 62
7
  6
CONTINUOUS
 10
12.5135794879
 20
11.9991850403
 11
12.5137372282
 21
12.0035869593
  0
LINE
  5
234
100
AcDbEntity
  8
0
100
AcDbLine
 62
7
  6
CONTINUOUS
 10
12.5137372282
 20
12.0035869593
 11
12.5138913973
 21
12.0073416558
  0
LINE
  5
235
100
AcDbEntity
  8
0
100
AcDbLine
 62
7
  6
CONTINUOUS
 10
12.5138913973
 20
12.0073416558
 11
12.5139915421
 21
12.0094961452
  0
LINE
  5
236
100
AcDbEntity
  8
0
100
AcDbLine
 62
7
  6
CONTINUOUS
 10
12.5139915421
 20
12.0094961452
 11
12.5140888441
 21
12.0113766038
  0
LINE
  5
237
100
AcDbEntity
  8
0
100
AcDbLine
 62
7
  6
CONTINUOUS
 10
12.5142689383
 20
11.3122922943
 11
12.5141861908
 21
11.3135440262
  0
LINE
  5
238
100
AcDbEntity
  8
0
100
AcDbLine
 62
7
  6
CONTINUOUS
 10
12.5141861908
 20
11.3135440262
 11
12.5140994812
 21
11.3150219013
  0
LINE
  5
239
100
AcDbEntity
  8
0
100
AcDbLine
 62
7
  6
CONTINUOUS
 10
12.5140994812
 20
11.3150219013
 11
12.5140098633
 21
11.3167251422
  0
LINE
  5
23A
100
AcDbEntity
  8
0
100
AcDbLine
 62
7
  6
CONTINUOUS
 10
12.5140098633
 20
11.3167251422
 11
12.5139179458
 21
11.3186568619
  0
LINE
  5
23B
100
AcDbEntity
  8
0
100
AcDbLine
 62
7
  6
CONTINUOUS
 10
12.5139179458
 20
11.3186568619
 11
12.5137765594
 21
11.3219956309
  0
LWPOLYLINE
  5
23C
100
AcDbEntity
  8
0
100
AcDbPolyline
 62
7
  6
CONTINUOUS
 90
3
 70
0
 10
12.5137765594
 20
11.3219956309
 10
12.5136315889
 20
11.325888752
 10
12.5135825487
 20
11.3273154308
  0
LWPOLYLINE
  5
23D
100
AcDbEntity
  8
0
100
AcDbPolyline
 62
7
  6
CONTINUOUS
 90
10
 70
0
 10
12.5144798254
 20
11.3098847002
 10
12.5144803187
 20
11.3098812145
 10
12.5144757832
 20
11.3099162392
 10
12.5144612201
 20
11.3100387257
 10
12.5144393141
 20
11.3102410307
 10
12.5144119144
 20
11.3105175414
 10
12.5143803323
 20
11.3108640124
 10
12.5143455242
 20
11.3112770985
 10
12.5143082082
 20
11.3117540145
 10
12.5142689383
 20
11.3122922943
  0
LINE
  5
23E
100
AcDbEntity
  8
0
100
AcDbLine
 62
7
  6
CONTINUOUS
 10
11.8238185034
 20
10.6782956846
 11
11.6238185034
 21
10.6782956846
  0
LINE
  5
23F
100
AcDbEntity
  8
0
100
AcDbLine
 62
7
  6
CONTINUOUS
 10
11.6238185034
 20
10.7632956846
 11
10.4335635667
 21
10.7632956846
  0
LINE
  5
240
100
AcDbEntity
  8
0
100
AcDbLine
 62
7
  6
CONTINUOUS
 10
12.5126580225
 20
11.3657956846
 11
12.5648178681
 21
11.3657956846
  0
LINE
  5
241
100
AcDbEntity
  8
0
100
AcDbLine
 62
9
  6
CONTINUOUS
 10
12.5140291312
 20
11.2992901309
 11
12.5139531458
 21
11.2992916876
  0
LINE
  5
242
100
AcDbEntity
  8
0
100
AcDbLine
 62
9
  6
CONTINUOUS
 10
12.5139531458
 20
12.0272996817
 11
12.5140286682
 21
12.0273025847
  0
LINE
  5
243
100
AcDbEntity
  8
0
100
AcDbLine
 62
7
  6
CONTINUOUS
 10
12.5126578225
 20
11.9607956846
 11
12.5648178681
 21
11.9607956846
  0
LINE
  5
244
100
AcDbEntity
  8
0
100
AcDbLine
 62
7
  6
CONTINUOUS
 10
11.6238185034
 20
12.5632956846
 11
10.3604855311
 21
12.5632956846
  0
LINE
  5
245
100
AcDbEntity
  8
0
100
AcDbLine
 62
7
  6
CONTINUOUS
 10
11.8238185034
 20
12.6482956846
 11
11.6238185034
 21
12.6482956846
  0
ARC
  5
246
100
AcDbEntity
  8
0
100
AcDbCircle
 62
9
  6
CONTINUOUS
 10
9.1352003584
 20
6.6927688367
 40
6.2196451406
100
AcDbArc
 50
48.6080630764
 51
49.5532166874
  0
ARC
  5
247
100
AcDbEntity
  8
0
100
AcDbCircle
 62
9
  6
CONTINUOUS
 10
7.9630546939
 20
7.8662924107
 40
6.2186657219
100
AcDbArc
 50
40.4470329285
 51
41.3923353801
  0
ARC
  5
248
100
AcDbEntity
  8
0
100
AcDbCircle
 62
7
  6
CONTINUOUS
 10
9.8638185034
 20
6.6482956846
 40
6.147
100
AcDbArc
 50
80.4307739497
 51
99.5692260503
  0
ARC
  5
249
100
AcDbEntity
  8
0
100
AcDbCircle
 62
9
  6
CONTINUOUS
 10
9.8638185034
 20
6.6482956846
 40
6.1312
100
AcDbArc
 50
80.4307986029
 51
99.5692355822
  0
ARC
  5
24A
100
AcDbEntity
  8
0
100
AcDbCircle
 62
7
  6
CONTINUOUS
 10
9.8638185034
 20
6.6482956846
 40
6.068
100
AcDbArc
 50
80.965912117
 51
99.034087883
  0
ARC
  5
24B
100
AcDbEntity
  8
0
100
AcDbCircle
 62
7
  6
CONTINUOUS
 10
9.6459999952
 20
3.513819408
 40
0.8768005028
100
AcDbArc
 50
13.3329963441
 51
26.0601065054
  0
ARC
  5
24C
100
AcDbEntity
  8
0
100
AcDbCircle
 62
9
  6
CONTINUOUS
 10
9.8481476929
 20
3.3708122141
 40
0.7772443015
100
AcDbArc
 50
167.4111215485
 51
179.9798198048
  0
ARC
  5
24D
100
AcDbEntity
  8
0
100
AcDbCircle
 62
9
  6
CONTINUOUS
 10
9.879514153
 20
3.3708140979
 40
0.7772194481
100
AcDbArc
 50
0.0200419696
 51
12.5431826287
  0
ARC
  5
24E
100
AcDbEntity
  8
0
100
AcDbCircle
 62
7
  6
CONTINUOUS
 10
9.8517266171
 20
3.5264920418
 40
0.6352221282
100
AcDbArc
 50
151.4442736474
 51
179.9843961698
  0
ARC
  5
24F
100
AcDbEntity
  8
0
100
AcDbCircle
 62
7
  6
CONTINUOUS
 10
9.8759103918
 20
3.5264920428
 40
0.6352221254
100
AcDbArc
 50
0.0156037404
 51
28.5557076584
  0
ARC
  5
250
100
AcDbEntity
  8
0
100
AcDbCircle
 62
9
  6
CONTINUOUS
 10
9.850557239
 20
3.5323237512
 40
0.6200231031
100
AcDbArc
 50
153.9001595577
 51
179.9867770383
  0
ARC
  5
251
100
AcDbEntity
  8
0
100
AcDbCircle
 62
9
  6
CONTINUOUS
 10
9.8770797674
 20
3.5323237515
 40
0.6200231031
100
AcDbArc
 50
0.0132229342
 51
26.0998403993
  0
ARC
  5
252
100
AcDbEntity
  8
0
100
AcDbCircle
 62
7
  6
CONTINUOUS
 10
9.8514147793
 20
3.5414618497
 40
0.6135325455
100
AcDbArc
 50
155.340416109
 51
179.9895315813
  0
ARC
  5
253
100
AcDbEntity
  8
0
100
AcDbCircle
 62
7
  6
CONTINUOUS
 10
9.8762222312
 20
3.5414618506
 40
0.6135325415
100
AcDbArc
 50
0.0104683344
 51
24.6595407027
  0
ARC
  5
254
100
AcDbEntity
  8
0
100
AcDbCircle
 62
7
  6
CONTINUOUS
 10
9.8506984114
 20
3.5474774184
 40
0.5773801701
100
AcDbArc
 50
164.6778632196
 51
179.9974502997
  0
ARC
  5
255
100
AcDbEntity
  8
0
100
AcDbCircle
 62
7
  6
CONTINUOUS
 10
9.8769385955
 20
3.5474774184
 40
0.5773801701
100
AcDbArc
 50
0.0025497001
 51
15.3221367804
  0
ARC
  5
256
100
AcDbEntity
  8
0
100
AcDbCircle
 62
9
  6
CONTINUOUS
 10
10.4561084693
 20
2.7938623234
 40
0.0468088802
100
AcDbArc
 50
132.6183318194
 51
136.7177367833
  0
ARC
  5
257
100
AcDbEntity
  8
0
100
AcDbCircle
 62
9
  6
CONTINUOUS
 10
10.369828838
 20
2.9000071309
 40
0.0299601179
100
AcDbArc
 50
302.4015532875
 51
326.9345122103
  0
ARC
  5
258
100
AcDbEntity
  8
0
100
AcDbCircle
 62
9
  6
CONTINUOUS
 10
9.3578081688
 20
2.9000071309
 40
0.0299601179
100
AcDbArc
 50
213.0654877883
 51
237.5984467105
  0
ARC
  5
259
100
AcDbEntity
  8
0
100
AcDbCircle
 62
7
  6
CONTINUOUS
 10
4.8488185034
 20
11.6632956846
 40
6.147
100
AcDbArc
 50
8.4209431732
 51
9.5692260503
  0
ARC
  5
25A
100
AcDbEntity
  8
0
100
AcDbCircle
 62
7
  6
CONTINUOUS
 10
4.8488185034
 20
11.6632956846
 40
6.147
100
AcDbArc
 50
350.4307739497
 51
351.5790467669
  0
ARC
  5
25B
100
AcDbEntity
  8
0
100
AcDbCircle
 62
9
  6
CONTINUOUS
 10
4.8485144598
 20
11.6633375546
 40
6.1315067695
100
AcDbArc
 50
350.4308754528
 51
351.5572244284
  0
ARC
  5
25C
100
AcDbEntity
  8
0
100
AcDbCircle
 62
9
  6
CONTINUOUS
 10
4.8488185034
 20
11.6632956846
 40
6.1312
100
AcDbArc
 50
8.4427947076
 51
9.5692356735
  0
ARC
  5
25D
100
AcDbEntity
  8
0
100
AcDbCircle
 62
9
  6
CONTINUOUS
 10
4.8061601224
 20
11.680969147
 40
6.0926752664
100
AcDbArc
 50
350.7982649271
 51
351.3360174511
  0
ARC
  5
25E
100
AcDbEntity
  8
0
100
AcDbCircle
 62
9
  6
CONTINUOUS
 10
4.8073936518
 20
11.6458170575
 40
6.0914264545
100
AcDbArc
 50
8.6639062004
 51
9.201781417
  0
ARC
  5
25F
100
AcDbEntity
  8
0
100
AcDbCircle
 62
7
  6
CONTINUOUS
 10
4.8488185034
 20
11.6632956846
 40
6.068
100
AcDbArc
 50
350.965912117
 51
351.4771583095
  0
ARC
  5
260
100
AcDbEntity
  8
0
100
AcDbCircle
 62
7
  6
CONTINUOUS
 10
4.8488185034
 20
11.6632956846
 40
6.068
100
AcDbArc
 50
8.5228441977
 51
9.034087883
  0
ARC
  5
261
100
AcDbEntity
  8
0
100
AcDbCircle
 62
9
  6
CONTINUOUS
 10
7.9622918981
 20
15.4609136382
 40
6.2196448318
100
AcDbArc
 50
318.6080629222
 51
319.5532165801
  0
ARC
  5
262
100
AcDbEntity
  8
0
100
AcDbCircle
 62
7
  6
CONTINUOUS
 10
8.8469336989
 20
10.6464108802
 40
0.03
100
AcDbArc
 50
189.5692260503
 51
260.4307739497
  0
ARC
  5
263
100
AcDbEntity
  8
0
100
AcDbCircle
 62
7
  6
CONTINUOUS
 10
8.9157193099
 20
10.7151965291
 40
0.0299999895
100
AcDbArc
 50
189.0340662444
 51
260.9659218118
  0
ARC
  5
264
100
AcDbEntity
  8
0
100
AcDbCircle
 62
9
  6
CONTINUOUS
 10
9.8638185034
 20
11.6632956846
 40
1.0385979505
100
AcDbArc
 50
95.8416732199
 51
174.1583267801
  0
ARC
  5
265
100
AcDbEntity
  8
0
100
AcDbCircle
 62
9
  6
CONTINUOUS
 10
9.8638185034
 20
11.6632956846
 40
1.0385979505
100
AcDbArc
 50
60.1604899828
 51
84.1583267801
  0
ARC
  5
266
100
AcDbEntity
  8
0
100
AcDbCircle
 62
9
  6
CONTINUOUS
 10
9.8638185034
 20
11.6632956846
 40
1.0385979505
100
AcDbArc
 50
185.8416732199
 51
236.7002977303
  0
ARC
  5
267
100
AcDbEntity
  8
0
100
AcDbCircle
 62
7
  6
CONTINUOUS
 10
9.8638185034
 20
11.6632956846
 40
1.0385211619
100
AcDbArc
 50
60.1101230944
 51
236.7120520888
  0
ARC
  5
268
100
AcDbEntity
  8
0
100
AcDbCircle
 62
7
  6
CONTINUOUS
 10
9.8638185034
 20
11.6632956846
 40
1.0285
100
AcDbArc
 50
303.6520100616
 51
236.3479899385
  0
ARC
  5
269
100
AcDbEntity
  8
0
100
AcDbCircle
 62
9
  6
CONTINUOUS
 10
9.8638185034
 20
11.6632956846
 40
1.0187063007
100
AcDbArc
 50
304.0124691319
 51
235.9875308683
  0
ARC
  5
26A
100
AcDbEntity
  8
0
100
AcDbCircle
 62
9
  6
CONTINUOUS
 10
9.8638185034
 20
11.6632956846
 40
0.8213777944
100
AcDbArc
 50
313.9494136409
 51
226.0505863592
  0
ARC
  5
26B
100
AcDbEntity
  8
0
100
AcDbCircle
 62
9
  6
CONTINUOUS
 10
9.8638185034
 20
11.6632956846
 40
0.8099343543
100
AcDbArc
 50
314.7142910138
 51
225.2857089867
  0
ARC
  5
26C
100
AcDbEntity
  8
0
100
AcDbCircle
 62
9
  6
CONTINUOUS
 10
9.8638185034
 20
11.6632956846
 40
0.6799315033
100
AcDbArc
 50
326.929247676
 51
213.0707523237
  0
ARC
  5
26D
100
AcDbEntity
  8
0
100
AcDbCircle
 62
7
  6
CONTINUOUS
 10
9.8638185034
 20
11.6632956846
 40
0.6603366802
100
AcDbArc
 50
329.6865545535
 51
210.3134454466
  0
ARC
  5
26E
100
AcDbEntity
  8
0
100
AcDbCircle
 62
9
  6
CONTINUOUS
 10
9.8638185034
 20
11.6632956846
 40
0.6528009774
100
AcDbArc
 50
330.8283685529
 51
209.1716314472
  0
ARC
  5
26F
100
AcDbEntity
  8
0
100
AcDbCircle
 62
7
  6
CONTINUOUS
 10
9.8638185034
 20
11.6632956846
 40
0.6488930529
100
AcDbArc
 50
331.4133419922
 51
208.5866580078
  0
ARC
  5
270
100
AcDbEntity
  8
0
100
AcDbCircle
 62
7
  6
CONTINUOUS
 10
9.8638185034
 20
11.6632956846
 40
0.619
100
AcDbArc
 50
337.0706707311
 51
202.9293292689
  0
ARC
  5
271
100
AcDbEntity
  8
0
100
AcDbCircle
 62
7
  6
CONTINUOUS
 10
9.8637229591
 20
11.6762626597
 40
0.5570330331
100
AcDbArc
 50
85.9758926243
 51
89.990172423
  0
ARC
  5
272
100
AcDbEntity
  8
0
100
AcDbCircle
 62
7
  6
CONTINUOUS
 10
9.863913998
 20
11.6762643056
 40
0.5570313872
100
AcDbArc
 50
90.0098224883
 51
94.0230306165
  0
ARC
  5
273
100
AcDbEntity
  8
0
100
AcDbCircle
 62
7
  6
CONTINUOUS
 10
8.8469336989
 20
12.6801804891
 40
0.03
100
AcDbArc
 50
99.5692260503
 51
170.4307739497
  0
ARC
  5
274
100
AcDbEntity
  8
0
100
AcDbCircle
 62
7
  6
CONTINUOUS
 10
8.915719348
 20
12.6113948781
 40
0.0299999895
100
AcDbArc
 50
99.034087883
 51
170.9659217675
  0
ARC
  5
275
100
AcDbEntity
  8
0
100
AcDbCircle
 62
9
  6
CONTINUOUS
 10
11.1381092358
 20
10.9357276887
 40
1.8042127553
100
AcDbArc
 50
34.8928812606
 51
35.9597022575
  0
ARC
  5
276
100
AcDbEntity
  8
0
100
AcDbCircle
 62
7
  6
CONTINUOUS
 10
10.8807033079
 20
10.6464108802
 40
0.03
100
AcDbArc
 50
279.5692260503
 51
350.4307739497
  0
ARC
  5
277
100
AcDbEntity
  8
0
100
AcDbCircle
 62
7
  6
CONTINUOUS
 10
10.8119176589
 20
10.7151964912
 40
0.0299999895
100
AcDbArc
 50
279.0340662444
 51
350.965912117
  0
ARC
  5
278
100
AcDbEntity
  8
0
100
AcDbCircle
 62
9
  6
CONTINUOUS
 10
11.1383470103
 20
12.3906957364
 40
1.8039216544
100
AcDbArc
 50
324.0401809557
 51
325.1071738236
  0
ARC
  5
279
100
AcDbEntity
  8
0
100
AcDbCircle
 62
7
  6
CONTINUOUS
 10
10.8807033079
 20
12.6801804891
 40
0.03
100
AcDbArc
 50
9.5692260503
 51
80.4307739497
  0
ARC
  5
27A
100
AcDbEntity
  8
0
100
AcDbCircle
 62
7
  6
CONTINUOUS
 10
10.8119176917
 20
12.6113948729
 40
0.03
100
AcDbArc
 50
9.034087883
 51
80.965912117
  0
ARC
  5
27B
100
AcDbEntity
  8
0
100
AcDbCircle
 62
9
  6
CONTINUOUS
 10
9.1358152427
 20
16.6330595057
 40
6.2186657219
100
AcDbArc
 50
310.4470327672
 51
311.3923352189
  0
ARC
  5
27C
100
AcDbEntity
  8
0
100
AcDbCircle
 62
7
  6
CONTINUOUS
 10
9.8638185034
 20
16.6782956846
 40
6.147
100
AcDbArc
 50
260.4307739497
 51
264.68093511
  0
ARC
  5
27D
100
AcDbEntity
  8
0
100
AcDbCircle
 62
7
  6
CONTINUOUS
 10
9.8638185034
 20
16.6782956846
 40
6.147
100
AcDbArc
 50
275.3190625024
 51
279.5692260503
  0
ARC
  5
27E
100
AcDbEntity
  8
0
100
AcDbCircle
 62
9
  6
CONTINUOUS
 10
9.8638245413
 20
16.6783428369
 40
6.1312474959
100
AcDbArc
 50
260.4308065669
 51
264.6672275981
  0
ARC
  5
27F
100
AcDbEntity
  8
0
100
AcDbCircle
 62
9
  6
CONTINUOUS
 10
9.8638185034
 20
16.6782956846
 40
6.1312
100
AcDbArc
 50
275.3328230278
 51
279.5692355854
  0
ARC
  5
280
100
AcDbEntity
  8
0
100
AcDbCircle
 62
9
  6
CONTINUOUS
 10
9.8780801112
 20
16.6988487177
 40
6.0703087918
100
AcDbArc
 50
260.7966892197
 51
264.4784504511
  0
ARC
  5
281
100
AcDbEntity
  8
0
100
AcDbCircle
 62
7
  6
CONTINUOUS
 10
9.8638185034
 20
16.6782956846
 40
6.068
100
AcDbArc
 50
275.3835285339
 51
279.034087883
  0
ARC
  5
282
100
AcDbEntity
  8
0
100
AcDbCircle
 62
7
  6
CONTINUOUS
 10
9.8638185034
 20
16.6782956846
 40
6.068
100
AcDbArc
 50
260.965912117
 51
264.6164796591
  0
ARC
  5
283
100
AcDbEntity
  8
0
100
AcDbCircle
 62
9
  6
CONTINUOUS
 10
9.8512408576
 20
16.685816589
 40
6.0571751102
100
AcDbArc
 50
275.5175555199
 51
279.2073030295
  0
ARC
  5
284
100
AcDbEntity
  8
0
100
AcDbCircle
 62
9
  6
CONTINUOUS
 10
17.9033451261
 20
7.8656777512
 40
6.2196448318
100
AcDbArc
 50
138.6080631665
 51
139.5532168243
  0
ARC
  5
285
100
AcDbEntity
  8
0
100
AcDbCircle
 62
9
  6
CONTINUOUS
 10
16.7298217657
 20
6.6935318649
 40
6.218665722
100
AcDbArc
 50
130.4470327854
 51
131.392335237
  0
ARC
  5
286
100
AcDbEntity
  8
0
100
AcDbCircle
 62
9
  6
CONTINUOUS
 10
12.2054184628
 20
9.8688241835
 40
1.8039216545
100
AcDbArc
 50
54.0401813904
 51
55.1071742583
  0
ARC
  5
287
100
AcDbEntity
  8
0
100
AcDbCircle
 62
7
  6
CONTINUOUS
 10
12.2326858406
 20
10.4157421489
 40
0.477
100
AcDbArc
 50
106.4166814713
 51
145.3530415104
  0
ARC
  5
288
100
AcDbEntity
  8
0
100
AcDbCircle
 62
7
  6
CONTINUOUS
 10
12.1334616835
 20
10.8239281625
 40
0.06
100
AcDbArc
 50
63.3604216487
 51
121.0295054286
  0
ARC
  5
289
100
AcDbEntity
  8
0
100
AcDbCircle
 62
7
  6
CONTINUOUS
 10
12.1868185034
 20
10.9302956846
 40
0.059
100
AcDbArc
 50
243.3604216487
 51
309.4125555521
  0
ARC
  5
28A
100
AcDbEntity
  8
0
100
AcDbCircle
 62
7
  6
CONTINUOUS
 10
12.256022585
 20
10.8460828882
 40
0.05
100
AcDbArc
 50
71.1222712196
 51
129.4125555521
  0
ARC
  5
28B
100
AcDbEntity
  8
0
100
AcDbCircle
 62
7
  6
CONTINUOUS
 10
12.2848185034
 20
10.9302956846
 40
0.039
100
AcDbArc
 50
251.1222712196
 51
360.0
  0
ARC
  5
28C
100
AcDbEntity
  8
0
100
AcDbCircle
 62
7
  6
CONTINUOUS
 10
12.4951167559
 20
11.3057956846
 40
0.02
100
AcDbArc
 50
341.0225318756
 51
15.111473983
  0
ARC
  5
28D
100
AcDbEntity
  8
0
100
AcDbCircle
 62
7
  6
CONTINUOUS
 10
12.0922233299
 20
10.8924803193
 40
0.02
100
AcDbArc
 50
286.4166814713
 51
301.0295054286
  0
ARC
  5
28E
100
AcDbEntity
  8
0
100
AcDbCircle
 62
7
  6
CONTINUOUS
 10
11.8238185034
 20
10.6982956846
 40
0.02
100
AcDbArc
 50
270.0
 51
325.3530415104
  0
ARC
  5
28F
100
AcDbEntity
  8
0
100
AcDbCircle
 62
9
  6
CONTINUOUS
 10
12.4950911526
 20
11.3058087541
 40
0.0199474036
100
AcDbArc
 50
341.023197626
 51
14.4209903332
  0
ARC
  5
290
100
AcDbEntity
  8
0
100
AcDbCircle
 62
7
  6
CONTINUOUS
 10
11.4738185034
 20
11.6570076868
 40
1.1
100
AcDbArc
 50
320.5994312463
 51
341.0225318408
  0
ARC
  5
291
100
AcDbEntity
  8
0
100
AcDbCircle
 62
7
  6
CONTINUOUS
 10
11.4738185034
 20
11.6695836825
 40
1.1
100
AcDbArc
 50
18.9774681544
 51
39.4005687537
  0
ARC
  5
292
100
AcDbEntity
  8
0
100
AcDbCircle
 62
7
  6
CONTINUOUS
 10
12.2326858406
 20
12.9108492204
 40
0.477
100
AcDbArc
 50
214.6469584896
 51
253.5833185287
  0
ARC
  5
293
100
AcDbEntity
  8
0
100
AcDbCircle
 62
7
  6
CONTINUOUS
 10
12.1334616835
 20
12.5026632068
 40
0.06
100
AcDbArc
 50
238.9704945714
 51
296.6395783513
  0
ARC
  5
294
100
AcDbEntity
  8
0
100
AcDbCircle
 62
7
  6
CONTINUOUS
 10
12.1868185034
 20
12.3962956846
 40
0.059
100
AcDbArc
 50
50.5874444479
 51
116.6395783513
  0
ARC
  5
295
100
AcDbEntity
  8
0
100
AcDbCircle
 62
7
  6
CONTINUOUS
 10
12.256022585
 20
12.4805084811
 40
0.05
100
AcDbArc
 50
230.5874444479
 51
288.8777287804
  0
ARC
  5
296
100
AcDbEntity
  8
0
100
AcDbCircle
 62
7
  6
CONTINUOUS
 10
12.2848185034
 20
12.3962956846
 40
0.039
100
AcDbArc
 50
0.0
 51
108.8777287804
  0
ARC
  5
297
100
AcDbEntity
  8
0
100
AcDbCircle
 62
7
  6
CONTINUOUS
 10
12.0922233299
 20
12.43411105
 40
0.02
100
AcDbArc
 50
58.9704945714
 51
73.5833185287
  0
ARC
  5
298
100
AcDbEntity
  8
0
100
AcDbCircle
 62
7
  6
CONTINUOUS
 10
12.4951167562
 20
12.0207956846
 40
0.02
100
AcDbArc
 50
344.8898726872
 51
18.9774681304
  0
ARC
  5
299
100
AcDbEntity
  8
0
100
AcDbCircle
 62
7
  6
CONTINUOUS
 10
11.8238185034
 20
12.6282956846
 40
0.02
100
AcDbArc
 50
34.6469584896
 51
90.0
  0
ARC
  5
29A
100
AcDbEntity
  8
0
100
AcDbCircle
 62
9
  6
CONTINUOUS
 10
12.4950911179
 20
12.0207826238
 40
0.0199474394
100
AcDbArc
 50
345.5767405914
 51
18.9767382815
  0
ARC
  5
29B
100
AcDbEntity
  8
0
100
AcDbCircle
 62
9
  6
CONTINUOUS
 10
13.6603112626
 20
9.8686937822
 40
1.8040816536
100
AcDbArc
 50
124.8928719426
 51
125.9597701803
  0
ARC
  5
29C
100
AcDbEntity
  8
0
100
AcDbCircle
 62
7
  6
CONTINUOUS
 10
12.9328185034
 20
11.3432956846
 40
0.75
100
AcDbArc
 50
63.3167307123
 51
116.6832692877
  0
ARC
  5
29D
100
AcDbEntity
  8
0
100
AcDbCircle
 62
9
  6
CONTINUOUS
 10
12.9328185034
 20
11.3432956846
 40
0.7336859824
100
AcDbArc
 50
63.1043834089
 51
116.8956165911
  0
ARC
  5
29E
100
AcDbEntity
  8
0
100
AcDbCircle
 62
9
  6
CONTINUOUS
 10
12.9328185034
 20
11.3432956846
 40
0.7041098357
100
AcDbArc
 50
64.3742514885
 51
115.6257485115
  0
ARC
  5
29F
100
AcDbEntity
  8
0
100
AcDbCircle
 62
9
  6
CONTINUOUS
 10
12.9328185034
 20
11.3432956846
 40
0.6057482579
100
AcDbArc
 50
66.9343967152
 51
113.0656030048
  0
ARC
  5
2A0
100
AcDbEntity
  8
0
100
AcDbCircle
 62
9
  6
CONTINUOUS
 10
13.2135189413
 20
11.3825952468
 40
0.0416386937
100
AcDbArc
 50
304.8954904292
 51
325.1045094847
  0
ARC
  5
2A1
100
AcDbEntity
  8
0
100
AcDbCircle
 62
9
  6
CONTINUOUS
 10
12.6521180656
 20
11.3825952468
 40
0.0416386937
100
AcDbArc
 50
214.8954904292
 51
235.1045094847
  0
ARC
  5
2A2
100
AcDbEntity
  8
0
100
AcDbCircle
 62
7
  6
CONTINUOUS
 10
13.2561403424
 20
11.3399738457
 40
0.03
100
AcDbArc
 50
296.6832692877
 51
333.3167306788
  0
ARC
  5
2A3
100
AcDbEntity
  8
0
100
AcDbCircle
 62
7
  6
CONTINUOUS
 10
12.6094966645
 20
11.3399738457
 40
0.03
100
AcDbArc
 50
206.6832692877
 51
243.3167306788
  0
ARC
  5
2A4
100
AcDbEntity
  8
0
100
AcDbCircle
 62
7
  6
CONTINUOUS
 10
13.2528185034
 20
11.6632956846
 40
0.75
100
AcDbArc
 50
153.3167307123
 51
206.6832692877
  0
ARC
  5
2A5
100
AcDbEntity
  8
0
100
AcDbCircle
 62
7
  6
CONTINUOUS
 10
12.6128185034
 20
11.6632956846
 40
0.75
100
AcDbArc
 50
333.3167307123
 51
26.6832692877
  0
ARC
  5
2A6
100
AcDbEntity
  8
0
100
AcDbCircle
 62
7
  6
CONTINUOUS
 10
12.9328185034
 20
11.9832956846
 40
0.75
100
AcDbArc
 50
243.3167307123
 51
296.6832692877
  0
ARC
  5
2A7
100
AcDbEntity
  8
0
100
AcDbCircle
 62
9
  6
CONTINUOUS
 10
13.2528185034
 20
11.6632956846
 40
0.7336859824
100
AcDbArc
 50
153.1043818901
 51
206.8956165911
  0
ARC
  5
2A8
100
AcDbEntity
  8
0
100
AcDbCircle
 62
9
  6
CONTINUOUS
 10
12.6128185034
 20
11.6632956846
 40
0.7336859824
100
AcDbArc
 50
333.1043834089
 51
26.8956165911
  0
ARC
  5
2A9
100
AcDbEntity
  8
0
100
AcDbCircle
 62
9
  6
CONTINUOUS
 10
12.9328185034
 20
11.9832956846
 40
0.7336859824
100
AcDbArc
 50
243.1043834089
 51
296.8956165911
  0
ARC
  5
2AA
100
AcDbEntity
  8
0
100
AcDbCircle
 62
9
  6
CONTINUOUS
 10
13.2528185034
 20
11.6632956846
 40
0.7041098357
100
AcDbArc
 50
154.3742514885
 51
205.6257485115
  0
ARC
  5
2AB
100
AcDbEntity
  8
0
100
AcDbCircle
 62
9
  6
CONTINUOUS
 10
12.6128185034
 20
11.6632956846
 40
0.7041098357
100
AcDbArc
 50
334.3742514885
 51
25.6257485115
  0
ARC
  5
2AC
100
AcDbEntity
  8
0
100
AcDbCircle
 62
9
  6
CONTINUOUS
 10
12.9328185034
 20
11.9832956846
 40
0.7041098357
100
AcDbArc
 50
244.3742514885
 51
295.6257485115
  0
ARC
  5
2AD
100
AcDbEntity
  8
0
100
AcDbCircle
 62
9
  6
CONTINUOUS
 10
13.2528185034
 20
11.6632956846
 40
0.6057482579
100
AcDbArc
 50
156.9343964485
 51
203.0656032712
  0
ARC
  5
2AE
100
AcDbEntity
  8
0
100
AcDbCircle
 62
9
  6
CONTINUOUS
 10
12.9328185034
 20
11.9832956846
 40
0.6057482579
100
AcDbArc
 50
246.9343967151
 51
293.0656030049
  0
ARC
  5
2AF
100
AcDbEntity
  8
0
100
AcDbCircle
 62
9
  6
CONTINUOUS
 10
12.6128185034
 20
11.6632956846
 40
0.6057482579
100
AcDbArc
 50
336.9343964486
 51
23.0656032713
  0
ARC
  5
2B0
100
AcDbEntity
  8
0
100
AcDbCircle
 62
9
  6
CONTINUOUS
 10
12.7204844841
 20
11.875629704
 40
0.1708114495
100
AcDbArc
 50
134.4236750479
 51
135.5763190953
  0
ARC
  5
2B1
100
AcDbEntity
  8
0
100
AcDbCircle
 62
9
  6
CONTINUOUS
 10
13.1451525229
 20
11.4509616651
 40
0.1708114492
100
AcDbArc
 50
314.4236750487
 51
315.576324985
  0
ARC
  5
2B2
100
AcDbEntity
  8
0
100
AcDbCircle
 62
9
  6
CONTINUOUS
 10
13.1451525425
 20
11.8756297237
 40
0.1708114216
100
AcDbArc
 50
44.4236749556
 51
45.5763250781
  0
ARC
  5
2B3
100
AcDbEntity
  8
0
100
AcDbCircle
 62
9
  6
CONTINUOUS
 10
12.7204844554
 20
11.4509616367
 40
0.170811409
100
AcDbArc
 50
224.4236749132
 51
225.5763251204
  0
ARC
  5
2B4
100
AcDbEntity
  8
0
100
AcDbCircle
 62
9
  6
CONTINUOUS
 10
13.2135189412
 20
11.9439961225
 40
0.0416386937
100
AcDbArc
 50
34.8954904292
 51
55.1045094846
  0
ARC
  5
2B5
100
AcDbEntity
  8
0
100
AcDbCircle
 62
9
  6
CONTINUOUS
 10
12.6521180655
 20
11.9439961225
 40
0.0416386937
100
AcDbArc
 50
124.8954904292
 51
145.1045094847
  0
ARC
  5
2B6
100
AcDbEntity
  8
0
100
AcDbCircle
 62
7
  6
CONTINUOUS
 10
13.2561403424
 20
11.9866175236
 40
0.03
100
AcDbArc
 50
26.6832692877
 51
63.3167306788
  0
ARC
  5
2B7
100
AcDbEntity
  8
0
100
AcDbCircle
 62
7
  6
CONTINUOUS
 10
12.6094966645
 20
11.9866175236
 40
0.03
100
AcDbArc
 50
116.6832692877
 51
153.3167306788
  0
ARC
  5
2B8
100
AcDbEntity
  8
0
100
AcDbCircle
 62
9
  6
CONTINUOUS
 10
12.2053257438
 20
13.4578975869
 40
1.8040816537
100
AcDbArc
 50
304.8928719567
 51
305.9597701944
  0
ARC
  5
2B9
100
AcDbEntity
  8
0
100
AcDbCircle
 62
9
  6
CONTINUOUS
 10
13.660218544
 20
13.4577671857
 40
1.8039216544
100
AcDbArc
 50
234.0401813904
 51
235.1071742583
  0
ARC
  5
2BA
100
AcDbEntity
  8
0
100
AcDbCircle
 62
7
  6
CONTINUOUS
 10
14.8788185034
 20
11.6632956846
 40
6.147
100
AcDbArc
 50
170.4307739497
 51
189.5692260503
  0
ARC
  5
2BB
100
AcDbEntity
  8
0
100
AcDbCircle
 62
9
  6
CONTINUOUS
 10
14.8788185034
 20
11.6632956846
 40
6.1312
100
AcDbArc
 50
170.4307986478
 51
189.5692355855
  0
ARC
  5
2BC
100
AcDbEntity
  8
0
100
AcDbCircle
 62
7
  6
CONTINUOUS
 10
14.8788185034
 20
11.6632956846
 40
6.068
100
AcDbArc
 50
170.965912117
 51
189.034087883
  0
ARC
  5
2BD
100
AcDbEntity
  8
0
100
AcDbCircle
 62
9
  6
CONTINUOUS
 10
14.7274203974
 20
12.3907884562
 40
1.8040816538
100
AcDbArc
 50
214.8928724181
 51
215.9597706558
  0
ARC
  5
2BE
100
AcDbEntity
  8
0
100
AcDbCircle
 62
9
  6
CONTINUOUS
 10
14.7272900077
 20
10.9358956485
 40
1.8039216545
100
AcDbArc
 50
144.0401815626
 51
145.1071744305
  0
ARC
  5
2BF
100
AcDbEntity
  8
0
100
AcDbCircle
 62
9
  6
CONTINUOUS
 10
16.7304366473
 20
16.6338225336
 40
6.2196451406
100
AcDbArc
 50
228.6080630903
 51
229.5532167013
  0
ARC
  5
2C0
100
AcDbEntity
  8
0
100
AcDbCircle
 62
9
  6
CONTINUOUS
 10
17.9025823185
 20
15.4602989523
 40
6.2186657219
100
AcDbArc
 50
220.4470328506
 51
221.3923353022
  0
SPLINE
  5
2C1
100
AcDbEntity
  8
0
100
AcDbSpline
 62
7
  6
CONTINUOUS
 70
0
 71
3
 72
71
 73
67
 74
0
 42
0.0000001
 43
0.0000001
 44
0.0000000001
 40
0.0
 40
0.0
 40
0.0
 40
0.0
 40
0.0155379939
 40
0.0310772813
 40
0.04661783
 40
0.0621610388
 40
0.0777074718
 40
0.0932579483
 40
0.1088131781
 40
0.1243738318
 40
0.1399405321
 40
0.1555138395
 40
0.1710942512
 40
0.1866821946
 40
0.2022780244
 40
0.2178820193
 40
0.2334943794
 40
0.2491152238
 40
0.2647445892
 40
0.2803824299
 40
0.2960286194
 40
0.3116829515
 40
0.327345142
 40
0.3430148303
 40
0.3586915841
 40
0.374374904
 40
0.3900642286
 40
0.4057589391
 40
0.421458365
 40
0.4371617903
 40
0.4528684615
 40
0.4685775947
 40
0.4842883826
 40
0.5000000022
 40
0.5157116218
 40
0.5314224097
 40
0.5471315428
 40
0.5628382139
 40
0.5785416392
 40
0.594241065
 40
0.6099357753
 40
0.6256250998
 40
0.6413084195
 40
0.6569851732
 40
0.6726548613
 40
0.6883170515
 40
0.7039713835
 40
0.7196175727
 40
0.7352554132
 40
0.7508847785
 40
0.7665056226
 40
0.7821179825
 40
0.7977219772
 40
0.8133178068
 40
0.82890575
 40
0.8444861615
 40
0.8600594687
 40
0.8756261688
 40
0.8911868224
 40
0.9067420521
 40
0.9222925285
 40
0.9378389613
 40
0.9533821701
 40
0.9689227188
 40
0.9844620061
 40
1.0
 40
1.0
 40
1.0
 40
1.0
 10
10.8428185034
 20
3.1373188569
 30
0.0
 10
10.8428185034
 20
3.1214805563
 30
0.0
 10
10.8420317121
 20
3.0897970057
 30
0.0
 10
10.8384944912
 20
3.042391392
 30
0.0
 10
10.832608252
 20
2.9952132613
 30
0.0
 10
10.8243877465
 20
2.9483783603
 30
0.0
 10
10.8138524613
 20
2.9019988155
 30
0.0
 10
10.8010279704
 20
2.8561867132
 30
0.0
 10
10.7859452043
 20
2.8110524168
 30
0.0
 10
10.7686406211
 20
2.7667047233
 30
0.0
 10
10.7491560085
 20
2.7232505069
 30
0.0
 10
10.7275383941
 20
2.6807944828
 30
0.0
 10
10.7038399316
 20
2.6394389599
 30
0.0
 10
10.6781178025
 20
2.599283578
 30
0.0
 10
10.6504341072
 20
2.5604250403
 30
0.0
 10
10.6208556422
 20
2.5229569223
 30
0.0
 10
10.5894537516
 20
2.486969443
 30
0.0
 10
10.5563041529
 20
2.4525492541
 30
0.0
 10
10.5214867567
 20
2.4197792351
 30
0.0
 10
10.4850855299
 20
2.3887382315
 30
0.0
 10
10.4471882282
 20
2.359500922
 30
0.0
 10
10.4078861858
 20
2.3321376461
 30
0.0
 10
10.3672741
 20
2.306714235
 30
0.0
 10
10.3254497992
 20
2.2832918709
 30
0.0
 10
10.2825140471
 20
2.2619268719
 30
0.0
 10
10.2385702742
 20
2.2426705838
 30
0.0
 10
10.1937243123
 20
2.2255692976
 30
0.0
 10
10.1480841489
 20
2.2106641292
 30
0.0
 10
10.1017596685
 20
2.1979909362
 30
0.0
 10
10.0548624032
 20
2.1875801943
 30
0.0
 10
10.0075052656
 20
2.1794568875
 30
0.0
 10
9.9598022583
 20
2.1736405271
 30
0.0
 10
9.9118682086
 20
2.1701450924
 30
0.0
 10
9.8638184967
 20
2.1689790022
 30
0.0
 10
9.8157687848
 20
2.1701450932
 30
0.0
 10
9.7678347352
 20
2.1736405284
 30
0.0
 10
9.7201317281
 20
2.1794568894
 30
0.0
 10
9.6727745909
 20
2.1875801967
 30
0.0
 10
9.6258773259
 20
2.1979909392
 30
0.0
 10
9.5795528461
 20
2.2106641328
 30
0.0
 10
9.5339126832
 20
2.2255693016
 30
0.0
 10
9.4890667219
 20
2.2426705882
 30
0.0
 10
9.4451229497
 20
2.2619268765
 30
0.0
 10
9.4021871983
 20
2.2832918758
 30
0.0
 10
9.3603628983
 20
2.3067142402
 30
0.0
 10
9.3197508132
 20
2.3321376513
 30
0.0
 10
9.2804487716
 20
2.3595009272
 30
0.0
 10
9.2425514707
 20
2.3887382365
 30
0.0
 10
9.2061502446
 20
2.41977924
 30
0.0
 10
9.1713328491
 20
2.4525492588
 30
0.0
 10
9.1381832511
 20
2.4869694476
 30
0.0
 10
9.1067813612
 20
2.5229569265
 30
0.0
 10
9.0772028967
 20
2.5604250442
 30
0.0
 10
9.0495192019
 20
2.5992835814
 30
0.0
 10
9.0237970734
 20
2.639438963
 30
0.0
 10
9.0000986113
 20
2.6807944855
 30
0.0
 10
8.9784809972
 20
2.7232505092
 30
0.0
 10
8.958996385
 20
2.7667047252
 30
0.0
 10
8.941691802
 20
2.8110524183
 30
0.0
 10
8.9266090361
 20
2.8561867143
 30
0.0
 10
8.9137845454
 20
2.9019988163
 30
0.0
 10
8.9032492603
 20
2.9483783608
 30
0.0
 10
8.8950287548
 20
2.9952132616
 30
0.0
 10
8.8891425156
 20
3.0423913921
 30
0.0
 10
8.8856052947
 20
3.0897970057
 30
0.0
 10
8.8848185034
 20
3.1214805563
 30
0.0
 10
8.8848185034
 20
3.1373188569
 30
0.0
  0
SPLINE
  5
2C2
100
AcDbEntity
  8
0
100
AcDbSpline
 62
7
  6
CONTINUOUS
 70
0
 71
3
 72
25
 73
21
 74
0
 42
0.0000001
 43
0.0000001
 44
0.0000000001
 40
0.0
 40
0.0
 40
0.0
 40
0.0
 40
0.0623246921
 40
0.0934925706
 40
0.1246614311
 40
0.1870008043
 40
0.2493546888
 40
0.28054195
 40
0.3117345112
 40
0.3741305289
 40
0.4365536294
 40
0.4990073282
 40
0.5614947024
 40
0.6240183528
 40
0.6865803666
 40
0.7491822877
 40
0.8118250968
 40
0.8745091993
 40
0.9372344185
 40
1.0
 40
1.0
 40
1.0
 40
1.0
 10
8.8848185034
 20
3.1600227825
 30
0.0
 10
8.8848185034
 20
3.179166309
 30
0.0
 10
8.8856808655
 20
3.2078930717
 30
0.0
 10
8.888551197
 20
3.2460801765
 30
0.0
 10
8.8925661182
 20
3.2841696836
 30
0.0
 10
8.8997258504
 20
3.3315363249
 30
0.0
 10
8.9097134389
 20
3.3783941936
 30
0.0
 10
8.9193774133
 20
3.4154735082
 30
0.0
 10
8.9301510397
 20
3.4522591161
 30
0.0
 10
8.9456821029
 20
3.4976256324
 30
0.0
 10
8.9675479072
 20
3.5508662496
 30
0.0
 10
8.9925686551
 20
3.6027312733
 30
0.0
 10
9.020655736
 20
3.6530368841
 30
0.0
 10
9.0517102064
 20
3.7016063664
 30
0.0
 10
9.0856225454
 20
3.7482687168
 30
0.0
 10
9.1222732682
 20
3.7928598278
 30
0.0
 10
9.1615330607
 20
3.8352227454
 30
0.0
 10
9.2032641884
 20
3.8752089052
 30
0.0
 10
9.2473174793
 20
3.9126762192
 30
0.0
 10
9.2781267588
 20
3.9358838516
 30
0.0
 10
9.2938616145
 20
3.9470235192
 30
0.0
  0
SPLINE
  5
2C3
100
AcDbEntity
  8
0
100
AcDbSpline
 62
7
  6
CONTINUOUS
 70
0
 71
3
 72
25
 73
21
 74
0
 42
0.0000001
 43
0.0000001
 44
0.0000000001
 40
0.0
 40
0.0
 40
0.0
 40
0.0
 40
0.0627655814
 40
0.1254908004
 40
0.1881749028
 40
0.2508177117
 40
0.3134196326
 40
0.3759816463
 40
0.4385052965
 40
0.5009926705
 40
0.5634463693
 40
0.6258694697
 40
0.6882654875
 40
0.7194580487
 40
0.7506453099
 40
0.8129991946
 40
0.8753385681
 40
0.9065074288
 40
0.9376753074
 40
1.0
 40
1.0
 40
1.0
 40
1.0
 10
10.4337751481
 20
3.9470236922
 30
0.0
 10
10.4495100123
 20
3.9358840258
 30
0.0
 10
10.4803193086
 20
3.9126763951
 30
0.0
 10
10.5243726242
 20
3.8752090812
 30
0.0
 10
10.5661037756
 20
3.8352229193
 30
0.0
 10
10.6053635911
 20
3.7928599975
 30
0.0
 10
10.6420143356
 20
3.7482688803
 30
0.0
 10
10.6759266949
 20
3.7016065217
 30
0.0
 10
10.7069811843
 20
3.6530370294
 30
0.0
 10
10.7350682826
 20
3.6027314071
 30
0.0
 10
10.7600890463
 20
3.5508663703
 30
0.0
 10
10.7819548644
 20
3.4976257386
 30
0.0
 10
10.7974859376
 20
3.4522592092
 30
0.0
 10
10.8082595709
 20
3.4154735903
 30
0.0
 10
10.8179235516
 20
3.3783942644
 30
0.0
 10
10.8279111466
 20
3.331536381
 30
0.0
 10
10.8350708835
 20
3.2841697245
 30
0.0
 10
10.8390858074
 20
3.246080205
 30
0.0
 10
10.8419561408
 20
3.2078930876
 30
0.0
 10
10.8428185034
 20
3.1791663153
 30
0.0
 10
10.8428185034
 20
3.1600227825
 30
0.0
  0
SPLINE
  5
2C4
100
AcDbEntity
  8
0
100
AcDbSpline
 62
7
  6
CONTINUOUS
 70
0
 71
3
 72
57
 73
53
 74
0
 42
0.0000001
 43
0.0000001
 44
0.0000000001
 40
0.0
 40
0.0
 40
0.0
 40
0.0
 40
0.0155472987
 40
0.03109634
 40
0.0466461052
 40
0.0621983817
 40
0.0933029966
 40
0.1244249382
 40
0.1399986721
 40
0.1555784404
 40
0.1711646974
 40
0.186757834
 40
0.2023581755
 40
0.2179659798
 40
0.23358143
 40
0.2492046348
 40
0.2648356309
 40
0.2804743799
 40
0.2961207656
 40
0.3117746
 40
0.3274356259
 40
0.343103515
 40
0.3744489295
 40
0.4058163088
 40
0.4372009371
 40
0.4685974459
 40
0.5000000091
 40
0.531402572
 40
0.5627990803
 40
0.5941837078
 40
0.625551086
 40
0.6568964991
 40
0.6725643874
 40
0.6882254126
 40
0.7038792461
 40
0.719525631
 40
0.7351643791
 40
0.7507953743
 40
0.7664185782
 40
0.7820340275
 40
0.797641831
 40
0.8132421717
 40
0.8288353074
 40
0.8444215637
 40
0.8600013312
 40
0.8755750644
 40
0.906697005
 40
0.937801619
 40
0.9533538952
 40
0.9689036602
 40
0.9844527013
 40
1.0
 40
1.0
 40
1.0
 40
1.0
 10
10.4897515743
 20
3.5415739466
 30
0.0
 10
10.4897515743
 20
3.5314403504
 30
0.0
 10
10.4892482308
 20
3.5111683915
 30
0.0
 10
10.4869857809
 20
3.4808373944
 30
0.0
 10
10.4832204851
 20
3.4506513514
 30
0.0
 10
10.4762107684
 20
3.4107020733
 30
0.0
 10
10.4637405295
 20
3.3614727197
 30
0.0
 10
10.4464539253
 20
3.3137066281
 30
0.0
 10
10.4298441449
 20
3.27665488
 30
0.0
 10
10.4160182066
 20
3.2494938239
 30
0.0
 10
10.4008620637
 20
3.2230382295
 30
0.0
 10
10.3844121014
 20
3.1973509987
 30
0.0
 10
10.366708276
 20
3.1724941612
 30
0.0
 10
10.3477933685
 20
3.1485274839
 30
0.0
 10
10.3277130116
 20
3.1255087225
 30
0.0
 10
10.3065157702
 20
3.1034931961
 30
0.0
 10
10.2842528688
 20
3.0825337821
 30
0.0
 10
10.2609780166
 20
3.0626808913
 30
0.0
 10
10.236747262
 20
3.0439822436
 30
0.0
 10
10.2116193505
 20
3.0264827395
 30
0.0
 10
10.1856539656
 20
3.0102240126
 30
0.0
 10
10.1500027119
 20
2.9902529234
 30
0.0
 10
10.1036454554
 20
2.9685732113
 30
0.0
 10
10.0457360649
 20
2.9480863932
 30
0.0
 10
9.986076167
 20
2.933310133
 30
0.0
 10
9.9252424256
 20
2.9243879042
 30
0.0
 10
9.8638184858
 20
2.9214041458
 30
0.0
 10
9.8023945464
 20
2.9243879073
 30
0.0
 10
9.7415608066
 20
2.9333101401
 30
0.0
 10
9.6819009108
 20
2.948086402
 30
0.0
 10
9.6239915237
 20
2.9685732234
 30
0.0
 10
9.5776342697
 20
2.9902529357
 30
0.0
 10
9.5419830189
 20
3.0102240262
 30
0.0
 10
9.516017636
 20
3.0264827531
 30
0.0
 10
9.4908897263
 20
3.0439822571
 30
0.0
 10
9.4666589737
 20
3.0626809047
 30
0.0
 10
9.4433841236
 20
3.0825337954
 30
0.0
 10
9.421121224
 20
3.1034932086
 30
0.0
 10
9.3999239843
 20
3.1255087342
 30
0.0
 10
9.3798436293
 20
3.1485274951
 30
0.0
 10
9.3609287233
 20
3.1724941713
 30
0.0
 10
9.3432248992
 20
3.1973510078
 30
0.0
 10
9.3267749382
 20
3.2230382376
 30
0.0
 10
9.3116187966
 20
3.2494938309
 30
0.0
 10
9.2977928591
 20
3.2766548859
 30
0.0
 10
9.2811830796
 20
3.3137066327
 30
0.0
 10
9.2638964765
 20
3.3614727228
 30
0.0
 10
9.2514262381
 20
3.4107020749
 30
0.0
 10
9.2444165216
 20
3.4506513522
 30
0.0
 10
9.2406512259
 20
3.4808373948
 30
0.0
 10
9.238388776
 20
3.5111683916
 30
0.0
 10
9.2378854325
 20
3.5314403504
 30
0.0
 10
9.2378854325
 20
3.5415739466
 30
0.0
  0
SPLINE
  5
2C5
100
AcDbEntity
  8
0
100
AcDbSpline
 62
7
  6
CONTINUOUS
 70
0
 71
3
 72
63
 73
59
 74
0
 42
0.0000001
 43
0.0000001
 44
0.0000000001
 40
0.0
 40
0.0
 40
0.0
 40
0.0
 40
0.0155513697
 40
0.031104321
 40
0.0466579777
 40
0.0622140011
 40
0.0933254806
 40
0.1244532106
 40
0.1400293412
 40
0.1556111295
 40
0.1711990033
 40
0.1867933315
 40
0.2023944193
 40
0.2180025078
 40
0.2336177718
 40
0.249240315
 40
0.264870171
 40
0.2805073044
 40
0.2961516097
 40
0.3118029106
 40
0.3274609641
 40
0.3431254642
 40
0.3587960415
 40
0.3744722666
 40
0.3901536578
 40
0.4058396849
 40
0.4215297711
 40
0.4372232997
 40
0.4686088103
 40
0.500000013
 40
0.5313912154
 40
0.5627767253
 40
0.5784702534
 40
0.594160339
 40
0.6098463652
 40
0.6255277556
 40
0.6412039799
 40
0.6568745561
 40
0.672539055
 40
0.6881971075
 40
0.7038484071
 40
0.7194927112
 40
0.7351298434
 40
0.7507596981
 40
0.76638224
 40
0.7819975027
 40
0.79760559
 40
0.8132066765
 40
0.8288010036
 40
0.8443888763
 40
0.8599706636
 40
0.8755467932
 40
0.9066745216
 40
0.9377859999
 40
0.9533420228
 40
0.9688956793
 40
0.9844486303
 40
1.0
 40
1.0
 40
1.0
 40
1.0
 10
10.511126761
 20
3.5266650355
 30
0.0
 10
10.511126761
 20
3.516180307
 30
0.0
 10
10.510606094
 20
3.4952060284
 30
0.0
 10
10.5082656995
 20
3.4638242546
 30
0.0
 10
10.5043707307
 20
3.432592616
 30
0.0
 10
10.4971197308
 20
3.3912600291
 30
0.0
 10
10.48422041
 20
3.340326896
 30
0.0
 10
10.4663392078
 20
3.2909079587
 30
0.0
 10
10.4491583457
 20
3.2525748722
 30
0.0
 10
10.4348574069
 20
3.2244753043
 30
0.0
 10
10.4191808943
 20
3.1971060362
 30
0.0
 10
10.4021664644
 20
3.1705321599
 30
0.0
 10
10.3838554477
 20
3.1448178812
 30
0.0
 10
10.3642922121
 20
3.1200249767
 30
0.0
 10
10.3435240842
 20
3.0962130977
 30
0.0
 10
10.3216012219
 20
3.0734395355
 30
0.0
 10
10.2985766718
 20
3.0517589443
 30
0.0
 10
10.2745060705
 20
3.0312233415
 30
0.0
 10
10.2494474935
 20
3.0118820272
 30
0.0
 10
10.2234613596
 20
2.9937814367
 30
0.0
 10
10.1966103831
 20
2.9769648729
 30
0.0
 10
10.1689592768
 20
2.9614725996
 30
0.0
 10
10.140574603
 20
2.9473417657
 30
0.0
 10
10.1115247126
 20
2.9346062108
 30
0.0
 10
10.0818794782
 20
2.9232963117
 30
0.0
 10
10.0517104656
 20
2.9134391323
 30
0.0
 10
10.0210892175
 20
2.9050582312
 30
0.0
 10
9.9797636468
 20
2.8958797703
 30
0.0
 10
9.9273296457
 20
2.8881869228
 30
0.0
 10
9.8638184772
 20
2.8851020821
 30
0.0
 10
9.8003073095
 20
2.888186928
 30
0.0
 10
9.74787331
 20
2.8958797794
 30
0.0
 10
9.7065477411
 20
2.9050582426
 30
0.0
 10
9.6759264951
 20
2.9134391466
 30
0.0
 10
9.6457574847
 20
2.9232963275
 30
0.0
 10
9.6161122525
 20
2.9346062277
 30
0.0
 10
9.5870623646
 20
2.9473417836
 30
0.0
 10
9.558677694
 20
2.9614726191
 30
0.0
 10
9.5310265904
 20
2.9769648928
 30
0.0
 10
9.5041756166
 20
2.9937814566
 30
0.0
 10
9.4781894858
 20
3.0118820473
 30
0.0
 10
9.4531309121
 20
3.0312233617
 30
0.0
 10
9.4290603134
 20
3.0517589637
 30
0.0
 10
9.4060357659
 20
3.0734395539
 30
0.0
 10
9.3841129066
 20
3.0962131154
 30
0.0
 10
9.3633447813
 20
3.1200249933
 30
0.0
 10
9.3437815478
 20
3.1448178962
 30
0.0
 10
9.3254705331
 20
3.1705321734
 30
0.0
 10
9.3084561054
 20
3.1971060483
 30
0.0
 10
9.2927795943
 20
3.2244753148
 30
0.0
 10
9.2784786569
 20
3.252574881
 30
0.0
 10
9.2612977963
 20
3.2909079656
 30
0.0
 10
9.2434165955
 20
3.3403269006
 30
0.0
 10
9.2305172755
 20
3.3912600316
 30
0.0
 10
9.2232662759
 20
3.4325926172
 30
0.0
 10
9.2193713073
 20
3.4638242552
 30
0.0
 10
9.2170309128
 20
3.4952060286
 30
0.0
 10
9.2165102458
 20
3.5161803071
 30
0.0
 10
9.2165102458
 20
3.5266650355
 30
0.0
  0
SPLINE
  5
2C6
100
AcDbEntity
  8
0
100
AcDbSpline
 62
7
  6
CONTINUOUS
 70
0
 71
3
 72
31
 73
27
 74
0
 42
0.0000001
 43
0.0000001
 44
0.0000000001
 40
0.0
 40
0.0
 40
0.0
 40
0.0
 40
0.062456473
 40
0.1249464086
 40
0.1874668439
 40
0.2499932285
 40
0.2812586891
 40
0.3125159006
 40
0.3437637726
 40
0.3750032371
 40
0.4062378138
 40
0.4374736956
 40
0.4687161879
 40
0.4999677294
 40
0.5624780426
 40
0.62500562
 40
0.6875215952
 40
0.7187770089
 40
0.7500230887
 40
0.7812612285
 40
0.7968797225
 40
0.8124980223
 40
0.8437348753
 40
0.8749790292
 40
0.9374761004
 40
1.0
 40
1.0
 40
1.0
 40
1.0
 10
9.8638185034
 20
12.2332956846
 30
0.0
 10
9.8451938167
 20
12.2332956846
 30
0.0
 10
9.8079087331
 20
12.2314032563
 30
0.0
 10
9.7525455389
 20
12.2230611371
 30
0.0
 10
9.6982299004
 20
12.2093889538
 30
0.0
 10
9.6542576417
 20
12.1936879623
 30
0.0
 10
9.6201288891
 20
12.1786325182
 30
0.0
 10
9.5951134015
 20
12.1661111781
 30
0.0
 10
9.5707488319
 20
12.1523828347
 30
0.0
 10
9.5470991202
 20
12.1374685072
 30
0.0
 10
9.5242304928
 20
12.1213876871
 30
0.0
 10
9.5022057219
 20
12.1041681837
 30
0.0
 10
9.4810629649
 20
12.0858683441
 30
0.0
 10
9.4541058549
 20
12.0601044588
 30
0.0
 10
9.422806589
 20
12.0254638024
 30
0.0
 10
9.3894355328
 20
11.9804791326
 30
0.0
 10
9.3653571798
 20
11.9404781363
 30
0.0
 10
9.3485068656
 20
11.907209233
 30
0.0
 10
9.3371110452
 20
11.8816714526
 30
0.0
 10
9.3286839185
 20
11.8599478815
 30
0.0
 10
9.3226052476
 20
11.8423354113
 30
0.0
 10
9.3169752628
 20
11.8245749064
 30
0.0
 10
9.3107801977
 20
11.8021131315
 30
0.0
 10
9.302668479
 20
11.7657248065
 30
0.0
 10
9.2958992574
 20
11.7195422175
 30
0.0
 10
9.2940830825
 20
11.682238267
 30
0.0
 10
9.2940735165
 20
11.663593476
 30
0.0
  0
SPLINE
  5
2C7
100
AcDbEntity
  8
0
100
AcDbSpline
 62
7
  6
CONTINUOUS
 70
0
 71
3
 72
31
 73
27
 74
0
 42
0.0000001
 43
0.0000001
 44
0.0000000001
 40
0.0
 40
0.0
 40
0.0
 40
0.0
 40
0.0625239189
 40
0.1250210407
 40
0.1562652198
 40
0.1875020877
 40
0.2031203887
 40
0.2187388791
 40
0.2499770008
 40
0.2812230564
 40
0.3124784463
 40
0.3749943865
 40
0.437521961
 40
0.5000322956
 40
0.5312838522
 40
0.5625263567
 40
0.5937622442
 40
0.6249968171
 40
0.6562362717
 40
0.6874841321
 40
0.7187413332
 40
0.7500067862
 40
0.8125331612
 40
0.875053596
 40
0.9375435316
 40
1.0
 40
1.0
 40
1.0
 40
1.0
 10
10.4335635324
 20
11.6634954345
 30
0.0
 10
10.4335571151
 20
11.6821422744
 30
0.0
 10
10.431746845
 20
11.7194506411
 30
0.0
 10
10.424984024
 20
11.7656393751
 30
0.0
 10
10.4168768352
 20
11.802032922
 30
0.0
 10
10.4106843521
 20
11.8244980699
 30
0.0
 10
10.405056291
 20
11.8422613289
 30
0.0
 10
10.3989794163
 20
11.8598765713
 30
0.0
 10
10.3905542816
 20
11.8816036405
 30
0.0
 10
10.3791604644
 20
11.9071456498
 30
0.0
 10
10.362312322
 20
11.9404202065
 30
0.0
 10
10.3382357784
 20
11.9804282603
 30
0.0
 10
10.3048655663
 20
12.0254212089
 30
0.0
 10
10.2735659815
 20
12.060068502
 30
0.0
 10
10.246608054
 20
12.0858374659
 30
0.0
 10
10.2254644138
 20
12.1041409823
 30
0.0
 10
10.2034385071
 20
12.1213640134
 30
0.0
 10
10.1805684918
 20
12.1374481828
 30
0.0
 10
10.1569171287
 20
12.1523656231
 30
0.0
 10
10.1325506749
 20
12.1660968468
 30
0.0
 10
10.1075330889
 20
12.1786208251
 30
0.0
 10
10.0734012833
 20
12.1936794554
 30
0.0
 10
10.0294247774
 20
12.2093837935
 30
0.0
 10
9.9751035376
 20
12.2230589141
 30
0.0
 10
9.919734399
 20
12.2314028416
 30
0.0
 10
9.8824452283
 20
12.2332956846
 30
0.0
 10
9.8638185034
 20
12.2332956846
 30
0.0
  0
SPLINE
  5
2C8
100
AcDbEntity
  8
0
100
AcDbSpline
 62
7
  6
CONTINUOUS
 70
0
 71
3
 72
11
 73
7
 74
0
 42
0.0000001
 43
0.0000001
 44
0.0000000001
 40
0.0
 40
0.0
 40
0.0
 40
0.0
 40
0.2521333593
 40
0.5029369852
 40
0.7522604516
 40
1.0
 40
1.0
 40
1.0
 40
1.0
 10
10.5237290021
 20
3.5046857991
 30
0.0
 10
10.5237289166
 20
3.5225539571
 30
0.0
 10
10.5227102726
 20
3.5582046361
 30
0.0
 10
10.5181099229
 20
3.6113458903
 30
0.0
 10
10.5104710506
 20
3.6638215628
 30
0.0
 10
10.5033595704
 20
3.698346454
 30
0.0
 10
10.4993114054
 20
3.7154301542
 30
0.0
  0
LINE
  5
2C9
100
AcDbEntity
  8
0
100
AcDbLine
 62
9
  6
CONTINUOUS
 10
8.8860914553
 20
10.7104858785
 11
8.832931454
 21
10.6440492781
  0
SPLINE
  5
2CA
100
AcDbEntity
  8
0
100
AcDbSpline
 62
9
  6
CONTINUOUS
 70
0
 71
3
 72
11
 73
7
 74
0
 42
0.0000001
 43
0.0000001
 44
0.0000000001
 40
0.0
 40
0.0
 40
0.0
 40
0.0
 40
0.2467377961
 40
0.4958704564
 40
0.7471574677
 40
1.0
 40
1.0
 40
1.0
 40
1.0
 10
8.9072056789
 20
12.6199085091
 30
0.0
 10
8.8959604151
 20
12.5504912881
 30
0.0
 10
8.8757728079
 20
12.4105800357
 30
0.0
 10
8.8527423795
 20
12.1988405235
 30
0.0
 10
8.8371394398
 20
11.984678081
 30
0.0
 10
8.8319106508
 20
11.8410544548
 30
0.0
 10
8.8306140503
 20
11.7690040613
 30
0.0
  0
SPLINE
  5
2CB
100
AcDbEntity
  8
0
100
AcDbSpline
 62
9
  6
CONTINUOUS
 70
0
 71
3
 72
11
 73
7
 74
0
 42
0.0000001
 43
0.0000001
 44
0.0000000001
 40
0.0
 40
0.0
 40
0.0
 40
0.0
 40
0.2528425673
 40
0.5041295825
 40
0.7532622412
 40
1.0
 40
1.0
 40
1.0
 40
1.0
 10
9.7581101267
 20
12.6965001378
 30
0.0
 10
9.6860597234
 20
12.6952035398
 30
0.0
 10
9.5424360865
 20
12.6899747526
 30
0.0
 10
9.3282736316
 20
12.6743718235
 30
0.0
 10
9.1165341407
 20
12.6513413027
 30
0.0
 10
8.97662289
 20
12.6311537673
 30
0.0
 10
8.9072056789
 20
12.6199085091
 30
0.0
  0
LINE
  5
2CC
100
AcDbEntity
  8
0
100
AcDbLine
 62
9
  6
CONTINUOUS
 10
10.885690482
 20
10.6168283162
 11
10.8830649116
 21
10.6324086356
  0
SPLINE
  5
2CD
100
AcDbEntity
  8
0
100
AcDbSpline
 62
9
  6
CONTINUOUS
 70
0
 71
3
 72
18
 73
14
 74
0
 42
0.0000001
 43
0.0000001
 44
0.0000000001
 40
0.0
 40
0.0
 40
0.0
 40
0.0
 40
0.1778054783
 40
0.345768463
 40
0.5009391758
 40
0.6405925587
 40
0.7622798929
 40
0.8157053164
 40
0.8638652149
 40
0.906548909
 40
0.943569448
 40
0.9747647972
 40
1.0
 40
1.0
 40
1.0
 40
1.0
 10
12.5097262015
 20
11.7612327205
 30
0.0
 10
12.5097775385
 20
11.7763982969
 30
0.0
 10
12.5099019306
 20
11.8058898782
 30
0.0
 10
12.5101620965
 20
11.8486160008
 30
0.0
 10
12.5104865696
 20
11.8880874653
 30
0.0
 10
12.5108697395
 20
11.9236111845
 30
0.0
 10
12.5112448089
 20
11.9504561664
 30
0.0
 10
12.5115765534
 20
11.9694970157
 30
0.0
 10
12.5118243406
 20
11.9817997588
 30
0.0
 10
12.5120806849
 20
11.9927027566
 30
0.0
 10
12.5123440601
 20
12.0021581566
 30
0.0
 10
12.5126129442
 20
12.0101244376
 30
0.0
 10
12.5128154763
 20
12.0149334612
 30
0.0
 10
12.5129224357
 20
12.0170832024
 30
0.0
  0
SPLINE
  5
2CE
100
AcDbEntity
  8
0
100
AcDbSpline
 62
9
  6
CONTINUOUS
 70
0
 71
3
 72
21
 73
17
 74
0
 42
0.0000001
 43
0.0000001
 44
0.0000000001
 40
0.0
 40
0.0
 40
0.0
 40
0.0
 40
0.2314570986
 40
0.4325642605
 40
0.6031546834
 40
0.7431248579
 40
0.8016049801
 40
0.852408027
 40
0.8955398802
 40
0.931025262
 40
0.9589149812
 40
0.97004548
 40
0.9793313134
 40
0.9868202471
 40
0.992605372
 40
1.0
 40
1.0
 40
1.0
 40
1.0
 10
12.5129224357
 20
12.0170832024
 30
0.0
 10
12.5129620136
 20
12.0178786659
 30
0.0
 10
12.5130403815
 20
12.0193650753
 30
0.0
 10
12.5131665325
 20
12.0214367363
 30
0.0
 10
12.5132928901
 20
12.0231928889
 30
0.0
 10
12.5134033998
 20
12.0244580446
 30
0.0
 10
12.5134943679
 20
12.0253109197
 30
0.0
 10
12.5135583929
 20
12.0258314874
 30
0.0
 10
12.5136221946
 20
12.026272281
 30
0.0
 10
12.513685791
 20
12.0266332855
 30
0.0
 10
12.5137414513
 20
12.0268836886
 30
0.0
 10
12.5137878682
 20
12.0270434656
 30
0.0
 10
12.5138196062
 20
12.0271339271
 30
0.0
 10
12.513852046
 20
12.0272053118
 30
0.0
 10
12.5138875705
 20
12.0272648517
 30
0.0
 10
12.5139277007
 20
12.0272997001
 30
0.0
 10
12.5139531458
 20
12.0272996817
 30
0.0
  0
LINE
  5
2CF
100
AcDbEntity
  8
0
100
AcDbLine
 62
9
  6
CONTINUOUS
 10
10.9102858719
 20
12.6851676632
 11
10.8947055613
 21
12.682542104
  0
SPLINE
  5
2D0
100
AcDbEntity
  8
0
100
AcDbSpline
 62
9
  6
CONTINUOUS
 70
0
 71
3
 72
21
 73
17
 74
0
 42
0.0000001
 43
0.0000001
 44
0.0000000001
 40
0.0
 40
0.0
 40
0.0
 40
0.0
 40
0.0074135695
 40
0.0132044303
 40
0.0206975766
 40
0.0299865795
 40
0.0411194776
 40
0.0690122292
 40
0.1044987822
 40
0.1476301537
 40
0.1984311961
 40
0.2569081683
 40
0.396869771
 40
0.5674503558
 40
0.7685487395
 40
1.0
 40
1.0
 40
1.0
 40
1.0
 10
12.5139531458
 20
11.2992916876
 30
0.0
 10
12.5139278217
 20
11.2992916658
 30
0.0
 10
12.5138878472
 20
11.299326201
 30
0.0
 10
12.5138524237
 20
11.2993853449
 30
0.0
 10
12.5138201057
 20
11.2994562003
 30
0.0
 10
12.5137884832
 20
11.299545999
 30
0.0
 10
12.5137422408
 20
11.2997045921
 30
0.0
 10
12.5136867867
 20
11.2999531484
 30
0.0
 10
12.5136234259
 20
11.3003114909
 30
0.0
 10
12.5135598591
 20
11.3007490301
 30
0.0
 10
12.5134960679
 20
11.3012657507
 30
0.0
 10
12.5134054299
 20
11.302112319
 30
0.0
 10
12.5132953168
 20
11.3033681326
 30
0.0
 10
12.5131694104
 20
11.3051113422
 30
0.0
 10
12.5130437113
 20
11.3071677723
 30
0.0
 10
12.5129656239
 20
11.3086432687
 30
0.0
 10
12.5129261867
 20
11.3094328996
 30
0.0
  0
SPLINE
  5
2D1
100
AcDbEntity
  8
0
100
AcDbSpline
 62
9
  6
CONTINUOUS
 70
0
 71
3
 72
18
 73
14
 74
0
 42
0.0000001
 43
0.0000001
 44
0.0000000001
 40
0.0
 40
0.0
 40
0.0
 40
0.0
 40
0.0251713662
 40
0.0563124243
 40
0.093288352
 40
0.1359370792
 40
0.1840714786
 40
0.2374805651
 40
0.3591608867
 40
0.4988406094
 40
0.6540639215
 40
0.8221021609
 40
1.0
 40
1.0
 40
1.0
 40
1.0
 10
12.5129261867
 20
11.3094328996
 30
0.0
 10
12.5128190621
 20
11.3115777981
 30
0.0
 10
12.5126162823
 20
11.3163781084
 30
0.0
 10
12.5123471278
 20
11.3243327775
 30
0.0
 10
12.512083475
 20
11.3337794609
 30
0.0
 10
12.5118268515
 20
11.3446766167
 30
0.0
 10
12.5115787837
 20
11.3569763336
 30
0.0
 10
12.5112466328
 20
11.3760184755
 30
0.0
 10
12.5108709319
 20
11.4028714126
 30
0.0
 10
12.5104875615
 20
11.4384114663
 30
0.0
 10
12.5101624384
 20
11.4779074137
 30
0.0
 10
12.5099018984
 20
11.5206645896
 30
0.0
 10
12.5097774602
 20
11.5501789384
 30
0.0
 10
12.5097262235
 20
11.5653567491
 30
0.0
  0
LINE
  5
2D2
100
AcDbEntity
  8
0
100
AcDbLine
 62
9
  6
CONTINUOUS
 10
8.8419465248
 20
12.7097630531
 11
8.8445720956
 21
12.6941827338
  0
LINE
  5
2D3
100
AcDbEntity
  8
0
100
AcDbLine
 62
9
  6
CONTINUOUS
 10
8.8173511349
 20
10.641423706
 11
8.8329314543
 21
10.6440492765
  0
SPLINE
  5
2D4
100
AcDbEntity
  8
0
100
AcDbSpline
 62
9
  6
CONTINUOUS
 70
0
 71
3
 72
11
 73
7
 74
0
 42
0.0000001
 43
0.0000001
 44
0.0000000001
 40
0.0
 40
0.0
 40
0.0
 40
0.0
 40
0.2479309655
 40
0.4999995458
 40
0.7520685613
 40
1.0
 40
1.0
 40
1.0
 40
1.0
 10
10.8947062822
 20
10.6440515129
 30
0.0
 10
10.8938581415
 20
10.6429840601
 30
0.0
 10
10.8920826066
 20
10.6408823474
 30
0.0
 10
10.8892392572
 20
10.6378763853
 30
0.0
 10
10.8862334979
 20
10.6350328179
 30
0.0
 10
10.8841319134
 20
10.6332571236
 30
0.0
 10
10.8830645206
 20
10.6324089032
 30
0.0
  0
SPLINE
  5
2D5
100
AcDbEntity
  8
0
100
AcDbSpline
 62
9
  6
CONTINUOUS
 70
0
 71
3
 72
11
 73
7
 74
0
 42
0.0000001
 43
0.0000001
 44
0.0000000001
 40
0.0
 40
0.0
 40
0.0
 40
0.0
 40
0.2479311501
 40
0.4999996707
 40
0.7520686097
 40
1.0
 40
1.0
 40
1.0
 40
1.0
 10
10.883062687
 20
12.6941834518
 30
0.0
 10
10.88413014
 20
12.6933353121
 30
0.0
 10
10.8862318915
 20
12.6915598281
 30
0.0
 10
10.8892378657
 20
12.6887164947
 30
0.0
 10
10.8920814052
 20
12.6857107172
 30
0.0
 10
10.8938570976
 20
12.6836091363
 30
0.0
 10
10.8947053137
 20
12.6825417423
 30
0.0
  0
LINE
  5
2D6
100
AcDbEntity
  8
0
100
AcDbLine
 62
9
  6
CONTINUOUS
 10
8.9110086565
 20
10.6855686856
 11
8.8445746872
 21
10.6324082035
  0
SPLINE
  5
2D7
100
AcDbEntity
  8
0
100
AcDbSpline
 62
9
  6
CONTINUOUS
 70
0
 71
3
 72
11
 73
7
 74
0
 42
0.0000001
 43
0.0000001
 44
0.0000000001
 40
0.0
 40
0.0
 40
0.0
 40
0.0
 40
0.2479309656
 40
0.499999546
 40
0.7520685614
 40
1.0
 40
1.0
 40
1.0
 40
1.0
 10
8.8329307248
 20
12.6825398565
 30
0.0
 10
8.8337788655
 20
12.6836073094
 30
0.0
 10
8.8355544004
 20
12.685709022
 30
0.0
 10
8.8383977498
 20
12.6887149842
 30
0.0
 10
8.8414035091
 20
12.6915585515
 30
0.0
 10
8.8435050936
 20
12.6933342459
 30
0.0
 10
8.8445724865
 20
12.6941824662
 30
0.0
  0
LINE
  5
2D8
100
AcDbEntity
  8
0
100
AcDbLine
 62
9
  6
CONTINUOUS
 10
10.8166283096
 20
10.6855686365
 11
10.8830649099
 21
10.6324086353
  0
SPLINE
  5
2D9
100
AcDbEntity
  8
0
100
AcDbSpline
 62
9
  6
CONTINUOUS
 70
0
 71
3
 72
11
 73
7
 74
0
 42
0.0000001
 43
0.0000001
 44
0.0000000001
 40
0.0
 40
0.0
 40
0.0
 40
0.0
 40
0.2479309662
 40
0.4999995463
 40
0.7520685615
 40
1.0
 40
1.0
 40
1.0
 40
1.0
 10
8.8445743317
 20
10.6324079059
 30
0.0
 10
8.8435068788
 20
10.6332560466
 30
0.0
 10
8.841405166
 20
10.6350315813
 30
0.0
 10
8.8383992038
 20
10.6378749306
 30
0.0
 10
8.8355556366
 20
10.64088069
 30
0.0
 10
8.8337799422
 20
10.6429822745
 30
0.0
 10
8.8329317219
 20
10.6440496674
 30
0.0
  0
LINE
  5
2DA
100
AcDbEntity
  8
0
100
AcDbLine
 62
9
  6
CONTINUOUS
 10
10.8415455025
 20
10.7104858377
 11
10.8947059846
 21
10.6440518685
  0
SPLINE
  5
2DB
100
AcDbEntity
  8
0
100
AcDbSpline
 62
9
  6
CONTINUOUS
 70
0
 71
3
 72
11
 73
7
 74
0
 42
0.0000001
 43
0.0000001
 44
0.0000000001
 40
0.0
 40
0.0
 40
0.0
 40
0.0
 40
0.2477393304
 40
0.4970631842
 40
0.7478667199
 40
1.0
 40
1.0
 40
1.0
 40
1.0
 10
9.2283217895
 20
3.7154140675
 30
0.0
 10
9.2242742594
 20
3.6983316353
 30
0.0
 10
9.2171638924
 20
3.6638093041
 30
0.0
 10
9.2095262018
 20
3.6113376234
 30
0.0
 10
9.2049265889
 20
3.5582004569
 30
0.0
 10
9.2039080729
 20
3.5225525626
 30
0.0
 10
9.2039080048
 20
3.5046857991
 30
0.0
  0
LINE
  5
2DC
100
AcDbEntity
  8
0
100
AcDbLine
 62
9
  6
CONTINUOUS
 10
12.5826915878
 20
11.3265021024
 11
12.5984934055
 21
11.3314014439
  0
LINE
  5
2DD
100
AcDbEntity
  8
0
100
AcDbLine
 62
9
  6
CONTINUOUS
 10
12.5826915878
 20
12.0000892669
 11
12.5984934049
 21
11.9951899243
  0
SPLINE
  5
2DE
100
AcDbEntity
  8
0
100
AcDbSpline
 62
9
  6
CONTINUOUS
 70
0
 71
3
 72
26
 73
22
 74
0
 42
0.0000001
 43
0.0000001
 44
0.0000000001
 40
0.0
 40
0.0
 40
0.0
 40
0.0
 40
0.2115898425
 40
0.4056328169
 40
0.494641051
 40
0.5776683753
 40
0.654270105
 40
0.7240218449
 40
0.7865199589
 40
0.8414402736
 40
0.8884812668
 40
0.9273891534
 40
0.9437372884
 40
0.9579879263
 40
0.9701237983
 40
0.9801377927
 40
0.988040617
 40
0.9938652704
 40
0.9960273072
 40
0.9977231242
 40
1.0
 40
1.0
 40
1.0
 40
1.0
 10
9.7581101267
 20
12.6965001378
 30
0.0
 10
9.7581050698
 20
12.6978362181
 30
0.0
 10
9.7581025605
 20
12.7003976137
 30
0.0
 10
9.7581201616
 20
12.7035210201
 30
0.0
 10
9.758147763
 20
12.7058324752
 30
0.0
 10
9.7581738897
 20
12.7074022915
 30
0.0
 10
9.7582058554
 20
12.7088503782
 30
0.0
 10
9.7582434352
 20
12.710168653
 30
0.0
 10
9.7582864409
 20
12.7113497755
 30
0.0
 10
9.7583344879
 20
12.7123871714
 30
0.0
 10
9.7583872631
 20
12.7132751524
 30
0.0
 10
9.7584371464
 20
12.7139192483
 30
0.0
 10
9.75848065
 20
12.7143560067
 30
0.0
 10
9.7585123106
 20
12.7146240122
 30
0.0
 10
9.7585448816
 20
12.7148515749
 30
0.0
 10
9.7585781002
 20
12.7150384661
 30
0.0
 10
9.7586121515
 20
12.7151845761
 30
0.0
 10
9.7586424673
 20
12.7152803519
 30
0.0
 10
9.7586693817
 20
12.7153357671
 30
0.0
 10
9.7586900809
 20
12.7153676959
 30
0.0
 10
9.7587128666
 20
12.7153853333
 30
0.0
 10
9.7587272419
 20
12.7153855823
 30
0.0
  0
SPLINE
  5
2DF
100
AcDbEntity
  8
0
100
AcDbSpline
 62
9
  6
CONTINUOUS
 70
0
 71
3
 72
20
 73
16
 74
0
 42
0.0000001
 43
0.0000001
 44
0.0000000001
 40
0.0
 40
0.0
 40
0.0
 40
0.0
 40
0.1914499554
 40
0.3690550524
 40
0.52887907
 40
0.6011670475
 40
0.667923482
 40
0.7288754829
 40
0.7838641559
 40
0.8328176705
 40
0.8758125942
 40
0.9131609744
 40
0.9454769961
 40
0.9738598822
 40
1.0
 40
1.0
 40
1.0
 40
1.0
 10
10.8204313279
 20
10.7066828601
 30
0.0
 10
10.8218566414
 20
10.7065796487
 30
0.0
 10
10.8246088384
 20
10.7064374308
 30
0.0
 10
10.8285580593
 20
10.7064221957
 30
0.0
 10
10.8316145124
 20
10.7065839136
 30
0.0
 10
10.8338326172
 20
10.7068270608
 30
0.0
 10
10.8353088272
 20
10.7070528365
 30
0.0
 10
10.8366453933
 20
10.7073270285
 30
0.0
 10
10.8378347011
 20
10.7076475801
 30
0.0
 10
10.8388703435
 20
10.7080126434
 30
0.0
 10
10.8397470085
 20
10.708420824
 30
0.0
 10
10.8404610479
 20
10.7088705069
 30
0.0
 10
10.8410087926
 20
10.709363031
 30
0.0
 10
10.8413846109
 20
10.7098995812
 30
0.0
 10
10.8415149066
 20
10.7102931361
 30
0.0
 10
10.8415455445
 20
10.7104858342
 30
0.0
  0
LINE
  5
2E0
100
AcDbEntity
  8
0
100
AcDbLine
 62
9
  6
CONTINUOUS
 10
13.2696120856
 20
12.0134226002
 11
13.2647127431
 21
11.9976207831
  0
LINE
  5
2E1
100
AcDbEntity
  8
0
100
AcDbLine
 62
9
  6
CONTINUOUS
 10
12.5960249213
 20
12.0134226003
 11
12.6009235573
 21
11.9976204248
  0
SPLINE
  5
2E2
100
AcDbEntity
  8
0
100
AcDbSpline
 62
9
  6
CONTINUOUS
 70
0
 71
3
 72
26
 73
22
 74
0
 42
0.0000001
 43
0.0000001
 44
0.0000000001
 40
0.0
 40
0.0
 40
0.0
 40
0.0
 40
0.2115898423
 40
0.4056328166
 40
0.4946410507
 40
0.5776683749
 40
0.6542701045
 40
0.7240218444
 40
0.7865199584
 40
0.8414402731
 40
0.8884812662
 40
0.9273891528
 40
0.9437372879
 40
0.9579879257
 40
0.9701237978
 40
0.9801377922
 40
0.9880406166
 40
0.99386527
 40
0.996027307
 40
0.997723124
 40
1.0
 40
1.0
 40
1.0
 40
1.0
 10
8.8306140503
 20
11.557587308
 30
0.0
 10
8.82927797
 20
11.5575822511
 30
0.0
 10
8.8267165744
 20
11.5575797417
 30
0.0
 10
8.823593168
 20
11.5575973428
 30
0.0
 10
8.8212817129
 20
11.5576249442
 30
0.0
 10
8.8197118966
 20
11.5576510709
 30
0.0
 10
8.8182638099
 20
11.5576830366
 30
0.0
 10
8.8169455351
 20
11.5577206164
 30
0.0
 10
8.8157644125
 20
11.557763622
 30
0.0
 10
8.8147270166
 20
11.5578116691
 30
0.0
 10
8.8138390356
 20
11.5578644443
 30
0.0
 10
8.8131949398
 20
11.5579143276
 30
0.0
 10
8.8127581814
 20
11.5579578312
 30
0.0
 10
8.8124901758
 20
11.5579894918
 30
0.0
 10
8.8122626132
 20
11.5580220629
 30
0.0
 10
8.8120757219
 20
11.5580552814
 30
0.0
 10
8.811929612
 20
11.5580893327
 30
0.0
 10
8.8118338362
 20
11.5581196486
 30
0.0
 10
8.811778421
 20
11.5581465629
 30
0.0
 10
8.8117464922
 20
11.5581672621
 30
0.0
 10
8.8117288547
 20
11.5581900479
 30
0.0
 10
8.8117286057
 20
11.5582044231
 30
0.0
  0
SPLINE
  5
2E3
100
AcDbEntity
  8
0
100
AcDbSpline
 62
7
  6
CONTINUOUS
 70
0
 71
3
 72
30
 73
26
 74
0
 42
0.0000001
 43
0.0000001
 44
0.0000000001
 40
0.0
 40
0.0
 40
0.0
 40
0.0
 40
0.062132367
 40
0.1242777574
 40
0.1553692011
 40
0.186469265
 40
0.2020241394
 40
0.2175817929
 40
0.2487036906
 40
0.279838274
 40
0.3109867282
 40
0.3733104071
 40
0.4356989636
 40
0.4981558027
 40
0.5294198088
 40
0.5607016164
 40
0.5920011915
 40
0.6233180869
 40
0.6546519367
 40
0.6860014412
 40
0.7487251571
 40
0.8114985047
 40
0.8743103893
 40
0.9371482155
 40
1.0
 40
1.0
 40
1.0
 40
1.0
 10
9.2940734317
 20
3.5475031165
 30
0.0
 10
9.2940734317
 20
3.529075859
 30
0.0
 10
9.2958706642
 20
3.4921939335
 30
0.0
 10
9.3026176629
 20
3.4465319606
 30
0.0
 10
9.3107148928
 20
3.4105428547
 30
0.0
 10
9.3169044957
 20
3.3883195051
 30
0.0
 10
9.3225316444
 20
3.3707456884
 30
0.0
 10
9.3286094107
 20
3.3533156428
 30
0.0
 10
9.3370362872
 20
3.3318197001
 30
0.0
 10
9.3484310213
 20
3.3065567849
 30
0.0
 10
9.3652793241
 20
3.2736510209
 30
0.0
 10
9.3893534857
 20
3.2340955044
 30
0.0
 10
9.4227112161
 20
3.189622937
 30
0.0
 10
9.4539933078
 20
3.1553818419
 30
0.0
 10
9.4809436344
 20
3.1299059894
 30
0.0
 10
9.5020964155
 20
3.1117984623
 30
0.0
 10
9.5241367171
 20
3.0947571181
 30
0.0
 10
9.5470230971
 20
3.0788429179
 30
0.0
 10
9.5706895857
 20
3.0640854381
 30
0.0
 10
9.6031917624
 20
3.0459783636
 30
0.0
 10
9.6454449493
 20
3.0263331932
 30
0.0
 10
9.6981864228
 20
3.0077152925
 30
0.0
 10
9.7524985768
 20
2.9941959675
 30
0.0
 10
9.8078754049
 20
2.9859431528
 30
0.0
 10
9.8451778807
 20
2.9840702102
 30
0.0
 10
9.8638185034
 20
2.9840702102
 30
0.0
  0
SPLINE
  5
2E4
100
AcDbEntity
  8
0
100
AcDbSpline
 62
9
  6
CONTINUOUS
 70
0
 71
3
 72
20
 73
16
 74
0
 42
0.0000001
 43
0.0000001
 44
0.0000000001
 40
0.0
 40
0.0
 40
0.0
 40
0.0
 40
0.1914499554
 40
0.3690550524
 40
0.52887907
 40
0.6011670475
 40
0.667923482
 40
0.7288754829
 40
0.7838641559
 40
0.8328176705
 40
0.8758125942
 40
0.9131609744
 40
0.9454769961
 40
0.9738598822
 40
1.0
 40
1.0
 40
1.0
 40
1.0
 10
8.9072056789
 20
12.6199085092
 30
0.0
 10
8.9057803654
 20
12.6200117206
 30
0.0
 10
8.9030281684
 20
12.6201539385
 30
0.0
 10
8.8990789475
 20
12.6201691736
 30
0.0
 10
8.8960224944
 20
12.6200074557
 30
0.0
 10
8.8938043896
 20
12.6197643085
 30
0.0
 10
8.8923281797
 20
12.6195385328
 30
0.0
 10
8.8909916136
 20
12.6192643408
 30
0.0
 10
8.8898023057
 20
12.6189437892
 30
0.0
 10
8.8887666633
 20
12.6185787259
 30
0.0
 10
8.8878899983
 20
12.6181705453
 30
0.0
 10
8.887175959
 20
12.6177208624
 30
0.0
 10
8.8866282142
 20
12.6172283383
 30
0.0
 10
8.8862523959
 20
12.6166917881
 30
0.0
 10
8.8861221002
 20
12.6162982332
 30
0.0
 10
8.8860914623
 20
12.6161055351
 30
0.0
  0
SPLINE
  5
2E5
100
AcDbEntity
  8
0
100
AcDbSpline
 62
9
  6
CONTINUOUS
 70
0
 71
3
 72
26
 73
22
 74
0
 42
0.0000001
 43
0.0000001
 44
0.0000000001
 40
0.0
 40
0.0
 40
0.0
 40
0.0
 40
0.2115898388
 40
0.4056328095
 40
0.4946410419
 40
0.5776683644
 40
0.6542700924
 40
0.7240218308
 40
0.7865199433
 40
0.8414402568
 40
0.888481249
 40
0.927389135
 40
0.9437372699
 40
0.9579879079
 40
0.9701237804
 40
0.9801377756
 40
0.9880406014
 40
0.9938652573
 40
0.9960272961
 40
0.9977231156
 40
1.0
 40
1.0
 40
1.0
 40
1.0
 10
9.9695268801
 20
12.6965001378
 30
0.0
 10
9.969531937
 20
12.6978362181
 30
0.0
 10
9.9695344462
 20
12.7003976137
 30
0.0
 10
9.9695168453
 20
12.7035210201
 30
0.0
 10
9.9694892441
 20
12.7058324752
 30
0.0
 10
9.9694631175
 20
12.7074022915
 30
0.0
 10
9.969431152
 20
12.7088503781
 30
0.0
 10
9.9693935723
 20
12.710168653
 30
0.0
 10
9.9693505668
 20
12.7113497755
 30
0.0
 10
9.9693025198
 20
12.7123871714
 30
0.0
 10
9.9692497446
 20
12.7132751524
 30
0.0
 10
9.9691998614
 20
12.7139192483
 30
0.0
 10
9.9691563577
 20
12.7143560067
 30
0.0
 10
9.9691246971
 20
12.7146240122
 30
0.0
 10
9.9690921259
 20
12.7148515749
 30
0.0
 10
9.9690589073
 20
12.7150384661
 30
0.0
 10
9.9690248559
 20
12.7151845761
 30
0.0
 10
9.9689945399
 20
12.7152803519
 30
0.0
 10
9.9689676254
 20
12.7153357671
 30
0.0
 10
9.9689469261
 20
12.7153676959
 30
0.0
 10
9.9689241402
 20
12.7153853333
 30
0.0
 10
9.9689097649
 20
12.7153855823
 30
0.0
  0
SPLINE
  5
2E6
100
AcDbEntity
  8
0
100
AcDbSpline
 62
9
  6
CONTINUOUS
 70
0
 71
3
 72
20
 73
16
 74
0
 42
0.0000001
 43
0.0000001
 44
0.0000000001
 40
0.0
 40
0.0
 40
0.0
 40
0.0
 40
0.1914499456
 40
0.369055035
 40
0.5288790534
 40
0.6011670304
 40
0.6679234644
 40
0.7288754656
 40
0.7838641398
 40
0.8328176566
 40
0.8758125832
 40
0.9131609664
 40
0.9454769903
 40
0.9738598783
 40
1.0
 40
1.0
 40
1.0
 40
1.0
 10
10.8204313279
 20
12.6199085091
 30
0.0
 10
10.8205345393
 20
12.6213338226
 30
0.0
 10
10.8206767585
 20
12.6240860194
 30
0.0
 10
10.8206919942
 20
12.6280352404
 30
0.0
 10
10.8205302756
 20
12.6310916934
 30
0.0
 10
10.8202871283
 20
12.6333097983
 30
0.0
 10
10.8200613525
 20
12.6347860082
 30
0.0
 10
10.8197871604
 20
12.6361225744
 30
0.0
 10
10.8194666086
 20
12.6373118823
 30
0.0
 10
10.8191015452
 20
12.6383475247
 30
0.0
 10
10.8186933644
 20
12.6392241897
 30
0.0
 10
10.8182436814
 20
12.6399382291
 30
0.0
 10
10.8177511573
 20
12.6404859738
 30
0.0
 10
10.817214607
 20
12.6408617921
 30
0.0
 10
10.816821052
 20
12.6409920878
 30
0.0
 10
10.8166283539
 20
12.6410227257
 30
0.0
  0
SPLINE
  5
2E7
100
AcDbEntity
  8
0
100
AcDbSpline
 62
9
  6
CONTINUOUS
 70
0
 71
3
 72
20
 73
16
 74
0
 42
0.0000001
 43
0.0000001
 44
0.0000000001
 40
0.0
 40
0.0
 40
0.0
 40
0.0
 40
0.1914499456
 40
0.369055035
 40
0.5288790534
 40
0.6011670304
 40
0.6679234644
 40
0.7288754656
 40
0.7838641398
 40
0.8328176566
 40
0.8758125832
 40
0.9131609664
 40
0.9454769903
 40
0.9738598783
 40
1.0
 40
1.0
 40
1.0
 40
1.0
 10
8.9072056789
 20
10.7066828602
 30
0.0
 10
8.9071024675
 20
10.7052575467
 30
0.0
 10
8.9069602483
 20
10.7025053499
 30
0.0
 10
8.9069450126
 20
10.6985561289
 30
0.0
 10
8.9071067313
 20
10.6954996759
 30
0.0
 10
8.9073498785
 20
10.693281571
 30
0.0
 10
8.9075756543
 20
10.6918053611
 30
0.0
 10
8.9078498464
 20
10.6904687949
 30
0.0
 10
8.9081703982
 20
10.689279487
 30
0.0
 10
8.9085354616
 20
10.6882438446
 30
0.0
 10
8.9089436424
 20
10.6873671796
 30
0.0
 10
8.9093933254
 20
10.6866531402
 30
0.0
 10
8.9098858496
 20
10.6861053955
 30
0.0
 10
8.9104223998
 20
10.6857295772
 30
0.0
 10
8.9108159549
 20
10.6855992815
 30
0.0
 10
8.9110086529
 20
10.6855686436
 30
0.0
  0
SPLINE
  5
2E8
100
AcDbEntity
  8
0
100
AcDbSpline
 62
9
  6
CONTINUOUS
 70
0
 71
3
 72
26
 73
22
 74
0
 42
0.0000001
 43
0.0000001
 44
0.0000000001
 40
0.0
 40
0.0
 40
0.0
 40
0.0
 40
0.2115898375
 40
0.405632807
 40
0.4946410388
 40
0.5776683609
 40
0.6542700884
 40
0.7240218263
 40
0.7865199385
 40
0.8414402516
 40
0.8884812435
 40
0.9273891294
 40
0.9437372644
 40
0.9579879025
 40
0.9701237752
 40
0.9801377707
 40
0.9880405969
 40
0.9938652535
 40
0.9960272929
 40
0.9977231132
 40
1.0
 40
1.0
 40
1.0
 40
1.0
 10
8.8306140503
 20
11.7690040613
 30
0.0
 10
8.82927797
 20
11.7690091182
 30
0.0
 10
8.8267165744
 20
11.7690116275
 30
0.0
 10
8.823593168
 20
11.7689940267
 30
0.0
 10
8.8212817129
 20
11.7689664255
 30
0.0
 10
8.8197118966
 20
11.768940299
 30
0.0
 10
8.8182638099
 20
11.7689083335
 30
0.0
 10
8.8169455351
 20
11.7688707539
 30
0.0
 10
8.8157644126
 20
11.7688277483
 30
0.0
 10
8.8147270166
 20
11.7687797014
 30
0.0
 10
8.8138390356
 20
11.7687269262
 30
0.0
 10
8.8131949398
 20
11.7686770429
 30
0.0
 10
8.8127581814
 20
11.7686335392
 30
0.0
 10
8.8124901758
 20
11.7686018786
 30
0.0
 10
8.8122626132
 20
11.7685693074
 30
0.0
 10
8.812075722
 20
11.7685360887
 30
0.0
 10
8.811929612
 20
11.7685020373
 30
0.0
 10
8.8118338362
 20
11.7684717212
 30
0.0
 10
8.811778421
 20
11.7684448068
 30
0.0
 10
8.8117464922
 20
11.7684241074
 30
0.0
 10
8.8117288547
 20
11.7684013215
 30
0.0
 10
8.8117286057
 20
11.7683869462
 30
0.0
  0
LINE
  5
2E9
100
AcDbEntity
  8
0
100
AcDbLine
 62
9
  6
CONTINUOUS
 10
10.9102861091
 20
10.6414236661
 11
10.8947062822
 21
10.6440515129
  0
LINE
  5
2EA
100
AcDbEntity
  8
0
100
AcDbLine
 62
9
  6
CONTINUOUS
 10
10.885690522
 20
12.7097632903
 11
10.883062687
 21
12.6941834518
  0
LINE
  5
2EB
100
AcDbEntity
  8
0
100
AcDbLine
 62
9
  6
CONTINUOUS
 10
8.8173508978
 20
12.6851677032
 11
8.8329307248
 21
12.6825398565
  0
LINE
  5
2EC
100
AcDbEntity
  8
0
100
AcDbLine
 62
9
  6
CONTINUOUS
 10
13.282945419
 20
11.3265021024
 11
13.2671436019
 21
11.331401445
  0
LINE
  5
2ED
100
AcDbEntity
  8
0
100
AcDbLine
 62
9
  6
CONTINUOUS
 10
13.282945419
 20
12.0000892669
 11
13.2671436013
 21
11.9951899254
  0
SPLINE
  5
2EE
100
AcDbEntity
  8
0
100
AcDbSpline
 62
9
  6
CONTINUOUS
 70
0
 71
3
 72
71
 73
67
 74
0
 42
0.0000001
 43
0.0000001
 44
0.0000000001
 40
0.0
 40
0.0
 40
0.0
 40
0.0
 40
0.0155342693
 40
0.031069871
 40
0.0466068049
 40
0.062146508
 40
0.0776895777
 40
0.0932368666
 40
0.1087891154
 40
0.1243470237
 40
0.1399112405
 40
0.1554823503
 40
0.1710608712
 40
0.1866472486
 40
0.2022418515
 40
0.21784497
 40
0.233456812
 40
0.2490775008
 40
0.2647070737
 40
0.2803454825
 40
0.2959925945
 40
0.3116481938
 40
0.3273119833
 40
0.3429835869
 40
0.3586625534
 40
0.3743483617
 40
0.3900404265
 40
0.4057381026
 40
0.4214406913
 40
0.4371474466
 40
0.4528575831
 40
0.4685702841
 40
0.4842847089
 40
0.5
 40
0.5157152911
 40
0.5314297159
 40
0.5471424169
 40
0.5628525534
 40
0.5785593087
 40
0.5942618974
 40
0.6099595735
 40
0.6256516383
 40
0.6413374466
 40
0.6570164131
 40
0.6726880167
 40
0.6883518062
 40
0.7040074055
 40
0.7196545175
 40
0.7352929263
 40
0.7509224992
 40
0.766543188
 40
0.78215503
 40
0.7977581485
 40
0.8133527514
 40
0.8289391288
 40
0.8445176497
 40
0.8600887595
 40
0.8756529763
 40
0.8912108846
 40
0.9067631334
 40
0.9223104223
 40
0.937853492
 40
0.9533931951
 40
0.968930129
 40
0.9844657307
 40
1.0
 40
1.0
 40
1.0
 40
1.0
 10
8.8848185034
 20
3.1373188569
 30
0.0
 10
8.8848185034
 20
3.1214862242
 30
0.0
 10
8.8856051099
 20
3.0898139705
 30
0.0
 10
8.8891415028
 20
3.0424251966
 30
0.0
 10
8.8950263867
 20
2.9952636581
 30
0.0
 10
8.9032450407
 20
2.9484449861
 30
0.0
 10
8.9137780258
 20
2.9020811935
 30
0.0
 10
8.9265998247
 20
2.8562842643
 30
0.0
 10
8.9416795738
 20
2.8111644685
 30
0.0
 10
8.9589808906
 20
2.7668305215
 30
0.0
 10
8.9784620692
 20
2.7233892285
 30
0.0
 10
9.0000761691
 20
2.6809452494
 30
0.0
 10
9.0237711262
 20
2.6396008522
 30
0.0
 10
9.0494898483
 20
2.5994556496
 30
0.0
 10
9.0771703237
 20
2.560606333
 30
0.0
 10
9.1067458413
 20
2.5231464797
 30
0.0
 10
9.1381451371
 20
2.4871663244
 30
0.0
 10
9.1712925669
 20
2.452752547
 30
0.0
 10
9.206108284
 20
2.4199880667
 30
0.0
 10
9.242508376
 20
2.3889517782
 30
0.0
 10
9.2804051305
 20
2.3597184189
 30
0.0
 10
9.3197072449
 20
2.3323583933
 30
0.0
 10
9.3603200406
 20
2.3069376034
 30
0.0
 10
9.4021456949
 20
2.2835173046
 30
0.0
 10
9.4450834368
 20
2.2621538895
 30
0.0
 10
9.4890298153
 20
2.2428987788
 30
0.0
 10
9.5338789662
 20
2.2257983353
 30
0.0
 10
9.5795228576
 20
2.2108937435
 30
0.0
 10
9.6258515498
 20
2.1982209234
 30
0.0
 10
9.6727534457
 20
2.1878104059
 30
0.0
 10
9.7201155594
 20
2.1796872225
 30
0.0
 10
9.7678238081
 20
2.1738709224
 30
0.0
 10
9.8157632792
 20
2.1703755125
 30
0.0
 10
9.8638185034
 20
2.1692094284
 30
0.0
 10
9.9118737276
 20
2.1703755125
 30
0.0
 10
9.9598131987
 20
2.1738709224
 30
0.0
 10
10.0075214474
 20
2.1796872225
 30
0.0
 10
10.0548835611
 20
2.1878104059
 30
0.0
 10
10.1017854571
 20
2.1982209234
 30
0.0
 10
10.1481141492
 20
2.2108937435
 30
0.0
 10
10.1937580406
 20
2.2257983353
 30
0.0
 10
10.2386071915
 20
2.2428987788
 30
0.0
 10
10.2825535701
 20
2.2621538895
 30
0.0
 10
10.3254913119
 20
2.2835173046
 30
0.0
 10
10.3673169663
 20
2.3069376034
 30
0.0
 10
10.407929762
 20
2.3323583933
 30
0.0
 10
10.4472318763
 20
2.3597184189
 30
0.0
 10
10.4851286309
 20
2.3889517782
 30
0.0
 10
10.5215287228
 20
2.4199880667
 30
0.0
 10
10.5563444399
 20
2.452752547
 30
0.0
 10
10.5894918697
 20
2.4871663244
 30
0.0
 10
10.6208911655
 20
2.5231464797
 30
0.0
 10
10.6504666832
 20
2.560606333
 30
0.0
 10
10.6781471585
 20
2.5994556496
 30
0.0
 10
10.7038658806
 20
2.6396008522
 30
0.0
 10
10.7275608377
 20
2.6809452494
 30
0.0
 10
10.7491749376
 20
2.7233892285
 30
0.0
 10
10.7686561162
 20
2.7668305215
 30
0.0
 10
10.785957433
 20
2.8111644685
 30
0.0
 10
10.8010371821
 20
2.8562842643
 30
0.0
 10
10.813858981
 20
2.9020811935
 30
0.0
 10
10.8243919661
 20
2.9484449861
 30
0.0
 10
10.8326106202
 20
2.9952636581
 30
0.0
 10
10.838495504
 20
3.0424251966
 30
0.0
 10
10.8420318969
 20
3.0898139705
 30
0.0
 10
10.8428185034
 20
3.1214862242
 30
0.0
 10
10.8428185034
 20
3.1373188569
 30
0.0
  0
LINE
  5
2EF
100
AcDbEntity
  8
0
100
AcDbLine
 62
9
  6
CONTINUOUS
 10
8.8419464848
 20
10.616828079
 11
8.8445743317
 21
10.6324079059
  0
SPLINE
  5
2F0
100
AcDbEntity
  8
0
100
AcDbSpline
 62
9
  6
CONTINUOUS
 70
0
 71
3
 72
20
 73
16
 74
0
 42
0.0000001
 43
0.0000001
 44
0.0000000001
 40
0.0
 40
0.0
 40
0.0
 40
0.0
 40
0.1914499905
 40
0.3690551174
 40
0.528879144
 40
0.6011671281
 40
0.6679235692
 40
0.7288755739
 40
0.7838642488
 40
0.8328177658
 40
0.8758126923
 40
0.9131610673
 40
0.9454770637
 40
0.9738599098
 40
1.0
 40
1.0
 40
1.0
 40
1.0
 10
8.9072056789
 20
12.6199085092
 30
0.0
 10
8.9071024675
 20
12.6213338228
 30
0.0
 10
8.9069602533
 20
12.6240860202
 30
0.0
 10
8.9069450198
 20
12.6280352411
 30
0.0
 10
8.9071067363
 20
12.6310916943
 30
0.0
 10
8.9073498834
 20
12.6333097991
 30
0.0
 10
8.9075756591
 20
12.634786009
 30
0.0
 10
8.907849851
 20
12.6361225751
 30
0.0
 10
8.9081704024
 20
12.6373118829
 30
0.0
 10
8.9085354655
 20
12.6383475253
 30
0.0
 10
8.9089436461
 20
12.6392241902
 30
0.0
 10
8.9093933286
 20
12.6399382294
 30
0.0
 10
8.9098858519
 20
12.6404859741
 30
0.0
 10
8.9104224011
 20
12.6408617924
 30
0.0
 10
8.9108159556
 20
12.6409920879
 30
0.0
 10
8.9110086534
 20
12.6410227258
 30
0.0
  0
SPLINE
  5
2F1
100
AcDbEntity
  8
0
100
AcDbSpline
 62
9
  6
CONTINUOUS
 70
0
 71
3
 72
20
 73
16
 74
0
 42
0.0000001
 43
0.0000001
 44
0.0000000001
 40
0.0
 40
0.0
 40
0.0
 40
0.0
 40
0.1914499735
 40
0.3690550856
 40
0.5288791054
 40
0.6011670854
 40
0.6679235225
 40
0.7288755246
 40
0.7838641975
 40
0.8328177114
 40
0.8758126343
 40
0.9131610109
 40
0.9454770227
 40
0.973859894
 40
1.0
 40
1.0
 40
1.0
 40
1.0
 10
10.8204313279
 20
12.6199085091
 30
0.0
 10
10.8218566415
 20
12.6200117206
 30
0.0
 10
10.8246088387
 20
12.6201539363
 30
0.0
 10
10.8285580597
 20
12.6201691705
 30
0.0
 10
10.8316145128
 20
12.6200074535
 30
0.0
 10
10.8338326176
 20
12.6197643063
 30
0.0
 10
10.8353088275
 20
12.6195385306
 30
0.0
 10
10.8366453936
 20
12.6192643388
 30
0.0
 10
10.8378347014
 20
12.6189437873
 30
0.0
 10
10.8388703438
 20
12.6185787242
 30
0.0
 10
10.8397470088
 20
12.6181705436
 30
0.0
 10
10.840461048
 20
12.6177208609
 30
0.0
 10
10.8410087928
 20
12.6172283372
 30
0.0
 10
10.841384611
 20
12.6166917874
 30
0.0
 10
10.8415149067
 20
12.6162982326
 30
0.0
 10
10.8415455446
 20
12.6161055347
 30
0.0
  0
SPLINE
  5
2F2
100
AcDbEntity
  8
0
100
AcDbSpline
 62
9
  6
CONTINUOUS
 70
0
 71
3
 72
20
 73
16
 74
0
 42
0.0000001
 43
0.0000001
 44
0.0000000001
 40
0.0
 40
0.0
 40
0.0
 40
0.0
 40
0.1914499905
 40
0.3690551174
 40
0.528879144
 40
0.6011671281
 40
0.6679235692
 40
0.7288755739
 40
0.7838642488
 40
0.8328177658
 40
0.8758126923
 40
0.9131610673
 40
0.9454770637
 40
0.9738599098
 40
1.0
 40
1.0
 40
1.0
 40
1.0
 10
10.8204313279
 20
10.7066828601
 30
0.0
 10
10.8205345393
 20
10.7052575465
 30
0.0
 10
10.8206767536
 20
10.7025053491
 30
0.0
 10
10.8206919871
 20
10.6985561282
 30
0.0
 10
10.8205302706
 20
10.695499675
 30
0.0
 10
10.8202871234
 20
10.6932815702
 30
0.0
 10
10.8200613477
 20
10.6918053603
 30
0.0
 10
10.8197871559
 20
10.6904687942
 30
0.0
 10
10.8194666044
 20
10.6892794864
 30
0.0
 10
10.8191015413
 20
10.688243844
 30
0.0
 10
10.8186933607
 20
10.6873671791
 30
0.0
 10
10.8182436782
 20
10.6866531399
 30
0.0
 10
10.817751155
 20
10.6861053952
 30
0.0
 10
10.8172146057
 20
10.6857295769
 30
0.0
 10
10.8168210512
 20
10.6855992814
 30
0.0
 10
10.8166283534
 20
10.6855686435
 30
0.0
  0
SPLINE
  5
2F3
100
AcDbEntity
  8
0
100
AcDbSpline
 62
9
  6
CONTINUOUS
 70
0
 71
3
 72
20
 73
16
 74
0
 42
0.0000001
 43
0.0000001
 44
0.0000000001
 40
0.0
 40
0.0
 40
0.0
 40
0.0
 40
0.1914499735
 40
0.3690550856
 40
0.5288791054
 40
0.6011670854
 40
0.6679235225
 40
0.7288755246
 40
0.7838641975
 40
0.8328177114
 40
0.8758126343
 40
0.9131610109
 40
0.9454770227
 40
0.973859894
 40
1.0
 40
1.0
 40
1.0
 40
1.0
 10
8.9072056789
 20
10.7066828602
 30
0.0
 10
8.9057803653
 20
10.7065796487
 30
0.0
 10
8.9030281681
 20
10.706437433
 30
0.0
 10
8.8990789472
 20
10.7064221988
 30
0.0
 10
8.896022494
 20
10.7065839158
 30
0.0
 10
8.8938043892
 20
10.706827063
 30
0.0
 10
8.8923281793
 20
10.7070528387
 30
0.0
 10
8.8909916132
 20
10.7073270305
 30
0.0
 10
8.8898023054
 20
10.707647582
 30
0.0
 10
8.888766663
 20
10.7080126451
 30
0.0
 10
8.887889998
 20
10.7084208257
 30
0.0
 10
8.8871759588
 20
10.7088705084
 30
0.0
 10
8.8866282141
 20
10.7093630321
 30
0.0
 10
8.8862523958
 20
10.7098995819
 30
0.0
 10
8.8861221002
 20
10.7102931367
 30
0.0
 10
8.8860914623
 20
10.7104858346
 30
0.0
  0
LINE
  5
2F4
100
AcDbEntity
  8
0
100
AcDbLine
 62
9
  6
CONTINUOUS
 10
13.2696120856
 20
11.3131687691
 11
13.2647134495
 21
11.3289709445
  0
LINE
  5
2F5
100
AcDbEntity
  8
0
100
AcDbLine
 62
9
  6
CONTINUOUS
 10
10.8415455516
 20
12.6161054907
 11
10.8947055616
 21
12.6825421022
  0
LINE
  5
2F6
100
AcDbEntity
  8
0
100
AcDbLine
 62
9
  6
CONTINUOUS
 10
12.5960249212
 20
11.3131687691
 11
12.6009235573
 21
11.3289709445
  0
LINE
  5
2F7
100
AcDbEntity
  8
0
100
AcDbLine
 62
9
  6
CONTINUOUS
 10
10.8166283504
 20
12.6410226836
 11
10.8830623318
 21
12.6941831641
  0
SPLINE
  5
2F8
100
AcDbEntity
  8
0
100
AcDbSpline
 62
9
  6
CONTINUOUS
 70
0
 71
3
 72
19
 73
15
 74
0
 42
0.0000001
 43
0.0000001
 44
0.0000000001
 40
0.0
 40
0.0
 40
0.0
 40
0.0
 40
0.0649325893
 40
0.1298057089
 40
0.1945323277
 40
0.2590496567
 40
0.3232989465
 40
0.3872205465
 40
0.4507619728
 40
0.5138775121
 40
0.6386659221
 40
0.7613658039
 40
0.8818326489
 40
1.0
 40
1.0
 40
1.0
 40
1.0
 10
10.9138185034
 20
11.6632956846
 30
0.0
 10
10.9138171925
 20
11.6533516276
 30
0.0
 10
10.9134638084
 20
11.6334709301
 30
0.0
 10
10.9118954692
 20
11.6037150232
 30
0.0
 10
10.9093011394
 20
11.5740944156
 30
0.0
 10
10.9056869022
 20
11.5446772189
 30
0.0
 10
10.901070881
 20
11.5155254148
 30
0.0
 10
10.8954873541
 20
11.4866958701
 30
0.0
 10
10.8889677911
 20
11.4582413639
 30
0.0
 10
10.8791073496
 20
11.421011632
 30
0.0
 10
10.8646459943
 20
11.3756567382
 30
0.0
 10
10.844077665
 20
11.323154103
 30
0.0
 10
10.8206880111
 20
11.2729665649
 30
0.0
 10
10.8032507041
 20
11.2408203149
 30
0.0
 10
10.7941548496
 20
11.225175684
 30
0.0
  0
SPLINE
  5
2F9
100
AcDbEntity
  8
0
100
AcDbSpline
 62
9
  6
CONTINUOUS
 70
0
 71
3
 72
19
 73
15
 74
0
 42
0.0000001
 43
0.0000001
 44
0.0000000001
 40
0.0
 40
0.0
 40
0.0
 40
0.0
 40
0.1181672849
 40
0.238634062
 40
0.3613339
 40
0.4861223241
 40
0.549237863
 40
0.6127792975
 40
0.6767009219
 40
0.7409502312
 40
0.8054675821
 40
0.8701942324
 40
0.9350673813
 40
1.0
 40
1.0
 40
1.0
 40
1.0
 10
10.7941533658
 20
12.1014182523
 30
0.0
 10
10.8032493336
 20
12.0857735639
 30
0.0
 10
10.8206868963
 20
12.0536272066
 30
0.0
 10
10.8440767239
 20
12.0034393778
 30
0.0
 10
10.8646450968
 20
11.9509363929
 30
0.0
 10
10.8791069175
 20
11.9055813347
 30
0.0
 10
10.8889675722
 20
11.8683513949
 30
0.0
 10
10.8954870924
 20
11.8398966798
 30
0.0
 10
10.9010706607
 20
11.8110669441
 30
0.0
 10
10.9056868515
 20
11.7819149642
 30
0.0
 10
10.9093011874
 20
11.7524975745
 30
0.0
 10
10.9118955218
 20
11.7228767611
 30
0.0
 10
10.9134637969
 20
11.6931206442
 30
0.0
 10
10.9138171674
 20
11.6732398104
 30
0.0
 10
10.9138185034
 20
11.6632956846
 30
0.0
  0
SPLINE
  5
2FA
100
AcDbEntity
  8
0
100
AcDbSpline
 62
9
  6
CONTINUOUS
 70
0
 71
3
 72
23
 73
19
 74
0
 42
0.0000001
 43
0.0000001
 44
0.0000000001
 40
0.0
 40
0.0
 40
0.0
 40
0.0
 40
0.0623526768
 40
0.1247107913
 40
0.1870754583
 40
0.2494524686
 40
0.3118447192
 40
0.3742560108
 40
0.4366896064
 40
0.4991485973
 40
0.5616357866
 40
0.6241536658
 40
0.6867043924
 40
0.7492897623
 40
0.8119111912
 40
0.874569699
 40
0.9372659002
 40
1.0
 40
1.0
 40
1.0
 40
1.0
 10
8.9260721138
 20
3.1645194642
 30
0.0
 10
8.9260721138
 20
3.1806383119
 30
0.0
 10
8.9269233128
 20
3.212883889
 30
0.0
 10
8.9307497987
 20
3.2611147438
 30
0.0
 10
8.937116031
 20
3.3090842209
 30
0.0
 10
8.9460041825
 20
3.3566596061
 30
0.0
 10
8.9573903963
 20
3.4037121901
 30
0.0
 10
8.9712434985
 20
3.4501136437
 30
0.0
 10
8.9875258608
 20
3.4957377356
 30
0.0
 10
9.0061931264
 20
3.5404602656
 30
0.0
 10
9.0271944524
 20
3.5841595233
 30
0.0
 10
9.0504726537
 20
3.6267165817
 30
0.0
 10
9.0759643453
 20
3.6680156184
 30
0.0
 10
9.1036001574
 20
3.707944262
 30
0.0
 10
9.1333047725
 20
3.7463937649
 30
0.0
 10
9.1649976896
 20
3.7832597896
 30
0.0
 10
9.198591323
 20
3.8184408802
 30
0.0
 10
9.2221893785
 20
3.8407039984
 30
0.0
 10
9.2342714596
 20
3.8515219924
 30
0.0
  0
SPLINE
  5
2FB
100
AcDbEntity
  8
0
100
AcDbSpline
 62
9
  6
CONTINUOUS
 70
0
 71
3
 72
23
 73
19
 74
0
 42
0.0000001
 43
0.0000001
 44
0.0000000001
 40
0.0
 40
0.0
 40
0.0
 40
0.0
 40
0.0627340986
 40
0.1254302987
 40
0.1880888056
 40
0.2507102337
 40
0.3132956029
 40
0.3758463292
 40
0.4383642082
 40
0.5008513975
 40
0.5633103887
 40
0.6257439845
 40
0.6881552767
 40
0.7505475279
 40
0.812924539
 40
0.8752892069
 40
0.9376473222
 40
1.0
 40
1.0
 40
1.0
 40
1.0
 10
10.4933677076
 20
3.851520058
 30
0.0
 10
10.5054497097
 20
3.8407020672
 30
0.0
 10
10.5290476095
 20
3.8184389617
 30
0.0
 10
10.5626410175
 20
3.7832579087
 30
0.0
 10
10.5943337186
 20
3.7463919391
 30
0.0
 10
10.6240381286
 20
3.7079425082
 30
0.0
 10
10.6516737475
 20
3.6680139524
 30
0.0
 10
10.6771652588
 20
3.6267150181
 30
0.0
 10
10.700443294
 20
3.5841580758
 30
0.0
 10
10.7214444687
 20
3.5404589466
 30
0.0
 10
10.7401115988
 20
3.4957365564
 30
0.0
 10
10.7563938421
 20
3.4501126142
 30
0.0
 10
10.7702468425
 20
3.4037113188
 30
0.0
 10
10.7816329723
 20
3.3566589004
 30
0.0
 10
10.790521058
 20
3.3090836865
 30
0.0
 10
10.796887243
 20
3.2611143851
 30
0.0
 10
10.8007137004
 20
3.2128837088
 30
0.0
 10
10.801564893
 20
3.1806382519
 30
0.0
 10
10.801564893
 20
3.1645194642
 30
0.0
  0
LINE
  5
2FC
100
AcDbEntity
  8
0
100
AcDbLine
 62
9
  6
CONTINUOUS
 10
8.9110086974
 20
12.6410227328
 11
8.8445720972
 21
12.6941827341
  0
SPLINE
  5
2FD
100
AcDbEntity
  8
0
100
AcDbSpline
 62
9
  6
CONTINUOUS
 70
0
 71
3
 72
71
 73
67
 74
0
 42
0.0000001
 43
0.0000001
 44
0.0000000001
 40
0.0
 40
0.0
 40
0.0
 40
0.0
 40
0.0155342693
 40
0.031069871
 40
0.0466068049
 40
0.062146508
 40
0.0776895777
 40
0.0932368666
 40
0.1087891154
 40
0.1243470237
 40
0.1399112405
 40
0.1554823503
 40
0.1710608712
 40
0.1866472486
 40
0.2022418515
 40
0.21784497
 40
0.233456812
 40
0.2490775008
 40
0.2647070737
 40
0.2803454825
 40
0.2959925945
 40
0.3116481938
 40
0.3273119833
 40
0.3429835869
 40
0.3586625534
 40
0.3743483617
 40
0.3900404265
 40
0.4057381026
 40
0.4214406913
 40
0.4371474466
 40
0.4528575831
 40
0.4685702841
 40
0.4842847089
 40
0.5
 40
0.5157152911
 40
0.5314297159
 40
0.5471424169
 40
0.5628525534
 40
0.5785593087
 40
0.5942618974
 40
0.6099595735
 40
0.6256516383
 40
0.6413374466
 40
0.6570164131
 40
0.6726880167
 40
0.6883518062
 40
0.7040074055
 40
0.7196545175
 40
0.7352929263
 40
0.7509224992
 40
0.766543188
 40
0.78215503
 40
0.7977581485
 40
0.8133527514
 40
0.8289391288
 40
0.8445176497
 40
0.8600887595
 40
0.8756529763
 40
0.8912108846
 40
0.9067631334
 40
0.9223104223
 40
0.937853492
 40
0.9533931951
 40
0.968930129
 40
0.9844657307
 40
1.0
 40
1.0
 40
1.0
 40
1.0
 10
8.8848185034
 20
3.1600227825
 30
0.0
 10
8.8848185034
 20
3.1441901498
 30
0.0
 10
8.8856051099
 20
3.1125178961
 30
0.0
 10
8.8891415028
 20
3.0651291221
 30
0.0
 10
8.8950263867
 20
3.0179675837
 30
0.0
 10
8.9032450407
 20
2.9711489116
 30
0.0
 10
8.9137780258
 20
2.9247851191
 30
0.0
 10
8.9265998247
 20
2.8789881899
 30
0.0
 10
8.9416795738
 20
2.8338683941
 30
0.0
 10
8.9589808906
 20
2.789534447
 30
0.0
 10
8.9784620692
 20
2.746093154
 30
0.0
 10
9.0000761691
 20
2.703649175
 30
0.0
 10
9.0237711262
 20
2.6623047778
 30
0.0
 10
9.0494898483
 20
2.6221595752
 30
0.0
 10
9.0771703237
 20
2.5833102586
 30
0.0
 10
9.1067458413
 20
2.5458504052
 30
0.0
 10
9.1381451371
 20
2.5098702499
 30
0.0
 10
9.1712925669
 20
2.4754564726
 30
0.0
 10
9.206108284
 20
2.4426919923
 30
0.0
 10
9.242508376
 20
2.4116557038
 30
0.0
 10
9.2804051305
 20
2.3824223445
 30
0.0
 10
9.3197072449
 20
2.3550623189
 30
0.0
 10
9.3603200406
 20
2.329641529
 30
0.0
 10
9.4021456949
 20
2.3062212302
 30
0.0
 10
9.4450834368
 20
2.2848578151
 30
0.0
 10
9.4890298153
 20
2.2656027044
 30
0.0
 10
9.5338789662
 20
2.2485022609
 30
0.0
 10
9.5795228576
 20
2.233597669
 30
0.0
 10
9.6258515498
 20
2.2209248489
 30
0.0
 10
9.6727534457
 20
2.2105143315
 30
0.0
 10
9.7201155594
 20
2.2023911481
 30
0.0
 10
9.7678238081
 20
2.196574848
 30
0.0
 10
9.8157632792
 20
2.1930794381
 30
0.0
 10
9.8638185034
 20
2.191913354
 30
0.0
 10
9.9118737276
 20
2.1930794381
 30
0.0
 10
9.9598131987
 20
2.196574848
 30
0.0
 10
10.0075214474
 20
2.2023911481
 30
0.0
 10
10.0548835611
 20
2.2105143315
 30
0.0
 10
10.1017854571
 20
2.2209248489
 30
0.0
 10
10.1481141492
 20
2.233597669
 30
0.0
 10
10.1937580406
 20
2.2485022609
 30
0.0
 10
10.2386071915
 20
2.2656027044
 30
0.0
 10
10.2825535701
 20
2.2848578151
 30
0.0
 10
10.3254913119
 20
2.3062212302
 30
0.0
 10
10.3673169663
 20
2.329641529
 30
0.0
 10
10.407929762
 20
2.3550623189
 30
0.0
 10
10.4472318763
 20
2.3824223445
 30
0.0
 10
10.4851286309
 20
2.4116557038
 30
0.0
 10
10.5215287228
 20
2.4426919923
 30
0.0
 10
10.5563444399
 20
2.4754564726
 30
0.0
 10
10.5894918697
 20
2.5098702499
 30
0.0
 10
10.6208911655
 20
2.5458504052
 30
0.0
 10
10.6504666832
 20
2.5833102586
 30
0.0
 10
10.6781471585
 20
2.6221595752
 30
0.0
 10
10.7038658806
 20
2.6623047778
 30
0.0
 10
10.7275608377
 20
2.703649175
 30
0.0
 10
10.7491749376
 20
2.746093154
 30
0.0
 10
10.7686561162
 20
2.789534447
 30
0.0
 10
10.785957433
 20
2.8338683941
 30
0.0
 10
10.8010371821
 20
2.8789881899
 30
0.0
 10
10.813858981
 20
2.9247851191
 30
0.0
 10
10.8243919661
 20
2.9711489116
 30
0.0
 10
10.8326106202
 20
3.0179675837
 30
0.0
 10
10.838495504
 20
3.0651291221
 30
0.0
 10
10.8420318969
 20
3.1125178961
 30
0.0
 10
10.8428185034
 20
3.1441901498
 30
0.0
 10
10.8428185034
 20
3.1600227825
 30
0.0
  0
LINE
  5
2FE
100
AcDbEntity
  8
0
100
AcDbLine
 62
9
  6
CONTINUOUS
 10
8.8860915044
 20
12.6161055316
 11
8.8329310223
 21
12.6825395011
  0
SPLINE
  5
2FF
100
AcDbEntity
  8
0
100
AcDbSpline
 62
9
  6
CONTINUOUS
 70
0
 71
3
 72
21
 73
17
 74
0
 42
0.0000001
 43
0.0000001
 44
0.0000000001
 40
0.0
 40
0.0
 40
0.0
 40
0.0
 40
0.0635489136
 40
0.1270185482
 40
0.1904023382
 40
0.2536998776
 40
0.3169043849
 40
0.3800091703
 40
0.4430034698
 40
0.5058736141
 40
0.5686014148
 40
0.6311620618
 40
0.7556003174
 40
0.8788080668
 40
0.939741527
 40
1.0
 40
1.0
 40
1.0
 40
1.0
 10
10.6567314655
 20
3.3710859673
 30
0.0
 10
10.6567313582
 20
3.3582221409
 30
0.0
 10
10.6560871818
 20
3.3325058432
 30
0.0
 10
10.653186647
 20
3.2940576071
 30
0.0
 10
10.6483597291
 20
3.2558536769
 30
0.0
 10
10.6416201693
 20
3.2179951032
 30
0.0
 10
10.6329854889
 20
3.1805811183
 30
0.0
 10
10.6224799144
 20
3.1437125825
 30
0.0
 10
10.6101326342
 20
3.1074906578
 30
0.0
 10
10.5959794506
 20
3.0720178225
 30
0.0
 10
10.5800619782
 20
3.0373962423
 30
0.0
 10
10.5565996149
 20
2.9925992062
 30
0.0
 10
10.5231820429
 20
2.9392947105
 30
0.0
 10
10.4845676901
 20
2.8900360275
 30
0.0
 10
10.4510001271
 20
2.8536680808
 30
0.0
 10
10.4333956268
 20
2.8365609021
 30
0.0
 10
10.4244136406
 20
2.8283080647
 30
0.0
  0
SPLINE
  5
300
100
AcDbEntity
  8
0
100
AcDbSpline
 62
9
  6
CONTINUOUS
 70
0
 71
3
 72
71
 73
67
 74
0
 42
0.0000001
 43
0.0000001
 44
0.0000000001
 40
0.0
 40
0.0
 40
0.0
 40
0.0
 40
0.015534241
 40
0.0310698844
 40
0.0466068021
 40
0.0621465072
 40
0.077689579
 40
0.0932368661
 40
0.1087891154
 40
0.1243470233
 40
0.1399112404
 40
0.1554823506
 40
0.1710608715
 40
0.1866472484
 40
0.202241851
 40
0.2178449698
 40
0.2334568124
 40
0.2490775013
 40
0.2647070735
 40
0.2803454819
 40
0.2959925942
 40
0.3116481943
 40
0.327311984
 40
0.3429835868
 40
0.3586625526
 40
0.3743483613
 40
0.390040427
 40
0.4057381034
 40
0.4214406913
 40
0.4371474458
 40
0.4528575826
 40
0.4685702846
 40
0.4842847097
 40
0.5
 40
0.5157152903
 40
0.5314297154
 40
0.5471424174
 40
0.5628525542
 40
0.5785593087
 40
0.5942618966
 40
0.609959573
 40
0.6256516387
 40
0.6413374474
 40
0.6570164132
 40
0.672688016
 40
0.6883518057
 40
0.7040074058
 40
0.7196545181
 40
0.7352929265
 40
0.7509224987
 40
0.7665431876
 40
0.7821550302
 40
0.797758149
 40
0.8133527516
 40
0.8289391285
 40
0.8445176494
 40
0.8600887596
 40
0.8756529767
 40
0.8912108846
 40
0.9067631339
 40
0.922310421
 40
0.9378534928
 40
0.9533931979
 40
0.9689301156
 40
0.984465759
 40
1.0
 40
1.0
 40
1.0
 40
1.0
 10
10.801564893
 20
3.1645194642
 30
0.0
 10
10.801564893
 20
3.1493540228
 30
0.0
 10
10.8008114212
 20
3.1190163785
 30
0.0
 10
10.7974240649
 20
3.0736244987
 30
0.0
 10
10.791787148
 20
3.0284502522
 30
0.0
 10
10.7839148302
 20
2.9836044595
 30
0.0
 10
10.7738256875
 20
2.9391943662
 30
0.0
 10
10.7615441603
 20
2.8953272568
 30
0.0
 10
10.7470998543
 20
2.8521087428
 30
0.0
 10
10.7305276
 20
2.8096429583
 30
0.0
 10
10.711867343
 20
2.7680322105
 30
0.0
 10
10.6911640234
 20
2.7273767596
 30
0.0
 10
10.6684675086
 20
2.6877745705
 30
0.0
 10
10.6438325397
 20
2.6493210264
 30
0.0
 10
10.6173184949
 20
2.6121087516
 30
0.0
 10
10.5889892628
 20
2.5762273866
 30
0.0
 10
10.558913081
 20
2.5417633846
 30
0.0
 10
10.5271624029
 20
2.5087997839
 30
0.0
 10
10.4938137704
 20
2.4774159512
 30
0.0
 10
10.458947542
 20
2.4476874669
 30
0.0
 10
10.4226477181
 20
2.419685934
 30
0.0
 10
10.3850017319
 20
2.3934788225
 30
0.0
 10
10.3461002726
 20
2.3691292695
 30
0.0
 10
10.3060370871
 20
2.346695876
 30
0.0
 10
10.2649086931
 20
2.3262326567
 30
0.0
 10
10.2228141638
 20
2.307788894
 30
0.0
 10
10.1798548862
 20
2.2914090404
 30
0.0
 10
10.1361343448
 20
2.2771325538
 30
0.0
 10
10.091757872
 20
2.2649937676
 30
0.0
 10
10.0468323613
 20
2.2550219025
 30
0.0
 10
10.0014660234
 20
2.247240976
 30
0.0
 10
9.9557681271
 20
2.2416697671
 30
0.0
 10
9.9098487502
 20
2.2383216958
 30
0.0
 10
9.8638185034
 20
2.2372047781
 30
0.0
 10
9.8177882567
 20
2.2383216958
 30
0.0
 10
9.7718688798
 20
2.2416697671
 30
0.0
 10
9.7261709834
 20
2.247240976
 30
0.0
 10
9.6808046455
 20
2.2550219025
 30
0.0
 10
9.6358791349
 20
2.2649937676
 30
0.0
 10
9.591502662
 20
2.2771325538
 30
0.0
 10
9.5477821206
 20
2.2914090404
 30
0.0
 10
9.5048228431
 20
2.307788894
 30
0.0
 10
9.4627283137
 20
2.3262326567
 30
0.0
 10
9.4215999198
 20
2.346695876
 30
0.0
 10
9.3815367343
 20
2.3691292695
 30
0.0
 10
9.3426352749
 20
2.3934788225
 30
0.0
 10
9.3049892888
 20
2.419685934
 30
0.0
 10
9.2686894648
 20
2.4476874669
 30
0.0
 10
9.2338232365
 20
2.4774159512
 30
0.0
 10
9.200474604
 20
2.5087997839
 30
0.0
 10
9.1687239258
 20
2.5417633846
 30
0.0
 10
9.138647744
 20
2.5762273866
 30
0.0
 10
9.1103185119
 20
2.6121087516
 30
0.0
 10
9.0838044672
 20
2.6493210264
 30
0.0
 10
9.0591694982
 20
2.6877745705
 30
0.0
 10
9.0364729834
 20
2.7273767596
 30
0.0
 10
9.0157696638
 20
2.7680322105
 30
0.0
 10
8.9971094068
 20
2.8096429583
 30
0.0
 10
8.9805371525
 20
2.8521087428
 30
0.0
 10
8.9660928465
 20
2.8953272568
 30
0.0
 10
8.9538113194
 20
2.9391943662
 30
0.0
 10
8.9437221766
 20
2.9836044595
 30
0.0
 10
8.9358498588
 20
3.0284502522
 30
0.0
 10
8.930212942
 20
3.0736244987
 30
0.0
 10
8.9268255856
 20
3.1190163785
 30
0.0
 10
8.9260721138
 20
3.1493540228
 30
0.0
 10
8.9260721138
 20
3.1645194642
 30
0.0
  0
SPLINE
  5
301
100
AcDbEntity
  8
0
100
AcDbSpline
 62
9
  6
CONTINUOUS
 70
0
 71
3
 72
21
 73
17
 74
0
 42
0.0000001
 43
0.0000001
 44
0.0000000001
 40
0.0
 40
0.0
 40
0.0
 40
0.0
 40
0.0602585653
 40
0.1211920377
 40
0.2443996165
 40
0.3688380032
 40
0.4313986834
 40
0.4941262988
 40
0.5569965174
 40
0.6199909105
 40
0.6830955943
 40
0.7463002757
 40
0.8095976932
 40
0.8729814745
 40
0.9364512116
 40
1.0
 40
1.0
 40
1.0
 40
1.0
 10
9.3032233621
 20
2.8283080688
 30
0.0
 10
9.2942413567
 20
2.8365609123
 30
0.0
 10
9.2766368731
 20
2.8536681386
 30
0.0
 10
9.2430693221
 20
2.8900360729
 30
0.0
 10
9.204454916
 20
2.9392947066
 30
0.0
 10
9.1710373977
 20
2.9925992375
 30
0.0
 10
9.1475750755
 20
3.0373962855
 30
0.0
 10
9.1316575231
 20
3.0720178105
 30
0.0
 10
9.117504391
 20
3.1074906636
 30
0.0
 10
9.1051571348
 20
3.1437126069
 30
0.0
 10
9.0946514913
 20
3.1805811584
 30
0.0
 10
9.0860169051
 20
3.2179951531
 30
0.0
 10
9.0792772542
 20
3.2558537174
 30
0.0
 10
9.0744503959
 20
3.2940576507
 30
0.0
 10
9.0715498447
 20
3.3325058725
 30
0.0
 10
9.0709055447
 20
3.3582221667
 30
0.0
 10
9.0709055413
 20
3.3710859673
 30
0.0
  0
LINE
  5
302
100
AcDbEntity
  8
0
100
AcDbLine
 62
9
  6
CONTINUOUS
 10
9.3056046973
 20
2.8259541695
 11
9.3032233621
 21
2.8283080688
  0
SPLINE
  5
303
100
AcDbEntity
  8
0
100
AcDbSpline
 62
9
  6
CONTINUOUS
 70
0
 71
3
 72
33
 73
29
 74
0
 42
0.0000001
 43
0.0000001
 44
0.0000000001
 40
0.0
 40
0.0
 40
0.0
 40
0.0
 40
0.0309830431
 40
0.0620905165
 40
0.0932739838
 40
0.1245053008
 40
0.1870245716
 40
0.24959088
 40
0.2808912397
 40
0.3121937192
 40
0.3434973154
 40
0.3748014857
 40
0.4061059309
 40
0.4374104905
 40
0.4999999999
 40
0.5625895098
 40
0.5938940689
 40
0.6251985142
 40
0.6565026845
 40
0.6878062803
 40
0.7191087599
 40
0.7504091195
 40
0.8129754277
 40
0.8754946982
 40
0.9067260147
 40
0.9379094818
 40
0.9690169558
 40
1.0
 40
1.0
 40
1.0
 40
1.0
 10
10.4220323053
 20
2.8259541653
 30
0.0
 10
10.4131831097
 20
2.8165838409
 30
0.0
 10
10.3949553437
 20
2.7982650714
 30
0.0
 10
10.3661882504
 20
2.772203909
 30
0.0
 10
10.3360331867
 20
2.7475953168
 30
0.0
 10
10.2941170683
 20
2.7168390698
 30
0.0
 10
10.2387858193
 20
2.6824515716
 30
0.0
 10
10.1802147165
 20
2.653868443
 30
0.0
 10
10.1318030421
 20
2.6346501233
 30
0.0
 10
10.094796468
 20
2.6220871952
 30
0.0
 10
10.0572019069
 20
2.6114094928
 30
0.0
 10
10.0191159592
 20
2.6026410911
 30
0.0
 10
9.9806356942
 20
2.5958009404
 30
0.0
 10
9.9289474403
 20
2.5892736397
 30
0.0
 10
9.8638185
 20
2.5859979746
 30
0.0
 10
9.7986895605
 20
2.5892736395
 30
0.0
 10
9.7470013053
 20
2.5958009335
 30
0.0
 10
9.708521044
 20
2.6026411028
 30
0.0
 10
9.6704350924
 20
2.6114094861
 30
0.0
 10
9.6328405335
 20
2.6220871972
 30
0.0
 10
9.5958339603
 20
2.6346501267
 30
0.0
 10
9.5474222839
 20
2.6538684414
 30
0.0
 10
9.4888511837
 20
2.6824515751
 30
0.0
 10
9.4335199337
 20
2.7168390706
 30
0.0
 10
9.3916038178
 20
2.7475953204
 30
0.0
 10
9.3614487545
 20
2.772203913
 30
0.0
 10
9.3326816602
 20
2.7982650753
 30
0.0
 10
9.3144538941
 20
2.8165838456
 30
0.0
 10
9.3056046973
 20
2.8259541695
 30
0.0
  0
SPLINE
  5
304
100
AcDbEntity
  8
0
100
AcDbSpline
 62
9
  6
CONTINUOUS
 70
0
 71
3
 72
23
 73
19
 74
0
 42
0.0000001
 43
0.0000001
 44
0.0000000001
 40
0.0
 40
0.0
 40
0.0
 40
0.0
 40
0.062322437
 40
0.1246502581
 40
0.186987674
 40
0.2493399098
 40
0.3117112833
 40
0.3741061588
 40
0.4365284801
 40
0.49898186
 40
0.5614694635
 40
0.6239939799
 40
0.6865575896
 40
0.7491619408
 40
0.8118081265
 40
0.8744966669
 40
0.9372275031
 40
1.0
 40
1.0
 40
1.0
 40
1.0
 10
10.8228185034
 20
3.1630499726
 30
0.0
 10
10.8228185034
 20
3.1815017844
 30
0.0
 10
10.8217277326
 20
3.2184162938
 30
0.0
 10
10.816825022
 20
3.2735910015
 30
0.0
 10
10.8086723081
 20
3.3283907692
 30
0.0
 10
10.7972975656
 20
3.3826260363
 30
0.0
 10
10.7827394916
 20
3.4361125725
 30
0.0
 10
10.7650478345
 20
3.4886677338
 30
0.0
 10
10.7442829264
 20
3.5401123454
 30
0.0
 10
10.7205156298
 20
3.5902709574
 30
0.0
 10
10.6938270265
 20
3.6389725288
 30
0.0
 10
10.6643081679
 20
3.6860509892
 30
0.0
 10
10.6320597665
 20
3.7313458006
 30
0.0
 10
10.5971917927
 20
3.774702553
 30
0.0
 10
10.5598233248
 20
3.8159733182
 30
0.0
 10
10.5200812912
 20
3.8550177924
 30
0.0
 10
10.4781032187
 20
3.8917013821
 30
0.0
 10
10.4487272222
 20
3.9144961028
 30
0.0
 10
10.4337189771
 20
3.925457721
 30
0.0
  0
SPLINE
  5
305
100
AcDbEntity
  8
0
100
AcDbSpline
 62
9
  6
CONTINUOUS
 70
0
 71
3
 72
23
 73
19
 74
0
 42
0.0000001
 43
0.0000001
 44
0.0000000001
 40
0.0
 40
0.0
 40
0.0
 40
0.0
 40
0.0627724969
 40
0.1255033331
 40
0.1881918735
 40
0.2508380592
 40
0.3134424104
 40
0.37600602
 40
0.4385305365
 40
0.50101814
 40
0.5634715199
 40
0.6258938411
 40
0.6882887167
 40
0.7506600902
 40
0.813012326
 40
0.8753497419
 40
0.937677563
 40
1.0
 40
1.0
 40
1.0
 40
1.0
 10
9.2939180301
 20
3.9254577212
 30
0.0
 10
9.278909785
 20
3.914496103
 30
0.0
 10
9.2495337885
 20
3.8917013824
 30
0.0
 10
9.2075557159
 20
3.8550177927
 30
0.0
 10
9.1678136823
 20
3.8159733184
 30
0.0
 10
9.1304452144
 20
3.7747025532
 30
0.0
 10
9.0955772405
 20
3.7313458009
 30
0.0
 10
9.0633288391
 20
3.6860509894
 30
0.0
 10
9.0338099804
 20
3.638972529
 30
0.0
 10
9.0071213771
 20
3.5902709576
 30
0.0
 10
8.9833540805
 20
3.5401123456
 30
0.0
 10
8.9625891724
 20
3.488667734
 30
0.0
 10
8.9448975153
 20
3.4361125726
 30
0.0
 10
8.9303394413
 20
3.3826260364
 30
0.0
 10
8.9189646988
 20
3.3283907693
 30
0.0
 10
8.9108119848
 20
3.2735910015
 30
0.0
 10
8.9059092742
 20
3.2184162938
 30
0.0
 10
8.9048185034
 20
3.1815017844
 30
0.0
 10
8.9048185034
 20
3.1630499726
 30
0.0
  0
SPLINE
  5
306
100
AcDbEntity
  8
0
100
AcDbSpline
 62
9
  6
CONTINUOUS
 70
0
 71
3
 72
71
 73
67
 74
0
 42
0.0000001
 43
0.0000001
 44
0.0000000001
 40
0.0
 40
0.0
 40
0.0
 40
0.0
 40
0.0155342176
 40
0.0310698281
 40
0.0466067433
 40
0.0621464486
 40
0.0776895249
 40
0.0932368172
 40
0.1087890687
 40
0.1243469767
 40
0.1399111937
 40
0.1554823052
 40
0.1710608287
 40
0.1866472083
 40
0.2022418133
 40
0.2178449339
 40
0.2334567782
 40
0.2490774689
 40
0.2647070433
 40
0.2803454537
 40
0.295992568
 40
0.3116481701
 40
0.3273119618
 40
0.3429835666
 40
0.3586625345
 40
0.3743483452
 40
0.3900404129
 40
0.4057380912
 40
0.4214406812
 40
0.4371474377
 40
0.4528575765
 40
0.4685702805
 40
0.4842847076
 40
0.5
 40
0.5157152924
 40
0.5314297194
 40
0.5471424235
 40
0.5628525623
 40
0.5785593188
 40
0.5942619087
 40
0.6099595871
 40
0.6256516548
 40
0.6413374655
 40
0.6570164334
 40
0.6726880382
 40
0.6883518298
 40
0.704007432
 40
0.7196545463
 40
0.7352929567
 40
0.7509225311
 40
0.7665432218
 40
0.7821550661
 40
0.7977581867
 40
0.8133527917
 40
0.8289391713
 40
0.8445176948
 40
0.8600888063
 40
0.8756530233
 40
0.8912109313
 40
0.9067631828
 40
0.9223104751
 40
0.9378535514
 40
0.9533932567
 40
0.9689301719
 40
0.9844657824
 40
1.0
 40
1.0
 40
1.0
 40
1.0
 10
8.9048185034
 20
3.1630499726
 30
0.0
 10
8.9048185034
 20
3.1475408364
 30
0.0
 10
8.9055890447
 20
3.1165156587
 30
0.0
 10
8.9090531707
 20
3.0700950507
 30
0.0
 10
8.9148178305
 20
3.0238969834
 30
0.0
 10
8.9228685649
 20
2.9780347772
 30
0.0
 10
8.9331863658
 20
2.9326181366
 30
0.0
 10
8.9457462433
 20
2.8877567847
 30
0.0
 10
8.9605179195
 20
2.8435587329
 30
0.0
 10
8.9774657718
 20
2.8001304758
 30
0.0
 10
8.9965489502
 20
2.757576635
 30
0.0
 10
9.0177214956
 20
2.7159997389
 30
0.0
 10
9.0409324142
 20
2.6754999743
 30
0.0
 10
9.0661257236
 20
2.6361748881
 30
0.0
 10
9.0932406975
 20
2.5981192047
 30
0.0
 10
9.1222119988
 20
2.5614245967
 30
0.0
 10
9.1529698427
 20
2.5261794749
 30
0.0
 10
9.1854401362
 20
2.492468761
 30
0.0
 10
9.2195446025
 20
2.4603736205
 30
0.0
 10
9.2552010608
 20
2.4299713462
 30
0.0
 10
9.2923236069
 20
2.4013351642
 30
0.0
 10
9.330822825
 20
2.3745340727
 30
0.0
 10
9.3706059721
 20
2.3496326417
 30
0.0
 10
9.4115771761
 20
2.3266907999
 30
0.0
 10
9.4536377313
 20
2.3057637858
 30
0.0
 10
9.4966863192
 20
2.2869019987
 30
0.0
 10
9.5406192546
 20
2.270150898
 30
0.0
 10
9.5853307081
 20
2.2555508375
 30
0.0
 10
9.6307129597
 20
2.2431369281
 30
0.0
 10
9.6766566929
 20
2.2329390526
 30
0.0
 10
9.7230512448
 20
2.2249817727
 30
0.0
 10
9.7697848698
 20
2.2192842932
 30
0.0
 10
9.8167449952
 20
2.2158603385
 30
0.0
 10
9.8638185034
 20
2.214718106
 30
0.0
 10
9.9108920116
 20
2.2158603385
 30
0.0
 10
9.957852137
 20
2.2192842932
 30
0.0
 10
10.004585762
 20
2.2249817727
 30
0.0
 10
10.0509803139
 20
2.2329390526
 30
0.0
 10
10.0969240471
 20
2.2431369281
 30
0.0
 10
10.1423062987
 20
2.2555508375
 30
0.0
 10
10.1870177523
 20
2.270150898
 30
0.0
 10
10.2309506876
 20
2.2869019987
 30
0.0
 10
10.2739992755
 20
2.3057637858
 30
0.0
 10
10.3160598307
 20
2.3266907999
 30
0.0
 10
10.3570310347
 20
2.3496326417
 30
0.0
 10
10.3968141818
 20
2.3745340727
 30
0.0
 10
10.4353134
 20
2.4013351642
 30
0.0
 10
10.472435946
 20
2.4299713462
 30
0.0
 10
10.5080924043
 20
2.4603736205
 30
0.0
 10
10.5421968706
 20
2.492468761
 30
0.0
 10
10.5746671641
 20
2.5261794749
 30
0.0
 10
10.605425008
 20
2.5614245967
 30
0.0
 10
10.6343963093
 20
2.5981192047
 30
0.0
 10
10.6615112832
 20
2.636174888
 30
0.0
 10
10.6867045927
 20
2.6754999743
 30
0.0
 10
10.7099155112
 20
2.7159997389
 30
0.0
 10
10.7310880566
 20
2.757576635
 30
0.0
 10
10.750171235
 20
2.8001304758
 30
0.0
 10
10.7671190873
 20
2.8435587329
 30
0.0
 10
10.7818907635
 20
2.8877567846
 30
0.0
 10
10.794450641
 20
2.9326181366
 30
0.0
 10
10.8047684419
 20
2.9780347771
 30
0.0
 10
10.8128191763
 20
3.0238969833
 30
0.0
 10
10.8185838361
 20
3.0700950507
 30
0.0
 10
10.8220479621
 20
3.1165156587
 30
0.0
 10
10.8228185034
 20
3.1475408364
 30
0.0
 10
10.8228185034
 20
3.1630499726
 30
0.0
  0
SPLINE
  5
307
100
AcDbEntity
  8
0
100
AcDbSpline
 62
9
  6
CONTINUOUS
 70
0
 71
3
 72
71
 73
67
 74
0
 42
0.0000001
 43
0.0000001
 44
0.0000000001
 40
0.0
 40
0.0
 40
0.0
 40
0.0
 40
0.0155342177
 40
0.0310698282
 40
0.0466067434
 40
0.0621464488
 40
0.077689525
 40
0.0932368174
 40
0.1087890688
 40
0.1243469768
 40
0.1399111938
 40
0.1554823053
 40
0.1710608288
 40
0.1866472085
 40
0.2022418134
 40
0.2178449341
 40
0.2334567783
 40
0.249077469
 40
0.2647070434
 40
0.2803454538
 40
0.2959925681
 40
0.3116481702
 40
0.3273119619
 40
0.3429835667
 40
0.3586625345
 40
0.3743483452
 40
0.3900404129
 40
0.4057380913
 40
0.4214406812
 40
0.4371474377
 40
0.4528575765
 40
0.4685702806
 40
0.4842847077
 40
0.5
 40
0.5157152923
 40
0.5314297194
 40
0.5471424235
 40
0.5628525623
 40
0.5785593188
 40
0.5942619087
 40
0.6099595871
 40
0.6256516548
 40
0.6413374655
 40
0.6570164333
 40
0.6726880381
 40
0.6883518298
 40
0.7040074319
 40
0.7196545462
 40
0.7352929566
 40
0.750922531
 40
0.7665432217
 40
0.7821550659
 40
0.7977581866
 40
0.8133527915
 40
0.8289391712
 40
0.8445176947
 40
0.8600888062
 40
0.8756530232
 40
0.8912109312
 40
0.9067631826
 40
0.922310475
 40
0.9378535512
 40
0.9533932566
 40
0.9689301718
 40
0.9844657823
 40
1.0
 40
1.0
 40
1.0
 40
1.0
 10
10.8131780804
 20
3.1630499726
 30
0.0
 10
10.8131780804
 20
3.1476967432
 30
0.0
 10
10.812415285
 20
3.1169834484
 30
0.0
 10
10.8089859824
 20
3.071029487
 30
0.0
 10
10.8032792723
 20
3.0252958293
 30
0.0
 10
10.7953094685
 20
2.9798946565
 30
0.0
 10
10.785095388
 20
2.9349345703
 30
0.0
 10
10.7726617697
 20
2.8905241906
 30
0.0
 10
10.7580385869
 20
2.8467704433
 30
0.0
 10
10.7412611042
 20
2.8037787522
 30
0.0
 10
10.722369761
 20
2.7616526873
 30
0.0
 10
10.7014100542
 20
2.7204937462
 30
0.0
 10
10.6784324652
 20
2.6804011087
 30
0.0
 10
10.6534924135
 20
2.641471341
 30
0.0
 10
10.626650015
 20
2.6037982154
 30
0.0
 10
10.59796995
 20
2.5674724829
 30
0.0
 10
10.5675213017
 20
2.5325816655
 30
0.0
 10
10.5353774184
 20
2.4992098312
 30
0.0
 10
10.50161579
 20
2.4674373296
 30
0.0
 10
10.466317771
 20
2.4373406767
 30
0.0
 10
10.4295684023
 20
2.4089923621
 30
0.0
 10
10.3914562006
 20
2.3824606908
 30
0.0
 10
10.3520729767
 20
2.3578095834
 30
0.0
 10
10.311513639
 20
2.3350983663
 30
0.0
 10
10.2698759008
 20
2.3143817227
 30
0.0
 10
10.2272600623
 20
2.2957095451
 30
0.0
 10
10.1837687662
 20
2.2791268362
 30
0.0
 10
10.1395067781
 20
2.264673544
 30
0.0
 10
10.0945807352
 20
2.2523844264
 30
0.0
 10
10.049098855
 20
2.2422890659
 30
0.0
 10
10.003170688
 20
2.2344117772
 30
0.0
 10
9.9569068565
 20
2.228771572
 30
0.0
 10
9.9104188014
 20
2.2253820369
 30
0.0
 10
9.8638185034
 20
2.2242512868
 30
0.0
 10
9.8172182054
 20
2.2253820369
 30
0.0
 10
9.7707301503
 20
2.228771572
 30
0.0
 10
9.7244663188
 20
2.2344117772
 30
0.0
 10
9.6785381519
 20
2.2422890659
 30
0.0
 10
9.6330562716
 20
2.2523844264
 30
0.0
 10
9.5881302287
 20
2.264673544
 30
0.0
 10
9.5438682406
 20
2.2791268362
 30
0.0
 10
9.5003769446
 20
2.2957095451
 30
0.0
 10
9.457761106
 20
2.3143817227
 30
0.0
 10
9.4161233678
 20
2.3350983663
 30
0.0
 10
9.3755640301
 20
2.3578095834
 30
0.0
 10
9.3361808063
 20
2.3824606908
 30
0.0
 10
9.2980686045
 20
2.4089923621
 30
0.0
 10
9.2613192358
 20
2.4373406767
 30
0.0
 10
9.2260212168
 20
2.4674373296
 30
0.0
 10
9.1922595884
 20
2.4992098312
 30
0.0
 10
9.1601157051
 20
2.5325816655
 30
0.0
 10
9.1296670569
 20
2.5674724829
 30
0.0
 10
9.1009869918
 20
2.6037982154
 30
0.0
 10
9.0741445933
 20
2.641471341
 30
0.0
 10
9.0492045416
 20
2.6804011087
 30
0.0
 10
9.0262269526
 20
2.7204937462
 30
0.0
 10
9.0052672459
 20
2.7616526873
 30
0.0
 10
8.9863759026
 20
2.8037787522
 30
0.0
 10
8.9695984199
 20
2.8467704433
 30
0.0
 10
8.9549752372
 20
2.8905241906
 30
0.0
 10
8.9425416188
 20
2.9349345703
 30
0.0
 10
8.9323275384
 20
2.9798946565
 30
0.0
 10
8.9243577346
 20
3.0252958293
 30
0.0
 10
8.9186510245
 20
3.071029487
 30
0.0
 10
8.9152217219
 20
3.1169834484
 30
0.0
 10
8.9144589264
 20
3.1476967432
 30
0.0
 10
8.9144589264
 20
3.1630499726
 30
0.0
  0
SPLINE
  5
308
100
AcDbEntity
  8
0
100
AcDbSpline
 62
9
  6
CONTINUOUS
 70
0
 71
3
 72
23
 73
19
 74
0
 42
0.0000001
 43
0.0000001
 44
0.0000000001
 40
0.0
 40
0.0
 40
0.0
 40
0.0
 40
0.0623352259
 40
0.1246757927
 40
0.1870247329
 40
0.2493874164
 40
0.3117675577
 40
0.3741692861
 40
0.4365962453
 40
0.4990518471
 40
0.5615391173
 40
0.6240606812
 40
0.686618728
 40
0.7492149925
 40
0.8118507351
 40
0.8745267241
 40
0.9372432254
 40
1.0
 40
1.0
 40
1.0
 40
1.0
 10
8.9144589264
 20
3.1630499726
 30
0.0
 10
8.9144589264
 20
3.1804989802
 30
0.0
 10
8.9154442316
 20
3.2154065076
 30
0.0
 10
8.9198732309
 20
3.2675977141
 30
0.0
 10
8.9272397895
 20
3.3194653904
 30
0.0
 10
8.9375206703
 20
3.3708457019
 30
0.0
 10
8.9506840834
 20
3.4215794841
 30
0.0
 10
8.9666889132
 20
3.4715086077
 30
0.0
 10
8.9854853897
 20
3.5204777545
 30
0.0
 10
9.0070149699
 20
3.5683345232
 30
0.0
 10
9.0312106409
 20
3.6149299983
 30
0.0
 10
9.0579970817
 20
3.6601191877
 30
0.0
 10
9.0872909034
 20
3.7037614692
 30
0.0
 10
9.1190009514
 20
3.7457210742
 30
0.0
 10
9.1530283976
 20
3.7858673613
 30
0.0
 10
9.1892677771
 20
3.8240757894
 30
0.0
 10
9.2276046253
 20
3.8602261602
 30
0.0
 10
9.2544769422
 20
3.8828755392
 30
0.0
 10
9.2682188435
 20
3.8938190275
 30
0.0
  0
SPLINE
  5
309
100
AcDbEntity
  8
0
100
AcDbSpline
 62
9
  6
CONTINUOUS
 70
0
 71
3
 72
23
 73
19
 74
0
 42
0.0000001
 43
0.0000001
 44
0.0000000001
 40
0.0
 40
0.0
 40
0.0
 40
0.0
 40
0.0627567786
 40
0.1254732835
 40
0.1881492758
 40
0.250785021
 40
0.3133812875
 40
0.3759393357
 40
0.4384609002
 40
0.5009481705
 40
0.5634037717
 40
0.6258307297
 40
0.6882324564
 40
0.7506125955
 40
0.8129752764
 40
0.8753242137
 40
0.9376647773
 40
1.0
 40
1.0
 40
1.0
 40
1.0
 10
10.4594103885
 20
3.893825219
 30
0.0
 10
10.473152568
 20
3.8828817447
 30
0.0
 10
10.5000254352
 20
3.8602323693
 30
0.0
 10
10.538363084
 20
3.8240819335
 30
0.0
 10
10.5746032337
 20
3.7858733728
 30
0.0
 10
10.6086314149
 20
3.7457268887
 30
0.0
 10
10.6403421576
 20
3.7037670259
 30
0.0
 10
10.6696366294
 20
3.6601244297
 30
0.0
 10
10.6964236716
 20
3.6149348728
 30
0.0
 10
10.7206198912
 20
3.5683389819
 30
0.0
 10
10.742149964
 20
3.5204817539
 30
0.0
 10
10.7609468738
 20
3.4715121091
 30
0.0
 10
10.7769520749
 20
3.4215824539
 30
0.0
 10
10.7901157951
 20
3.370848112
 30
0.0
 10
10.8003969167
 20
3.3194672181
 30
0.0
 10
10.8077636484
 20
3.2675989421
 30
0.0
 10
10.812192752
 20
3.2154071246
 30
0.0
 10
10.8131780804
 20
3.1804991858
 30
0.0
 10
10.8131780804
 20
3.1630499726
 30
0.0
  0
SPLINE
  5
30A
100
AcDbEntity
  8
0
100
AcDbSpline
 62
9
  6
CONTINUOUS
 70
0
 71
3
 72
11
 73
7
 74
0
 42
0.0000001
 43
0.0000001
 44
0.0000000001
 40
0.0
 40
0.0
 40
0.0
 40
0.0
 40
0.2467378089
 40
0.4958704725
 40
0.7471574776
 40
1.0
 40
1.0
 40
1.0
 40
1.0
 10
10.8204313279
 20
12.6199085091
 30
0.0
 10
10.7510141031
 20
12.6311537725
 30
0.0
 10
10.6111028459
 20
12.6513413782
 30
0.0
 10
10.3993633312
 20
12.6743718086
 30
0.0
 10
10.1852008922
 20
12.6899747469
 30
0.0
 10
10.0415772707
 20
12.6952035385
 30
0.0
 10
9.9695268801
 20
12.6965001378
 30
0.0
  0
SPLINE
  5
30B
100
AcDbEntity
  8
0
100
AcDbSpline
 62
9
  6
CONTINUOUS
 70
0
 71
3
 72
15
 73
11
 74
0
 42
0.0000001
 43
0.0000001
 44
0.0000000001
 40
0.0
 40
0.0
 40
0.0
 40
0.0
 40
0.1274927939
 40
0.2543626214
 40
0.3805409309
 40
0.5059783067
 40
0.6306437786
 40
0.7545268137
 40
0.8776363909
 40
1.0
 40
1.0
 40
1.0
 40
1.0
 10
10.5187685415
 20
3.5065777449
 30
0.0
 10
10.5187684492
 20
3.5233427212
 30
0.0
 10
10.5178639205
 20
3.5567980418
 30
0.0
 10
10.5137794893
 20
3.606695202
 30
0.0
 10
10.5069947685
 20
3.6560262783
 30
0.0
 10
10.4975467672
 20
3.7046216947
 30
0.0
 10
10.4854874668
 20
3.7523245444
 30
0.0
 10
10.4708794655
 20
3.7989893279
 30
0.0
 10
10.4537955108
 20
3.8444806837
 30
0.0
 10
10.4407682674
 20
3.8740359615
 30
0.0
 10
10.4338686335
 20
3.8885720991
 30
0.0
  0
SPLINE
  5
30C
100
AcDbEntity
  8
0
100
AcDbSpline
 62
9
  6
CONTINUOUS
 70
0
 71
3
 72
15
 73
11
 74
0
 42
0.0000001
 43
0.0000001
 44
0.0000000001
 40
0.0
 40
0.0
 40
0.0
 40
0.0
 40
0.1223635882
 40
0.2454732034
 40
0.3693562372
 40
0.4940216634
 40
0.6194590487
 40
0.7456373813
 40
0.8725071998
 40
1.0
 40
1.0
 40
1.0
 40
1.0
 10
9.2937684714
 20
3.8885722605
 30
0.0
 10
9.2868688441
 20
3.8740361146
 30
0.0
 10
9.2738415994
 20
3.8444808197
 30
0.0
 10
9.2567575596
 20
3.7989894699
 30
0.0
 10
9.2421495349
 20
3.7523246683
 30
0.0
 10
9.2300903134
 20
3.7046217803
 30
0.0
 10
9.2206422783
 20
3.6560263511
 30
0.0
 10
9.213857492
 20
3.606695255
 30
0.0
 10
9.2097731209
 20
3.5567980644
 30
0.0
 10
9.2088685408
 20
3.5233427299
 30
0.0
 10
9.2088684654
 20
3.5065777449
 30
0.0
  0
SPLINE
  5
30D
100
AcDbEntity
  8
0
100
AcDbSpline
 62
9
  6
CONTINUOUS
 70
0
 71
3
 72
16
 73
12
 74
0
 42
0.0000001
 43
0.0000001
 44
0.0000000001
 40
0.0
 40
0.0
 40
0.0
 40
0.0
 40
0.1242642582
 40
0.1866155598
 40
0.2490789726
 40
0.3742356737
 40
0.4995816154
 40
0.624958026
 40
0.7502261123
 40
0.8752695243
 40
1.0
 40
1.0
 40
1.0
 40
1.0
 10
9.2088684654
 20
3.5065777449
 30
0.0
 10
9.208868588
 20
3.4842917764
 30
0.0
 10
9.2100725008
 20
3.4508078438
 30
0.0
 10
9.2140449863
 20
3.406307655
 30
0.0
 10
9.2196005095
 20
3.3618140526
 30
0.0
 10
9.2294762366
 20
3.3065114914
 30
0.0
 10
9.2458875315
 20
3.2410750238
 30
0.0
 10
9.266719423
 20
3.1768878616
 30
0.0
 10
9.2917976132
 20
3.114297064
 30
0.0
 10
9.3209278583
 20
3.0536192349
 30
0.0
 10
9.3429467984
 20
3.0145657077
 30
0.0
 10
9.3545641024
 20
2.9954493162
 30
0.0
  0
SPLINE
  5
30E
100
AcDbEntity
  8
0
100
AcDbSpline
 62
9
  6
CONTINUOUS
 70
0
 71
3
 72
16
 73
12
 74
0
 42
0.0000001
 43
0.0000001
 44
0.0000000001
 40
0.0
 40
0.0
 40
0.0
 40
0.0
 40
0.1247304809
 40
0.2497738852
 40
0.3750419669
 40
0.5004183751
 40
0.6257643212
 40
0.750921023
 40
0.8133844336
 40
0.8757357395
 40
1.0
 40
1.0
 40
1.0
 40
1.0
 10
10.3730729045
 20
2.9954493162
 30
0.0
 10
10.3846901693
 20
3.0145657325
 30
0.0
 10
10.4067091937
 20
3.0536192096
 30
0.0
 10
10.4358393547
 20
3.1142970818
 30
0.0
 10
10.4609175532
 20
3.1768878671
 30
0.0
 10
10.4817495479
 20
3.2410749991
 30
0.0
 10
10.4981606971
 20
3.3065115044
 30
0.0
 10
10.5080364817
 20
3.3618140514
 30
0.0
 10
10.5135920416
 20
3.406307651
 30
0.0
 10
10.5175644763
 20
3.4508078442
 30
0.0
 10
10.5187684411
 20
3.4842917761
 30
0.0
 10
10.5187685415
 20
3.5065777449
 30
0.0
  0
SPLINE
  5
30F
100
AcDbEntity
  8
0
100
AcDbSpline
 62
9
  6
CONTINUOUS
 70
0
 71
3
 72
9
 73
5
 74
0
 42
0.0000001
 43
0.0000001
 44
0.0000000001
 40
0.0
 40
0.0
 40
0.0
 40
0.0
 40
0.4939675613
 40
1.0
 40
1.0
 40
1.0
 40
1.0
 10
10.3699173114
 20
2.9923300794
 30
0.0
 10
10.3705554563
 20
2.9926976173
 30
0.0
 10
10.371753833
 20
2.9936159188
 30
0.0
 10
10.3726811079
 20
2.9948046276
 30
0.0
 10
10.3730729045
 20
2.9954493162
 30
0.0
  0
SPLINE
  5
310
100
AcDbEntity
  8
0
100
AcDbSpline
 62
9
  6
CONTINUOUS
 70
0
 71
3
 72
21
 73
17
 74
0
 42
0.0000001
 43
0.0000001
 44
0.0000000001
 40
0.0
 40
0.0
 40
0.0
 40
0.0
 40
0.0607424303
 40
0.1220882032
 40
0.1840175366
 40
0.246486626
 40
0.3094279539
 40
0.3727498264
 40
0.4999999966
 40
0.6272501686
 40
0.6905720365
 40
0.7535133769
 40
0.8159824484
 40
0.8779117947
 40
0.9392576084
 40
1.0
 40
1.0
 40
1.0
 40
1.0
 10
9.3577196955
 20
2.9923300794
 30
0.0
 10
9.3762874949
 20
2.9816363525
 30
0.0
 10
9.4143406741
 20
2.9613888966
 30
0.0
 10
9.4735810428
 20
2.93474191
 30
0.0
 10
9.5350203094
 20
2.9118378629
 30
0.0
 10
9.5983636019
 20
2.89283992
 30
0.0
 10
9.6632903891
 20
2.8778943478
 30
0.0
 10
9.7516070077
 20
2.8635125954
 30
0.0
 10
9.8638185024
 20
2.856275701
 30
0.0
 10
9.9760299742
 20
2.863512671
 30
0.0
 10
10.0643466258
 20
2.8778942795
 30
0.0
 10
10.129273361
 20
2.8928400494
 30
0.0
 10
10.1926167348
 20
2.9118377117
 30
0.0
 10
10.2540560073
 20
2.9347418216
 30
0.0
 10
10.3132962199
 20
2.9613891425
 30
0.0
 10
10.3513495275
 20
2.9816363529
 30
0.0
 10
10.3699173114
 20
2.9923300794
 30
0.0
  0
SPLINE
  5
311
100
AcDbEntity
  8
0
100
AcDbSpline
 62
9
  6
CONTINUOUS
 70
0
 71
3
 72
9
 73
5
 74
0
 42
0.0000001
 43
0.0000001
 44
0.0000000001
 40
0.0
 40
0.0
 40
0.0
 40
0.0
 40
0.5060329968
 40
1.0
 40
1.0
 40
1.0
 40
1.0
 10
9.3545641024
 20
2.9954493162
 30
0.0
 10
9.3549558989
 20
2.9948046266
 30
0.0
 10
9.3558831745
 20
2.9936159181
 30
0.0
 10
9.3570815516
 20
2.9926976174
 30
0.0
 10
9.3577196955
 20
2.9923300794
 30
0.0
  0
SPLINE
  5
312
100
AcDbEntity
  8
0
100
AcDbSpline
 62
9
  6
CONTINUOUS
 70
0
 71
3
 72
57
 73
53
 74
0
 42
0.0000001
 43
0.0000001
 44
0.0000000001
 40
0.0
 40
0.0
 40
0.0
 40
0.0
 40
0.015536081
 40
0.0310740274
 40
0.0466129071
 40
0.0621546264
 40
0.0932395139
 40
0.124344209
 40
0.1399104628
 40
0.1554836114
 40
0.1710641726
 40
0.1866525908
 40
0.2022492351
 40
0.2178543973
 40
0.2334682846
 40
0.2490910181
 40
0.2647226366
 40
0.2803630939
 40
0.2960122556
 40
0.3116699045
 40
0.3273357449
 40
0.343009401
 40
0.3743689734
 40
0.4057535386
 40
0.4371577247
 40
0.4685754203
 40
0.5
 40
0.5314245797
 40
0.5628422753
 40
0.5942464614
 40
0.6256310266
 40
0.656990599
 40
0.6726642551
 40
0.6883300955
 40
0.7039877444
 40
0.7196369061
 40
0.7352773634
 40
0.7509089819
 40
0.7665317154
 40
0.7821456027
 40
0.7977507649
 40
0.8133474092
 40
0.8289358274
 40
0.8445163886
 40
0.8600895372
 40
0.875655791
 40
0.9067604861
 40
0.9378453736
 40
0.9533870929
 40
0.9689259726
 40
0.984463919
 40
1.0
 40
1.0
 40
1.0
 40
1.0
 10
10.4970985348
 20
3.5324668418
 30
0.0
 10
10.4970985348
 20
3.5222254256
 30
0.0
 10
10.4965896345
 20
3.5017376914
 30
0.0
 10
10.4943022059
 20
3.4710837324
 30
0.0
 10
10.4904952938
 20
3.4405759523
 30
0.0
 10
10.4834078925
 20
3.400199667
 30
0.0
 10
10.4707988745
 20
3.3504421496
 30
0.0
 10
10.4533195803
 20
3.302162748
 30
0.0
 10
10.4365239685
 20
3.2647110318
 30
0.0
 10
10.4225424387
 20
3.2372549919
 30
0.0
 10
10.4072150731
 20
3.2105109216
 30
0.0
 10
10.3905785159
 20
3.1845424061
 30
0.0
 10
10.372673023
 20
3.1594121787
 30
0.0
 10
10.3535417135
 20
3.1351807105
 30
0.0
 10
10.3332306031
 20
3.1119064627
 30
0.0
 10
10.3117886906
 20
3.0896454528
 30
0.0
 10
10.2892676772
 20
3.0684512546
 30
0.0
 10
10.2657217971
 20
3.0483749649
 30
0.0
 10
10.2412076763
 20
3.0294649703
 30
0.0
 10
10.2157846895
 20
3.0117668213
 30
0.0
 10
10.1895131848
 20
2.9953227746
 30
0.0
 10
10.1534390303
 20
2.9751226013
 30
0.0
 10
10.1065292459
 20
2.9531931071
 30
0.0
 10
10.047927265
 20
2.9324694079
 30
0.0
 10
9.9875506297
 20
2.9175214947
 30
0.0
 10
9.9259837995
 20
2.9084952874
 30
0.0
 10
9.8638185034
 20
2.9054766985
 30
0.0
 10
9.8016532074
 20
2.9084952874
 30
0.0
 10
9.7400863772
 20
2.9175214947
 30
0.0
 10
9.6797097418
 20
2.9324694079
 30
0.0
 10
9.6211077609
 20
2.9531931071
 30
0.0
 10
9.5741979765
 20
2.9751226013
 30
0.0
 10
9.538123822
 20
2.9953227746
 30
0.0
 10
9.5118523174
 20
3.0117668213
 30
0.0
 10
9.4864293305
 20
3.0294649703
 30
0.0
 10
9.4619152097
 20
3.0483749649
 30
0.0
 10
9.4383693296
 20
3.0684512546
 30
0.0
 10
9.4158483163
 20
3.0896454528
 30
0.0
 10
9.3944064038
 20
3.1119064627
 30
0.0
 10
9.3740952933
 20
3.1351807105
 30
0.0
 10
9.3549639838
 20
3.1594121787
 30
0.0
 10
9.3370584909
 20
3.1845424061
 30
0.0
 10
9.3204219337
 20
3.2105109216
 30
0.0
 10
9.3050945681
 20
3.2372549919
 30
0.0
 10
9.2911130384
 20
3.2647110318
 30
0.0
 10
9.2743174266
 20
3.302162748
 30
0.0
 10
9.2568381323
 20
3.3504421496
 30
0.0
 10
9.2442291143
 20
3.400199667
 30
0.0
 10
9.2371417131
 20
3.4405759523
 30
0.0
 10
9.2333348009
 20
3.4710837324
 30
0.0
 10
9.2310473723
 20
3.5017376914
 30
0.0
 10
9.230538472
 20
3.5222254256
 30
0.0
 10
9.230538472
 20
3.5324668418
 30
0.0
  0
SPLINE
  5
313
100
AcDbEntity
  8
0
100
AcDbSpline
 62
7
  6
CONTINUOUS
 70
0
 71
3
 72
49
 73
45
 74
0
 42
0.0000001
 43
0.0000001
 44
0.0000000001
 40
0.0
 40
0.0
 40
0.0
 40
0.0
 40
0.015537194
 40
0.0310763753
 40
0.0466164136
 40
0.0621592816
 40
0.0932465135
 40
0.1243535406
 40
0.1399209643
 40
0.155495282
 40
0.1710770105
 40
0.1866665996
 40
0.2022644164
 40
0.2178707468
 40
0.2491002859
 40
0.28036531
 40
0.3116651074
 40
0.3429976182
 40
0.3743595428
 40
0.4057464659
 40
0.4371530074
 40
0.4685730633
 40
0.5
 40
0.5314269367
 40
0.5628469926
 40
0.5942535341
 40
0.6256404572
 40
0.6570023818
 40
0.6883348926
 40
0.71963469
 40
0.7508997141
 40
0.7821292532
 40
0.7977355836
 40
0.8133334004
 40
0.8289229895
 40
0.844504718
 40
0.8600790357
 40
0.8756464594
 40
0.9067534865
 40
0.9378407184
 40
0.9533835864
 40
0.9689236247
 40
0.984462806
 40
1.0
 40
1.0
 40
1.0
 40
1.0
 10
9.2733185034
 20
3.5475031122
 30
0.0
 10
9.2733185034
 20
3.537953568
 30
0.0
 10
9.2737930392
 20
3.5188498347
 30
0.0
 10
9.2759259269
 20
3.4902666399
 30
0.0
 10
9.2794756647
 20
3.4618197269
 30
0.0
 10
9.2860843265
 20
3.424171001
 30
0.0
 10
9.2978415079
 20
3.3777747484
 30
0.0
 10
9.3141400802
 20
3.3327567855
 30
0.0
 10
9.3298010658
 20
3.2978350337
 30
0.0
 10
9.3428380769
 20
3.2722337331
 30
0.0
 10
9.3571301075
 20
3.247296307
 30
0.0
 10
9.3726426869
 20
3.223082141
 30
0.0
 10
9.3893389803
 20
3.1996491177
 30
0.0
 10
9.4131253161
 20
3.1695211457
 30
0.0
 10
9.445625122
 20
3.134079121
 30
0.0
 10
9.4886317786
 20
3.0955542298
 30
0.0
 10
9.5352522288
 20
3.0613800103
 30
0.0
 10
9.5850353422
 20
3.0318884082
 30
0.0
 10
9.6375020928
 20
3.0073620035
 30
0.0
 10
9.6921472665
 20
2.9880371146
 30
0.0
 10
9.7484447664
 20
2.9740993486
 30
0.0
 10
9.8058526873
 20
2.9656826756
 30
0.0
 10
9.8638185034
 20
2.9628682023
 30
0.0
 10
9.9217843196
 20
2.9656826756
 30
0.0
 10
9.9791922404
 20
2.9740993486
 30
0.0
 10
10.0354897404
 20
2.9880371146
 30
0.0
 10
10.090134914
 20
3.0073620035
 30
0.0
 10
10.1426016646
 20
3.0318884082
 30
0.0
 10
10.192384778
 20
3.0613800103
 30
0.0
 10
10.2390052282
 20
3.0955542298
 30
0.0
 10
10.2820118848
 20
3.134079121
 30
0.0
 10
10.3145116907
 20
3.1695211457
 30
0.0
 10
10.3382980265
 20
3.1996491177
 30
0.0
 10
10.3549943199
 20
3.223082141
 30
0.0
 10
10.3705068993
 20
3.247296307
 30
0.0
 10
10.3847989299
 20
3.2722337331
 30
0.0
 10
10.397835941
 20
3.2978350337
 30
0.0
 10
10.4134969267
 20
3.3327567855
 30
0.0
 10
10.4297954989
 20
3.3777747484
 30
0.0
 10
10.4415526804
 20
3.424171001
 30
0.0
 10
10.4481613422
 20
3.4618197269
 30
0.0
 10
10.45171108
 20
3.4902666399
 30
0.0
 10
10.4538439676
 20
3.5188498347
 30
0.0
 10
10.4543185034
 20
3.537953568
 30
0.0
 10
10.4543185034
 20
3.5475031122
 30
0.0
  0
SPLINE
  5
314
100
AcDbEntity
  8
0
100
AcDbSpline
 62
9
  6
CONTINUOUS
 70
0
 71
3
 72
11
 73
7
 74
0
 42
0.0000001
 43
0.0000001
 44
0.0000000001
 40
0.0
 40
0.0
 40
0.0
 40
0.0
 40
0.2528426349
 40
0.5041296687
 40
0.753262301
 40
1.0
 40
1.0
 40
1.0
 40
1.0
 10
8.8306140503
 20
11.557587308
 30
0.0
 10
8.8319106476
 20
11.4855368853
 30
0.0
 10
8.8371394568
 20
11.3419132244
 30
0.0
 10
8.8527423816
 20
11.1277507531
 30
0.0
 10
8.8757728555
 20
10.9160112759
 30
0.0
 10
8.895960421
 20
10.7761000541
 30
0.0
 10
8.9072056789
 20
10.7066828602
 30
0.0
  0
SPLINE
  5
315
100
AcDbEntity
  8
0
100
AcDbSpline
 62
9
  6
CONTINUOUS
 70
0
 71
3
 72
15
 73
11
 74
0
 42
0.0000001
 43
0.0000001
 44
0.0000000001
 40
0.0
 40
0.0
 40
0.0
 40
0.0
 40
0.1247377645
 40
0.2497843129
 40
0.3750535279
 40
0.500430583
 40
0.6257777392
 40
0.7509364618
 40
0.875734067
 40
1.0
 40
1.0
 40
1.0
 40
1.0
 10
10.3792952363
 20
2.9934493401
 30
0.0
 10
10.3908242051
 20
3.0126033389
 30
0.0
 10
10.4126710258
 20
3.0517210056
 30
0.0
 10
10.4415589741
 20
3.112466745
 30
0.0
 10
10.4664193593
 20
3.1750964653
 30
0.0
 10
10.4870627652
 20
3.2392969281
 30
0.0
 10
10.5033203747
 20
3.3047265317
 30
0.0
 10
10.5150487693
 20
3.3710144109
 30
0.0
 10
10.5221382504
 20
3.4377603916
 30
0.0
 10
10.5237289172
 20
3.4824143168
 30
0.0
 10
10.5237290021
 20
3.5046857991
 30
0.0
  0
LINE
  5
316
100
AcDbEntity
  8
0
100
AcDbLine
 62
9
  6
CONTINUOUS
 10
10.3949368402
 20
2.8836609726
 11
10.3792952363
 21
2.9934493401
  0
SPLINE
  5
317
100
AcDbEntity
  8
0
100
AcDbSpline
 62
9
  6
CONTINUOUS
 70
0
 71
3
 72
21
 73
17
 74
0
 42
0.0000001
 43
0.0000001
 44
0.0000000001
 40
0.0
 40
0.0
 40
0.0
 40
0.0
 40
0.063448985
 40
0.126825083
 40
0.1901221361
 40
0.253339958
 40
0.3794764119
 40
0.5052091615
 40
0.5679101994
 40
0.63046106
 40
0.6928331158
 40
0.7549877765
 40
0.8168728212
 40
0.8784143612
 40
0.9395092314
 40
1.0
 40
1.0
 40
1.0
 40
1.0
 10
10.6473928385
 20
3.3735475114
 30
0.0
 10
10.6473926603
 20
3.3608856688
 30
0.0
 10
10.6467740203
 20
3.3355721316
 30
0.0
 10
10.6439936648
 20
3.2977192139
 30
0.0
 10
10.6393667259
 20
3.2600919795
 30
0.0
 10
10.6307584315
 20
3.2103961977
 30
0.0
 10
10.6154566093
 20
3.149295653
 30
0.0
 10
10.5942192358
 20
3.0901043598
 30
0.0
 10
10.573818245
 20
3.0443419772
 30
0.0
 10
10.556872496
 20
3.0109356445
 30
0.0
 10
10.5383220147
 20
2.9785194526
 30
0.0
 10
10.5182269976
 20
2.9471946786
 30
0.0
 10
10.4966589001
 20
2.917068908
 30
0.0
 10
10.4737031864
 20
2.888255846
 30
0.0
 10
10.4494670943
 20
2.8608827713
 30
0.0
 10
10.4324387427
 20
2.8435791488
 30
0.0
 10
10.4237419435
 20
2.8352073593
 30
0.0
  0
SPLINE
  5
318
100
AcDbEntity
  8
0
100
AcDbSpline
 62
9
  6
CONTINUOUS
 70
0
 71
3
 72
19
 73
15
 74
0
 42
0.0000001
 43
0.0000001
 44
0.0000000001
 40
0.0
 40
0.0
 40
0.0
 40
0.0
 40
0.1867719285
 40
0.3575056434
 40
0.5111903837
 40
0.646953212
 40
0.7078787812
 40
0.7640616012
 40
0.8154430932
 40
0.8619802712
 40
0.9036586064
 40
0.9405003772
 40
0.9725700588
 40
1.0
 40
1.0
 40
1.0
 40
1.0
 10
10.4237419435
 20
2.8352073593
 30
0.0
 10
10.4216427891
 20
2.8380433601
 30
0.0
 10
10.4176679294
 20
2.843504047
 30
0.0
 10
10.4121369983
 20
2.8514212182
 30
0.0
 10
10.4073270771
 20
2.8586638372
 30
0.0
 10
10.4038273296
 20
2.8642836503
 30
0.0
 10
10.4014243746
 20
2.8684127348
 30
0.0
 10
10.399886367
 20
2.8711998559
 30
0.0
 10
10.3985486387
 20
2.87378594
 30
0.0
 10
10.3974131496
 20
2.8761667613
 30
0.0
 10
10.3964815537
 20
2.8783386287
 30
0.0
 10
10.3957551669
 20
2.8802987642
 30
0.0
 10
10.3952349555
 20
2.8820442804
 30
0.0
 10
10.3950078545
 20
2.8831476746
 30
0.0
 10
10.3949368402
 20
2.8836609726
 30
0.0
  0
SPLINE
  5
319
100
AcDbEntity
  8
0
100
AcDbSpline
 62
9
  6
CONTINUOUS
 70
0
 71
3
 72
23
 73
19
 74
0
 42
0.0000001
 43
0.0000001
 44
0.0000000001
 40
0.0
 40
0.0
 40
0.0
 40
0.0
 40
0.0626395002
 40
0.1252490815
 40
0.1878277471
 40
0.250379835
 40
0.3129070707
 40
0.375412518
 40
0.4378991509
 40
0.5003701939
 40
0.5628290313
 40
0.6252791661
 40
0.6877241936
 40
0.7501677581
 40
0.812613518
 40
0.8750651087
 40
0.9375261095
 40
1.0
 40
1.0
 40
1.0
 40
1.0
 10
10.3949368402
 20
2.8836609726
 30
0.0
 10
10.4036377968
 20
2.8970731029
 30
0.0
 10
10.4203647392
 20
2.9243331039
 30
0.0
 10
10.4433592797
 20
2.9664187776
 30
0.0
 10
10.4641968977
 20
3.0095897118
 30
0.0
 10
10.4828247773
 20
3.0537359908
 30
0.0
 10
10.4991964336
 20
3.0987480036
 30
0.0
 10
10.5132708878
 20
3.1445128568
 30
0.0
 10
10.5250128804
 20
3.1909161643
 30
0.0
 10
10.5343930545
 20
3.2378418099
 30
0.0
 10
10.5413879505
 20
3.2851724025
 30
0.0
 10
10.5459800661
 20
3.3327895391
 30
0.0
 10
10.5481579072
 20
3.3805740887
 30
0.0
 10
10.5479160016
 20
3.4284065389
 30
0.0
 10
10.5452549553
 20
3.4761671098
 30
0.0
 10
10.5401813602
 20
3.5237367355
 30
0.0
 10
10.5327082728
 20
3.5709948454
 30
0.0
 10
10.5261389602
 20
3.6022138778
 30
0.0
 10
10.5224624506
 20
3.6177292074
 30
0.0
  0
SPLINE
  5
31A
100
AcDbEntity
  8
0
100
AcDbSpline
 62
9
  6
CONTINUOUS
 70
0
 71
3
 72
23
 73
19
 74
0
 42
0.0000001
 43
0.0000001
 44
0.0000000001
 40
0.0
 40
0.0
 40
0.0
 40
0.0
 40
0.0624247046
 40
0.1250394663
 40
0.1877575532
 40
0.2505186189
 40
0.3132824188
 40
0.3760218519
 40
0.4387183503
 40
0.5013595832
 40
0.5639375573
 40
0.6264473842
 40
0.6888862884
 40
0.7512530905
 40
0.8135476799
 40
0.8757693262
 40
0.9379215745
 40
1.0
 40
1.0
 40
1.0
 40
1.0
 10
10.4337090521
 20
3.9174984897
 30
0.0
 10
10.4420334114
 20
3.9082557435
 30
0.0
 10
10.4583270173
 20
3.8893950278
 30
0.0
 10
10.4815634202
 20
3.8600589026
 30
0.0
 10
10.5035402283
 20
3.8296835229
 30
0.0
 10
10.524166506
 20
3.7983395733
 30
0.0
 10
10.543367781
 20
3.7660976405
 30
0.0
 10
10.5610812804
 20
3.7330293089
 30
0.0
 10
10.5772533547
 20
3.699207276
 30
0.0
 10
10.5918376304
 20
3.6647055999
 30
0.0
 10
10.6047945051
 20
3.6295998901
 30
0.0
 10
10.6160899798
 20
3.5939670875
 30
0.0
 10
10.6256952353
 20
3.5578854266
 30
0.0
 10
10.6335862735
 20
3.5214342898
 30
0.0
 10
10.639743611
 20
3.4846944717
 30
0.0
 10
10.6441527514
 20
3.4477468702
 30
0.0
 10
10.6468026197
 20
3.4106755898
 30
0.0
 10
10.6473928331
 20
3.3859172943
 30
0.0
 10
10.6473928385
 20
3.3735475114
 30
0.0
  0
SPLINE
  5
31B
100
AcDbEntity
  8
0
100
AcDbSpline
 62
9
  6
CONTINUOUS
 70
0
 71
3
 72
21
 73
17
 74
0
 42
0.0000001
 43
0.0000001
 44
0.0000000001
 40
0.0
 40
0.0
 40
0.0
 40
0.0
 40
0.0607529207
 40
0.1221038067
 40
0.1840342246
 40
0.2465017313
 40
0.3094396306
 40
0.37275734
 40
0.499999998
 40
0.6272426313
 40
0.6905604383
 40
0.7534983123
 40
0.8159657772
 40
0.877896213
 40
0.9392470506
 40
1.0
 40
1.0
 40
1.0
 40
1.0
 10
9.357610406
 20
2.9842874906
 30
0.0
 10
9.3762174072
 20
2.9736800922
 30
0.0
 10
9.4143371298
 20
2.9536017419
 30
0.0
 10
9.4736476362
 20
2.9271920991
 30
0.0
 10
9.5351264381
 20
2.9045029905
 30
0.0
 10
9.5984827612
 20
2.8856922309
 30
0.0
 10
9.6634001746
 20
2.8708996984
 30
0.0
 10
9.7516817036
 20
2.8566698566
 30
0.0
 10
9.863818484
 20
2.8495122375
 30
0.0
 10
9.9759553348
 20
2.856669698
 30
0.0
 10
10.0642368331
 20
2.8708998284
 30
0.0
 10
10.1291542697
 20
2.8856922843
 30
0.0
 10
10.1925105968
 20
2.9045029827
 30
0.0
 10
10.253989355
 20
2.9271921322
 30
0.0
 10
10.3132998939
 20
2.9536017005
 30
0.0
 10
10.3514195925
 20
2.9736800842
 30
0.0
 10
10.3700266008
 20
2.9842874906
 30
0.0
  0
LINE
  5
31C
100
AcDbEntity
  8
0
100
AcDbLine
 62
9
  6
CONTINUOUS
 10
10.3858829577
 20
2.8747114019
 11
10.3700266008
 21
2.9842874906
  0
LINE
  5
31D
100
AcDbEntity
  8
0
100
AcDbLine
 62
9
  6
CONTINUOUS
 10
9.3417540491
 20
2.8747114019
 11
9.357610406
 21
2.9842874906
  0
SPLINE
  5
31E
100
AcDbEntity
  8
0
100
AcDbSpline
 62
9
  6
CONTINUOUS
 70
0
 71
3
 72
33
 73
29
 74
0
 42
0.0000001
 43
0.0000001
 44
0.0000000001
 40
0.0
 40
0.0
 40
0.0
 40
0.0
 40
0.0310348891
 40
0.0621728893
 40
0.093372317
 40
0.1246101703
 40
0.1871265466
 40
0.2496784001
 40
0.2809689212
 40
0.3122608279
 40
0.3435534191
 40
0.3748463243
 40
0.4061393711
 40
0.4374324634
 40
0.500000001
 40
0.562567537
 40
0.5938606293
 40
0.6251536755
 40
0.6564465809
 40
0.687739172
 40
0.7190310785
 40
0.7503215995
 40
0.8128734528
 40
0.8753898289
 40
0.906627682
 40
0.9378271099
 40
0.9689651105
 40
1.0
 40
1.0
 40
1.0
 40
1.0
 10
10.4167784494
 20
2.8283240919
 30
0.0
 10
10.4078508803
 20
2.8192754069
 30
0.0
 10
10.3895008927
 20
2.8016003652
 30
0.0
 10
10.3606408913
 20
2.776483487
 30
0.0
 10
10.3304880261
 20
2.7527966099
 30
0.0
 10
10.2886953881
 20
2.7232246785
 30
0.0
 10
10.2337176437
 20
2.690201035
 30
0.0
 10
10.1757194068
 20
2.6627807652
 30
0.0
 10
10.1278744132
 20
2.6443549598
 30
0.0
 10
10.0913413442
 20
2.6323147424
 30
0.0
 10
10.054260687
 20
2.6220841863
 30
0.0
 10
10.0167224359
 20
2.6136846664
 30
0.0
 10
9.9788169031
 20
2.607133653
 30
0.0
 10
9.9279212355
 20
2.6008824689
 30
0.0
 10
9.8638185003
 20
2.5977471261
 30
0.0
 10
9.799715767
 20
2.6008824872
 30
0.0
 10
9.7488200991
 20
2.6071336602
 30
0.0
 10
9.7109145648
 20
2.6136846648
 30
0.0
 10
9.6733763153
 20
2.6220841907
 30
0.0
 10
9.636295657
 20
2.6323147427
 30
0.0
 10
9.5997625885
 20
2.6443549612
 30
0.0
 10
9.5519175953
 20
2.6627807669
 30
0.0
 10
9.4939193585
 20
2.6902010363
 30
0.0
 10
9.4389416137
 20
2.7232246791
 30
0.0
 10
9.3971489795
 20
2.7527966158
 30
0.0
 10
9.3669961146
 20
2.7764834933
 30
0.0
 10
9.3381361103
 20
2.8016003691
 30
0.0
 10
9.3197861251
 20
2.8192754136
 30
0.0
 10
9.3108585539
 20
2.8283240967
 30
0.0
  0
SPLINE
  5
31F
100
AcDbEntity
  8
0
100
AcDbSpline
 62
9
  6
CONTINUOUS
 70
0
 71
3
 72
19
 73
15
 74
0
 42
0.0000001
 43
0.0000001
 44
0.0000000001
 40
0.0
 40
0.0
 40
0.0
 40
0.0
 40
0.1873813175
 40
0.3584860912
 40
0.5123146645
 40
0.6480157666
 40
0.7088445912
 40
0.7648943414
 40
0.8161153014
 40
0.8624765459
 40
0.9039771178
 40
0.9406551818
 40
0.9726021772
 40
1.0
 40
1.0
 40
1.0
 40
1.0
 10
9.3108585539
 20
2.8283240967
 30
0.0
 10
9.3131016416
 20
2.831015379
 30
0.0
 10
9.3173519666
 20
2.8361986179
 30
0.0
 10
9.3232766115
 20
2.8437263862
 30
0.0
 10
9.3284353616
 20
2.8506241842
 30
0.0
 10
9.332194325
 20
2.8559910949
 30
0.0
 10
9.334776972
 20
2.8599452989
 30
0.0
 10
9.3364300386
 20
2.8626188872
 30
0.0
 10
9.3378683278
 20
2.8651059057
 30
0.0
 10
9.3390892559
 20
2.8674026895
 30
0.0
 10
9.3400910051
 20
2.8695057199
 30
0.0
 10
9.3408727
 20
2.8714121589
 30
0.0
 10
9.3414334789
 20
2.873119425
 30
0.0
 10
9.3416778313
 20
2.8742048435
 30
0.0
 10
9.3417540491
 20
2.8747114019
 30
0.0
  0
SPLINE
  5
320
100
AcDbEntity
  8
0
100
AcDbSpline
 62
9
  6
CONTINUOUS
 70
0
 71
3
 72
27
 73
23
 74
0
 42
0.0000001
 43
0.0000001
 44
0.0000000001
 40
0.0
 40
0.0
 40
0.0
 40
0.0
 40
0.0623841394
 40
0.0935972213
 40
0.1248204096
 40
0.1872859949
 40
0.2497848644
 40
0.2810499111
 40
0.312321068
 40
0.3748687217
 40
0.4374307348
 40
0.5
 40
0.5625692652
 40
0.6251312783
 40
0.687678932
 40
0.7189500889
 40
0.7502151356
 40
0.8127140051
 40
0.8751795904
 40
0.9064027787
 40
0.9376158606
 40
1.0
 40
1.0
 40
1.0
 40
1.0
 10
10.3858829577
 20
2.8747114019
 30
0.0
 10
10.3665374653
 20
2.862448769
 30
0.0
 10
10.3368456835
 20
2.8450726238
 30
0.0
 10
10.2961134693
 20
2.8240549486
 30
0.0
 10
10.2546344725
 20
2.8044775698
 30
0.0
 10
10.201503829
 20
2.7827662658
 30
0.0
 10
10.1469581221
 20
2.7648557206
 30
0.0
 10
10.1026374962
 20
2.752859284
 30
0.0
 10
10.0579041736
 20
2.7424289539
 30
0.0
 10
10.0013261017
 20
2.7323569249
 30
0.0
 10
9.9327480235
 20
2.7250823242
 30
0.0
 10
9.8638185034
 20
2.7226531339
 30
0.0
 10
9.7948889833
 20
2.7250823242
 30
0.0
 10
9.7263109051
 20
2.7323569249
 30
0.0
 10
9.6697328333
 20
2.7424289539
 30
0.0
 10
9.6249995106
 20
2.752859284
 30
0.0
 10
9.5806788847
 20
2.7648557206
 30
0.0
 10
9.5261331779
 20
2.7827662658
 30
0.0
 10
9.4730025344
 20
2.8044775698
 30
0.0
 10
9.4315235375
 20
2.8240549486
 30
0.0
 10
9.3907913234
 20
2.8450726238
 30
0.0
 10
9.3610995415
 20
2.862448769
 30
0.0
 10
9.3417540491
 20
2.8747114019
 30
0.0
  0
SPLINE
  5
321
100
AcDbEntity
  8
0
100
AcDbSpline
 62
9
  6
CONTINUOUS
 70
0
 71
3
 72
19
 73
15
 74
0
 42
0.0000001
 43
0.0000001
 44
0.0000000001
 40
0.0
 40
0.0
 40
0.0
 40
0.0
 40
0.1873812152
 40
0.3584859089
 40
0.512314389
 40
0.6480154251
 40
0.7088442149
 40
0.7648939358
 40
0.8161148549
 40
0.8624759495
 40
0.9039762572
 40
0.9406542815
 40
0.9726017844
 40
1.0
 40
1.0
 40
1.0
 40
1.0
 10
10.4167784494
 20
2.8283240919
 30
0.0
 10
10.4145353543
 20
2.8310153684
 30
0.0
 10
10.4102850458
 20
2.8361986215
 30
0.0
 10
10.4043603639
 20
2.8437263614
 30
0.0
 10
10.3992016273
 20
2.8506241712
 30
0.0
 10
10.3954426826
 20
2.855991095
 30
0.0
 10
10.3928600351
 20
2.8599452992
 30
0.0
 10
10.3912069837
 20
2.8626188971
 30
0.0
 10
10.3897686994
 20
2.865105915
 30
0.0
 10
10.3885477068
 20
2.8674026551
 30
0.0
 10
10.3875458454
 20
2.8695056243
 30
0.0
 10
10.3867641232
 20
2.8714120612
 30
0.0
 10
10.3862034685
 20
2.87311939
 30
0.0
 10
10.3859591822
 20
2.8742048368
 30
0.0
 10
10.3858829577
 20
2.8747114019
 30
0.0
  0
SPLINE
  5
322
100
AcDbEntity
  8
0
100
AcDbSpline
 62
9
  6
CONTINUOUS
 70
0
 71
3
 72
15
 73
11
 74
0
 42
0.0000001
 43
0.0000001
 44
0.0000000001
 40
0.0
 40
0.0
 40
0.0
 40
0.0
 40
0.1242659342
 40
0.2490635513
 40
0.3742222593
 40
0.4995694069
 40
0.6249464668
 40
0.7502156901
 40
0.8752622328
 40
1.0
 40
1.0
 40
1.0
 40
1.0
 10
9.2039080048
 20
3.5046857991
 30
0.0
 10
9.2039081113
 20
3.4824143165
 30
0.0
 10
9.2054987436
 20
3.4377603891
 30
0.0
 10
9.2125882245
 20
3.371014407
 30
0.0
 10
9.224316629
 20
3.3047265316
 30
0.0
 10
9.240574256
 20
3.2392969361
 30
0.0
 10
9.2612176405
 20
3.1750964659
 30
0.0
 10
9.286078037
 20
3.1124667473
 30
0.0
 10
9.3149659915
 20
3.0517210124
 30
0.0
 10
9.3368127725
 20
3.0126033219
 30
0.0
 10
9.3483417706
 20
2.9934493401
 30
0.0
  0
LINE
  5
323
100
AcDbEntity
  8
0
100
AcDbLine
 62
9
  6
CONTINUOUS
 10
9.3327001666
 20
2.8836609726
 11
9.3483417706
 21
2.9934493401
  0
SPLINE
  5
324
100
AcDbEntity
  8
0
100
AcDbSpline
 62
9
  6
CONTINUOUS
 70
0
 71
3
 72
21
 73
17
 74
0
 42
0.0000001
 43
0.0000001
 44
0.0000000001
 40
0.0
 40
0.0
 40
0.0
 40
0.0
 40
0.0604909957
 40
0.1215860797
 40
0.2449722198
 40
0.3694594629
 40
0.4320105327
 40
0.4947117575
 40
0.557541581
 40
0.6204837317
 40
0.6835259607
 40
0.7466592181
 40
0.8098771992
 40
0.8731743484
 40
0.9365506467
 40
1.0
 40
1.0
 40
1.0
 40
1.0
 10
9.3038950589
 20
2.8352073624
 30
0.0
 10
9.2951982415
 20
2.8435791411
 30
0.0
 10
9.278169592
 20
2.860883256
 30
0.0
 10
9.2457509041
 20
2.8974980269
 30
0.0
 10
9.2085333772
 20
2.9468025048
 30
0.0
 10
9.1763729211
 20
2.9998791064
 30
0.0
 10
9.1538193094
 20
3.0443410425
 30
0.0
 10
9.1385301154
 20
3.0786372062
 30
0.0
 10
9.1249422809
 20
3.1137249397
 30
0.0
 10
9.1130929792
 20
3.1495091633
 30
0.0
 10
9.1030143672
 20
3.1858945537
 30
0.0
 10
9.0947329657
 20
3.2227869799
 30
0.0
 10
9.0882703241
 20
3.260092565
 30
0.0
 10
9.083642552
 20
3.2977189676
 30
0.0
 10
9.0808618672
 20
3.3355720854
 30
0.0
 10
9.0802441739
 20
3.360885637
 30
0.0
 10
9.0802441683
 20
3.3735475114
 30
0.0
  0
SPLINE
  5
325
100
AcDbEntity
  8
0
100
AcDbSpline
 62
9
  6
CONTINUOUS
 70
0
 71
3
 72
22
 73
18
 74
0
 42
0.0000001
 43
0.0000001
 44
0.0000000001
 40
0.0
 40
0.0
 40
0.0
 40
0.0
 40
0.1242000821
 40
0.1864237733
 40
0.2487204959
 40
0.3110895042
 40
0.373530627
 40
0.4360426511
 40
0.4986228068
 40
0.5612662335
 40
0.6239649353
 40
0.6867065764
 40
0.7494725905
 40
0.8122358659
 40
0.8749561584
 40
0.9375731198
 40
1.0
 40
1.0
 40
1.0
 40
1.0
 10
9.0802441683
 20
3.3735475114
 30
0.0
 10
9.0802445167
 20
3.3982948188
 30
0.0
 10
9.0820201544
 20
3.4354719479
 30
0.0
 10
9.0878932298
 20
3.4846934833
 30
0.0
 10
9.0940502687
 20
3.5214346504
 30
0.0
 10
9.1019416065
 20
3.557885363
 30
0.0
 10
9.1115471601
 20
3.5939670401
 30
0.0
 10
9.122842642
 20
3.6295998067
 30
0.0
 10
9.1357993506
 20
3.6647055746
 30
0.0
 10
9.1503835585
 20
3.6992072691
 30
0.0
 10
9.1665556252
 20
3.7330293017
 30
0.0
 10
9.1842692105
 20
3.7660975858
 30
0.0
 10
9.2034705275
 20
3.7983394899
 30
0.0
 10
9.2240967323
 20
3.8296834846
 30
0.0
 10
9.2460734958
 20
3.8600588931
 30
0.0
 10
9.2693098811
 20
3.8893950239
 30
0.0
 10
9.2856035304
 20
3.9082556936
 30
0.0
 10
9.293927896
 20
3.9174984272
 30
0.0
  0
SPLINE
  5
326
100
AcDbEntity
  8
0
100
AcDbSpline
 62
9
  6
CONTINUOUS
 70
0
 71
3
 72
23
 73
19
 74
0
 42
0.0000001
 43
0.0000001
 44
0.0000000001
 40
0.0
 40
0.0
 40
0.0
 40
0.0
 40
0.0626395002
 40
0.1252490815
 40
0.1878277471
 40
0.250379835
 40
0.3129070707
 40
0.375412518
 40
0.4378991509
 40
0.5003701939
 40
0.5628290313
 40
0.6252791661
 40
0.6877241936
 40
0.7501677581
 40
0.812613518
 40
0.8750651087
 40
0.9375261095
 40
1.0
 40
1.0
 40
1.0
 40
1.0
 10
9.3327001666
 20
2.8836609726
 30
0.0
 10
9.3239992101
 20
2.8970731029
 30
0.0
 10
9.3072722677
 20
2.9243331039
 30
0.0
 10
9.2842777271
 20
2.9664187776
 30
0.0
 10
9.2634401091
 20
3.0095897118
 30
0.0
 10
9.2448122295
 20
3.0537359908
 30
0.0
 10
9.2284405733
 20
3.0987480036
 30
0.0
 10
9.214366119
 20
3.1445128568
 30
0.0
 10
9.2026241264
 20
3.1909161643
 30
0.0
 10
9.1932439524
 20
3.2378418099
 30
0.0
 10
9.1862490564
 20
3.2851724025
 30
0.0
 10
9.1816569407
 20
3.3327895391
 30
0.0
 10
9.1794790997
 20
3.3805740887
 30
0.0
 10
9.1797210053
 20
3.4284065389
 30
0.0
 10
9.1823820515
 20
3.4761671098
 30
0.0
 10
9.1874556466
 20
3.5237367355
 30
0.0
 10
9.1949287341
 20
3.5709948454
 30
0.0
 10
9.2014980466
 20
3.6022138778
 30
0.0
 10
9.2051745562
 20
3.6177292074
 30
0.0
  0
SPLINE
  5
327
100
AcDbEntity
  8
0
100
AcDbSpline
 62
9
  6
CONTINUOUS
 70
0
 71
3
 72
19
 73
15
 74
0
 42
0.0000001
 43
0.0000001
 44
0.0000000001
 40
0.0
 40
0.0
 40
0.0
 40
0.0
 40
0.1867720242
 40
0.3575059431
 40
0.511190687
 40
0.6469534621
 40
0.7078790247
 40
0.7640617649
 40
0.8154433606
 40
0.8619812445
 40
0.9036605794
 40
0.9405024454
 40
0.972570884
 40
1.0
 40
1.0
 40
1.0
 40
1.0
 10
9.3038950589
 20
2.8352073624
 30
0.0
 10
9.3059942063
 20
2.8380433689
 30
0.0
 10
9.3099690842
 20
2.8435040461
 30
0.0
 10
9.315499981
 20
2.8514212435
 30
0.0
 10
9.3203099155
 20
2.8586638522
 30
0.0
 10
9.3238096786
 20
2.8642836513
 30
0.0
 10
9.326212631
 20
2.868412732
 30
0.0
 10
9.3277506519
 20
2.8711998444
 30
0.0
 10
9.3290883889
 20
2.8737859387
 30
0.0
 10
9.3302238326
 20
2.8761668194
 30
0.0
 10
9.3311553439
 20
2.878338759
 30
0.0
 10
9.3318817106
 20
2.8802988952
 30
0.0
 10
9.3324020159
 20
2.8820443413
 30
0.0
 10
9.3326291592
 20
2.8831476896
 30
0.0
 10
9.3327001666
 20
2.8836609726
 30
0.0
  0
SPLINE
  5
328
100
AcDbEntity
  8
0
100
AcDbSpline
 62
7
  6
CONTINUOUS
 70
0
 71
3
 72
30
 73
26
 74
0
 42
0.0000001
 43
0.0000001
 44
0.0000000001
 40
0.0
 40
0.0
 40
0.0
 40
0.0
 40
0.0628517943
 40
0.1256896198
 40
0.188501501
 40
0.2512748447
 40
0.3139985569
 40
0.3453480614
 40
0.3766819118
 40
0.4079988096
 40
0.4392983861
 40
0.470580196
 40
0.5018442033
 40
0.5643010413
 40
0.6266895935
 40
0.6890132681
 40
0.7201617211
 40
0.7512963048
 40
0.7824182036
 40
0.7979758587
 40
0.8135307337
 40
0.8446307993
 40
0.8757222451
 40
0.9378676362
 40
1.0
 40
1.0
 40
1.0
 40
1.0
 10
9.8638185034
 20
2.9840702102
 30
0.0
 10
9.8824591291
 20
2.9840702102
 30
0.0
 10
9.9197616076
 20
2.985943153
 30
0.0
 10
9.9751384372
 20
2.994195969
 30
0.0
 10
10.0294505886
 20
3.0077152942
 30
0.0
 10
10.0821920593
 20
3.0263331933
 30
0.0
 10
10.124445243
 20
3.0459783647
 30
0.0
 10
10.1569474213
 20
3.0640854349
 30
0.0
 10
10.180613906
 20
3.0788429224
 30
0.0
 10
10.2035002929
 20
3.0947571148
 30
0.0
 10
10.2255405936
 20
3.1117984635
 30
0.0
 10
10.2466933745
 20
3.1299059929
 30
0.0
 10
10.273643703
 20
3.1553818444
 30
0.0
 10
10.3049257926
 20
3.1896229399
 30
0.0
 10
10.3382835214
 20
3.2340955046
 30
0.0
 10
10.3623576811
 20
3.2736510191
 30
0.0
 10
10.3792059835
 20
3.3065567814
 30
0.0
 10
10.3906007222
 20
3.3318196948
 30
0.0
 10
10.3990275872
 20
3.3533156429
 30
0.0
 10
10.4051053583
 20
3.3707456877
 30
0.0
 10
10.4107325224
 20
3.3883195008
 30
0.0
 10
10.4169221106
 20
3.4105428561
 30
0.0
 10
10.4250193448
 20
3.446531962
 30
0.0
 10
10.4317663424
 20
3.4921939353
 30
0.0
 10
10.433563575
 20
3.52907586
 30
0.0
 10
10.4335635751
 20
3.5475031165
 30
0.0
  0
SPLINE
  5
329
100
AcDbEntity
  8
0
100
AcDbSpline
 62
9
  6
CONTINUOUS
 70
0
 71
3
 72
11
 73
7
 74
0
 42
0.0000001
 43
0.0000001
 44
0.0000000001
 40
0.0
 40
0.0
 40
0.0
 40
0.0
 40
0.2488128545
 40
0.4985123059
 40
0.7489676224
 40
1.0
 40
1.0
 40
1.0
 40
1.0
 10
10.3700266004
 20
2.9842874935
 30
0.0
 10
10.3709577287
 20
2.9848541914
 30
0.0
 10
10.3727589205
 20
2.9860994782
 30
0.0
 10
10.3752275141
 20
2.988271814
 30
0.0
 10
10.3774343426
 20
2.9907226515
 30
0.0
 10
10.3787100938
 20
2.9925181892
 30
0.0
 10
10.3792952358
 20
2.993449343
 30
0.0
  0
SPLINE
  5
32A
100
AcDbEntity
  8
0
100
AcDbSpline
 62
9
  6
CONTINUOUS
 70
0
 71
3
 72
9
 73
5
 74
0
 42
0.0000001
 43
0.0000001
 44
0.0000000001
 40
0.0
 40
0.0
 40
0.0
 40
0.0
 40
0.495588153
 40
1.0
 40
1.0
 40
1.0
 40
1.0
 10
10.423742085
 20
2.8352071963
 30
0.0
 10
10.42268073
 20
2.8339851853
 30
0.0
 10
10.4204374853
 20
2.8316067224
 30
0.0
 10
10.4180319797
 20
2.8293929933
 30
0.0
 10
10.416778588
 20
2.8283239222
 30
0.0
  0
SPLINE
  5
32B
100
AcDbEntity
  8
0
100
AcDbSpline
 62
9
  6
CONTINUOUS
 70
0
 71
3
 72
11
 73
7
 74
0
 42
0.0000001
 43
0.0000001
 44
0.0000000001
 40
0.0
 40
0.0
 40
0.0
 40
0.0
 40
0.2510324619
 40
0.5014877973
 40
0.7511871064
 40
1.0
 40
1.0
 40
1.0
 40
1.0
 10
9.348341771
 20
2.9934493429
 30
0.0
 10
9.3489269067
 20
2.9925181847
 30
0.0
 10
9.3502026662
 20
2.9907226514
 30
0.0
 10
9.352409493
 20
2.9882718142
 30
0.0
 10
9.3548780853
 20
2.9860994755
 30
0.0
 10
9.3566792837
 20
2.984854201
 30
0.0
 10
9.3576104064
 20
2.9842874935
 30
0.0
  0
SPLINE
  5
32C
100
AcDbEntity
  8
0
100
AcDbSpline
 62
9
  6
CONTINUOUS
 70
0
 71
3
 72
9
 73
5
 74
0
 42
0.0000001
 43
0.0000001
 44
0.0000000001
 40
0.0
 40
0.0
 40
0.0
 40
0.0
 40
0.5044118618
 40
1.0
 40
1.0
 40
1.0
 40
1.0
 10
9.3108584173
 20
2.8283239287
 30
0.0
 10
9.3096050251
 20
2.829392999
 30
0.0
 10
9.3071995179
 20
2.831606726
 30
0.0
 10
9.3049562715
 20
2.8339851869
 30
0.0
 10
9.3038949158
 20
2.8352071971
 30
0.0
  0
SPLINE
  5
32D
100
AcDbEntity
  8
0
100
AcDbSpline
 62
9
  6
CONTINUOUS
 70
0
 71
3
 72
13
 73
9
 74
0
 42
0.0000001
 43
0.0000001
 44
0.0000000001
 40
0.0
 40
0.0
 40
0.0
 40
0.0
 40
0.1898357747
 40
0.2981732842
 40
0.4167704389
 40
0.5462096317
 40
0.6867052713
 40
1.0
 40
1.0
 40
1.0
 40
1.0
 10
9.3032233789
 20
2.8283080853
 30
0.0
 10
9.3030247111
 20
2.8287113899
 30
0.0
 10
9.3028409449
 20
2.8294098987
 30
0.0
 10
9.3027808735
 20
2.830395404
 30
0.0
 10
9.3028244871
 20
2.831240263
 30
0.0
 10
9.3029589854
 20
2.83215157
 30
0.0
 10
9.3032693187
 20
2.8334986534
 30
0.0
 10
9.3036203465
 20
2.8345181281
 30
0.0
 10
9.3038950573
 20
2.8352073641
 30
0.0
  0
SPLINE
  5
32E
100
AcDbEntity
  8
0
100
AcDbSpline
 62
9
  6
CONTINUOUS
 70
0
 71
3
 72
14
 73
10
 74
0
 42
0.0000001
 43
0.0000001
 44
0.0000000001
 40
0.0
 40
0.0
 40
0.0
 40
0.0
 40
0.0651704597
 40
0.1464878915
 40
0.2452587686
 40
0.3618532191
 40
0.4961783088
 40
0.6478154222
 40
1.0
 40
1.0
 40
1.0
 40
1.0
 10
9.3056046973
 20
2.8259541695
 30
0.0
 10
9.3057304128
 20
2.8259378671
 30
0.0
 10
9.3060183241
 20
2.825945279
 30
0.0
 10
9.3064869402
 20
2.8260401022
 30
0.0
 10
9.3070366722
 20
2.8262190271
 30
0.0
 10
9.307664731
 20
2.8264814752
 30
0.0
 10
9.3083681176
 20
2.8268264439
 30
0.0
 10
9.3094560906
 20
2.8274247147
 30
0.0
 10
9.3102868121
 20
2.8279463829
 30
0.0
 10
9.3108584538
 20
2.8283239212
 30
0.0
  0
SPLINE
  5
32F
100
AcDbEntity
  8
0
100
AcDbSpline
 62
9
  6
CONTINUOUS
 70
0
 71
3
 72
14
 73
10
 74
0
 42
0.0000001
 43
0.0000001
 44
0.0000000001
 40
0.0
 40
0.0
 40
0.0
 40
0.0
 40
0.0652267291
 40
0.146581252
 40
0.2453652445
 40
0.3619550424
 40
0.4962635824
 40
0.6478767721
 40
1.0
 40
1.0
 40
1.0
 40
1.0
 10
10.4220322885
 20
2.8259541818
 30
0.0
 10
10.4219064663
 20
2.8259377467
 30
0.0
 10
10.4216183345
 20
2.825944847
 30
0.0
 10
10.4211493723
 20
2.8260393171
 30
0.0
 10
10.4205994183
 20
2.8262180692
 30
0.0
 10
10.4199712842
 20
2.8264804953
 30
0.0
 10
10.4192679591
 20
2.8268255857
 30
0.0
 10
10.4181802413
 20
2.8274241867
 30
0.0
 10
10.4173498222
 20
2.827946232
 30
0.0
 10
10.4167784477
 20
2.8283240902
 30
0.0
  0
SPLINE
  5
330
100
AcDbEntity
  8
0
100
AcDbSpline
 62
9
  6
CONTINUOUS
 70
0
 71
3
 72
13
 73
9
 74
0
 42
0.0000001
 43
0.0000001
 44
0.0000000001
 40
0.0
 40
0.0
 40
0.0
 40
0.0
 40
0.1897357631
 40
0.2980534106
 40
0.4166520308
 40
0.5461084483
 40
0.6866315478
 40
1.0
 40
1.0
 40
1.0
 40
1.0
 10
10.4244136406
 20
2.8283080648
 30
0.0
 10
10.4246120771
 20
2.8287111752
 30
0.0
 10
10.424795414
 20
2.8294094349
 30
0.0
 10
10.424855229
 20
2.8303945748
 30
0.0
 10
10.4248115763
 20
2.8312393506
 30
0.0
 10
10.4246771834
 20
2.8321506971
 30
0.0
 10
10.4243671536
 20
2.8334980111
 30
0.0
 10
10.4240164877
 20
2.8345177513
 30
0.0
 10
10.42374209
 20
2.8352072297
 30
0.0
  0
SPLINE
  5
331
100
AcDbEntity
  8
0
100
AcDbSpline
 62
9
  6
CONTINUOUS
 70
0
 71
3
 72
15
 73
11
 74
0
 42
0.0000001
 43
0.0000001
 44
0.0000000001
 40
0.0
 40
0.0
 40
0.0
 40
0.0
 40
0.3675782191
 40
0.524031361
 40
0.6607543496
 40
0.7769185482
 40
0.8719850401
 40
0.9459648787
 40
0.9753407134
 40
1.0
 40
1.0
 40
1.0
 40
1.0
 10
10.3730729045
 20
2.9954493162
 30
0.0
 10
10.3738065923
 20
2.9951111715
 30
0.0
 10
10.3748609478
 20
2.9946463015
 30
0.0
 10
10.3762139684
 20
2.994118203
 30
0.0
 10
10.3770633535
 20
2.9938210938
 30
0.0
 10
10.3777967339
 20
2.9936026119
 30
0.0
 10
10.3784084628
 20
2.9934642933
 30
0.0
 10
10.3788431108
 20
2.9934108587
 30
0.0
 10
10.3791248395
 20
2.9934172943
 30
0.0
 10
10.3792428107
 20
2.9934356005
 30
0.0
 10
10.3792952363
 20
2.9934493401
 30
0.0
  0
SPLINE
  5
332
100
AcDbEntity
  8
0
100
AcDbSpline
 62
9
  6
CONTINUOUS
 70
0
 71
3
 72
14
 73
10
 74
0
 42
0.0000001
 43
0.0000001
 44
0.0000000001
 40
0.0
 40
0.0
 40
0.0
 40
0.0
 40
0.3245466363
 40
0.4687843003
 40
0.6001877831
 40
0.718535839
 40
0.8239919809
 40
0.9173180283
 40
1.0
 40
1.0
 40
1.0
 40
1.0
 10
10.3699173114
 20
2.9923300794
 30
0.0
 10
10.3701463327
 20
2.9914706687
 30
0.0
 10
10.3704277049
 20
2.9902139778
 30
0.0
 10
10.370639651
 20
2.9885819231
 30
0.0
 10
10.3707029165
 20
2.9875029677
 30
0.0
 10
10.3706767314
 20
2.9865284737
 30
0.0
 10
10.3705607202
 20
2.9856650022
 30
0.0
 10
10.3703551822
 20
2.984918789
 30
0.0
 10
10.3701467846
 20
2.9844795846
 30
0.0
 10
10.3700266051
 20
2.9842874963
 30
0.0
  0
SPLINE
  5
333
100
AcDbEntity
  8
0
100
AcDbSpline
 62
9
  6
CONTINUOUS
 70
0
 71
3
 72
14
 73
10
 74
0
 42
0.0000001
 43
0.0000001
 44
0.0000000001
 40
0.0
 40
0.0
 40
0.0
 40
0.0
 40
0.3246502624
 40
0.4689273687
 40
0.6003547435
 40
0.7187051296
 40
0.8241358296
 40
0.9174072733
 40
1.0
 40
1.0
 40
1.0
 40
1.0
 10
9.3577196955
 20
2.9923300794
 30
0.0
 10
9.3574911724
 20
2.9914703497
 30
0.0
 10
9.3572107341
 20
2.9902132133
 30
0.0
 10
9.3569993693
 20
2.9885808262
 30
0.0
 10
9.3569362539
 20
2.9875018144
 30
0.0
 10
9.3569622898
 20
2.9865274386
 30
0.0
 10
9.3570778419
 20
2.9856642334
 30
0.0
 10
9.3572827038
 20
2.984918419
 30
0.0
 10
9.3574905279
 20
2.9844794477
 30
0.0
 10
9.357610406
 20
2.9842874906
 30
0.0
  0
SPLINE
  5
334
100
AcDbEntity
  8
0
100
AcDbSpline
 62
9
  6
CONTINUOUS
 70
0
 71
3
 72
15
 73
11
 74
0
 42
0.0000001
 43
0.0000001
 44
0.0000000001
 40
0.0
 40
0.0
 40
0.0
 40
0.0
 40
0.367495633
 40
0.523916293
 40
0.6606172779
 40
0.7767745082
 40
0.8718553611
 40
0.9458772101
 40
0.9752893595
 40
1.0
 40
1.0
 40
1.0
 40
1.0
 10
9.3545641024
 20
2.9954493162
 30
0.0
 10
9.3538307382
 20
2.9951106657
 30
0.0
 10
9.3527769183
 20
2.9946448464
 30
0.0
 10
9.3514242665
 20
2.9941161258
 30
0.0
 10
9.3505749622
 20
2.9938188492
 30
0.0
 10
9.3498414715
 20
2.9936004922
 30
0.0
 10
9.3492294464
 20
2.9934626058
 30
0.0
 10
9.3487944493
 20
2.9934097506
 30
0.0
 10
9.3485124096
 20
2.9934167791
 30
0.0
 10
9.3483942772
 20
2.9934354245
 30
0.0
 10
9.3483417739
 20
2.9934493382
 30
0.0
  0
ENDSEC
  0
SECTION
  2
OBJECTS
  0
DICTIONARY
  5
C
100
AcDbDictionary
280
0
281
1
  3
ACAD_GROUP
350
D
  3
ACAD_MLINESTYLE
350
17
  3
ACAD_LAYOUT
350
1A
  3
ACAD_PLOTSETTINGS
350
19
  3
ACAD_PLOTSTYLENAME
350
E
  0
DICTIONARY
  5
D
102
{ACAD_REACTORS
330
C
102
}
100
AcDbDictionary
280
0
281
1
  0
ACDBDICTIONARYWDFLT
  5
E
102
{ACAD_REACTORS
330
C
102
}
100
AcDbDictionary
281
1
  3
Normal
350
F
100
AcDbDictionaryWithDefault
340
F
  0
DICTIONARY
  5
17
102
{ACAD_REACTORS
330
C
102
}
100
AcDbDictionary
280
0
281
1
  3
Standard
350
18
  0
DICTIONARY
  5
19
102
{ACAD_REACTORS
330
C
102
}
100
AcDbDictionary
281
1
  0
DICTIONARY
  5
1A
102
{ACAD_REACTORS
330
C
102
}
100
AcDbDictionary
281
1
  3
Model
350
335
  3
Layout1
350
336
  0
ACDBPLACEHOLDER
  5
F
102
{ACAD_REACTORS
330
E
102
}
  0
MLINESTYLE
  5
18
102
{ACAD_REACTORS
330
17
102
}
100
AcDbMlineStyle
  2
STANDARD
 70
0
  3

 62
256
 51
90.0
 52
90.0
 71
2
 49
0.5
 62
256
  6
BYLAYER
 49
-0.5
 62
256
  6
BYLAYER
  0
LAYOUT
  5
335
102
{ACAD_REACTORS
330
1A
102
}
100
AcDbPlotSettings
  1

  2
none_device
  4
ANSI_C_(22.00_x_17.00_Inches)
  6

 40
0.0
 41
0.0
 42
0.0
 43
0.0
 44
558.8
 45
431.8
 46
0.0
 47
0.0
 48
0.0
 49
0.0
140
0.0
141
0.0
142
1.0
143
1.0
 70
1024
 72
0
 73
0
 74
0
  7

 75
0
147
1.0
148
0.0
149
0.0
100
AcDbLayout
  1
Model
 70
0
 71
0
 10
0.0
 20
0.0
 11
22.0
 21
17.0
 12
0.0
 22
0.0
 32
0.0
 14
0.0
 24
0.0
 34
0.0
 15
0.0
 25
0.0
 35
0.0
146
0.0
 13
0.0
 23
0.0
 33
0.0
 16
1.0
 26
0.0
 36
0.0
 17
0.0
 27
1.0
 37
0.0
 76
0
330
205
345
0
346
0
  0
LAYOUT
  5
336
102
{ACAD_REACTORS
330
1A
102
}
100
AcDbPlotSettings
  1

  2
none_device
  4
ANSI_C_(22.00_x_17.00_Inches)
  6

 40
0.0
 41
0.0
 42
0.0
 43
0.0
 44
558.8
 45
431.8
 46
0.0
 47
0.0
 48
0.0
 49
0.0
140
0.0
141
0.0
142
1.0
143
1.0
 70
0
 72
0
 73
0
 74
0
  7

 75
0
147
1.0
148
0.0
149
0.0
100
AcDbLayout
  1
Layout1
 70
0
 71
1
 10
0.0
 20
0.0
 11
22.0
 21
17.0
 12
0.0
 22
0.0
 32
0.0
 14
0.0
 24
0.0
 34
0.0
 15
0.0
 25
0.0
 35
0.0
146
0.0
 13
0.0
 23
0.0
 33
0.0
 16
1.0
 26
0.0
 36
0.0
 17
0.0
 27
1.0
 37
0.0
 76
0
330
206
345
0
346
0
  0
ENDSEC
  0
EOF
