999
DXF file: 3160-5203_top.dxf
999
Pro/ENGINEER 2018400 by Parametric Technology Corporation
  0
SECTION
  2
HEADER
  9
$ACADVER
  1
AC1027
  9
$DWGCODEPAGE
  3
ANSI_1252
  9
$EXTMAX
 10
11.0
 20
8.5
 30
0.0
  9
$EXTMIN
 10
0.0
 20
0.0
 30
0.0
  9
$LIMMIN
 10
0.0
 20
0.0
  9
$LIMMAX
 10
11.0
 20
8.5
  9
$VIEWCTR
 10
5.5
 20
4.25
  9
$VIEWSIZE
 40
8.5
  9
$CLAYER
  8
0
  9
$LTSCALE
 40
0.605
  9
$CELTYPE
  6
BYLAYER
  9
$DIMSCALE
 40
1.0
  9
$DIMASZ
 40
0.1
  9
$DIMEXO
 40
0.0625
  9
$DIMDLI
 40
0.418
  9
$DIMEXE
 40
0.125
  9
$DIMCEN
 40
0.099
  9
$DIMLFAC
 40
1.0
  9
$DIMBLK
  1
_FILLED
  9
$DIMALT
 70
1
  9
$DIMALTD
 70
1
  9
$DIMALTTD
 70
2
  9
$DIMALTF
 40
25.4
  9
$DIMTXT
 40
0.08
  9
$DIMTOL
 70
1
  9
$DIMLIM
 70
0
  9
$DIMTFAC
 40
1.0
  9
$DIMTP
 40
0.01
  9
$DIMTM
 40
0.01
  9
$DIMGAP
 40
0.09
  9
$DIMDSEP
 70
46
  9
$AUNITS
 70
0
  9
$PDMODE
 70
3
  9
$PDSIZE
 40
0.3125
  9
$HANDSEED
  5
42E
  9
$TILEMODE
 70
1
  9
$MEASUREMENT
 70
0
  9
$INSUNITS
 70
1
  0
ENDSEC
  0
SECTION
  2
CLASSES
  0
CLASS
  1
ACDBDICTIONARYWDFLT
  2
AcDbDictionaryWithDefault
  3
AutoCAD 2000
 90
0
 91
1
280
0
281
0
  0
CLASS
  1
ACDBPLACEHOLDER
  2
AcDbPlaceHolder
  3
AutoCAD 2000
 90
0
 91
1
280
0
281
0
  0
CLASS
  1
LAYOUT
  2
AcDbLayout
  3
AutoCAD 2000
 90
0
 91
0
280
0
281
0
  0
ENDSEC
  0
SECTION
  2
TABLES
  0
TABLE
  2
VPORT
  5
8
100
AcDbSymbolTable
 70
2
  0
VPORT
  5
1F4
100
AcDbSymbolTableRecord
100
AcDbViewportTableRecord
  2
*ACTIVE
 70
0
 10
0.0
 20
0.0
 11
1.0
 21
1.0
 12
5.5
 22
4.25
 13
0.0
 23
0.0
 14
1.0
 24
1.0
 15
0.0
 25
0.0
 16
0.0
 26
0.0
 36
1.0
 17
0.0
 27
0.0
 37
0.0
 40
8.5
 41
1.2941176471
 42
50.0
 43
0.0
 44
0.0
 50
0.0
 51
0.0
 71
0
 72
100
 73
1
 74
1
 75
0
 76
0
 77
0
 78
0
  0
ENDTAB
  0
TABLE
  2
LTYPE
  5
5
100
AcDbSymbolTable
 70
6
  0
LTYPE
  5
14
100
AcDbSymbolTableRecord
100
AcDbLinetypeTableRecord
  2
BYBLOCK
 70
0
  3

 72
65
 73
0
 40
0.0
  0
LTYPE
  5
15
100
AcDbSymbolTableRecord
100
AcDbLinetypeTableRecord
  2
BYLAYER
 70
0
  3

 72
65
 73
0
 40
0.0
  0
LTYPE
  5
16
100
AcDbSymbolTableRecord
100
AcDbLinetypeTableRecord
  2
CONTINUOUS
 70
64
  3
Solid line
 72
65
 73
0
 40
0.0
  0
LTYPE
  5
1F5
100
AcDbSymbolTableRecord
100
AcDbLinetypeTableRecord
  2
CENTER
 70
64
  3
____ _ ____ _ ____ _ ____ _ ____ _ ____ _ ____
 72
65
 73
4
 40
0.6
 49
0.375
 74
0
 49
-0.075
 74
0
 49
0.075
 74
0
 49
-0.075
 74
0
  0
LTYPE
  5
1F6
100
AcDbSymbolTableRecord
100
AcDbLinetypeTableRecord
  2
HIDDEN
 70
64
  3
- - - - - - - - - - - - - - - - - - - -
 72
65
 73
2
 40
0.2
 49
0.1
 74
0
 49
-0.1
 74
0
  0
LTYPE
  5
1F7
100
AcDbSymbolTableRecord
100
AcDbLinetypeTableRecord
  2
PHANTOM
 70
64
  3
_____ _ _ _____ _ _ _____ _ _ _____
 72
65
 73
6
 40
0.8
 49
0.45
 74
0
 49
-0.05
 74
0
 49
0.1
 74
0
 49
-0.05
 74
0
 49
0.1
 74
0
 49
-0.05
 74
0
  0
LTYPE
  5
1F8
100
AcDbSymbolTableRecord
100
AcDbLinetypeTableRecord
  2
DOT
 70
64
  3
. . . . . . . . . . . . . . . . . . . .
 72
65
 73
2
 40
0.2
 49
0.1
 74
0
 49
-0.1
 74
0
  0
LTYPE
  5
1F9
100
AcDbSymbolTableRecord
100
AcDbLinetypeTableRecord
  2
DASHED
 70
64
  3
- - - - - - - - - - - - - - - - - - - -
 72
65
 73
2
 40
0.2
 49
0.1
 74
0
 49
-0.1
 74
0
  0
ENDTAB
  0
TABLE
  2
LAYER
  5
2
100
AcDbSymbolTable
 70
36
  0
LAYER
  5
10
100
AcDbSymbolTableRecord
100
AcDbLayerTableRecord
  2
0
 70
0
 62
7
  6
CONTINUOUS
370
-3
390
F
  0
LAYER
  5
1FA
100
AcDbSymbolTableRecord
100
AcDbLayerTableRecord
  2
DEFAULT_1
 70
0
 62
7
  6
CENTER
370
-3
390
F
  0
LAYER
  5
1FB
100
AcDbSymbolTableRecord
100
AcDbLayerTableRecord
  2
DEFAULT_2
 70
0
 62
8
  6
HIDDEN
370
-3
390
F
  0
LAYER
  5
1FC
100
AcDbSymbolTableRecord
100
AcDbLayerTableRecord
  2
DEFAULT_3
 70
0
 62
7
  6
PHANTOM
370
-3
390
F
  0
LAYER
  5
1FD
100
AcDbSymbolTableRecord
100
AcDbLayerTableRecord
  2
DEFAULT_COORDINATE_SYSTEM
 70
0
 62
7
  6
CONTINUOUS
370
-3
390
F
  0
LAYER
  5
1FE
100
AcDbSymbolTableRecord
100
AcDbLayerTableRecord
  2
DEFAULT_DATUM_AXES
 70
0
 62
7
  6
CONTINUOUS
370
-3
390
F
  0
LAYER
  5
1FF
100
AcDbSymbolTableRecord
100
AcDbLayerTableRecord
  2
DEFAULT_DATUM_PLANES
 70
0
 62
7
  6
CONTINUOUS
370
-3
390
F
  0
ENDTAB
  0
TABLE
  2
STYLE
  5
3
100
AcDbSymbolTable
 70
1
  0
STYLE
  5
11
100
AcDbSymbolTableRecord
100
AcDbTextStyleTableRecord
  2
STANDARD
 70
0
 40
0.0
 41
0.8
 50
0.0
 71
0
 42
0.2
  3
txt
  4

  0
STYLE
  5
200
100
AcDbSymbolTableRecord
100
AcDbTextStyleTableRecord
  2
TEXTSTYLE_1
 70
0
 40
0.0
 41
0.8
 50
0.0
 71
0
 42
0.2
  3
gdt
  4

  0
ENDTAB
  0
TABLE
  2
VIEW
  5
6
100
AcDbSymbolTable
 70
0
  0
ENDTAB
  0
TABLE
  2
UCS
  5
7
100
AcDbSymbolTable
 70
0
  0
ENDTAB
  0
TABLE
  2
APPID
  5
9
100
AcDbSymbolTable
 70
1
  0
APPID
  5
201
100
AcDbSymbolTableRecord
100
AcDbRegAppTableRecord
  2
ACAD
 70
0
  0
ENDTAB
  0
TABLE
  2
BLOCK_RECORD
  5
1
100
AcDbSymbolTable
 70
0
  0
BLOCK_RECORD
  5
202
100
AcDbSymbolTableRecord
100
AcDbBlockTableRecord
  2
*Model_Space
  0
BLOCK_RECORD
  5
203
100
AcDbSymbolTableRecord
100
AcDbBlockTableRecord
  2
*Paper_Space
  0
BLOCK_RECORD
  5
204
100
AcDbSymbolTableRecord
100
AcDbBlockTableRecord
  2
_FILLED
  0
ENDTAB
  0
TABLE
  2
DIMSTYLE
  5
A
100
AcDbSymbolTable
 70
1
100
AcDbDimStyleTable
 71
0
  0
DIMSTYLE
105
205
100
AcDbSymbolTableRecord
100
AcDbDimStyleTableRecord
  2
STANDARD
 70
0
  3

  4

 40
1.0
 41
0.1
 42
0.0625
 43
0.38
 44
0.125
 45
0.0
 46
0.0
 47
0.01
 48
0.01
140
0.08
141
0.09
142
0.0
143
25.4
144
1.0
145
0.0
146
1.0
147
0.09
 71
1.0
 72
0.0
 73
1
 74
1
 75
0
 76
0
 77
0
 78
4
 79
1
170
1
171
1
172
0
173
0
174
0
175
0
176
0
177
0
178
0
270
2
179
2
271
2
272
2
273
2
274
2
275
0
280
0
281
0
282
0
283
1
284
4
285
0
286
0
287
3
288
0
340
11
278
46
341
204
342
204
343
204
344
204
  0
ENDTAB
  0
ENDSEC
  0
SECTION
  2
BLOCKS
  0
BLOCK
  5
20
100
AcDbEntity
  8
0
100
AcDbBlockBegin
  2
*Model_Space
 70
0
 10
0.0
 20
0.0
 30
0.0
  3
*Model_Space
  1

  0
ENDBLK
  5
21
100
AcDbEntity
  8
0
100
AcDbBlockEnd
  0
BLOCK
  5
1C
100
AcDbEntity
  8
0
100
AcDbBlockBegin
  2
*Paper_Space
 70
0
 10
0.0
 20
0.0
 30
0.0
  3
*Paper_Space
  1

  0
ENDBLK
  5
1D
100
AcDbEntity
  8
0
100
AcDbBlockEnd
  0
BLOCK
  5
206
100
AcDbEntity
  8
0
100
AcDbBlockBegin
  2
_FILLED
 70
64
 10
0.0
 20
0.0
  3
_FILLED
  1

  0
SOLID
  5
207
100
AcDbEntity
  8
0
  6
BYBLOCK
 62
0
100
AcDbTrace
 10
0.0
 20
0.0
 11
-1.0
 21
0.2
 12
-1.0
 22
-0.2
 13
-1.0
 23
-0.2
  0
ENDBLK
  5
208
100
AcDbEntity
  8
0
  6
BYBLOCK
 62
0
100
AcDbBlockEnd
  0
ENDSEC
  0
SECTION
  2
ENTITIES
  0
MTEXT
  5
209
100
AcDbEntity
  8
0
100
AcDbMText
 62
2
  6
CONTINUOUS
  7
STANDARD
 71
3
 72
1
 10
5.0871342585
 20
1.8018744742
 30
0.0
 11
1.0
 21
0.0
 31
0.0
 73
2
 44
0.9
  1
SCALE  .500
 40
0.08
 41
0.704
  0
LINE
  5
20A
100
AcDbEntity
  8
0
100
AcDbLine
 62
7
  6
CONTINUOUS
 10
0.0
 20
0.0
 11
0.0
 21
8.5
  0
LINE
  5
20B
100
AcDbEntity
  8
0
100
AcDbLine
 62
7
  6
CONTINUOUS
 10
0.0
 20
0.0
 11
11.0
 21
0.0
  0
LINE
  5
20C
100
AcDbEntity
  8
0
100
AcDbLine
 62
7
  6
CONTINUOUS
 10
0.0
 20
8.5
 11
11.0
 21
8.5
  0
LINE
  5
20D
100
AcDbEntity
  8
0
100
AcDbLine
 62
7
  6
CONTINUOUS
 10
11.0
 20
0.0
 11
11.0
 21
8.5
  0
LWPOLYLINE
  5
20E
100
AcDbEntity
  8
0
100
AcDbPolyline
 62
7
  6
CONTINUOUS
 90
41
 70
0
 10
4.7471170117
 20
2.0624418351
 10
4.7477536421
 20
2.0624486148
 10
4.7490126724
 20
2.0625022661
 10
4.7502500708
 20
2.0626073429
 10
4.751463733
 20
2.062761348
 10
4.7526562135
 20
2.0629625733
 10
4.7538244346
 20
2.0632086642
 10
4.7549648828
 20
2.0634968384
 10
4.7560800294
 20
2.0638257974
 10
4.7571677883
 20
2.0641931919
 10
4.7582253461
 20
2.064596169
 10
4.7592544074
 20
2.0650335303
 10
4.760253395
 20
2.0655028747
 10
4.7612204159
 20
2.0660014399
 10
4.7621568815
 20
2.0665281213
 10
4.7630616974
 20
2.0670805504
 10
4.7639337053
 20
2.0676561442
 10
4.7647743089
 20
2.0682539954
 10
4.7655829426
 20
2.0688719396
 10
4.7663589144
 20
2.0695075776
 10
4.7671034732
 20
2.0701600824
 10
4.7678166349
 20
2.0708276853
 10
4.7684979342
 20
2.0715080697
 10
4.7691479758
 20
2.0721998912
 10
4.7697670429
 20
2.0729014869
 10
4.7703552009
 20
2.073610876
 10
4.7709129056
 20
2.0743264547
 10
4.7714407659
 20
2.0750467886
 10
4.771939261
 20
2.075770231
 10
4.7724089067
 20
2.0764951051
 10
4.7728509625
 20
2.0772208882
 10
4.773265883
 20
2.0779457893
 10
4.7736534332
 20
2.0786665127
 10
4.7740154529
 20
2.0793834262
 10
4.7743526153
 20
2.080094764
 10
4.7746637664
 20
2.0807943119
 10
4.7749504317
 20
2.081481104
 10
4.775214692
 20
2.08215576
 10
4.7754569647
 20
2.0828147536
 10
4.7756787487
 20
2.0834571952
 10
4.7758148721
 20
2.0838725334
  0
LINE
  5
20F
100
AcDbEntity
  8
0
100
AcDbLine
 62
7
  6
CONTINUOUS
 10
4.6096443463
 20
2.0624418028
 11
4.7471169564
 21
2.0624418028
  0
LINE
  5
210
100
AcDbEntity
  8
0
100
AcDbLine
 62
7
  6
CONTINUOUS
 10
4.6090605065
 20
2.0647648036
 11
4.7477008827
 21
2.0647651597
  0
LINE
  5
211
100
AcDbEntity
  8
0
100
AcDbLine
 62
7
  6
CONTINUOUS
 10
4.7477380426
 20
2.2101271732
 11
4.6807566186
 21
2.2101273613
  0
LINE
  5
212
100
AcDbEntity
  8
0
100
AcDbLine
 62
7
  6
CONTINUOUS
 10
4.6760046102
 20
2.210127227
 11
4.6090230863
 21
2.2101268251
  0
LINE
  5
213
100
AcDbEntity
  8
0
100
AcDbLine
 62
7
  6
CONTINUOUS
 10
4.7459176936
 20
2.2635882739
 11
4.6108435451
 21
2.2635888332
  0
LINE
  5
214
100
AcDbEntity
  8
0
100
AcDbLine
 62
7
  6
CONTINUOUS
 10
4.6134024507
 20
2.2810181673
 11
4.7433587781
 21
2.2810181673
  0
LINE
  5
215
100
AcDbEntity
  8
0
100
AcDbLine
 62
7
  6
CONTINUOUS
 10
4.5310901546
 20
2.1833549794
 11
4.5310856783
 21
2.1833583273
  0
LWPOLYLINE
  5
216
100
AcDbEntity
  8
0
100
AcDbPolyline
 62
7
  6
CONTINUOUS
 90
22
 70
0
 10
4.5310742495
 20
2.1833669036
 10
4.5311032514
 20
2.1833447755
 10
4.5311715297
 20
2.1832921084
 10
4.53127853
 20
2.1832086331
 10
4.5314243574
 20
2.1830935704
 10
4.5316082707
 20
2.1829468085
 10
4.5318296766
 20
2.1827681338
 10
4.5320891293
 20
2.1825564022
 10
4.5323858727
 20
2.1823115252
 10
4.532719371
 20
2.1820332445
 10
4.5330905066
 20
2.1817201057
 10
4.5334986707
 20
2.18137189
 10
4.5339430343
 20
2.1809885798
 10
4.5344240284
 20
2.1805690699
 10
4.5349408038
 20
2.1801133583
 10
4.5354926353
 20
2.179621348
 10
4.5360800456
 20
2.1790918216
 10
4.536702071
 20
2.1785248842
 10
4.5373580898
 20
2.1779203421
 10
4.5380491092
 20
2.1772764788
 10
4.5387746499
 20
2.1765929209
 10
4.5395336447
 20
2.1758698523
  0
LINE
  5
217
100
AcDbEntity
  8
0
100
AcDbLine
 62
7
  6
CONTINUOUS
 10
4.6524842913
 20
2.0790329474
 11
4.6503920028
 21
2.0809225864
  0
LWPOLYLINE
  5
218
100
AcDbEntity
  8
0
100
AcDbPolyline
 62
7
  6
CONTINUOUS
 90
17
 70
0
 10
4.54067496
 20
2.1747682256
 10
4.5410882474
 20
2.1743719818
 10
4.5424202656
 20
2.1731726767
 10
4.543879335
 20
2.1719747925
 10
4.5454625196
 20
2.1707874556
 10
4.547139856
 20
2.1696358658
 10
4.5489107545
 20
2.1685199826
 10
4.5507797417
 20
2.1674369519
 10
4.5527124505
 20
2.1664048055
 10
4.5546956573
 20
2.1654258853
 10
4.5567347806
 20
2.1644929797
 10
4.5588150152
 20
2.1636088797
 10
4.5609266093
 20
2.1627735262
 10
4.5630691489
 20
2.1619833667
 10
4.5652393326
 20
2.1612368862
 10
4.5674309564
 20
2.1605338702
 10
4.5679750394
 20
2.1603711873
  0
LINE
  5
219
100
AcDbEntity
  8
0
100
AcDbLine
 62
7
  6
CONTINUOUS
 10
4.5395336447
 20
2.1758698523
 11
4.5406830465
 21
2.1747598009
  0
LINE
  5
21A
100
AcDbEntity
  8
0
100
AcDbLine
 62
7
  6
CONTINUOUS
 10
4.5406764416
 20
2.174766233
 11
4.540682948
 21
2.1747598967
  0
LINE
  5
21B
100
AcDbEntity
  8
0
100
AcDbLine
 62
7
  6
CONTINUOUS
 10
4.1617783878
 20
6.2987903797
 11
4.1617086315
 21
6.2976165475
  0
LWPOLYLINE
  5
21C
100
AcDbEntity
  8
0
100
AcDbPolyline
 62
7
  6
CONTINUOUS
 90
41
 70
0
 10
4.5809463357
 20
2.0838725962
 10
4.5810813681
 20
2.0834605178
 10
4.5813025267
 20
2.0828196324
 10
4.5815441063
 20
2.08216217
 10
4.5818075973
 20
2.0814890261
 10
4.5820934084
 20
2.0808037332
 10
4.5824036092
 20
2.0801056793
 10
4.5827397228
 20
2.0793958172
 10
4.583100606
 20
2.0786803309
 10
4.5834869309
 20
2.077960981
 10
4.5839005358
 20
2.0772373932
 10
4.584341204
 20
2.0765128297
 10
4.5848094056
 20
2.075789059
 10
4.5853063937
 20
2.0750666144
 10
4.5858326745
 20
2.0743471876
 10
4.5863887363
 20
2.0736324129
 10
4.5869751895
 20
2.0729237232
 10
4.5875924631
 20
2.0722227512
 10
4.5882406167
 20
2.0715314784
 10
4.5889199466
 20
2.0708515477
 10
4.5896310565
 20
2.0701842985
 10
4.5903734926
 20
2.0695320338
 10
4.5911472727
 20
2.0688965172
 10
4.59195363
 20
2.0682785809
 10
4.5927918827
 20
2.0676806113
 10
4.5936614723
 20
2.0671047638
 10
4.5945637804
 20
2.0665519499
 10
4.5954976619
 20
2.0660247381
 10
4.5964620328
 20
2.0655254857
 10
4.5974582777
 20
2.0650552982
 10
4.5984845193
 20
2.0646169227
 10
4.5995391976
 20
2.0642127459
 10
4.6006239954
 20
2.0638439588
 10
4.6017361291
 20
2.0635133971
 10
4.6028735292
 20
2.0632233982
 10
4.6040386313
 20
2.0629752494
 10
4.6052279599
 20
2.0627717166
 10
4.606438464
 20
2.0626151422
 10
4.607672656
 20
2.0625072155
 10
4.6089284498
 20
2.0624504144
 10
4.6096442888
 20
2.062441838
  0
LINE
  5
21D
100
AcDbEntity
  8
0
100
AcDbLine
 62
7
  6
CONTINUOUS
 10
4.5809462216
 20
2.0838729048
 11
4.5809455456
 21
2.083875011
  0
LINE
  5
21E
100
AcDbEntity
  8
0
100
AcDbLine
 62
7
  6
CONTINUOUS
 10
4.1888806144
 20
2.5107256159
 11
4.1888806144
 21
2.5220701774
  0
LINE
  5
21F
100
AcDbEntity
  8
0
100
AcDbLine
 62
7
  6
CONTINUOUS
 10
4.1617783878
 20
6.2987903797
 11
4.1617118248
 21
6.297616351
  0
LINE
  5
220
100
AcDbEntity
  8
0
100
AcDbLine
 62
7
  6
CONTINUOUS
 10
4.5638818065
 20
2.2665993159
 11
4.5671090659
 21
2.2494790749
  0
LINE
  5
221
100
AcDbEntity
  8
0
100
AcDbLine
 62
7
  6
CONTINUOUS
 10
4.1617086254
 20
6.1942559508
 11
4.1617783878
 21
6.1930820031
  0
LINE
  5
222
100
AcDbEntity
  8
0
100
AcDbLine
 62
7
  6
CONTINUOUS
 10
4.3935080914
 20
6.2460071211
 11
4.3935080827
 21
2.7175747876
  0
LINE
  5
223
100
AcDbEntity
  8
0
100
AcDbLine
 62
7
  6
CONTINUOUS
 10
4.5669038167
 20
2.2718952137
 11
4.5678986251
 21
2.1632819498
  0
LINE
  5
224
100
AcDbEntity
  8
0
100
AcDbLine
 62
7
  6
CONTINUOUS
 10
4.5583331966
 20
2.2540885406
 11
4.5583331966
 21
2.2398986013
  0
LINE
  5
225
100
AcDbEntity
  8
0
100
AcDbLine
 62
7
  6
CONTINUOUS
 10
4.1674446251
 20
6.7691698757
 11
4.1687574105
 21
6.761379716
  0
LINE
  5
226
100
AcDbEntity
  8
0
100
AcDbLine
 62
7
  6
CONTINUOUS
 10
4.7752810892
 20
2.2603383264
 11
4.7750705773
 21
2.2804914775
  0
LINE
  5
227
100
AcDbEntity
  8
0
100
AcDbLine
 62
7
  6
CONTINUOUS
 10
4.7457391045
 20
2.2810158325
 11
4.7459176936
 21
2.2635882739
  0
LINE
  5
228
100
AcDbEntity
  8
0
100
AcDbLine
 62
7
  6
CONTINUOUS
 10
4.6783806144
 20
2.0730012656
 11
4.6783806144
 21
2.0727225441
  0
LINE
  5
229
100
AcDbEntity
  8
0
100
AcDbLine
 62
7
  6
CONTINUOUS
 10
4.6783806144
 20
2.2101942267
 11
4.6783806144
 21
2.2013633665
  0
LINE
  5
22A
100
AcDbEntity
  8
0
100
AcDbLine
 62
7
  6
CONTINUOUS
 10
4.6783806144
 20
2.1714827809
 11
4.6783806144
 21
2.1803129554
  0
LINE
  5
22B
100
AcDbEntity
  8
0
100
AcDbLine
 62
7
  6
CONTINUOUS
 10
4.6783806144
 20
2.0899696976
 11
4.6783806144
 21
2.0870539293
  0
LINE
  5
22C
100
AcDbEntity
  8
0
100
AcDbLine
 62
7
  6
CONTINUOUS
 10
4.5816901598
 20
2.2804912878
 11
4.5814795932
 21
2.2603383396
  0
LINE
  5
22D
100
AcDbEntity
  8
0
100
AcDbLine
 62
7
  6
CONTINUOUS
 10
4.6108435451
 20
2.2635888332
 11
4.6110243816
 21
2.2810158363
  0
LINE
  5
22E
100
AcDbEntity
  8
0
100
AcDbLine
 62
7
  6
CONTINUOUS
 10
4.3606507079
 20
2.7997335745
 11
4.3490758816
 21
2.7509197091
  0
LWPOLYLINE
  5
22F
100
AcDbEntity
  8
0
100
AcDbPolyline
 62
7
  6
CONTINUOUS
 90
12
 70
0
 10
4.9954728473
 20
2.8023864056
 10
4.9933148639
 20
2.8108801675
 10
4.9909871493
 20
2.8193389121
 10
4.9884896503
 20
2.8277589388
 10
4.9858223874
 20
2.8361363216
 10
4.9829841426
 20
2.8444706895
 10
4.9799747341
 20
2.8527581593
 10
4.9767942059
 20
2.8609950454
 10
4.9734413498
 20
2.8691810335
 10
4.9699161544
 20
2.8773124836
 10
4.96621856
 20
2.8853858988
 10
4.9632531461
 20
2.8915249096
  0
LINE
  5
230
100
AcDbEntity
  8
0
100
AcDbLine
 62
7
  6
CONTINUOUS
 10
4.9954728473
 20
2.8023864056
 11
5.0076853472
 21
2.7509197091
  0
LINE
  5
231
100
AcDbEntity
  8
0
100
AcDbLine
 62
7
  6
CONTINUOUS
 10
4.9965799555
 20
2.7977333507
 11
4.9961105209
 21
2.7997335745
  0
LWPOLYLINE
  5
232
100
AcDbEntity
  8
0
100
AcDbPolyline
 62
7
  6
CONTINUOUS
 90
30
 70
0
 10
5.0655520591
 20
2.7118491784
 10
5.064843498
 20
2.7149770422
 10
5.0629349388
 20
2.7228725022
 10
5.0608646617
 20
2.7307243437
 10
5.0586340433
 20
2.738529291
 10
5.0562446308
 20
2.74628414
 10
5.0536983943
 20
2.7539846054
 10
5.0509967806
 20
2.7616281835
 10
5.0481418333
 20
2.7692111504
 10
5.0451367527
 20
2.7767275213
 10
5.0419822955
 20
2.7841776248
 10
5.0386819524
 20
2.7915552385
 10
5.0352442011
 20
2.7988450227
 10
5.0316718462
 20
2.8060455979
 10
5.0279687019
 20
2.813153531
 10
5.0241465836
 20
2.8201513126
 10
5.0202098634
 20
2.8270372754
 10
5.0161631184
 20
2.833809849
 10
5.012020274
 20
2.8404528136
 10
5.0077866119
 20
2.846965361
 10
5.0034675515
 20
2.8533467804
 10
4.9990789743
 20
2.8595822515
 10
4.9946272682
 20
2.8656718033
 10
4.9901185363
 20
2.8716157746
 10
4.9855697844
 20
2.8774011572
 10
4.9809881148
 20
2.8830291091
 10
4.9763804553
 20
2.8885008724
 10
4.9717649395
 20
2.8938049312
 10
4.9671532979
 20
2.8989388417
 10
4.9632531461
 20
2.903149415
  0
LINE
  5
233
100
AcDbEntity
  8
0
100
AcDbLine
 62
7
  6
CONTINUOUS
 10
4.7984280322
 20
2.2540885406
 11
4.7984280322
 21
2.2398986013
  0
LINE
  5
234
100
AcDbEntity
  8
0
100
AcDbLine
 62
7
  6
CONTINUOUS
 10
4.7898574121
 20
2.2718952137
 11
4.7888626037
 21
2.1632819498
  0
LINE
  5
235
100
AcDbEntity
  8
0
100
AcDbLine
 62
7
  6
CONTINUOUS
 10
4.9632531461
 20
2.7175747876
 11
4.9632531147
 21
6.2460711339
  0
LINE
  5
236
100
AcDbEntity
  8
0
100
AcDbLine
 62
7
  6
CONTINUOUS
 10
5.1678806144
 20
2.5107256159
 11
5.1678806144
 21
2.5220701774
  0
LINE
  5
237
100
AcDbEntity
  8
0
100
AcDbLine
 62
7
  6
CONTINUOUS
 10
4.7896521628
 20
2.2494790742
 11
4.7928794229
 21
2.2665993191
  0
LINE
  5
238
100
AcDbEntity
  8
0
100
AcDbLine
 62
7
  6
CONTINUOUS
 10
4.790297385
 20
2.252893805
 11
4.7919791017
 21
2.2618130611
  0
LWPOLYLINE
  5
239
100
AcDbEntity
  8
0
100
AcDbPolyline
 62
7
  6
CONTINUOUS
 90
13
 70
0
 10
4.3935080827
 20
2.8915240558
 10
4.390568756
 20
2.8854412443
 10
4.386868599
 20
2.8773650424
 10
4.3833409727
 20
2.8692307808
 10
4.3799858367
 20
2.861042064
 10
4.3768032112
 20
2.8528026669
 10
4.3737918459
 20
2.8445128337
 10
4.3709518473
 20
2.836176152
 10
4.3682830573
 20
2.8277963865
 10
4.3657841553
 20
2.8193738429
 10
4.3634550969
 20
2.8109124772
 10
4.3612957951
 20
2.8024161229
 10
4.3606489456
 20
2.7997254918
  0
LINE
  5
23A
100
AcDbEntity
  8
0
100
AcDbLine
 62
7
  6
CONTINUOUS
 10
5.1893166037
 20
5.7227025072
 11
5.1880038185
 21
5.7304926669
  0
LINE
  5
23B
100
AcDbEntity
  8
0
100
AcDbLine
 62
7
  6
CONTINUOUS
 10
5.5383806144
 20
5.7534361914
 11
5.5383806144
 21
6.7384361914
  0
LINE
  5
23C
100
AcDbEntity
  8
0
100
AcDbLine
 62
7
  6
CONTINUOUS
 10
5.6383806144
 20
5.7534361914
 11
5.6383806144
 21
6.7384361914
  0
LINE
  5
23D
100
AcDbEntity
  8
0
100
AcDbLine
 62
7
  6
CONTINUOUS
 10
5.6466073214
 20
5.7577510096
 11
5.6466073214
 21
6.7341213732
  0
LINE
  5
23E
100
AcDbEntity
  8
0
100
AcDbLine
 62
7
  6
CONTINUOUS
 10
4.7758149868
 20
2.0838728414
 11
4.7758156832
 21
2.083875011
  0
LINE
  5
23F
100
AcDbEntity
  8
0
100
AcDbLine
 62
7
  6
CONTINUOUS
 10
5.7754092351
 20
5.8509361914
 11
5.7754092351
 21
6.6409361914
  0
LINE
  5
240
100
AcDbEntity
  8
0
100
AcDbLine
 62
7
  6
CONTINUOUS
 10
5.7777378218
 20
6.6399128937
 11
5.7777378218
 21
5.8519594891
  0
LINE
  5
241
100
AcDbEntity
  8
0
100
AcDbLine
 62
7
  6
CONTINUOUS
 10
5.8066535036
 20
6.6388046108
 11
5.8066535036
 21
5.853067772
  0
LINE
  5
242
100
AcDbEntity
  8
0
100
AcDbLine
 62
7
  6
CONTINUOUS
 10
5.9836345017
 20
6.4218246403
 11
5.9836541064
 21
6.4220658716
  0
LINE
  5
243
100
AcDbEntity
  8
0
100
AcDbLine
 62
7
  6
CONTINUOUS
 10
5.9836541064
 20
6.4220658716
 11
5.9836662667
 21
6.4222054687
  0
LINE
  5
244
100
AcDbEntity
  8
0
100
AcDbLine
 62
7
  6
CONTINUOUS
 10
5.9836662667
 20
6.4222054687
 11
5.9836775225
 21
6.422327392
  0
LINE
  5
245
100
AcDbEntity
  8
0
100
AcDbLine
 62
7
  6
CONTINUOUS
 10
5.9836775225
 20
6.422327392
 11
5.9836877077
 21
6.4224312038
  0
LINE
  5
246
100
AcDbEntity
  8
0
100
AcDbLine
 62
7
  6
CONTINUOUS
 10
5.9836877077
 20
6.4224312038
 11
5.9836965762
 21
6.4225159971
  0
LWPOLYLINE
  5
247
100
AcDbEntity
  8
0
100
AcDbPolyline
 62
7
  6
CONTINUOUS
 90
3
 70
0
 10
5.9836965762
 20
6.4225159971
 10
5.9837037693
 20
6.4225803117
 10
5.9837066492
 20
6.422604704
  0
LINE
  5
248
100
AcDbEntity
  8
0
100
AcDbLine
 62
7
  6
CONTINUOUS
 10
5.983708914
 20
6.4226231995
 11
5.983709785
 21
6.4226301142
  0
LWPOLYLINE
  5
249
100
AcDbEntity
  8
0
100
AcDbPolyline
 62
7
  6
CONTINUOUS
 90
30
 70
0
 10
4.3935080827
 20
2.9031502027
 10
4.3895350848
 20
2.8988589265
 10
4.3849224843
 20
2.8937213899
 10
4.380306678
 20
2.8884143145
 10
4.3756994851
 20
2.8829401986
 10
4.3711189094
 20
2.8773104708
 10
4.3665717705
 20
2.8715238994
 10
4.3620650798
 20
2.8655793312
 10
4.3576158048
 20
2.8594896186
 10
4.3532299868
 20
2.8532544277
 10
4.3489139105
 20
2.8468737482
 10
4.3446832842
 20
2.8403622725
 10
4.3405436632
 20
2.8337206836
 10
4.3365003034
 20
2.8269498159
 10
4.3325669623
 20
2.8200658203
 10
4.3287481094
 20
2.8130702656
 10
4.3250482292
 20
2.8059647694
 10
4.3214791614
 20
2.7987667116
 10
4.3180445853
 20
2.7914794969
 10
4.3147471631
 20
2.7841044714
 10
4.3115953518
 20
2.7766568437
 10
4.3085928492
 20
2.7691427066
 10
4.3057404341
 20
2.7615617815
 10
4.3030411388
 20
2.7539201955
 10
4.3004969445
 20
2.746221724
 10
4.2981093994
 20
2.7384689236
 10
4.2958806048
 20
2.7306662151
 10
4.2938121316
 20
2.7228166515
 10
4.2919053395
 20
2.7149235509
 10
4.2912770943
 20
2.7121542957
  0
LINE
  5
24A
100
AcDbEntity
  8
0
100
AcDbLine
 62
7
  6
CONTINUOUS
 10
5.9824633212
 20
6.1201268958
 11
5.9822670237
 21
6.1389771799
  0
LINE
  5
24B
100
AcDbEntity
  8
0
100
AcDbLine
 62
7
  6
CONTINUOUS
 10
5.9822670237
 20
6.1389771799
 11
5.9821031095
 21
6.160076206
  0
LINE
  5
24C
100
AcDbEntity
  8
0
100
AcDbLine
 62
7
  6
CONTINUOUS
 10
5.9821031095
 20
6.160076206
 11
5.9819661575
 21
6.1851796854
  0
LINE
  5
24D
100
AcDbEntity
  8
0
100
AcDbLine
 62
7
  6
CONTINUOUS
 10
5.9819661575
 20
6.1851796854
 11
5.981879064
 21
6.2110449046
  0
LINE
  5
24E
100
AcDbEntity
  8
0
100
AcDbLine
 62
7
  6
CONTINUOUS
 10
5.981879064
 20
6.2110449046
 11
5.9818395486
 21
6.2381350826
  0
LINE
  5
24F
100
AcDbEntity
  8
0
100
AcDbLine
 62
7
  6
CONTINUOUS
 10
5.8386101594
 20
6.6352277281
 11
5.8386101594
 21
5.8566446547
  0
LINE
  5
250
100
AcDbEntity
  8
0
100
AcDbLine
 62
7
  6
CONTINUOUS
 10
5.8625713963
 20
6.6308873097
 11
5.8625713963
 21
5.8609850731
  0
LINE
  5
251
100
AcDbEntity
  8
0
100
AcDbLine
 62
7
  6
CONTINUOUS
 10
5.8883806144
 20
5.8794361914
 11
5.8883806144
 21
6.6124361914
  0
LINE
  5
252
100
AcDbEntity
  8
0
100
AcDbLine
 62
7
  6
CONTINUOUS
 10
5.9818395486
 20
6.2381350826
 11
5.9818509212
 21
6.2658836904
  0
LINE
  5
253
100
AcDbEntity
  8
0
100
AcDbLine
 62
7
  6
CONTINUOUS
 10
5.9818509212
 20
6.2658836904
 11
5.9819113556
 21
6.2922698752
  0
LINE
  5
254
100
AcDbEntity
  8
0
100
AcDbLine
 62
7
  6
CONTINUOUS
 10
5.9819113556
 20
6.2922698752
 11
5.9820213117
 21
6.3180862981
  0
LINE
  5
255
100
AcDbEntity
  8
0
100
AcDbLine
 62
7
  6
CONTINUOUS
 10
5.9820213117
 20
6.3180862981
 11
5.9821717496
 21
6.341438059
  0
LINE
  5
256
100
AcDbEntity
  8
0
100
AcDbLine
 62
7
  6
CONTINUOUS
 10
5.9821717496
 20
6.341438059
 11
5.9823554194
 21
6.3620461207
  0
LINE
  5
257
100
AcDbEntity
  8
0
100
AcDbLine
 62
7
  6
CONTINUOUS
 10
5.9823554194
 20
6.3620461207
 11
5.9825561275
 21
6.3790467261
  0
LINE
  5
258
100
AcDbEntity
  8
0
100
AcDbLine
 62
7
  6
CONTINUOUS
 10
5.9825561275
 20
6.3790467261
 11
5.9827663981
 21
6.3927829969
  0
LINE
  5
259
100
AcDbEntity
  8
0
100
AcDbLine
 62
7
  6
CONTINUOUS
 10
5.9827663981
 20
6.3927829969
 11
5.982952854
 21
6.4023485876
  0
LINE
  5
25A
100
AcDbEntity
  8
0
100
AcDbLine
 62
7
  6
CONTINUOUS
 10
5.982952854
 20
6.4023485876
 11
5.9830930207
 21
6.4081992725
  0
LINE
  5
25B
100
AcDbEntity
  8
0
100
AcDbLine
 62
7
  6
CONTINUOUS
 10
5.9830930207
 20
6.4081992725
 11
5.9832041407
 21
6.4121098533
  0
LINE
  5
25C
100
AcDbEntity
  8
0
100
AcDbLine
 62
7
  6
CONTINUOUS
 10
5.9832041407
 20
6.4121098533
 11
5.9832953229
 21
6.414871039
  0
LINE
  5
25D
100
AcDbEntity
  8
0
100
AcDbLine
 62
7
  6
CONTINUOUS
 10
5.9832953229
 20
6.414871039
 11
5.9833669014
 21
6.4167679541
  0
LINE
  5
25E
100
AcDbEntity
  8
0
100
AcDbLine
 62
7
  6
CONTINUOUS
 10
5.9833669014
 20
6.4167679541
 11
5.983428183
 21
6.4182080688
  0
LINE
  5
25F
100
AcDbEntity
  8
0
100
AcDbLine
 62
7
  6
CONTINUOUS
 10
5.983428183
 20
6.4182080688
 11
5.9834794062
 21
6.419283483
  0
LINE
  5
260
100
AcDbEntity
  8
0
100
AcDbLine
 62
7
  6
CONTINUOUS
 10
5.9834794062
 20
6.419283483
 11
5.9835208776
 21
6.4200690102
  0
LINE
  5
261
100
AcDbEntity
  8
0
100
AcDbLine
 62
7
  6
CONTINUOUS
 10
5.9835208776
 20
6.4200690102
 11
5.9835530281
 21
6.4206253845
  0
LINE
  5
262
100
AcDbEntity
  8
0
100
AcDbLine
 62
7
  6
CONTINUOUS
 10
5.9835530281
 20
6.4206253845
 11
5.9835840289
 21
6.4211178643
  0
LINE
  5
263
100
AcDbEntity
  8
0
100
AcDbLine
 62
7
  6
CONTINUOUS
 10
5.9835840289
 20
6.4211178643
 11
5.9836063415
 21
6.4214451091
  0
LWPOLYLINE
  5
264
100
AcDbEntity
  8
0
100
AcDbPolyline
 62
7
  6
CONTINUOUS
 90
3
 70
0
 10
5.9836063415
 20
6.4214451091
 10
5.9836276585
 20
6.4217359234
 10
5.9836345017
 20
6.4218246403
  0
LINE
  5
265
100
AcDbEntity
  8
0
100
AcDbLine
 62
7
  6
CONTINUOUS
 10
5.9836997903
 20
6.0693271036
 11
5.9836921357
 21
6.0693981463
  0
LINE
  5
266
100
AcDbEntity
  8
0
100
AcDbLine
 62
7
  6
CONTINUOUS
 10
5.9836921357
 20
6.0693981463
 11
5.9836831468
 21
6.0694868623
  0
LINE
  5
267
100
AcDbEntity
  8
0
100
AcDbLine
 62
7
  6
CONTINUOUS
 10
5.9836831468
 20
6.0694868623
 11
5.9836730728
 21
6.0695923203
  0
LINE
  5
268
100
AcDbEntity
  8
0
100
AcDbLine
 62
7
  6
CONTINUOUS
 10
5.9836730728
 20
6.0695923203
 11
5.9836620978
 21
6.0697138724
  0
LINE
  5
269
100
AcDbEntity
  8
0
100
AcDbLine
 62
7
  6
CONTINUOUS
 10
5.9836620978
 20
6.0697138724
 11
5.9836503511
 21
6.0698511998
  0
LINE
  5
26A
100
AcDbEntity
  8
0
100
AcDbLine
 62
7
  6
CONTINUOUS
 10
5.9836503511
 20
6.0698511998
 11
5.9836315638
 21
6.0700855472
  0
LINE
  5
26B
100
AcDbEntity
  8
0
100
AcDbLine
 62
7
  6
CONTINUOUS
 10
5.9836315638
 20
6.0700855472
 11
5.9836116508
 21
6.0703528276
  0
LINE
  5
26C
100
AcDbEntity
  8
0
100
AcDbLine
 62
7
  6
CONTINUOUS
 10
5.9836116508
 20
6.0703528276
 11
5.9835908642
 21
6.0706518317
  0
LINE
  5
26D
100
AcDbEntity
  8
0
100
AcDbLine
 62
7
  6
CONTINUOUS
 10
5.9835908642
 20
6.0706518317
 11
5.9835621279
 21
6.0710979342
  0
LINE
  5
26E
100
AcDbEntity
  8
0
100
AcDbLine
 62
7
  6
CONTINUOUS
 10
5.9835621279
 20
6.0710979342
 11
5.9835324828
 21
6.0715972172
  0
LINE
  5
26F
100
AcDbEntity
  8
0
100
AcDbLine
 62
7
  6
CONTINUOUS
 10
5.9835324828
 20
6.0715972172
 11
5.983494412
 21
6.0722958697
  0
LINE
  5
270
100
AcDbEntity
  8
0
100
AcDbLine
 62
7
  6
CONTINUOUS
 10
5.983494412
 20
6.0722958697
 11
5.9834475198
 21
6.0732446805
  0
LINE
  5
271
100
AcDbEntity
  8
0
100
AcDbLine
 62
7
  6
CONTINUOUS
 10
5.9834475198
 20
6.0732446805
 11
5.9833914499
 21
6.0745073322
  0
LINE
  5
272
100
AcDbEntity
  8
0
100
AcDbLine
 62
7
  6
CONTINUOUS
 10
5.9833914499
 20
6.0745073322
 11
5.9833258555
 21
6.0761635925
  0
LINE
  5
273
100
AcDbEntity
  8
0
100
AcDbLine
 62
7
  6
CONTINUOUS
 10
5.9833258555
 20
6.0761635925
 11
5.9832418788
 21
6.0785720176
  0
LINE
  5
274
100
AcDbEntity
  8
0
100
AcDbLine
 62
7
  6
CONTINUOUS
 10
5.9832418788
 20
6.0785720176
 11
5.9831385341
 21
6.0819967877
  0
LINE
  5
275
100
AcDbEntity
  8
0
100
AcDbLine
 62
7
  6
CONTINUOUS
 10
5.9831385341
 20
6.0819967877
 11
5.9830056659
 21
6.0871935273
  0
LINE
  5
276
100
AcDbEntity
  8
0
100
AcDbLine
 62
7
  6
CONTINUOUS
 10
5.9830056659
 20
6.0871935273
 11
5.9828388286
 21
6.0951125795
  0
LINE
  5
277
100
AcDbEntity
  8
0
100
AcDbLine
 62
7
  6
CONTINUOUS
 10
5.9828388286
 20
6.0951125795
 11
5.9826266683
 21
6.1078197405
  0
LINE
  5
278
100
AcDbEntity
  8
0
100
AcDbLine
 62
7
  6
CONTINUOUS
 10
5.9826266683
 20
6.1078197405
 11
5.9824633212
 21
6.1201268958
  0
LINE
  5
279
100
AcDbEntity
  8
0
100
AcDbLine
 62
7
  6
CONTINUOUS
 10
5.9837030559
 20
6.0692982463
 11
5.9836997903
 21
6.0693271036
  0
LINE
  5
27A
100
AcDbEntity
  8
0
100
AcDbLine
 62
7
  6
CONTINUOUS
 10
5.983711411
 20
6.0692297833
 11
5.9837110965
 21
6.06923214
  0
LWPOLYLINE
  5
27B
100
AcDbEntity
  8
0
100
AcDbPolyline
 62
7
  6
CONTINUOUS
 90
3
 70
0
 10
5.9837099554
 20
6.0692409333
 10
5.9837081664
 20
6.0692552136
 10
5.9837058546
 20
6.0692743205
  0
LWPOLYLINE
  5
27C
100
AcDbEntity
  8
0
100
AcDbPolyline
 62
7
  6
CONTINUOUS
 90
22
 70
0
 10
4.8160782258
 20
2.1747598401
 10
4.816472898
 20
2.1751430099
 10
4.8172793942
 20
2.1759194606
 10
4.818052803
 20
2.1766556212
 10
4.8187926921
 20
2.1773519125
 10
4.8194980941
 20
2.1780082509
 10
4.8201682242
 20
2.178624735
 10
4.8208029353
 20
2.1792020475
 10
4.8214015504
 20
2.1797403796
 10
4.8219629408
 20
2.1802395296
 10
4.8224863806
 20
2.1806996717
 10
4.8229706487
 20
2.1811205624
 10
4.8234153078
 20
2.1815026567
 10
4.8238210025
 20
2.1818473238
 10
4.8241868936
 20
2.1821546527
 10
4.8245123878
 20
2.1824249546
 10
4.8247986863
 20
2.182660015
 10
4.8250451554
 20
2.1828600787
 10
4.8252512551
 20
2.1830254753
 10
4.8254182788
 20
2.1831579882
 10
4.8255458285
 20
2.1832580246
 10
4.8256329252
 20
2.1833255501
  0
LINE
  5
27D
100
AcDbEntity
  8
0
100
AcDbLine
 62
7
  6
CONTINUOUS
 10
4.7042769375
 20
2.0790329474
 11
4.706369226
 21
2.0809225864
  0
LINE
  5
27E
100
AcDbEntity
  8
0
100
AcDbLine
 62
7
  6
CONTINUOUS
 10
5.6383806144
 20
5.7534361914
 11
5.5383806144
 21
5.7534361914
  0
LINE
  5
27F
100
AcDbEntity
  8
0
100
AcDbLine
 62
7
  6
CONTINUOUS
 10
5.5383806144
 20
5.7959361914
 11
4.9632531461
 21
5.7959361914
  0
LINE
  5
280
100
AcDbEntity
  8
0
100
AcDbLine
 62
7
  6
CONTINUOUS
 10
4.1551469301
 20
5.7350002021
 11
4.1629370898
 21
5.7363129873
  0
LINE
  5
281
100
AcDbEntity
  8
0
100
AcDbLine
 62
7
  6
CONTINUOUS
 10
5.9834862667
 20
6.0639343987
 11
5.9834479356
 21
6.0639341929
  0
LINE
  5
282
100
AcDbEntity
  8
0
100
AcDbLine
 62
7
  6
CONTINUOUS
 10
5.9834862066
 20
6.0639342282
 11
5.9834479356
 21
6.0639341929
  0
LINE
  5
283
100
AcDbEntity
  8
0
100
AcDbLine
 62
7
  6
CONTINUOUS
 10
5.9828002756
 20
6.0971861914
 11
6.0286685694
 21
6.0971861914
  0
LWPOLYLINE
  5
284
100
AcDbEntity
  8
0
100
AcDbPolyline
 62
7
  6
CONTINUOUS
 90
17
 70
0
 10
4.788786205
 20
2.1603718182
 10
4.7893277229
 20
2.1605336573
 10
4.7915114718
 20
2.1612332994
 10
4.7936691216
 20
2.1619742948
 10
4.7957960736
 20
2.1627575028
 10
4.7978933911
 20
2.1635861401
 10
4.7999600956
 20
2.1644632658
 10
4.8019882404
 20
2.1653894026
 10
4.8039700521
 20
2.1663651765
 10
4.8059141073
 20
2.1674002586
 10
4.8078006835
 20
2.1684903818
 10
4.8095886702
 20
2.169614673
 10
4.811284164
 20
2.1707772796
 10
4.8128852355
 20
2.1719776385
 10
4.8143542173
 20
2.1731841804
 10
4.815686813
 20
2.1743850597
 10
4.8160909373
 20
2.1747727676
  0
LINE
  5
285
100
AcDbEntity
  8
0
100
AcDbLine
 62
7
  6
CONTINUOUS
 10
5.9834479356
 20
6.4279381899
 11
5.9834861677
 21
6.427938272
  0
LINE
  5
286
100
AcDbEntity
  8
0
100
AcDbLine
 62
7
  6
CONTINUOUS
 10
5.9828002828
 20
6.3946861914
 11
6.0286685694
 21
6.3946861914
  0
LINE
  5
287
100
AcDbEntity
  8
0
100
AcDbLine
 62
7
  6
CONTINUOUS
 10
5.2016142986
 20
6.7568721807
 11
5.1938241433
 21
6.7555594011
  0
LINE
  5
288
100
AcDbEntity
  8
0
100
AcDbLine
 62
7
  6
CONTINUOUS
 10
5.5383806144
 20
6.6959361914
 11
4.9287872294
 21
6.6959361914
  0
LINE
  5
289
100
AcDbEntity
  8
0
100
AcDbLine
 62
7
  6
CONTINUOUS
 10
5.6383806144
 20
6.7384361914
 11
5.5383806144
 21
6.7384361914
  0
LINE
  5
28A
100
AcDbEntity
  8
0
100
AcDbLine
 62
7
  6
CONTINUOUS
 10
4.7312348027
 20
6.762538418
 11
4.7299067317
 21
6.7626092707
  0
LINE
  5
28B
100
AcDbEntity
  8
0
100
AcDbLine
 62
7
  6
CONTINUOUS
 10
4.7312348027
 20
6.762538418
 11
4.7299072198
 21
6.7626171953
  0
LINE
  5
28C
100
AcDbEntity
  8
0
100
AcDbLine
 62
7
  6
CONTINUOUS
 10
4.6268538462
 20
6.7626171868
 11
4.6255264261
 21
6.762538418
  0
LINE
  5
28D
100
AcDbEntity
  8
0
100
AcDbLine
 62
7
  6
CONTINUOUS
 10
4.6268543345
 20
6.762609254
 11
4.6255264261
 21
6.762538418
  0
ARC
  5
28E
100
AcDbEntity
  8
0
100
AcDbCircle
 62
7
  6
CONTINUOUS
 10
4.3154852938
 20
3.7623072183
 40
3.1076615692
100
AcDbArc
 50
48.607692371
 51
49.5535032275
  0
ARC
  5
28F
100
AcDbEntity
  8
0
100
AcDbCircle
 62
7
  6
CONTINUOUS
 10
3.7298551634
 20
4.3490407318
 40
3.1068780734
100
AcDbArc
 50
40.446701978
 51
41.3927513324
  0
ARC
  5
290
100
AcDbEntity
  8
0
100
AcDbCircle
 62
7
  6
CONTINUOUS
 10
4.6783806144
 20
3.7384361914
 40
3.0735
100
AcDbArc
 50
80.4307739497
 51
99.5692260503
  0
ARC
  5
291
100
AcDbEntity
  8
0
100
AcDbCircle
 62
7
  6
CONTINUOUS
 10
4.6783806144
 20
3.7384361914
 40
3.0656
100
AcDbArc
 50
80.4308102277
 51
99.5692355822
  0
ARC
  5
292
100
AcDbEntity
  8
0
100
AcDbCircle
 62
7
  6
CONTINUOUS
 10
4.6783806144
 20
3.7384361914
 40
3.034
100
AcDbArc
 50
80.965912117
 51
99.034087883
  0
ARC
  5
293
100
AcDbEntity
  8
0
100
AcDbCircle
 62
7
  6
CONTINUOUS
 10
3.9800686956
 20
1.6707645401
 40
0.7935197219
100
AcDbArc
 50
47.0934750489
 51
53.7189677759
  0
ARC
  5
294
100
AcDbEntity
  8
0
100
AcDbCircle
 62
7
  6
CONTINUOUS
 10
4.5317245077
 20
2.8180103238
 40
0.6274938648
100
AcDbArc
 50
306.4551101728
 51
306.7478200537
  0
ARC
  5
295
100
AcDbEntity
  8
0
100
AcDbCircle
 62
7
  6
CONTINUOUS
 10
4.1214827949
 20
1.8129252588
 40
0.5877875878
100
AcDbArc
 50
47.1011991229
 51
55.8961097618
  0
ARC
  5
296
100
AcDbEntity
  8
0
100
AcDbCircle
 62
7
  6
CONTINUOUS
 10
4.6769760477
 20
2.7889309272
 40
0.4849510541
100
AcDbArc
 50
237.6310745058
 51
242.5671421283
  0
ARC
  5
297
100
AcDbEntity
  8
0
100
AcDbCircle
 62
7
  6
CONTINUOUS
 10
4.6783806144
 20
2.8433524861
 40
0.4772766552
100
AcDbArc
 50
262.1752388074
 51
277.8247611926
  0
ARC
  5
298
100
AcDbEntity
  8
0
100
AcDbCircle
 62
7
  6
CONTINUOUS
 10
4.6783806144
 20
2.5351466654
 40
0.4743078998
100
AcDbArc
 50
265.2925754106
 51
274.7074245894
  0
ARC
  5
299
100
AcDbEntity
  8
0
100
AcDbCircle
 62
7
  6
CONTINUOUS
 10
4.6705570474
 20
2.6273959968
 40
0.3886339904
100
AcDbArc
 50
167.402993789
 51
179.9798068801
  0
ARC
  5
29A
100
AcDbEntity
  8
0
100
AcDbCircle
 62
7
  6
CONTINUOUS
 10
4.2970970632
 20
1.9442827075
 40
0.3370362893
100
AcDbArc
 50
44.7006056671
 51
59.8843282693
  0
ARC
  5
29B
100
AcDbEntity
  8
0
100
AcDbCircle
 62
7
  6
CONTINUOUS
 10
4.6723453456
 20
2.7051848692
 40
0.3176217548
100
AcDbArc
 50
151.3933849728
 51
179.9843216494
  0
ARC
  5
29C
100
AcDbEntity
  8
0
100
AcDbCircle
 62
7
  6
CONTINUOUS
 10
4.6350694435
 20
2.5634131742
 40
0.3136598498
100
AcDbArc
 50
233.1376470236
 51
233.7572569543
  0
ARC
  5
29D
100
AcDbEntity
  8
0
100
AcDbCircle
 62
7
  6
CONTINUOUS
 10
4.6717612155
 20
2.7080988929
 40
0.3100227992
100
AcDbArc
 50
153.8413936935
 51
179.9867117931
  0
ARC
  5
29E
100
AcDbEntity
  8
0
100
AcDbCircle
 62
7
  6
CONTINUOUS
 10
4.6721887937
 20
2.7126650862
 40
0.3067763227
100
AcDbArc
 50
155.2944539117
 51
179.9894865809
  0
ARC
  5
29F
100
AcDbEntity
  8
0
100
AcDbCircle
 62
7
  6
CONTINUOUS
 10
4.6718309574
 20
2.7156710169
 40
0.2887004769
100
AcDbArc
 50
164.5995311322
 51
179.9974179394
  0
ARC
  5
2A0
100
AcDbEntity
  8
0
100
AcDbCircle
 62
7
  6
CONTINUOUS
 10
4.597105563
 20
2.2441176568
 40
0.0870767963
100
AcDbArc
 50
249.7497709289
 51
250.4195991757
  0
ARC
  5
2A1
100
AcDbEntity
  8
0
100
AcDbCircle
 62
7
  6
CONTINUOUS
 10
4.678090391
 20
2.132731206
 40
0.0597552657
100
AcDbArc
 50
270.7927872695
 51
271.5390800699
  0
ARC
  5
2A2
100
AcDbEntity
  8
0
100
AcDbCircle
 62
7
  6
CONTINUOUS
 10
4.6783764299
 20
2.1677974187
 40
0.0423968081
100
AcDbArc
 50
86.78167978
 51
89.9943450291
  0
ARC
  5
2A3
100
AcDbEntity
  8
0
100
AcDbCircle
 62
7
  6
CONTINUOUS
 10
4.67838165
 20
2.16790931
 40
0.0422849167
100
AcDbArc
 50
90.0014032861
 51
93.2225719048
  0
ARC
  5
2A4
100
AcDbEntity
  8
0
100
AcDbCircle
 62
7
  6
CONTINUOUS
 10
4.6435820523
 20
2.2206095033
 40
0.0236220472
100
AcDbArc
 50
240.9990512651
 51
299.0009487349
  0
ARC
  5
2A5
100
AcDbEntity
  8
0
100
AcDbCircle
 62
7
  6
CONTINUOUS
 10
4.629168016
 20
2.210045121
 40
0.0236220472
100
AcDbArc
 50
240.9990512651
 51
299.0009487349
  0
ARC
  5
2A6
100
AcDbEntity
  8
0
100
AcDbCircle
 62
7
  6
CONTINUOUS
 10
4.6435820523
 20
2.1994807386
 40
0.0236220472
100
AcDbArc
 50
240.9990512651
 51
299.0009487349
  0
ARC
  5
2A7
100
AcDbEntity
  8
0
100
AcDbCircle
 62
7
  6
CONTINUOUS
 10
4.6783806144
 20
2.1951048282
 40
0.0236220472
100
AcDbArc
 50
240.9990512651
 51
299.0009487349
  0
ARC
  5
2A8
100
AcDbEntity
  8
0
100
AcDbCircle
 62
7
  6
CONTINUOUS
 10
4.6783806144
 20
2.2249854138
 40
0.0236220472
100
AcDbArc
 50
240.9990583608
 51
299.0009449875
  0
ARC
  5
2A9
100
AcDbEntity
  8
0
100
AcDbCircle
 62
7
  6
CONTINUOUS
 10
4.5310451944
 20
2.2631276294
 40
0.0153156908
100
AcDbArc
 50
225.2395293619
 51
268.7115849742
  0
ARC
  5
2AA
100
AcDbEntity
  8
0
100
AcDbCircle
 62
7
  6
CONTINUOUS
 10
4.5532091299
 20
2.2945774409
 40
0.0150312403
100
AcDbArc
 50
193.0846602086
 51
269.7162611973
  0
ARC
  5
2AB
100
AcDbEntity
  8
0
100
AcDbCircle
 62
7
  6
CONTINUOUS
 10
4.4253755753
 20
2.391980209
 40
0.0149801316
100
AcDbArc
 50
213.0650163934
 51
237.5980425877
  0
ARC
  5
2AC
100
AcDbEntity
  8
0
100
AcDbCircle
 62
7
  6
CONTINUOUS
 10
-5.5080939069
 20
6.4196026141
 40
10.7576439297
100
AcDbArc
 50
337.8206268463
 51
337.9997693867
  0
ARC
  5
2AD
100
AcDbEntity
  8
0
100
AcDbCircle
 62
7
  6
CONTINUOUS
 10
2.1502846598
 20
6.2372178368
 40
3.0455949033
100
AcDbArc
 50
8.662712007
 51
9.2017425861
  0
ARC
  5
2AE
100
AcDbEntity
  8
0
100
AcDbCircle
 62
7
  6
CONTINUOUS
 10
2.1708806144
 20
6.2459361914
 40
3.0735
100
AcDbArc
 50
8.4191892612
 51
9.5692260503
  0
ARC
  5
2AF
100
AcDbEntity
  8
0
100
AcDbCircle
 62
7
  6
CONTINUOUS
 10
2.1708806144
 20
6.2459361914
 40
3.0735
100
AcDbArc
 50
350.4307739497
 51
351.5808096134
  0
ARC
  5
2B0
100
AcDbEntity
  8
0
100
AcDbCircle
 62
7
  6
CONTINUOUS
 10
2.1706752937
 20
6.2459673257
 40
3.0658076375
100
AcDbArc
 50
350.4308530792
 51
351.5589351116
  0
ARC
  5
2B1
100
AcDbEntity
  8
0
100
AcDbCircle
 62
7
  6
CONTINUOUS
 10
2.1708806144
 20
6.2459361914
 40
3.0656
100
AcDbArc
 50
8.4410537448
 51
9.5692356735
  0
ARC
  5
2B2
100
AcDbEntity
  8
0
100
AcDbCircle
 62
7
  6
CONTINUOUS
 10
2.1498508087
 20
6.2547240127
 40
3.0460342798
100
AcDbArc
 50
350.7982725553
 51
351.3372279196
  0
ARC
  5
2B3
100
AcDbEntity
  8
0
100
AcDbCircle
 62
7
  6
CONTINUOUS
 10
2.1708806144
 20
6.2459361914
 40
3.034
100
AcDbArc
 50
350.965912117
 51
351.4705970163
  0
ARC
  5
2B4
100
AcDbEntity
  8
0
100
AcDbCircle
 62
7
  6
CONTINUOUS
 10
2.1708806144
 20
6.2459361914
 40
3.034
100
AcDbArc
 50
8.5294038644
 51
9.034087883
  0
ARC
  5
2B5
100
AcDbEntity
  8
0
100
AcDbCircle
 62
7
  6
CONTINUOUS
 10
4.1699382122
 20
5.7374937892
 40
0.015
100
AcDbArc
 50
189.5692260503
 51
260.4307739497
  0
ARC
  5
2B6
100
AcDbEntity
  8
0
100
AcDbCircle
 62
7
  6
CONTINUOUS
 10
4.2043310177
 20
5.7718866136
 40
0.0149999947
100
AcDbArc
 50
189.034087883
 51
260.9659218118
  0
ARC
  5
2B7
100
AcDbEntity
  8
0
100
AcDbCircle
 62
7
  6
CONTINUOUS
 10
4.6783806144
 20
6.2459361914
 40
0.5192989753
100
AcDbArc
 50
95.8416732199
 51
174.1583267801
  0
ARC
  5
2B8
100
AcDbEntity
  8
0
100
AcDbCircle
 62
7
  6
CONTINUOUS
 10
4.6783806144
 20
6.2459361914
 40
0.5192989753
100
AcDbArc
 50
60.0650040988
 51
84.1583267801
  0
ARC
  5
2B9
100
AcDbEntity
  8
0
100
AcDbCircle
 62
7
  6
CONTINUOUS
 10
4.6783806144
 20
6.2459361914
 40
0.5192989753
100
AcDbArc
 50
185.8416732199
 51
236.7301194325
  0
ARC
  5
2BA
100
AcDbEntity
  8
0
100
AcDbCircle
 62
7
  6
CONTINUOUS
 10
4.6783806144
 20
6.2459361914
 40
0.5192605809
100
AcDbArc
 50
60.0690136179
 51
236.7268224614
  0
ARC
  5
2BB
100
AcDbEntity
  8
0
100
AcDbCircle
 62
7
  6
CONTINUOUS
 10
4.6783806144
 20
6.2459361914
 40
0.515
100
AcDbArc
 50
303.5835350495
 51
236.4164649504
  0
ARC
  5
2BC
100
AcDbEntity
  8
0
100
AcDbCircle
 62
7
  6
CONTINUOUS
 10
4.6783806144
 20
6.2459361914
 40
0.5115268154
100
AcDbArc
 50
303.8434913022
 51
236.1565086977
  0
ARC
  5
2BD
100
AcDbEntity
  8
0
100
AcDbCircle
 62
7
  6
CONTINUOUS
 10
4.6783806144
 20
6.2459361914
 40
0.4383876369
100
AcDbArc
 50
310.5307941135
 51
229.4692058865
  0
ARC
  5
2BE
100
AcDbEntity
  8
0
100
AcDbCircle
 62
7
  6
CONTINUOUS
 10
4.6783806144
 20
6.2459361914
 40
0.4324793611
100
AcDbArc
 50
311.2009632125
 51
228.7990367876
  0
ARC
  5
2BF
100
AcDbEntity
  8
0
100
AcDbCircle
 62
7
  6
CONTINUOUS
 10
4.6783806144
 20
6.2459361914
 40
0.3722030129
100
AcDbArc
 50
319.9434485147
 51
220.0565514852
  0
ARC
  5
2C0
100
AcDbEntity
  8
0
100
AcDbCircle
 62
7
  6
CONTINUOUS
 10
4.6783806144
 20
6.2459361914
 40
0.3607756208
100
AcDbArc
 50
322.1515063238
 51
217.8484936762
  0
ARC
  5
2C1
100
AcDbEntity
  8
0
100
AcDbCircle
 62
7
  6
CONTINUOUS
 10
4.6783806144
 20
6.2459361914
 40
0.3548952433
100
AcDbArc
 50
323.3894650216
 51
216.6105349787
  0
ARC
  5
2C2
100
AcDbEntity
  8
0
100
AcDbCircle
 62
7
  6
CONTINUOUS
 10
4.6783806144
 20
6.2459361914
 40
0.3542756208
100
AcDbArc
 50
323.5239746593
 51
216.4760253407
  0
ARC
  5
2C3
100
AcDbEntity
  8
0
100
AcDbCircle
 62
7
  6
CONTINUOUS
 10
4.6783806144
 20
6.2459361914
 40
0.34
100
AcDbArc
 50
326.9198486256
 51
213.0801513744
  0
ARC
  5
2C4
100
AcDbEntity
  8
0
100
AcDbCircle
 62
7
  6
CONTINUOUS
 10
4.6730986076
 20
6.2459364893
 40
0.2901545384
100
AcDbArc
 50
0.026589829
 51
2.0778407172
  0
ARC
  5
2C5
100
AcDbEntity
  8
0
100
AcDbCircle
 62
7
  6
CONTINUOUS
 10
4.6783387914
 20
6.2526232004
 40
0.2783129942
100
AcDbArc
 50
86.2413445009
 51
89.9913899787
  0
ARC
  5
2C6
100
AcDbEntity
  8
0
100
AcDbCircle
 62
7
  6
CONTINUOUS
 10
4.1699382122
 20
6.7543785936
 40
0.015
100
AcDbArc
 50
99.5692260503
 51
170.4307739497
  0
ARC
  5
2C7
100
AcDbEntity
  8
0
100
AcDbCircle
 62
7
  6
CONTINUOUS
 10
4.2043310367
 20
6.7199857881
 40
0.0149999947
100
AcDbArc
 50
99.034066193
 51
170.965912117
  0
ARC
  5
2C8
100
AcDbEntity
  8
0
100
AcDbCircle
 62
7
  6
CONTINUOUS
 10
3.7292517639
 20
8.1433314145
 40
3.1076614128
100
AcDbArc
 50
318.6076922243
 51
319.5535031284
  0
ARC
  5
2C9
100
AcDbEntity
  8
0
100
AcDbCircle
 62
7
  6
CONTINUOUS
 10
4.3159851585
 20
8.7289616455
 40
3.1068780733
100
AcDbArc
 50
310.4467018884
 51
311.3927512429
  0
ARC
  5
2CA
100
AcDbEntity
  8
0
100
AcDbCircle
 62
7
  6
CONTINUOUS
 10
4.6783806144
 20
8.7534361914
 40
3.0735
100
AcDbArc
 50
260.4307739497
 51
264.6817359173
  0
ARC
  5
2CB
100
AcDbEntity
  8
0
100
AcDbCircle
 62
7
  6
CONTINUOUS
 10
4.6783806144
 20
8.7534361914
 40
3.0735
100
AcDbArc
 50
275.3182639546
 51
279.5692260503
  0
ARC
  5
2CC
100
AcDbEntity
  8
0
100
AcDbCircle
 62
7
  6
CONTINUOUS
 10
4.6783806144
 20
8.7534361914
 40
3.0656
100
AcDbArc
 50
275.3320106808
 51
279.5692355854
  0
ARC
  5
2CD
100
AcDbEntity
  8
0
100
AcDbCircle
 62
7
  6
CONTINUOUS
 10
4.6783777134
 20
8.7534162109
 40
3.0655798133
100
AcDbArc
 50
260.4307803396
 51
264.6680093842
  0
ARC
  5
2CE
100
AcDbEntity
  8
0
100
AcDbCircle
 62
7
  6
CONTINUOUS
 10
4.6783806144
 20
8.7534361914
 40
3.034
100
AcDbArc
 50
275.3866088444
 51
279.034087883
  0
ARC
  5
2CF
100
AcDbEntity
  8
0
100
AcDbCircle
 62
7
  6
CONTINUOUS
 10
4.6783806144
 20
8.7534361914
 40
3.034
100
AcDbArc
 50
260.965912117
 51
264.6133934825
  0
ARC
  5
2D0
100
AcDbEntity
  8
0
100
AcDbCircle
 62
7
  6
CONTINUOUS
 10
4.6720976881
 20
8.7571516235
 40
3.0285421715
100
AcDbArc
 50
275.5167984776
 51
279.2073291925
  0
ARC
  5
2D1
100
AcDbEntity
  8
0
100
AcDbCircle
 62
7
  6
CONTINUOUS
 10
8.6965094734
 20
4.3485409781
 40
3.1076614128
100
AcDbArc
 50
138.6076924641
 51
139.5535033682
  0
ARC
  5
2D2
100
AcDbEntity
  8
0
100
AcDbCircle
 62
7
  6
CONTINUOUS
 10
8.1097760702
 20
3.7629107371
 40
3.1068780734
100
AcDbArc
 50
130.4467018837
 51
131.3927512381
  0
ARC
  5
2D3
100
AcDbEntity
  8
0
100
AcDbCircle
 62
7
  6
CONTINUOUS
 10
5.3766922798
 20
1.6707648917
 40
0.7935192897
100
AcDbArc
 50
126.2810318825
 51
132.9065297522
  0
ARC
  5
2D4
100
AcDbEntity
  8
0
100
AcDbCircle
 62
7
  6
CONTINUOUS
 10
4.8257452721
 20
2.8189663928
 40
0.6286838716
100
AcDbArc
 50
233.2523192873
 51
233.5447284062
  0
ARC
  5
2D5
100
AcDbEntity
  8
0
100
AcDbCircle
 62
7
  6
CONTINUOUS
 10
5.2352784342
 20
1.8129252593
 40
0.5877875876
100
AcDbArc
 50
124.103890291
 51
132.8988009321
  0
ARC
  5
2D6
100
AcDbEntity
  8
0
100
AcDbCircle
 62
7
  6
CONTINUOUS
 10
4.6797851811
 20
2.7889309272
 40
0.4849510541
100
AcDbArc
 50
297.4328578717
 51
302.3689254942
  0
ARC
  5
2D7
100
AcDbEntity
  8
0
100
AcDbCircle
 62
7
  6
CONTINUOUS
 10
4.6862166307
 20
2.6273969419
 40
0.3886215339
100
AcDbArc
 50
0.0200544331
 51
12.5512037804
  0
ARC
  5
2D8
100
AcDbEntity
  8
0
100
AcDbCircle
 62
7
  6
CONTINUOUS
 10
4.6840125416
 20
2.6236667519
 40
0.3806934193
100
AcDbArc
 50
305.8830359181
 51
315.3539207195
  0
ARC
  5
2D9
100
AcDbEntity
  8
0
100
AcDbCircle
 62
7
  6
CONTINUOUS
 10
4.6846382798
 20
2.6128236451
 40
0.3754203233
100
AcDbArc
 50
306.8630591708
 51
316.617403374
  0
ARC
  5
2DA
100
AcDbEntity
  8
0
100
AcDbCircle
 62
7
  6
CONTINUOUS
 10
5.0596641711
 20
1.9442827034
 40
0.3370362958
100
AcDbArc
 50
120.1156721948
 51
135.2994078078
  0
ARC
  5
2DB
100
AcDbEntity
  8
0
100
AcDbCircle
 62
7
  6
CONTINUOUS
 10
4.6844158849
 20
2.7051848697
 40
0.3176217528
100
AcDbArc
 50
0.0156782491
 51
28.606587413
  0
ARC
  5
2DC
100
AcDbEntity
  8
0
100
AcDbCircle
 62
7
  6
CONTINUOUS
 10
4.7214243702
 20
2.5637821824
 40
0.3141155
100
AcDbArc
 50
306.2422913473
 51
306.8609958761
  0
ARC
  5
2DD
100
AcDbEntity
  8
0
100
AcDbCircle
 62
7
  6
CONTINUOUS
 10
4.685000013
 20
2.7080988931
 40
0.3100227992
100
AcDbArc
 50
0.0132881786
 51
26.1586062624
  0
ARC
  5
2DE
100
AcDbEntity
  8
0
100
AcDbCircle
 62
7
  6
CONTINUOUS
 10
4.6845724356
 20
2.7126650864
 40
0.306776322
100
AcDbArc
 50
0.0105133748
 51
24.7055364975
  0
ARC
  5
2DF
100
AcDbEntity
  8
0
100
AcDbCircle
 62
7
  6
CONTINUOUS
 10
4.6849302714
 20
2.7156710169
 40
0.2887004769
100
AcDbArc
 50
0.0025820609
 51
15.4004688678
  0
ARC
  5
2E0
100
AcDbEntity
  8
0
100
AcDbCircle
 62
7
  6
CONTINUOUS
 10
4.6796883091
 20
2.1941193162
 40
0.1211401101
100
AcDbArc
 50
269.0893503215
 51
269.635277207
  0
ARC
  5
2E1
100
AcDbEntity
  8
0
100
AcDbCircle
 62
7
  6
CONTINUOUS
 10
4.7596797061
 20
2.2440892944
 40
0.0870426233
100
AcDbArc
 50
289.571734545
 51
290.2124780249
  0
ARC
  5
2E2
100
AcDbEntity
  8
0
100
AcDbCircle
 62
7
  6
CONTINUOUS
 10
4.7131791765
 20
2.1994807386
 40
0.0236220472
100
AcDbArc
 50
240.9990512651
 51
299.0009487349
  0
ARC
  5
2E3
100
AcDbEntity
  8
0
100
AcDbCircle
 62
7
  6
CONTINUOUS
 10
4.7275932128
 20
2.210045121
 40
0.0236220472
100
AcDbArc
 50
240.9990512651
 51
299.0009487349
  0
ARC
  5
2E4
100
AcDbEntity
  8
0
100
AcDbCircle
 62
7
  6
CONTINUOUS
 10
4.7131791765
 20
2.2206095033
 40
0.0236220472
100
AcDbArc
 50
240.9990512651
 51
299.0009487349
  0
ARC
  5
2E5
100
AcDbEntity
  8
0
100
AcDbCircle
 62
7
  6
CONTINUOUS
 10
4.9745353326
 20
2.3389043884
 40
0.0234180989
100
AcDbArc
 50
132.619950116
 51
136.7169940025
  0
ARC
  5
2E6
100
AcDbEntity
  8
0
100
AcDbCircle
 62
7
  6
CONTINUOUS
 10
4.8257177982
 20
2.2631237955
 40
0.0153116464
100
AcDbArc
 50
271.2821657724
 51
314.7658884423
  0
ARC
  5
2E7
100
AcDbEntity
  8
0
100
AcDbCircle
 62
7
  6
CONTINUOUS
 10
4.8035522235
 20
2.2945774223
 40
0.0150311667
100
AcDbArc
 50
270.2829613835
 51
346.9141839892
  0
ARC
  5
2E8
100
AcDbEntity
  8
0
100
AcDbCircle
 62
7
  6
CONTINUOUS
 10
4.9313856535
 20
2.391980209
 40
0.0149801316
100
AcDbArc
 50
302.4019574104
 51
326.9349836051
  0
ARC
  5
2E9
100
AcDbEntity
  8
0
100
AcDbCircle
 62
7
  6
CONTINUOUS
 10
5.3155259806
 20
5.8821521934
 40
0.9021063776
100
AcDbArc
 50
34.8928812606
 51
35.9597022575
  0
ARC
  5
2EA
100
AcDbEntity
  8
0
100
AcDbCircle
 62
7
  6
CONTINUOUS
 10
5.8491805942
 20
5.3487004408
 40
0.9019608272
100
AcDbArc
 50
54.0401813953
 51
55.1071742632
  0
ARC
  5
2EB
100
AcDbEntity
  8
0
100
AcDbCircle
 62
7
  6
CONTINUOUS
 10
5.842814283
 20
5.6221594235
 40
0.2385
100
AcDbArc
 50
106.4166814713
 51
145.3530415104
  0
ARC
  5
2EC
100
AcDbEntity
  8
0
100
AcDbCircle
 62
7
  6
CONTINUOUS
 10
5.7932022044
 20
5.8262524303
 40
0.03
100
AcDbArc
 50
63.3604216487
 51
121.0295054286
  0
ARC
  5
2ED
100
AcDbEntity
  8
0
100
AcDbCircle
 62
7
  6
CONTINUOUS
 10
5.8198806144
 20
5.8794361914
 40
0.0295
100
AcDbArc
 50
243.3604216487
 51
309.4125555521
  0
ARC
  5
2EE
100
AcDbEntity
  8
0
100
AcDbCircle
 62
7
  6
CONTINUOUS
 10
5.8544826552
 20
5.8373297932
 40
0.025
100
AcDbArc
 50
71.1222712196
 51
129.4125555521
  0
ARC
  5
2EF
100
AcDbEntity
  8
0
100
AcDbCircle
 62
7
  6
CONTINUOUS
 10
5.8688806144
 20
5.8794361914
 40
0.0195
100
AcDbArc
 50
251.1222712196
 51
360.0
  0
ARC
  5
2F0
100
AcDbEntity
  8
0
100
AcDbCircle
 62
7
  6
CONTINUOUS
 10
5.1868230166
 20
5.7374937892
 40
0.015
100
AcDbArc
 50
279.5692260503
 51
350.4307739497
  0
ARC
  5
2F1
100
AcDbEntity
  8
0
100
AcDbCircle
 62
7
  6
CONTINUOUS
 10
5.1524301922
 20
5.7718865947
 40
0.0149999947
100
AcDbArc
 50
279.034087883
 51
350.9659218118
  0
ARC
  5
2F2
100
AcDbEntity
  8
0
100
AcDbCircle
 62
7
  6
CONTINUOUS
 10
5.7725830277
 20
5.8605285087
 40
0.01
100
AcDbArc
 50
286.4166814713
 51
301.0295054286
  0
ARC
  5
2F3
100
AcDbEntity
  8
0
100
AcDbCircle
 62
7
  6
CONTINUOUS
 10
5.6383806144
 20
5.7634361914
 40
0.01
100
AcDbArc
 50
270.0
 51
325.3530415104
  0
ARC
  5
2F4
100
AcDbEntity
  8
0
100
AcDbCircle
 62
7
  6
CONTINUOUS
 10
5.3156448678
 20
6.6096362173
 40
0.9019608272
100
AcDbArc
 50
324.0401809536
 51
325.1071738215
  0
ARC
  5
2F5
100
AcDbEntity
  8
0
100
AcDbCircle
 62
7
  6
CONTINUOUS
 10
5.4633806144
 20
6.2427921925
 40
0.55
100
AcDbArc
 50
320.5994312463
 51
341.0225318408
  0
ARC
  5
2F6
100
AcDbEntity
  8
0
100
AcDbCircle
 62
7
  6
CONTINUOUS
 10
5.4633806144
 20
6.2490801903
 40
0.55
100
AcDbArc
 50
18.9774681544
 51
39.4005687537
  0
ARC
  5
2F7
100
AcDbEntity
  8
0
100
AcDbCircle
 62
7
  6
CONTINUOUS
 10
4.6836633856
 20
6.2459364736
 40
0.2901553028
100
AcDbArc
 50
177.922161665
 51
179.9860463352
  0
ARC
  5
2F8
100
AcDbEntity
  8
0
100
AcDbCircle
 62
7
  6
CONTINUOUS
 10
4.6784224374
 20
6.2526232004
 40
0.2783129942
100
AcDbArc
 50
90.0086100213
 51
93.7586554997
  0
ARC
  5
2F9
100
AcDbEntity
  8
0
100
AcDbCircle
 62
7
  6
CONTINUOUS
 10
5.842814283
 20
6.8697129593
 40
0.2385
100
AcDbArc
 50
214.6469584896
 51
253.5833185287
  0
ARC
  5
2FA
100
AcDbEntity
  8
0
100
AcDbCircle
 62
7
  6
CONTINUOUS
 10
5.7932022044
 20
6.6656199525
 40
0.03
100
AcDbArc
 50
238.9704945714
 51
296.6395783513
  0
ARC
  5
2FB
100
AcDbEntity
  8
0
100
AcDbCircle
 62
7
  6
CONTINUOUS
 10
5.8198806144
 20
6.6124361914
 40
0.0295
100
AcDbArc
 50
50.5874444479
 51
116.6395783513
  0
ARC
  5
2FC
100
AcDbEntity
  8
0
100
AcDbCircle
 62
7
  6
CONTINUOUS
 10
5.8544826552
 20
6.6545425896
 40
0.025
100
AcDbArc
 50
230.5874444479
 51
288.8777287804
  0
ARC
  5
2FD
100
AcDbEntity
  8
0
100
AcDbCircle
 62
7
  6
CONTINUOUS
 10
5.8688806144
 20
6.6124361914
 40
0.0195
100
AcDbArc
 50
0.0
 51
108.8777287804
  0
ARC
  5
2FE
100
AcDbEntity
  8
0
100
AcDbCircle
 62
7
  6
CONTINUOUS
 10
5.1868230166
 20
6.7543785936
 40
0.015
100
AcDbArc
 50
9.5692260503
 51
80.4307739497
  0
ARC
  5
2FF
100
AcDbEntity
  8
0
100
AcDbCircle
 62
7
  6
CONTINUOUS
 10
5.1524302111
 20
6.7199857691
 40
0.0149999947
100
AcDbArc
 50
9.0340661927
 51
80.9659217678
  0
ARC
  5
300
100
AcDbEntity
  8
0
100
AcDbCircle
 62
7
  6
CONTINUOUS
 10
5.7725830277
 20
6.6313438741
 40
0.01
100
AcDbArc
 50
58.9704945714
 51
73.5833185287
  0
ARC
  5
301
100
AcDbEntity
  8
0
100
AcDbCircle
 62
7
  6
CONTINUOUS
 10
5.6383806144
 20
6.7284361914
 40
0.01
100
AcDbArc
 50
34.6469584896
 51
90.0
  0
ARC
  5
302
100
AcDbEntity
  8
0
100
AcDbCircle
 62
7
  6
CONTINUOUS
 10
6.5766269943
 20
5.3486352403
 40
0.9020408268
100
AcDbArc
 50
124.8928719649
 51
125.9597702026
  0
ARC
  5
303
100
AcDbEntity
  8
0
100
AcDbCircle
 62
7
  6
CONTINUOUS
 10
7.1101163665
 20
5.8822361733
 40
0.9019608272
100
AcDbArc
 50
144.0401815613
 51
145.1071744293
  0
ARC
  5
304
100
AcDbEntity
  8
0
100
AcDbCircle
 62
7
  6
CONTINUOUS
 10
6.2128806144
 20
6.0859361914
 40
0.375
100
AcDbArc
 50
63.3167307123
 51
116.6832692877
  0
ARC
  5
305
100
AcDbEntity
  8
0
100
AcDbCircle
 62
7
  6
CONTINUOUS
 10
6.2128806144
 20
6.0859361914
 40
0.3668429912
100
AcDbArc
 50
63.1043834089
 51
116.8956165911
  0
ARC
  5
306
100
AcDbEntity
  8
0
100
AcDbCircle
 62
7
  6
CONTINUOUS
 10
6.2128806144
 20
6.0859361914
 40
0.3520549179
100
AcDbArc
 50
64.3742514885
 51
115.6257485115
  0
ARC
  5
307
100
AcDbEntity
  8
0
100
AcDbCircle
 62
7
  6
CONTINUOUS
 10
6.2128806144
 20
6.0859361914
 40
0.3028741289
100
AcDbArc
 50
66.9343967152
 51
113.0656030048
  0
ARC
  5
308
100
AcDbEntity
  8
0
100
AcDbCircle
 62
7
  6
CONTINUOUS
 10
6.3532331725
 20
6.1055836333
 40
0.0208160901
100
AcDbArc
 50
304.8938929413
 51
325.1061069726
  0
ARC
  5
309
100
AcDbEntity
  8
0
100
AcDbCircle
 62
7
  6
CONTINUOUS
 10
6.0725280563
 20
6.1055836333
 40
0.0208160901
100
AcDbArc
 50
214.8938929413
 51
235.1061069726
  0
ARC
  5
30A
100
AcDbEntity
  8
0
100
AcDbCircle
 62
7
  6
CONTINUOUS
 10
6.3745415339
 20
6.0842752719
 40
0.015
100
AcDbArc
 50
296.6832692877
 51
333.3167306788
  0
ARC
  5
30B
100
AcDbEntity
  8
0
100
AcDbCircle
 62
7
  6
CONTINUOUS
 10
6.0512196949
 20
6.0842752719
 40
0.015
100
AcDbArc
 50
206.6832692877
 51
243.3167306788
  0
ARC
  5
30C
100
AcDbEntity
  8
0
100
AcDbCircle
 62
7
  6
CONTINUOUS
 10
5.9739909021
 20
6.0671861709
 40
0.010000538
100
AcDbArc
 50
341.0235089541
 51
14.741411956
  0
ARC
  5
30D
100
AcDbEntity
  8
0
100
AcDbCircle
 62
7
  6
CONTINUOUS
 10
5.9740297406
 20
6.0671861914
 40
0.01
100
AcDbArc
 50
341.0225318756
 51
15.9476589222
  0
ARC
  5
30E
100
AcDbEntity
  8
0
100
AcDbCircle
 62
7
  6
CONTINUOUS
 10
7.1858806144
 20
6.2459361914
 40
3.0735
100
AcDbArc
 50
170.4307739497
 51
189.5692260503
  0
ARC
  5
30F
100
AcDbEntity
  8
0
100
AcDbCircle
 62
7
  6
CONTINUOUS
 10
7.1858806144
 20
6.2459361914
 40
3.0656
100
AcDbArc
 50
170.4308102687
 51
189.5692355855
  0
ARC
  5
310
100
AcDbEntity
  8
0
100
AcDbCircle
 62
7
  6
CONTINUOUS
 10
7.1858806144
 20
6.2459361914
 40
3.034
100
AcDbArc
 50
170.965912117
 51
189.034087883
  0
ARC
  5
311
100
AcDbEntity
  8
0
100
AcDbCircle
 62
7
  6
CONTINUOUS
 10
7.1101815613
 20
6.6096825771
 40
0.9020408268
100
AcDbArc
 50
214.8928724171
 51
215.9597706548
  0
ARC
  5
312
100
AcDbEntity
  8
0
100
AcDbCircle
 62
7
  6
CONTINUOUS
 10
6.3728806144
 20
6.2459361914
 40
0.375
100
AcDbArc
 50
153.3167307123
 51
206.6832692877
  0
ARC
  5
313
100
AcDbEntity
  8
0
100
AcDbCircle
 62
7
  6
CONTINUOUS
 10
6.0528806144
 20
6.2459361914
 40
0.375
100
AcDbArc
 50
333.3167307123
 51
26.6832692877
  0
ARC
  5
314
100
AcDbEntity
  8
0
100
AcDbCircle
 62
7
  6
CONTINUOUS
 10
6.2128806144
 20
6.4059361914
 40
0.375
100
AcDbArc
 50
243.3167307123
 51
296.6832692877
  0
ARC
  5
315
100
AcDbEntity
  8
0
100
AcDbCircle
 62
7
  6
CONTINUOUS
 10
6.3728806144
 20
6.2459361914
 40
0.3668429912
100
AcDbArc
 50
153.1043818901
 51
206.8956165911
  0
ARC
  5
316
100
AcDbEntity
  8
0
100
AcDbCircle
 62
7
  6
CONTINUOUS
 10
6.0528806144
 20
6.2459361914
 40
0.3668429912
100
AcDbArc
 50
333.1043834089
 51
26.8956165911
  0
ARC
  5
317
100
AcDbEntity
  8
0
100
AcDbCircle
 62
7
  6
CONTINUOUS
 10
6.2128806144
 20
6.4059361914
 40
0.3668429912
100
AcDbArc
 50
243.1043834089
 51
296.8956165911
  0
ARC
  5
318
100
AcDbEntity
  8
0
100
AcDbCircle
 62
7
  6
CONTINUOUS
 10
6.3728806144
 20
6.2459361914
 40
0.3520549179
100
AcDbArc
 50
154.3742514885
 51
205.6257485115
  0
ARC
  5
319
100
AcDbEntity
  8
0
100
AcDbCircle
 62
7
  6
CONTINUOUS
 10
6.0528806144
 20
6.2459361914
 40
0.3520549179
100
AcDbArc
 50
334.3742514885
 51
25.6257485115
  0
ARC
  5
31A
100
AcDbEntity
  8
0
100
AcDbCircle
 62
7
  6
CONTINUOUS
 10
6.2128806144
 20
6.4059361914
 40
0.3520549179
100
AcDbArc
 50
244.3742514885
 51
295.6257485115
  0
ARC
  5
31B
100
AcDbEntity
  8
0
100
AcDbCircle
 62
7
  6
CONTINUOUS
 10
6.3728806144
 20
6.2459361914
 40
0.3028741289
100
AcDbArc
 50
156.9343964485
 51
203.0656032712
  0
ARC
  5
31C
100
AcDbEntity
  8
0
100
AcDbCircle
 62
7
  6
CONTINUOUS
 10
6.2128806144
 20
6.4059361914
 40
0.3028741289
100
AcDbArc
 50
246.9343967151
 51
293.0656030049
  0
ARC
  5
31D
100
AcDbEntity
  8
0
100
AcDbCircle
 62
7
  6
CONTINUOUS
 10
6.0528806144
 20
6.2459361914
 40
0.3028741289
100
AcDbArc
 50
336.9343964486
 51
23.0656032713
  0
ARC
  5
31E
100
AcDbEntity
  8
0
100
AcDbCircle
 62
7
  6
CONTINUOUS
 10
6.1067136048
 20
6.3521032011
 40
0.0854057248
100
AcDbArc
 50
134.4236750482
 51
135.5763190949
  0
ARC
  5
31F
100
AcDbEntity
  8
0
100
AcDbCircle
 62
7
  6
CONTINUOUS
 10
6.3190476242
 20
6.1397691816
 40
0.0854057246
100
AcDbArc
 50
314.4236750487
 51
315.576324985
  0
ARC
  5
320
100
AcDbEntity
  8
0
100
AcDbCircle
 62
7
  6
CONTINUOUS
 10
6.319047634
 20
6.3521032109
 40
0.0854057108
100
AcDbArc
 50
44.4236749556
 51
45.5763250781
  0
ARC
  5
321
100
AcDbEntity
  8
0
100
AcDbCircle
 62
7
  6
CONTINUOUS
 10
6.1067135904
 20
6.1397691674
 40
0.0854057045
100
AcDbArc
 50
224.4236749132
 51
225.5763251204
  0
ARC
  5
322
100
AcDbEntity
  8
0
100
AcDbCircle
 62
7
  6
CONTINUOUS
 10
6.3532331725
 20
6.3862887495
 40
0.0208160901
100
AcDbArc
 50
34.8938929413
 51
55.1061069726
  0
ARC
  5
323
100
AcDbEntity
  8
0
100
AcDbCircle
 62
7
  6
CONTINUOUS
 10
6.0725280563
 20
6.3862887495
 40
0.0208160901
100
AcDbArc
 50
124.8938929413
 51
145.1061069726
  0
ARC
  5
324
100
AcDbEntity
  8
0
100
AcDbCircle
 62
7
  6
CONTINUOUS
 10
6.3745415339
 20
6.4075971109
 40
0.015
100
AcDbArc
 50
26.6832692877
 51
63.3167306788
  0
ARC
  5
325
100
AcDbEntity
  8
0
100
AcDbCircle
 62
7
  6
CONTINUOUS
 10
6.0512196949
 20
6.4075971109
 40
0.015
100
AcDbArc
 50
116.6832692877
 51
153.3167306788
  0
ARC
  5
326
100
AcDbEntity
  8
0
100
AcDbCircle
 62
7
  6
CONTINUOUS
 10
5.9739909021
 20
6.4246862119
 40
0.010000538
100
AcDbArc
 50
345.2582977781
 51
18.9764910337
  0
ARC
  5
327
100
AcDbEntity
  8
0
100
AcDbCircle
 62
7
  6
CONTINUOUS
 10
5.9740297408
 20
6.4246861914
 40
0.01
100
AcDbArc
 50
344.0526939806
 51
18.9774681304
  0
ARC
  5
328
100
AcDbEntity
  8
0
100
AcDbCircle
 62
7
  6
CONTINUOUS
 10
8.1102759337
 20
8.7295651655
 40
3.1076615693
100
AcDbArc
 50
228.6076924012
 51
229.5535032577
  0
ARC
  5
329
100
AcDbEntity
  8
0
100
AcDbCircle
 62
7
  6
CONTINUOUS
 10
8.6959060666
 20
8.1428316496
 40
3.1068780734
100
AcDbArc
 50
220.4467019436
 51
221.392751298
  0
ARC
  5
32A
100
AcDbEntity
  8
0
100
AcDbCircle
 62
7
  6
CONTINUOUS
 10
4.6855175154
 20
8.7637600213
 40
3.0352020753
100
AcDbArc
 50
260.796718453
 51
264.479146765
  0
ARC
  5
32B
100
AcDbEntity
  8
0
100
AcDbCircle
 62
7
  6
CONTINUOUS
 10
5.8491342348
 20
7.1432371428
 40
0.9020408269
100
AcDbArc
 50
304.8928719366
 51
305.9597701743
  0
ARC
  5
32C
100
AcDbEntity
  8
0
100
AcDbCircle
 62
7
  6
CONTINUOUS
 10
6.5765806345
 20
7.143171942
 40
0.9019608272
100
AcDbArc
 50
234.0401813999
 51
235.1071742679
  0
ARC
  5
32D
100
AcDbEntity
  8
0
100
AcDbCircle
 62
7
  6
CONTINUOUS
 10
14.8648981189
 20
6.4196201213
 40
10.7576903437
100
AcDbArc
 50
202.0002313092
 51
202.1793730769
  0
SPLINE
  5
32E
100
AcDbEntity
  8
0
100
AcDbSpline
 62
7
  6
CONTINUOUS
 70
0
 71
3
 72
18
 73
14
 74
0
 42
0.0000001
 43
0.0000001
 44
0.0000000001
 40
0.0
 40
0.0
 40
0.0
 40
0.0
 40
0.1473214072
 40
0.2200610925
 40
0.2917097625
 40
0.4304388728
 40
0.561275233
 40
0.6827845287
 40
0.7947867678
 40
0.8477102346
 40
0.8991041846
 40
0.949582549
 40
1.0
 40
1.0
 40
1.0
 40
1.0
 10
4.6783806144
 20
2.0727225441
 30
0.0
 10
4.6770482383
 20
2.0727225441
 30
0.0
 10
4.6750575294
 20
2.0727706904
 30
0.0
 10
4.6724240915
 20
2.072933059
 30
0.0
 10
4.6698730773
 20
2.0731562128
 30
0.0
 10
4.6668101742
 20
2.0735461652
 30
0.0
 10
4.6633318625
 20
2.074200564
 30
0.0
 10
4.6601411516
 20
2.0750354494
 30
0.0
 10
4.6576968699
 20
2.075908452
 30
0.0
 10
4.655918313
 20
2.0767263633
 30
0.0
 10
4.6546885265
 20
2.0773980993
 30
0.0
 10
4.6535350928
 20
2.0781537914
 30
0.0
 10
4.6528226991
 20
2.0787273177
 30
0.0
 10
4.6524843038
 20
2.0790329361
 30
0.0
  0
SPLINE
  5
32F
100
AcDbEntity
  8
0
100
AcDbSpline
 62
7
  6
CONTINUOUS
 70
0
 71
3
 72
18
 73
14
 74
0
 42
0.0000001
 43
0.0000001
 44
0.0000000001
 40
0.0
 40
0.0
 40
0.0
 40
0.0
 40
0.0504174967
 40
0.1008953502
 40
0.1522891381
 40
0.2052130129
 40
0.3172156157
 40
0.4387252055
 40
0.5695616863
 40
0.7082907464
 40
0.7799393635
 40
0.8526789093
 40
1.0
 40
1.0
 40
1.0
 40
1.0
 10
4.704276925
 20
2.0790329361
 30
0.0
 10
4.7039385294
 20
2.0787273174
 30
0.0
 10
4.7032261358
 20
2.078153798
 30
0.0
 10
4.7020727124
 20
2.0773981004
 30
0.0
 10
4.7008429223
 20
2.0767263761
 30
0.0
 10
4.6990643692
 20
2.0759084439
 30
0.0
 10
4.6966200718
 20
2.0750354535
 30
0.0
 10
4.6934293568
 20
2.0742005598
 30
0.0
 10
4.6899510408
 20
2.0735461638
 30
0.0
 10
4.6868881377
 20
2.0731562112
 30
0.0
 10
4.6843371257
 20
2.0729330582
 30
0.0
 10
4.6817036925
 20
2.0727706902
 30
0.0
 10
4.6797129877
 20
2.0727225441
 30
0.0
 10
4.6783806144
 20
2.0727225441
 30
0.0
  0
SPLINE
  5
330
100
AcDbEntity
  8
0
100
AcDbSpline
 62
7
  6
CONTINUOUS
 70
0
 71
3
 72
30
 73
26
 74
0
 42
0.0000001
 43
0.0000001
 44
0.0000000001
 40
0.0
 40
0.0
 40
0.0
 40
0.0
 40
0.0628166419
 40
0.1256528632
 40
0.1884927997
 40
0.2513000833
 40
0.3140358683
 40
0.345377978
 40
0.3766959331
 40
0.4079923001
 40
0.4392725692
 40
0.470541786
 40
0.5018023137
 40
0.5642777047
 40
0.6267016908
 40
0.6890493466
 40
0.7201981942
 40
0.7513239076
 40
0.7824289374
 40
0.7979764834
 40
0.8135211116
 40
0.844603194
 40
0.875684091
 40
0.9378355345
 40
1.0
 40
1.0
 40
1.0
 40
1.0
 10
4.6783806144
 20
2.4358540299
 30
0.0
 10
4.6690654451
 20
2.4358540299
 30
0.0
 10
4.6504195408
 20
2.4367897667
 30
0.0
 10
4.6227319728
 20
2.4409145221
 30
0.0
 10
4.5955667569
 20
2.4476756358
 30
0.0
 10
4.5691855919
 20
2.456988853
 30
0.0
 10
4.5480541789
 20
2.466815126
 30
0.0
 10
4.5318049966
 20
2.4758689416
 30
0.0
 10
4.5199775076
 20
2.4832448108
 30
0.0
 10
4.5085411716
 20
2.4911974542
 30
0.0
 10
4.4975269656
 20
2.4997132571
 30
0.0
 10
4.4869541329
 20
2.5087632592
 30
0.0
 10
4.4734779451
 20
2.5215008357
 30
0.0
 10
4.4578310384
 20
2.5386264548
 30
0.0
 10
4.4411451167
 20
2.5608722385
 30
0.0
 10
4.429104261
 20
2.5806583345
 30
0.0
 10
4.42068009
 20
2.5971139437
 30
0.0
 10
4.4149849935
 20
2.60974241
 30
0.0
 10
4.4107738675
 20
2.6204856616
 30
0.0
 10
4.4077369397
 20
2.6291955915
 30
0.0
 10
4.4049250582
 20
2.637977143
 30
0.0
 10
4.4018315221
 20
2.6490832809
 30
0.0
 10
4.3977827401
 20
2.6670745143
 30
0.0
 10
4.3944074224
 20
2.6899095542
 30
0.0
 10
4.3935080827
 20
2.7083563305
 30
0.0
 10
4.3935080827
 20
2.7175747876
 30
0.0
  0
SPLINE
  5
331
100
AcDbEntity
  8
0
100
AcDbSpline
 62
7
  6
CONTINUOUS
 70
0
 71
3
 72
31
 73
27
 74
0
 42
0.0000001
 43
0.0000001
 44
0.0000000001
 40
0.0
 40
0.0
 40
0.0
 40
0.0
 40
0.0624564656
 40
0.1249464013
 40
0.1874668358
 40
0.2499932052
 40
0.2812586536
 40
0.3125158486
 40
0.3437637022
 40
0.3750031509
 40
0.4062377216
 40
0.4374736124
 40
0.4687161241
 40
0.4999676896
 40
0.5624780368
 40
0.6250056097
 40
0.6875215292
 40
0.7187769051
 40
0.7500229464
 40
0.7812610574
 40
0.7968795456
 40
0.8124978474
 40
0.8437347242
 40
0.8749789181
 40
0.9374760697
 40
1.0
 40
1.0
 40
1.0
 40
1.0
 10
4.6783806144
 20
6.5309361914
 30
0.0
 10
4.6690666505
 20
6.5309361914
 30
0.0
 10
4.6504208589
 20
6.5299896475
 30
0.0
 10
4.6227345352
 20
6.52581715
 30
0.0
 10
4.5955722623
 20
6.5189787227
 30
0.0
 10
4.573582756
 20
6.511125566
 30
0.0
 10
4.5565159522
 20
6.5035953104
 30
0.0
 10
4.54400654
 20
6.4973325426
 30
0.0
 10
4.531822757
 20
6.4904660806
 30
0.0
 10
4.5199965882
 20
6.4830064418
 30
0.0
 10
4.508561171
 20
6.4749633685
 30
0.0
 10
4.4975478826
 20
6.4663508118
 30
0.0
 10
4.4869758019
 20
6.4571979685
 30
0.0
 10
4.473496597
 20
6.4443119876
 30
0.0
 10
4.4578467107
 20
6.4269863823
 30
0.0
 10
4.4411618541
 20
6.4044874647
 30
0.0
 10
4.4291241166
 20
6.3844813549
 30
0.0
 10
4.4207006866
 20
6.3678424081
 30
0.0
 10
4.4150043694
 20
6.3550701554
 30
0.0
 10
4.4107923902
 20
6.3442055885
 30
0.0
 10
4.4077544832
 20
6.3353971491
 30
0.0
 10
4.4049410205
 20
6.3265147069
 30
0.0
 10
4.4018455411
 20
6.3152811375
 30
0.0
 10
4.3977932839
 20
6.2970828231
 30
0.0
 10
4.3944137627
 20
6.2739866428
 30
0.0
 10
4.3935103706
 20
6.2553311563
 30
0.0
 10
4.3935080914
 20
6.2460071318
 30
0.0
  0
SPLINE
  5
332
100
AcDbEntity
  8
0
100
AcDbSpline
 62
7
  6
CONTINUOUS
 70
0
 71
3
 72
11
 73
7
 74
0
 42
0.0000001
 43
0.0000001
 44
0.0000000001
 40
0.0
 40
0.0
 40
0.0
 40
0.0
 40
0.2475865071
 40
0.4961563026
 40
0.7466552742
 40
1.0
 40
1.0
 40
1.0
 40
1.0
 10
4.5678986251
 20
2.1632819499
 30
0.0
 10
4.5679596688
 20
2.1566171992
 30
0.0
 10
4.5686019038
 20
2.1432602633
 30
0.0
 10
4.571118528
 20
2.1232993656
 30
0.0
 10
4.5751713907
 20
2.1034352032
 30
0.0
 10
4.5788613898
 20
2.0903687974
 30
0.0
 10
4.5809455456
 20
2.083875011
 30
0.0
  0
SPLINE
  5
333
100
AcDbEntity
  8
0
100
AcDbSpline
 62
7
  6
CONTINUOUS
 70
0
 71
3
 72
11
 73
7
 74
0
 42
0.0000001
 43
0.0000001
 44
0.0000000001
 40
0.0
 40
0.0
 40
0.0
 40
0.0
 40
0.2533447235
 40
0.5038436974
 40
0.7524134922
 40
1.0
 40
1.0
 40
1.0
 40
1.0
 10
4.7758156832
 20
2.083875011
 30
0.0
 10
4.7778998389
 20
2.0903687973
 30
0.0
 10
4.7815898381
 20
2.1034352031
 30
0.0
 10
4.7856427009
 20
2.1232993655
 30
0.0
 10
4.7881593249
 20
2.1432602633
 30
0.0
 10
4.78880156
 20
2.1566171991
 30
0.0
 10
4.7888626037
 20
2.1632819499
 30
0.0
  0
SPLINE
  5
334
100
AcDbEntity
  8
0
100
AcDbSpline
 62
7
  6
CONTINUOUS
 70
0
 71
3
 72
71
 73
67
 74
0
 42
0.0000001
 43
0.0000001
 44
0.0000000001
 40
0.0
 40
0.0
 40
0.0
 40
0.0
 40
0.0155380491
 40
0.0310775368
 40
0.0466181645
 40
0.062161484
 40
0.0777080258
 40
0.0932585967
 40
0.1088139194
 40
0.1243746576
 40
0.1399414354
 40
0.1555148115
 40
0.1710952813
 40
0.1866832727
 40
0.2022791409
 40
0.2178831643
 40
0.2334955415
 40
0.2491163905
 40
0.2647457491
 40
0.280383573
 40
0.2960297355
 40
0.3116840291
 40
0.3273461697
 40
0.3430157983
 40
0.3586924842
 40
0.374375728
 40
0.3900649678
 40
0.4057595859
 40
0.4214589134
 40
0.4371622358
 40
0.4528687997
 40
0.468577822
 40
0.4842884968
 40
0.5000000024
 40
0.515711508
 40
0.5314221827
 40
0.5471312049
 40
0.5628377688
 40
0.5785410911
 40
0.5942404184
 40
0.6099350364
 40
0.6256242761
 40
0.6413075197
 40
0.6569842054
 40
0.6726538338
 40
0.6883159742
 40
0.7039702676
 40
0.7196164299
 40
0.7352542535
 40
0.7508836119
 40
0.7665044607
 40
0.7821168376
 40
0.7977208608
 40
0.8133167288
 40
0.8289047199
 40
0.8444851895
 40
0.8600585655
 40
0.8756253431
 40
0.8911860812
 40
0.9067414037
 40
0.9222919745
 40
0.9378385162
 40
0.9533818356
 40
0.9689224633
 40
0.9844619509
 40
1.0
 40
1.0
 40
1.0
 40
1.0
 10
5.1678806144
 20
2.5107256159
 30
0.0
 10
5.1678806144
 20
2.5028063788
 30
0.0
 10
5.167487206
 20
2.4869643564
 30
0.0
 10
5.1657186161
 20
2.4632612005
 30
0.0
 10
5.1627754844
 20
2.4396717588
 30
0.0
 10
5.1586652481
 20
2.4162539723
 30
0.0
 10
5.1533976002
 20
2.3930638559
 30
0.0
 10
5.1469853396
 20
2.3701574696
 30
0.0
 10
5.1394439676
 20
2.3475899862
 30
0.0
 10
5.1307916916
 20
2.3254158046
 30
0.0
 10
5.1210493988
 20
2.3036883678
 30
0.0
 10
5.1102405738
 20
2.2824600493
 30
0.0
 10
5.0983913303
 20
2.2617819892
 30
0.0
 10
5.0855302799
 20
2.2417039923
 30
0.0
 10
5.0716884541
 20
2.2222744188
 30
0.0
 10
5.0568992276
 20
2.2035400743
 30
0.0
 10
5.0411982632
 20
2.1855460821
 30
0.0
 10
5.0246234539
 20
2.1683357413
 30
0.0
 10
5.0072147696
 20
2.1519504734
 30
0.0
 10
4.9890141748
 20
2.1364297157
 30
0.0
 10
4.9700655203
 20
2.1218108429
 30
0.0
 10
4.9504144853
 20
2.1081290167
 30
0.0
 10
4.9301084358
 20
2.0954171297
 30
0.0
 10
4.9091962936
 20
2.0837057549
 30
0.0
 10
4.8877284257
 20
2.0730230718
 30
0.0
 10
4.8657565317
 20
2.063394791
 30
0.0
 10
4.8433335428
 20
2.0548440312
 30
0.0
 10
4.8205134569
 20
2.0473913392
 30
0.0
 10
4.7973512176
 20
2.0410546323
 30
0.0
 10
4.7739025828
 20
2.0358491723
 30
0.0
 10
4.7502240081
 20
2.0317874657
 30
0.0
 10
4.7263724998
 20
2.0288792459
 30
0.0
 10
4.702405471
 20
2.0271314999
 30
0.0
 10
4.6783806108
 20
2.0265484406
 30
0.0
 10
4.6543557505
 20
2.0271315003
 30
0.0
 10
4.6303887218
 20
2.0288792467
 30
0.0
 10
4.6065372136
 20
2.0317874667
 30
0.0
 10
4.5828586391
 20
2.0358491736
 30
0.0
 10
4.5594100046
 20
2.041054634
 30
0.0
 10
4.5362477655
 20
2.0473913412
 30
0.0
 10
4.5134276799
 20
2.0548440334
 30
0.0
 10
4.4910046913
 20
2.0633947933
 30
0.0
 10
4.4690327977
 20
2.0730230743
 30
0.0
 10
4.4475649302
 20
2.0837057576
 30
0.0
 10
4.4266527884
 20
2.0954171324
 30
0.0
 10
4.4063467393
 20
2.1081290194
 30
0.0
 10
4.3866957047
 20
2.1218108457
 30
0.0
 10
4.3677470506
 20
2.1364297185
 30
0.0
 10
4.3495464563
 20
2.1519504761
 30
0.0
 10
4.3321377723
 20
2.1683357439
 30
0.0
 10
4.3155629634
 20
2.1855460845
 30
0.0
 10
4.2998619993
 20
2.2035400766
 30
0.0
 10
4.2850727732
 20
2.2222744209
 30
0.0
 10
4.2712309476
 20
2.2417039942
 30
0.0
 10
4.2583698975
 20
2.2617819908
 30
0.0
 10
4.2465206542
 20
2.2824600508
 30
0.0
 10
4.2357118294
 20
2.303688369
 30
0.0
 10
4.2259695368
 20
2.3254158057
 30
0.0
 10
4.217317261
 20
2.347589987
 30
0.0
 10
4.209775889
 20
2.3701574702
 30
0.0
 10
4.2033636284
 20
2.3930638564
 30
0.0
 10
4.1980959806
 20
2.4162539726
 30
0.0
 10
4.1939857444
 20
2.4396717589
 30
0.0
 10
4.1910426127
 20
2.4632612005
 30
0.0
 10
4.1892740228
 20
2.4869643564
 30
0.0
 10
4.1888806144
 20
2.5028063788
 30
0.0
 10
4.1888806144
 20
2.5107256159
 30
0.0
  0
SPLINE
  5
335
100
AcDbEntity
  8
0
100
AcDbSpline
 62
7
  6
CONTINUOUS
 70
0
 71
3
 72
24
 73
20
 74
0
 42
0.0000001
 43
0.0000001
 44
0.0000000001
 40
0.0
 40
0.0
 40
0.0
 40
0.0
 40
0.0623251732
 40
0.1246557011
 40
0.186995566
 40
0.2493500746
 40
0.3117234498
 40
0.3741200176
 40
0.4365436377
 40
0.4989978306
 40
0.5614856674
 40
0.6240097468
 40
0.686572153
 40
0.7491744273
 40
0.8118175483
 40
0.8745019192
 40
0.9058629836
 40
0.9372342414
 40
1.0
 40
1.0
 40
1.0
 40
1.0
 10
4.1888806144
 20
2.5220701774
 30
0.0
 10
4.1888806144
 20
2.5316443894
 30
0.0
 10
4.1894556793
 20
2.5507986128
 30
0.0
 10
4.1920403141
 20
2.5794242919
 30
0.0
 10
4.1963379695
 20
2.6078489269
 30
0.0
 10
4.2023333659
 20
2.6359709178
 30
0.0
 10
4.2100054112
 20
2.6636915829
 30
0.0
 10
4.2193269756
 20
2.690913128
 30
0.0
 10
4.2302651759
 20
2.7175396824
 30
0.0
 10
4.2427813986
 20
2.7434774463
 30
0.0
 10
4.2568314793
 20
2.7686350695
 30
0.0
 10
4.2723658567
 20
2.792923974
 30
0.0
 10
4.289329705
 20
2.8162586221
 30
0.0
 10
4.3076633241
 20
2.8385569878
 30
0.0
 10
4.3273016182
 20
2.8597402063
 30
0.0
 10
4.3446953654
 20
2.876400366
 30
0.0
 10
4.3591892443
 20
2.8890971964
 30
0.0
 10
4.3740619352
 20
2.9013669586
 30
0.0
 10
4.3856233406
 20
2.9100719899
 30
0.0
 10
4.3934940017
 20
2.9156414424
 30
0.0
  0
SPLINE
  5
336
100
AcDbEntity
  8
0
100
AcDbSpline
 62
7
  6
CONTINUOUS
 70
0
 71
3
 72
24
 73
20
 74
0
 42
0.0000001
 43
0.0000001
 44
0.0000000001
 40
0.0
 40
0.0
 40
0.0
 40
0.0
 40
0.0627657583
 40
0.094137016
 40
0.1254980803
 40
0.1881824509
 40
0.2508255716
 40
0.3134278456
 40
0.3759902515
 40
0.4385143308
 40
0.5010021674
 40
0.5634563602
 40
0.6258799803
 40
0.6882765482
 40
0.7506499236
 40
0.8130044325
 40
0.8753442978
 40
0.9376748262
 40
1.0
 40
1.0
 40
1.0
 40
1.0
 10
4.9632672539
 20
2.9156414234
 30
0.0
 10
4.9711379141
 20
2.9100719708
 30
0.0
 10
4.982699318
 20
2.9013669393
 30
0.0
 10
4.997572007
 20
2.8890971773
 30
0.0
 10
5.012065884
 20
2.8764003469
 30
0.0
 10
5.029459629
 20
2.8597401876
 30
0.0
 10
5.0490979205
 20
2.8385569696
 30
0.0
 10
5.0674315372
 20
2.8162586047
 30
0.0
 10
5.0843953832
 20
2.7929239577
 30
0.0
 10
5.0999297585
 20
2.7686350544
 30
0.0
 10
5.1139798373
 20
2.7434774325
 30
0.0
 10
5.1264960584
 20
2.7175396702
 30
0.0
 10
5.1374342572
 20
2.6909131173
 30
0.0
 10
5.1467558203
 20
2.663691574
 30
0.0
 10
5.1544278646
 20
2.6359709106
 30
0.0
 10
5.1604232602
 20
2.6078489216
 30
0.0
 10
5.1647209151
 20
2.5794242884
 30
0.0
 10
5.1673055495
 20
2.550798611
 30
0.0
 10
5.1678806144
 20
2.5316443888
 30
0.0
 10
5.1678806144
 20
2.5220701774
 30
0.0
  0
SPLINE
  5
337
100
AcDbEntity
  8
0
100
AcDbSpline
 62
7
  6
CONTINUOUS
 70
0
 71
3
 72
59
 73
55
 74
0
 42
0.0000001
 43
0.0000001
 44
0.0000000001
 40
0.0
 40
0.0
 40
0.0
 40
0.0
 40
0.0155470624
 40
0.0310959843
 40
0.0466455527
 40
0.0621976245
 40
0.0933018527
 40
0.1244233768
 40
0.1399968903
 40
0.1555764316
 40
0.1711624522
 40
0.1867553421
 40
0.2023554289
 40
0.2179629687
 40
0.2335781424
 40
0.2492010609
 40
0.2648317621
 40
0.2804702042
 40
0.2961162718
 40
0.3117697802
 40
0.3274304708
 40
0.3430980129
 40
0.3587720145
 40
0.3744520215
 40
0.4058186543
 40
0.4372025151
 40
0.4685982386
 40
0.5000000095
 40
0.5314017802
 40
0.5627975031
 40
0.5941813631
 40
0.6255479947
 40
0.641228001
 40
0.6569020018
 40
0.6725695431
 40
0.6882302329
 40
0.7038837404
 40
0.7195298071
 40
0.7351682483
 40
0.7507989486
 40
0.7664218662
 40
0.7820370389
 40
0.7976445778
 40
0.8132446637
 40
0.8288375529
 40
0.8444235726
 40
0.8600031132
 40
0.875576626
 40
0.9066981489
 40
0.9378023762
 40
0.9533544477
 40
0.9689040159
 40
0.9844529376
 40
1.0
 40
1.0
 40
1.0
 40
1.0
 10
4.9913471498
 20
2.7127213774
 30
0.0
 10
4.9913471498
 20
2.7076545261
 30
0.0
 10
4.9910954711
 20
2.6975184023
 30
0.0
 10
4.9899642573
 20
2.6823526918
 30
0.0
 10
4.9880816138
 20
2.6672594465
 30
0.0
 10
4.9845767401
 20
2.6472845423
 30
0.0
 10
4.9783416588
 20
2.6226695231
 30
0.0
 10
4.9696983326
 20
2.5987861479
 30
0.0
 10
4.9613934635
 20
2.5802600022
 30
0.0
 10
4.9544805077
 20
2.5666792773
 30
0.0
 10
4.9469024154
 20
2.5534513072
 30
0.0
 10
4.9386774485
 20
2.5406075036
 30
0.0
 10
4.9298255586
 20
2.528178893
 30
0.0
 10
4.9203680898
 20
2.5161953962
 30
0.0
 10
4.9103279069
 20
2.5046858573
 30
0.0
 10
4.8997293089
 20
2.493677915
 30
0.0
 10
4.8885978646
 20
2.4831980507
 30
0.0
 10
4.8769604088
 20
2.4732714887
 30
0.0
 10
4.8648450646
 20
2.4639220183
 30
0.0
 10
4.852281056
 20
2.455172084
 30
0.0
 10
4.8392985977
 20
2.4470427359
 30
0.0
 10
4.8259291217
 20
2.4395534785
 30
0.0
 10
4.8122043897
 20
2.4327221054
 30
0.0
 10
4.7934769946
 20
2.4245131823
 30
0.0
 10
4.7693383775
 20
2.4159728279
 30
0.0
 10
4.7395097599
 20
2.4085852961
 30
0.0
 10
4.7090925249
 20
2.4041238591
 30
0.0
 10
4.6783806052
 20
2.4026321089
 30
0.0
 10
4.6476686858
 20
2.404123861
 30
0.0
 10
4.6172514514
 20
2.4085852993
 30
0.0
 10
4.5874228352
 20
2.4159728331
 30
0.0
 10
4.5632842192
 20
2.4245131879
 30
0.0
 10
4.5445568254
 20
2.432722112
 30
0.0
 10
4.5308320944
 20
2.4395534853
 30
0.0
 10
4.5174626193
 20
2.4470427427
 30
0.0
 10
4.5044801621
 20
2.4551720912
 30
0.0
 10
4.4919161546
 20
2.4639220254
 30
0.0
 10
4.4798008113
 20
2.4732714956
 30
0.0
 10
4.4681633566
 20
2.4831980575
 30
0.0
 10
4.4570319134
 20
2.4936779216
 30
0.0
 10
4.4464333162
 20
2.5046858634
 30
0.0
 10
4.4363931341
 20
2.516195402
 30
0.0
 10
4.4269356663
 20
2.5281788984
 30
0.0
 10
4.4180837771
 20
2.5406075084
 30
0.0
 10
4.4098588108
 20
2.5534513114
 30
0.0
 10
4.4022807192
 20
2.566679281
 30
0.0
 10
4.3953677639
 20
2.5802600053
 30
0.0
 10
4.3870628952
 20
2.5987861503
 30
0.0
 10
4.3784195695
 20
2.6226695248
 30
0.0
 10
4.3721844885
 20
2.6472845431
 30
0.0
 10
4.3686796149
 20
2.667259447
 30
0.0
 10
4.3667969714
 20
2.682352692
 30
0.0
 10
4.3656657577
 20
2.6975184023
 30
0.0
 10
4.365414079
 20
2.7076545261
 30
0.0
 10
4.365414079
 20
2.7127213774
 30
0.0
  0
SPLINE
  5
338
100
AcDbEntity
  8
0
100
AcDbSpline
 62
7
  6
CONTINUOUS
 70
0
 71
3
 72
59
 73
55
 74
0
 42
0.0000001
 43
0.0000001
 44
0.0000000001
 40
0.0
 40
0.0
 40
0.0
 40
0.0
 40
0.0155519476
 40
0.0311057012
 40
0.0466600101
 40
0.06221668
 40
0.0933295013
 40
0.1244585393
 40
0.1400353124
 40
0.1556177389
 40
0.1712062425
 40
0.18680119
 40
0.2024028899
 40
0.2180115833
 40
0.2336274404
 40
0.249250567
 40
0.2648809997
 40
0.2805187
 40
0.2961635604
 40
0.3118154088
 40
0.3274740033
 40
0.3431390339
 40
0.358810133
 40
0.3744868749
 40
0.4058460182
 40
0.4372213542
 40
0.4686078416
 40
0.5000000142
 40
0.5313921865
 40
0.5627786731
 40
0.5941540078
 40
0.6255131494
 40
0.6411898902
 40
0.6568609882
 40
0.6725260176
 40
0.6881846109
 40
0.703836458
 40
0.719481317
 40
0.7351190159
 40
0.7507494472
 40
0.7663725724
 40
0.7819884282
 40
0.7975971202
 40
0.8131988188
 40
0.8287937651
 40
0.8443822675
 40
0.8599646928
 40
0.8755414648
 40
0.9066705011
 40
0.9377833211
 40
0.9533399905
 40
0.9688942991
 40
0.9844480524
 40
1.0
 40
1.0
 40
1.0
 40
1.0
 10
5.0020347432
 20
2.705271782
 30
0.0
 10
5.0020347432
 20
2.7000293816
 30
0.0
 10
5.0017743959
 20
2.6895420947
 30
0.0
 10
5.0006042198
 20
2.6738509968
 30
0.0
 10
4.9986567423
 20
2.6582349416
 30
0.0
 10
4.9950312136
 20
2.6375683944
 30
0.0
 10
4.9885816149
 20
2.6121014847
 30
0.0
 10
4.9796409723
 20
2.5873916938
 30
0.0
 10
4.9710505695
 20
2.568224879
 30
0.0
 10
4.9639001309
 20
2.5541748908
 30
0.0
 10
4.9560618452
 20
2.5404900894
 30
0.0
 10
4.9475546333
 20
2.527202972
 30
0.0
 10
4.938399164
 20
2.5143456307
 30
0.0
 10
4.9286175453
 20
2.5019490086
 30
0.0
 10
4.9182334538
 20
2.4900429307
 30
0.0
 10
4.907272048
 20
2.4786559695
 30
0.0
 10
4.8957597964
 20
2.4678154957
 30
0.0
 10
4.8837244716
 20
2.4575475768
 30
0.0
 10
4.8711951746
 20
2.4478767924
 30
0.0
 10
4.8582021403
 20
2.438826328
 30
0.0
 10
4.8447766228
 20
2.430417925
 30
0.0
 10
4.8309511296
 20
2.4226717264
 30
0.0
 10
4.8167585045
 20
2.4156061035
 30
0.0
 10
4.7973931729
 20
2.4071159146
 30
0.0
 10
4.7724327471
 20
2.3982830766
 30
0.0
 10
4.7415889704
 20
2.3906426341
 30
0.0
 10
4.7101370178
 20
2.386028531
 30
0.0
 10
4.6783806001
 20
2.3844857466
 30
0.0
 10
4.6466241828
 20
2.386028534
 30
0.0
 10
4.6151722314
 20
2.390642639
 30
0.0
 10
4.5843284567
 20
2.3982830846
 30
0.0
 10
4.5593680326
 20
2.4071159232
 30
0.0
 10
4.5400027031
 20
2.4156061137
 30
0.0
 10
4.5258100794
 20
2.4226717369
 30
0.0
 10
4.5119845877
 20
2.4304179356
 30
0.0
 10
4.498559072
 20
2.4388263391
 30
0.0
 10
4.4855660394
 20
2.4478768035
 30
0.0
 10
4.4730367437
 20
2.4575475875
 30
0.0
 10
4.4610014206
 20
2.4678155062
 30
0.0
 10
4.4494891707
 20
2.4786559798
 30
0.0
 10
4.4385277662
 20
2.4900429403
 30
0.0
 10
4.428143676
 20
2.5019490175
 30
0.0
 10
4.4183620587
 20
2.514345639
 30
0.0
 10
4.4092065906
 20
2.5272029794
 30
0.0
 10
4.4006993795
 20
2.5404900959
 30
0.0
 10
4.3928610949
 20
2.5541748965
 30
0.0
 10
4.3857106571
 20
2.5682248839
 30
0.0
 10
4.3771202549
 20
2.5873916975
 30
0.0
 10
4.3681796132
 20
2.6121014872
 30
0.0
 10
4.3617300149
 20
2.6375683958
 30
0.0
 10
4.3581044864
 20
2.6582349423
 30
0.0
 10
4.3561570089
 20
2.6738509971
 30
0.0
 10
4.3549868329
 20
2.6895420948
 30
0.0
 10
4.3547264856
 20
2.7000293816
 30
0.0
 10
4.3547264856
 20
2.705271782
 30
0.0
  0
SPLINE
  5
339
100
AcDbEntity
  8
0
100
AcDbSpline
 62
7
  6
CONTINUOUS
 70
0
 71
3
 72
11
 73
7
 74
0
 42
0.0000001
 43
0.0000001
 44
0.0000000001
 40
0.0
 40
0.0
 40
0.0
 40
0.0
 40
0.2549041987
 40
0.5051708594
 40
0.7528358811
 40
1.0
 40
1.0
 40
1.0
 40
1.0
 10
4.5571081545
 20
2.247357153
 30
0.0
 10
4.5571081545
 20
2.247941623
 30
0.0
 10
4.5571576476
 20
2.2491006435
 30
0.0
 10
4.5573871763
 20
2.2508138797
 30
0.0
 10
4.5577711444
 20
2.2524810895
 30
0.0
 10
4.5581295185
 20
2.2535596835
 30
0.0
 10
4.5583331966
 20
2.2540885406
 30
0.0
  0
SPLINE
  5
33A
100
AcDbEntity
  8
0
100
AcDbSpline
 62
7
  6
CONTINUOUS
 70
0
 71
3
 72
30
 73
26
 74
0
 42
0.0000001
 43
0.0000001
 44
0.0000000001
 40
0.0
 40
0.0
 40
0.0
 40
0.0
 40
0.0621644655
 40
0.124315909
 40
0.155396806
 40
0.1864788884
 40
0.2020235166
 40
0.2175710626
 40
0.2486760924
 40
0.2798018058
 40
0.3109506534
 40
0.3732983092
 40
0.4357222953
 40
0.4981976863
 40
0.529458214
 40
0.5607274308
 40
0.5920076999
 40
0.6233040669
 40
0.654622022
 40
0.6859641317
 40
0.7486999167
 40
0.8115072003
 40
0.8743471368
 40
0.9371833581
 40
1.0
 40
1.0
 40
1.0
 40
1.0
 10
4.9632531461
 20
2.7175747876
 30
0.0
 10
4.9632531461
 20
2.7083563305
 30
0.0
 10
4.9623538064
 20
2.6899095542
 30
0.0
 10
4.9589784887
 20
2.6670745143
 30
0.0
 10
4.9549297067
 20
2.6490832809
 30
0.0
 10
4.9518361706
 20
2.637977143
 30
0.0
 10
4.9490242891
 20
2.6291955915
 30
0.0
 10
4.9459873613
 20
2.6204856616
 30
0.0
 10
4.9417762353
 20
2.60974241
 30
0.0
 10
4.9360811388
 20
2.5971139437
 30
0.0
 10
4.9276569678
 20
2.5806583345
 30
0.0
 10
4.9156161121
 20
2.5608722385
 30
0.0
 10
4.8989301903
 20
2.5386264548
 30
0.0
 10
4.8832832837
 20
2.5215008357
 30
0.0
 10
4.8698070959
 20
2.5087632592
 30
0.0
 10
4.8592342632
 20
2.4997132571
 30
0.0
 10
4.8482200572
 20
2.4911974542
 30
0.0
 10
4.8367837212
 20
2.4832448108
 30
0.0
 10
4.8249562321
 20
2.4758689416
 30
0.0
 10
4.8087070499
 20
2.466815126
 30
0.0
 10
4.7875756369
 20
2.456988853
 30
0.0
 10
4.7611944719
 20
2.4476756358
 30
0.0
 10
4.734029256
 20
2.4409145221
 30
0.0
 10
4.706341688
 20
2.4367897667
 30
0.0
 10
4.6876957837
 20
2.4358540299
 30
0.0
 10
4.6783806144
 20
2.4358540299
 30
0.0
  0
SPLINE
  5
33B
100
AcDbEntity
  8
0
100
AcDbSpline
 62
7
  6
CONTINUOUS
 70
0
 71
3
 72
31
 73
27
 74
0
 42
0.0000001
 43
0.0000001
 44
0.0000000001
 40
0.0
 40
0.0
 40
0.0
 40
0.0
 40
0.0625239051
 40
0.1250209907
 40
0.1562651517
 40
0.187502009
 40
0.2031203091
 40
0.2187388021
 40
0.2499769367
 40
0.2812230096
 40
0.3124784166
 40
0.3749943819
 40
0.4375219584
 40
0.5000322777
 40
0.5312838235
 40
0.5625263192
 40
0.5937622027
 40
0.6249967783
 40
0.65623624
 40
0.6874841087
 40
0.7187413172
 40
0.7500067757
 40
0.8125331575
 40
0.8750535927
 40
0.9375435283
 40
1.0
 40
1.0
 40
1.0
 40
1.0
 10
4.9632531147
 20
6.2460711544
 30
0.0
 10
4.9632487791
 20
6.2553938411
 30
0.0
 10
4.9623415307
 20
6.274046444
 30
0.0
 10
4.9589578294
 20
6.2971386118
 30
0.0
 10
4.9549026137
 20
6.3153335164
 30
0.0
 10
4.9518054481
 20
6.3265648832
 30
0.0
 10
4.948990729
 20
6.3354455271
 30
0.0
 10
4.9459516488
 20
6.3442521561
 30
0.0
 10
4.9417383685
 20
6.3551144388
 30
0.0
 10
4.9360407429
 20
6.36788393
 30
0.0
 10
4.9276158944
 20
6.384519185
 30
0.0
 10
4.9155769749
 20
6.4045206861
 30
0.0
 10
4.8988915667
 20
6.4270141975
 30
0.0
 10
4.8832418884
 20
6.4443354688
 30
0.0
 10
4.8697632172
 20
6.4572181332
 30
0.0
 10
4.8591917132
 20
6.4663685755
 30
0.0
 10
4.8481791663
 20
6.4749788285
 30
0.0
 10
4.8367446553
 20
6.4830197145
 30
0.0
 10
4.8249195648
 20
6.4904773206
 30
0.0
 10
4.8127370122
 20
6.4973419016
 30
0.0
 10
4.8002289702
 20
6.5036029465
 30
0.0
 10
4.78316416
 20
6.5111311214
 30
0.0
 10
4.7611774271
 20
6.5189820927
 30
0.0
 10
4.7340188119
 20
6.5258186017
 30
0.0
 10
4.70633637
 20
6.5299899183
 30
0.0
 10
4.6876932474
 20
6.5309361914
 30
0.0
 10
4.6783806144
 20
6.5309361914
 30
0.0
  0
SPLINE
  5
33C
100
AcDbEntity
  8
0
100
AcDbSpline
 62
7
  6
CONTINUOUS
 70
0
 71
3
 72
11
 73
7
 74
0
 42
0.0000001
 43
0.0000001
 44
0.0000000001
 40
0.0
 40
0.0
 40
0.0
 40
0.0
 40
0.2471641189
 40
0.4948291406
 40
0.7450958013
 40
1.0
 40
1.0
 40
1.0
 40
1.0
 10
4.7984280322
 20
2.2540885406
 30
0.0
 10
4.7986317103
 20
2.2535596835
 30
0.0
 10
4.7989900844
 20
2.2524810895
 30
0.0
 10
4.7993740525
 20
2.2508138797
 30
0.0
 10
4.7996035812
 20
2.2491006435
 30
0.0
 10
4.7996530743
 20
2.247941623
 30
0.0
 10
4.7996530743
 20
2.247357153
 30
0.0
  0
SPLINE
  5
33D
100
AcDbEntity
  8
0
100
AcDbSpline
 62
7
  6
CONTINUOUS
 70
0
 71
3
 72
27
 73
23
 74
0
 42
0.0000001
 43
0.0000001
 44
0.0000000001
 40
0.0
 40
0.0
 40
0.0
 40
0.0
 40
0.1877394398
 40
0.3687118742
 40
0.4546215076
 40
0.5364509264
 40
0.6134788997
 40
0.6850326995
 40
0.750493304
 40
0.8092998249
 40
0.8609539056
 40
0.9050249624
 40
0.924103078
 40
0.9411579562
 40
0.956159429
 40
0.9690819133
 40
0.9799119682
 40
0.9886476626
 40
0.9922367019
 40
0.9953148177
 40
0.9978948233
 40
1.0
 40
1.0
 40
1.0
 40
1.0
 10
4.7433587781
 20
2.2810181673
 30
0.0
 10
4.745862643
 20
2.2810181673
 30
0.0
 10
4.7507801314
 20
2.281004611
 30
0.0
 10
4.7568432006
 20
2.2809522379
 30
0.0
 10
4.7614934807
 20
2.2808863954
 30
0.0
 10
4.764757378
 20
2.2808264209
 30
0.0
 10
4.7678295313
 20
2.2807547516
 30
0.0
 10
4.7706829926
 20
2.2806711466
 30
0.0
 10
4.7732929135
 20
2.2805754511
 30
0.0
 10
4.7756367307
 20
2.2804676859
 30
0.0
 10
4.7776942796
 20
2.2803479536
 30
0.0
 10
4.7792212766
 20
2.2802339748
 30
0.0
 10
4.7802863169
 20
2.2801341745
 30
0.0
 10
4.7809642996
 20
2.2800601605
 30
0.0
 10
4.7815593055
 20
2.279983518
 30
0.0
 10
4.7820701673
 20
2.2799044284
 30
0.0
 10
4.7824958392
 20
2.2798230803
 30
0.0
 10
4.7827961388
 20
2.2797498728
 30
0.0
 10
4.7829921377
 20
2.2796881088
 30
0.0
 10
4.7831075626
 20
2.2796443815
 30
0.0
 10
4.7832013344
 20
2.2796002397
 30
0.0
 10
4.7832547525
 20
2.2795672992
 30
0.0
 10
4.7832771089
 20
2.2795503143
 30
0.0
  0
SPLINE
  5
33E
100
AcDbEntity
  8
0
100
AcDbSpline
 62
7
  6
CONTINUOUS
 70
0
 71
3
 72
27
 73
23
 74
0
 42
0.0000001
 43
0.0000001
 44
0.0000000001
 40
0.0
 40
0.0
 40
0.0
 40
0.0
 40
0.0021051767
 40
0.0046851823
 40
0.0077632981
 40
0.0113523374
 40
0.0200880319
 40
0.0309180868
 40
0.0438405712
 40
0.0588420441
 40
0.0758969224
 40
0.094975038
 40
0.1390460948
 40
0.190700176
 40
0.2495066969
 40
0.3149673012
 40
0.3865211014
 40
0.4635490751
 40
0.5453784933
 40
0.6312881268
 40
0.8122605607
 40
1.0
 40
1.0
 40
1.0
 40
1.0
 10
4.5734841199
 20
2.2795503143
 30
0.0
 10
4.5735064763
 20
2.2795672992
 30
0.0
 10
4.5735598944
 20
2.2796002397
 30
0.0
 10
4.5736536662
 20
2.2796443815
 30
0.0
 10
4.5737690911
 20
2.2796881088
 30
0.0
 10
4.57396509
 20
2.2797498728
 30
0.0
 10
4.5742653896
 20
2.2798230803
 30
0.0
 10
4.5746910615
 20
2.2799044284
 30
0.0
 10
4.5752019233
 20
2.279983518
 30
0.0
 10
4.5757969292
 20
2.2800601605
 30
0.0
 10
4.5764749119
 20
2.2801341745
 30
0.0
 10
4.5775399522
 20
2.2802339748
 30
0.0
 10
4.5790669492
 20
2.2803479536
 30
0.0
 10
4.5811244981
 20
2.2804676859
 30
0.0
 10
4.5834683153
 20
2.2805754512
 30
0.0
 10
4.5860782362
 20
2.2806711466
 30
0.0
 10
4.5889316976
 20
2.2807547516
 30
0.0
 10
4.5920038508
 20
2.2808264209
 30
0.0
 10
4.5952677481
 20
2.2808863954
 30
0.0
 10
4.5999180283
 20
2.2809522379
 30
0.0
 10
4.6059810974
 20
2.281004611
 30
0.0
 10
4.6108985859
 20
2.2810181673
 30
0.0
 10
4.6134024507
 20
2.2810181673
 30
0.0
  0
SPLINE
  5
33F
100
AcDbEntity
  8
0
100
AcDbSpline
 62
7
  6
CONTINUOUS
 70
0
 71
3
 72
16
 73
12
 74
0
 42
0.0000001
 43
0.0000001
 44
0.0000000001
 40
0.0
 40
0.0
 40
0.0
 40
0.0
 40
0.1294237916
 40
0.2583383483
 40
0.3224637277
 40
0.3862910229
 40
0.5128393212
 40
0.637678412
 40
0.760573751
 40
0.8813741101
 40
1.0
 40
1.0
 40
1.0
 40
1.0
 10
5.2033806144
 20
6.2459361914
 30
0.0
 10
5.2033793646
 20
6.236455774
 30
0.0
 10
5.2027412721
 20
6.2175268378
 30
0.0
 10
5.2003846747
 20
6.1940058831
 30
0.0
 10
5.1975746727
 20
6.1753979847
 30
0.0
 10
5.1941879306
 20
6.1570628937
 30
0.0
 10
5.1888940673
 20
6.134570259
 30
0.0
 10
5.1809172512
 20
6.1083212802
 30
0.0
 10
5.1714737733
 20
6.0830130352
 30
0.0
 10
5.1607056682
 20
6.058738869
 30
0.0
 10
5.1526611137
 20
6.0431415572
 30
0.0
 10
5.1484583586
 20
6.0355360606
 30
0.0
  0
SPLINE
  5
340
100
AcDbEntity
  8
0
100
AcDbSpline
 62
7
  6
CONTINUOUS
 70
0
 71
3
 72
11
 73
7
 74
0
 42
0.0000001
 43
0.0000001
 44
0.0000000001
 40
0.0
 40
0.0
 40
0.0
 40
0.0
 40
0.2477385248
 40
0.4970622175
 40
0.7478660826
 40
1.0
 40
1.0
 40
1.0
 40
1.0
 10
4.3606487455
 20
2.799725276
 30
0.0
 10
4.3586222669
 20
2.7911784788
 30
0.0
 10
4.3550622958
 20
2.7739058446
 30
0.0
 10
4.3512382825
 20
2.7476521868
 30
0.0
 10
4.3489353505
 20
2.7210652697
 30
0.0
 10
4.3484253992
 20
2.7032289262
 30
0.0
 10
4.3484253651
 20
2.6942893288
 30
0.0
  0
LINE
  5
341
100
AcDbEntity
  8
0
100
AcDbLine
 62
7
  6
CONTINUOUS
 10
6.0378171566
 20
6.0775394003
 11
6.0457180654
 21
6.079989071
  0
LINE
  5
342
100
AcDbEntity
  8
0
100
AcDbLine
 62
7
  6
CONTINUOUS
 10
6.0378171566
 20
6.4143329825
 11
6.0457180652
 21
6.4118833112
  0
LINE
  5
343
100
AcDbEntity
  8
0
100
AcDbLine
 62
7
  6
CONTINUOUS
 10
4.2019756909
 20
5.7570726919
 11
4.1687587063
 21
5.7304924508
  0
LINE
  5
344
100
AcDbEntity
  8
0
100
AcDbLine
 62
7
  6
CONTINUOUS
 10
5.1547855175
 20
5.7570726673
 11
5.1880038177
 21
5.7304926667
  0
LINE
  5
345
100
AcDbEntity
  8
0
100
AcDbLine
 62
7
  6
CONTINUOUS
 10
5.1672441139
 20
5.7695312679
 11
5.193824355
 21
5.7363142833
  0
LINE
  5
346
100
AcDbEntity
  8
0
100
AcDbLine
 62
7
  6
CONTINUOUS
 10
5.1672441385
 20
6.7223410944
 11
5.1938241435
 21
6.7555594002
  0
LINE
  5
347
100
AcDbEntity
  8
0
100
AcDbLine
 62
7
  6
CONTINUOUS
 10
5.1547855379
 20
6.7347996909
 11
5.1880025286
 21
6.7613799311
  0
LINE
  5
348
100
AcDbEntity
  8
0
100
AcDbLine
 62
7
  6
CONTINUOUS
 10
4.2019757114
 20
6.7347997155
 11
4.1687574113
 21
6.7613797161
  0
LINE
  5
349
100
AcDbEntity
  8
0
100
AcDbLine
 62
7
  6
CONTINUOUS
 10
4.1895171149
 20
6.7223411149
 11
4.1629368739
 21
6.7555580996
  0
LINE
  5
34A
100
AcDbEntity
  8
0
100
AcDbLine
 62
7
  6
CONTINUOUS
 10
4.1895170903
 20
5.7695312883
 11
4.1629370897
 21
5.7363129881
  0
SPLINE
  5
34B
100
AcDbEntity
  8
0
100
AcDbSpline
 62
7
  6
CONTINUOUS
 70
0
 71
3
 72
11
 73
7
 74
0
 42
0.0000001
 43
0.0000001
 44
0.0000000001
 40
0.0
 40
0.0
 40
0.0
 40
0.0
 40
0.2467387642
 40
0.4958721914
 40
0.7471589151
 40
1.0
 40
1.0
 40
1.0
 40
1.0
 10
4.2000742021
 20
6.7242426037
 30
0.0
 10
4.1944515482
 20
6.6895338569
 30
0.0
 10
4.1843577138
 20
6.6195779852
 30
0.0
 10
4.1728424974
 20
6.5137080217
 30
0.0
 10
4.1650410615
 20
6.4066269363
 30
0.0
 10
4.1624266844
 20
6.3348153702
 30
0.0
 10
4.1617783878
 20
6.2987903797
 30
0.0
  0
SPLINE
  5
34C
100
AcDbEntity
  8
0
100
AcDbSpline
 62
7
  6
CONTINUOUS
 70
0
 71
3
 72
11
 73
7
 74
0
 42
0.0000001
 43
0.0000001
 44
0.0000000001
 40
0.0
 40
0.0
 40
0.0
 40
0.0
 40
0.2528411001
 40
0.5041278264
 40
0.7532612528
 40
1.0
 40
1.0
 40
1.0
 40
1.0
 10
4.6255264261
 20
6.762538418
 30
0.0
 10
4.5895014334
 20
6.7618901227
 30
0.0
 10
4.5176898648
 20
6.759275749
 30
0.0
 10
4.4106087769
 20
6.7514743106
 30
0.0
 10
4.3047388194
 20
6.7399590639
 30
0.0
 10
4.2347829468
 20
6.7298652553
 30
0.0
 10
4.2000742021
 20
6.7242426037
 30
0.0
  0
SPLINE
  5
34D
100
AcDbEntity
  8
0
100
AcDbSpline
 62
7
  6
CONTINUOUS
 70
0
 71
3
 72
11
 73
7
 74
0
 42
0.0000001
 43
0.0000001
 44
0.0000000001
 40
0.0
 40
0.0
 40
0.0
 40
0.0
 40
0.2479650545
 40
0.4999996001
 40
0.7520343555
 40
1.0
 40
1.0
 40
1.0
 40
1.0
 10
5.1938245038
 20
5.7363141055
 30
0.0
 10
5.193400375
 20
5.7357803055
 30
0.0
 10
5.1925126632
 20
5.7347293984
 30
0.0
 10
5.1910909399
 20
5.7332265934
 30
0.0
 10
5.1895882354
 20
5.7318047617
 30
0.0
 10
5.1885373932
 20
5.7309169695
 30
0.0
 10
5.188003623
 20
5.7304928007
 30
0.0
  0
SPLINE
  5
34E
100
AcDbEntity
  8
0
100
AcDbSpline
 62
7
  6
CONTINUOUS
 70
0
 71
3
 72
11
 73
7
 74
0
 42
0.0000001
 43
0.0000001
 44
0.0000000001
 40
0.0
 40
0.0
 40
0.0
 40
0.0
 40
0.2479653268
 40
0.4999997538
 40
0.752034405
 40
1.0
 40
1.0
 40
1.0
 40
1.0
 10
5.1880027062
 20
6.761380075
 30
0.0
 10
5.1885365065
 20
6.7609559465
 30
0.0
 10
5.1895874462
 20
6.7600682749
 30
0.0
 10
5.1910902349
 20
6.7586465357
 30
0.0
 10
5.1925120655
 20
6.7571438352
 30
0.0
 10
5.1933998528
 20
6.7560929911
 30
0.0
 10
5.1938240195
 20
6.7555592202
 30
0.0
  0
SPLINE
  5
34F
100
AcDbEntity
  8
0
100
AcDbSpline
 62
7
  6
CONTINUOUS
 70
0
 71
3
 72
11
 73
7
 74
0
 42
0.0000001
 43
0.0000001
 44
0.0000000001
 40
0.0
 40
0.0
 40
0.0
 40
0.0
 40
0.2479650547
 40
0.4999996003
 40
0.7520343557
 40
1.0
 40
1.0
 40
1.0
 40
1.0
 10
4.1629367251
 20
6.7555582773
 30
0.0
 10
4.1633608539
 20
6.7560920773
 30
0.0
 10
4.1642485657
 20
6.7571429845
 30
0.0
 10
4.165670289
 20
6.7586457895
 30
0.0
 10
4.1671729935
 20
6.7600676212
 30
0.0
 10
4.1682238357
 20
6.7609554133
 30
0.0
 10
4.1687576059
 20
6.7613795822
 30
0.0
  0
SPLINE
  5
350
100
AcDbEntity
  8
0
100
AcDbSpline
 62
7
  6
CONTINUOUS
 70
0
 71
3
 72
11
 73
7
 74
0
 42
0.0000001
 43
0.0000001
 44
0.0000000001
 40
0.0
 40
0.0
 40
0.0
 40
0.0
 40
0.2479650556
 40
0.4999996007
 40
0.7520343557
 40
1.0
 40
1.0
 40
1.0
 40
1.0
 10
4.1687585285
 20
5.730492302
 30
0.0
 10
4.1682247285
 20
5.7309164308
 30
0.0
 10
4.1671738212
 20
5.7318041425
 30
0.0
 10
4.1656710163
 20
5.7332258658
 30
0.0
 10
4.1642491846
 20
5.7347285703
 30
0.0
 10
4.1633613925
 20
5.7357794125
 30
0.0
 10
4.1629372236
 20
5.7363131828
 30
0.0
  0
SPLINE
  5
351
100
AcDbEntity
  8
0
100
AcDbSpline
 62
7
  6
CONTINUOUS
 70
0
 71
3
 72
26
 73
22
 74
0
 42
0.0000001
 43
0.0000001
 44
0.0000000001
 40
0.0
 40
0.0
 40
0.0
 40
0.0
 40
0.211631182
 40
0.405615836
 40
0.494632002
 40
0.5776754085
 40
0.654276456
 40
0.7240204165
 40
0.7865199638
 40
0.8414409246
 40
0.8884791933
 40
0.9273939191
 40
0.943739098
 40
0.957985297
 40
0.9701210214
 40
0.9801390739
 40
0.9880431703
 40
0.993866487
 40
0.9960275871
 40
0.9977226942
 40
1.0
 40
1.0
 40
1.0
 40
1.0
 10
4.6255264261
 20
6.762538418
 30
0.0
 10
4.6255238971
 20
6.7632065899
 30
0.0
 10
4.6255226371
 20
6.7644872367
 30
0.0
 10
4.6255314427
 20
6.7660489144
 30
0.0
 10
4.6255452467
 20
6.7672045359
 30
0.0
 10
4.6255583042
 20
6.7679895193
 30
0.0
 10
4.625574288
 20
6.7687135882
 30
0.0
 10
4.625593083
 20
6.7693727045
 30
0.0
 10
4.6256145806
 20
6.7699632491
 30
0.0
 10
4.6256385994
 20
6.7704819464
 30
0.0
 10
4.6256650031
 20
6.7709259518
 30
0.0
 10
4.6256899366
 20
6.7712480047
 30
0.0
 10
4.6257116916
 20
6.7714663823
 30
0.0
 10
4.6257275227
 20
6.7716003612
 30
0.0
 10
4.6257438038
 20
6.7717141415
 30
0.0
 10
4.6257603961
 20
6.771807607
 30
0.0
 10
4.6257774154
 20
6.7718806764
 30
0.0
 10
4.6257925755
 20
6.7719285618
 30
0.0
 10
4.6258060376
 20
6.7719562558
 30
0.0
 10
4.6258163952
 20
6.7719722132
 30
0.0
 10
4.6258277946
 20
6.7719810157
 30
0.0
 10
4.6258349836
 20
6.7719811403
 30
0.0
  0
SPLINE
  5
352
100
AcDbEntity
  8
0
100
AcDbSpline
 62
7
  6
CONTINUOUS
 70
0
 71
3
 72
20
 73
16
 74
0
 42
0.0000001
 43
0.0000001
 44
0.0000000001
 40
0.0
 40
0.0
 40
0.0
 40
0.0
 40
0.1914929285
 40
0.3690343575
 40
0.5288831234
 40
0.6011714396
 40
0.6679184713
 40
0.7288735951
 40
0.7838601212
 40
0.8328146377
 40
0.8758156696
 40
0.913158221
 40
0.9454657203
 40
0.9738451736
 40
1.0
 40
1.0
 40
1.0
 40
1.0
 10
5.1566870266
 20
5.7676297791
 30
0.0
 10
5.1573998467
 20
5.7675781616
 30
0.0
 10
5.1587758728
 20
5.7675070046
 30
0.0
 10
5.1607505087
 20
5.7674994706
 30
0.0
 10
5.1622785965
 20
5.7675803012
 30
0.0
 10
5.1633877195
 20
5.7677018357
 30
0.0
 10
5.1641257919
 20
5.767814806
 30
0.0
 10
5.1647940628
 20
5.7679518137
 30
0.0
 10
5.165388727
 20
5.7681121055
 30
0.0
 10
5.1659065449
 20
5.7682946988
 30
0.0
 10
5.1663449027
 20
5.768498763
 30
0.0
 10
5.1667018492
 20
5.7687236537
 30
0.0
 10
5.1669757858
 20
5.768969732
 30
0.0
 10
5.1671637589
 20
5.7692380073
 30
0.0
 10
5.1672288073
 20
5.7694348625
 30
0.0
 10
5.1672441349
 20
5.7695312662
 30
0.0
  0
SPLINE
  5
353
100
AcDbEntity
  8
0
100
AcDbSpline
 62
7
  6
CONTINUOUS
 70
0
 71
3
 72
26
 73
22
 74
0
 42
0.0000001
 43
0.0000001
 44
0.0000000001
 40
0.0
 40
0.0
 40
0.0
 40
0.0
 40
0.2116311818
 40
0.4056158357
 40
0.4946320016
 40
0.5776754081
 40
0.6542764556
 40
0.724020416
 40
0.7865199632
 40
0.8414409241
 40
0.8884791927
 40
0.9273939185
 40
0.9437390975
 40
0.9579852965
 40
0.9701210209
 40
0.9801390735
 40
0.9880431699
 40
0.9938664867
 40
0.9960275868
 40
0.997722694
 40
1.0
 40
1.0
 40
1.0
 40
1.0
 10
4.1617783878
 20
6.1930820031
 30
0.0
 10
4.1611102159
 20
6.1930794741
 30
0.0
 10
4.1598295691
 20
6.1930782141
 30
0.0
 10
4.1582678914
 20
6.1930870197
 30
0.0
 10
4.1571122699
 20
6.1931008237
 30
0.0
 10
4.1563272865
 20
6.1931138812
 30
0.0
 10
4.1556032176
 20
6.193129865
 30
0.0
 10
4.1549441013
 20
6.1931486599
 30
0.0
 10
4.1543535567
 20
6.1931701576
 30
0.0
 10
4.1538348594
 20
6.1931941763
 30
0.0
 10
4.153390854
 20
6.1932205801
 30
0.0
 10
4.1530688011
 20
6.1932455136
 30
0.0
 10
4.1528504235
 20
6.1932672686
 30
0.0
 10
4.1527164446
 20
6.1932830997
 30
0.0
 10
4.1526026643
 20
6.1932993807
 30
0.0
 10
4.1525091988
 20
6.1933159731
 30
0.0
 10
4.1524361294
 20
6.1933329924
 30
0.0
 10
4.152388244
 20
6.1933481525
 30
0.0
 10
4.15236055
 20
6.1933616146
 30
0.0
 10
4.1523445926
 20
6.1933719723
 30
0.0
 10
4.1523357901
 20
6.1933833716
 30
0.0
 10
4.1523356655
 20
6.1933905606
 30
0.0
  0
SPLINE
  5
354
100
AcDbEntity
  8
0
100
AcDbSpline
 62
7
  6
CONTINUOUS
 70
0
 71
3
 72
20
 73
16
 74
0
 42
0.0000001
 43
0.0000001
 44
0.0000000001
 40
0.0
 40
0.0
 40
0.0
 40
0.0
 40
0.1914929285
 40
0.3690343575
 40
0.5288831234
 40
0.6011714396
 40
0.6679184713
 40
0.7288735951
 40
0.7838601212
 40
0.8328146377
 40
0.8758156696
 40
0.913158221
 40
0.9454657203
 40
0.9738451736
 40
1.0
 40
1.0
 40
1.0
 40
1.0
 10
4.2000742021
 20
6.7242426037
 30
0.0
 10
4.1993613821
 20
6.7242942212
 30
0.0
 10
4.197985356
 20
6.7243653782
 30
0.0
 10
4.1960107201
 20
6.7243729122
 30
0.0
 10
4.1944826323
 20
6.7242920816
 30
0.0
 10
4.1933735093
 20
6.7241705471
 30
0.0
 10
4.1926354369
 20
6.7240575768
 30
0.0
 10
4.191967166
 20
6.7239205691
 30
0.0
 10
4.1913725018
 20
6.7237602773
 30
0.0
 10
4.1908546839
 20
6.723577684
 30
0.0
 10
4.1904163261
 20
6.7233736198
 30
0.0
 10
4.1900593796
 20
6.7231487292
 30
0.0
 10
4.189785443
 20
6.7229026508
 30
0.0
 10
4.1895974699
 20
6.7226343755
 30
0.0
 10
4.1895324215
 20
6.7224375203
 30
0.0
 10
4.1895170939
 20
6.7223411167
 30
0.0
  0
SPLINE
  5
355
100
AcDbEntity
  8
0
100
AcDbSpline
 62
7
  6
CONTINUOUS
 70
0
 71
3
 72
26
 73
22
 74
0
 42
0.0000001
 43
0.0000001
 44
0.0000000001
 40
0.0
 40
0.0
 40
0.0
 40
0.0
 40
0.2116311782
 40
0.4056158285
 40
0.4946319927
 40
0.5776753975
 40
0.6542764433
 40
0.7240204022
 40
0.786519948
 40
0.8414409076
 40
0.8884791753
 40
0.9273939005
 40
0.9437390793
 40
0.9579852784
 40
0.9701210032
 40
0.9801390566
 40
0.9880431544
 40
0.9938664736
 40
0.9960275756
 40
0.9977226854
 40
1.0
 40
1.0
 40
1.0
 40
1.0
 10
4.7312348027
 20
6.762538418
 30
0.0
 10
4.7312373317
 20
6.7632065899
 30
0.0
 10
4.7312385916
 20
6.7644872367
 30
0.0
 10
4.7312297861
 20
6.7660489144
 30
0.0
 10
4.7312159822
 20
6.7672045359
 30
0.0
 10
4.7312029247
 20
6.7679895193
 30
0.0
 10
4.7311869411
 20
6.7687135882
 30
0.0
 10
4.7311681462
 20
6.7693727045
 30
0.0
 10
4.7311466486
 20
6.7699632491
 30
0.0
 10
4.7311226299
 20
6.7704819464
 30
0.0
 10
4.7310962261
 20
6.7709259518
 30
0.0
 10
4.7310712927
 20
6.7712480047
 30
0.0
 10
4.7310495376
 20
6.7714663822
 30
0.0
 10
4.7310337065
 20
6.7716003612
 30
0.0
 10
4.7310174254
 20
6.7717141415
 30
0.0
 10
4.7310008331
 20
6.771807607
 30
0.0
 10
4.7309838136
 20
6.7718806764
 30
0.0
 10
4.7309686535
 20
6.7719285618
 30
0.0
 10
4.7309551914
 20
6.7719562558
 30
0.0
 10
4.7309448336
 20
6.7719722132
 30
0.0
 10
4.7309334342
 20
6.7719810157
 30
0.0
 10
4.7309262452
 20
6.7719811403
 30
0.0
  0
SPLINE
  5
356
100
AcDbEntity
  8
0
100
AcDbSpline
 62
7
  6
CONTINUOUS
 70
0
 71
3
 72
20
 73
16
 74
0
 42
0.0000001
 43
0.0000001
 44
0.0000000001
 40
0.0
 40
0.0
 40
0.0
 40
0.0
 40
0.1914929158
 40
0.369034343
 40
0.5288831064
 40
0.6011714224
 40
0.6679184543
 40
0.7288735786
 40
0.7838601058
 40
0.8328146239
 40
0.8758156582
 40
0.9131582134
 40
0.9454657167
 40
0.9738451714
 40
1.0
 40
1.0
 40
1.0
 40
1.0
 10
5.1566870267
 20
6.7242426037
 30
0.0
 10
5.1567386442
 20
6.7249554237
 30
0.0
 10
5.1568098025
 20
6.7263314497
 30
0.0
 10
5.1568173357
 20
6.7283060856
 30
0.0
 10
5.1567365052
 20
6.7298341734
 30
0.0
 10
5.1566149706
 20
6.7309432964
 30
0.0
 10
5.1565020003
 20
6.7316813689
 30
0.0
 10
5.1563649925
 20
6.7323496398
 30
0.0
 10
5.1562047006
 20
6.7329443039
 30
0.0
 10
5.1560221073
 20
6.7334621218
 30
0.0
 10
5.155818043
 20
6.7339004797
 30
0.0
 10
5.1555931523
 20
6.7342574262
 30
0.0
 10
5.1553470738
 20
6.7345313628
 30
0.0
 10
5.1550787985
 20
6.7347193359
 30
0.0
 10
5.1548819433
 20
6.7347843843
 30
0.0
 10
5.1547855396
 20
6.7347997119
 30
0.0
  0
SPLINE
  5
357
100
AcDbEntity
  8
0
100
AcDbSpline
 62
7
  6
CONTINUOUS
 70
0
 71
3
 72
20
 73
16
 74
0
 42
0.0000001
 43
0.0000001
 44
0.0000000001
 40
0.0
 40
0.0
 40
0.0
 40
0.0
 40
0.1914929158
 40
0.369034343
 40
0.5288831064
 40
0.6011714224
 40
0.6679184543
 40
0.7288735786
 40
0.7838601058
 40
0.8328146239
 40
0.8758156582
 40
0.9131582134
 40
0.9454657167
 40
0.9738451714
 40
1.0
 40
1.0
 40
1.0
 40
1.0
 10
4.2000742021
 20
5.7676297792
 30
0.0
 10
4.2000225846
 20
5.7669169591
 30
0.0
 10
4.1999514263
 20
5.7655409331
 30
0.0
 10
4.199943893
 20
5.7635662972
 30
0.0
 10
4.2000247236
 20
5.7620382094
 30
0.0
 10
4.2001462582
 20
5.7609290864
 30
0.0
 10
4.2002592285
 20
5.7601910139
 30
0.0
 10
4.2003962363
 20
5.759522743
 30
0.0
 10
4.2005565282
 20
5.7589280789
 30
0.0
 10
4.2007391215
 20
5.758410261
 30
0.0
 10
4.2009431858
 20
5.7579719031
 30
0.0
 10
4.2011680765
 20
5.7576149566
 30
0.0
 10
4.201414155
 20
5.75734102
 30
0.0
 10
4.2016824303
 20
5.7571530469
 30
0.0
 10
4.2018792855
 20
5.7570879985
 30
0.0
 10
4.2019756891
 20
5.7570726709
 30
0.0
  0
SPLINE
  5
358
100
AcDbEntity
  8
0
100
AcDbSpline
 62
7
  6
CONTINUOUS
 70
0
 71
3
 72
26
 73
22
 74
0
 42
0.0000001
 43
0.0000001
 44
0.0000000001
 40
0.0
 40
0.0
 40
0.0
 40
0.0
 40
0.2116311769
 40
0.4056158261
 40
0.4946319896
 40
0.5776753939
 40
0.6542764392
 40
0.7240203977
 40
0.7865199431
 40
0.8414409024
 40
0.8884791698
 40
0.9273938949
 40
0.9437390738
 40
0.957985273
 40
0.9701209979
 40
0.9801390516
 40
0.9880431499
 40
0.9938664698
 40
0.9960275724
 40
0.997722683
 40
1.0
 40
1.0
 40
1.0
 40
1.0
 10
4.1617783878
 20
6.2987903797
 30
0.0
 10
4.1611102159
 20
6.2987929087
 30
0.0
 10
4.1598295691
 20
6.2987941687
 30
0.0
 10
4.1582678914
 20
6.2987853632
 30
0.0
 10
4.1571122699
 20
6.2987715593
 30
0.0
 10
4.1563272865
 20
6.2987585019
 30
0.0
 10
4.1556032176
 20
6.2987425182
 30
0.0
 10
4.1549441013
 20
6.2987237233
 30
0.0
 10
4.1543535567
 20
6.2987022257
 30
0.0
 10
4.1538348594
 20
6.298678207
 30
0.0
 10
4.153390854
 20
6.2986518033
 30
0.0
 10
4.1530688011
 20
6.2986268698
 30
0.0
 10
4.1528504236
 20
6.2986051148
 30
0.0
 10
4.1527164446
 20
6.2985892836
 30
0.0
 10
4.1526026643
 20
6.2985730025
 30
0.0
 10
4.1525091988
 20
6.2985564102
 30
0.0
 10
4.1524361294
 20
6.2985393907
 30
0.0
 10
4.152388244
 20
6.2985242306
 30
0.0
 10
4.15236055
 20
6.2985107684
 30
0.0
 10
4.1523445926
 20
6.2985004107
 30
0.0
 10
4.1523357901
 20
6.2984890112
 30
0.0
 10
4.1523356655
 20
6.2984818222
 30
0.0
  0
LINE
  5
359
100
AcDbEntity
  8
0
100
AcDbLine
 62
7
  6
CONTINUOUS
 10
5.2016144172
 20
5.7350001821
 11
5.1938245038
 21
5.7363141055
  0
LINE
  5
35A
100
AcDbEntity
  8
0
100
AcDbLine
 62
7
  6
CONTINUOUS
 10
5.1893166237
 20
6.7691699942
 11
5.1880027062
 21
6.761380075
  0
LINE
  5
35B
100
AcDbEntity
  8
0
100
AcDbLine
 62
7
  6
CONTINUOUS
 10
4.1551468116
 20
6.7568722007
 11
4.1629367251
 21
6.7555582773
  0
LINE
  5
35C
100
AcDbEntity
  8
0
100
AcDbLine
 62
7
  6
CONTINUOUS
 10
4.1674446051
 20
5.7227023886
 11
4.1687585285
 21
5.730492302
  0
SPLINE
  5
35D
100
AcDbEntity
  8
0
100
AcDbSpline
 62
7
  6
CONTINUOUS
 70
0
 71
3
 72
20
 73
16
 74
0
 42
0.0000001
 43
0.0000001
 44
0.0000000001
 40
0.0
 40
0.0
 40
0.0
 40
0.0
 40
0.1914929717
 40
0.3690344166
 40
0.5288832003
 40
0.6011715227
 40
0.6679185597
 40
0.7288736879
 40
0.7838602171
 40
0.8328147337
 40
0.875815764
 40
0.913158318
 40
0.9454658117
 40
0.973845218
 40
1.0
 40
1.0
 40
1.0
 40
1.0
 10
4.2000742021
 20
6.7242426037
 30
0.0
 10
4.2000225846
 20
6.7249554238
 30
0.0
 10
4.199951431
 20
6.7263314501
 30
0.0
 10
4.1999438953
 20
6.728306086
 30
0.0
 10
4.2000247263
 20
6.7298341738
 30
0.0
 10
4.2001462607
 20
6.7309432968
 30
0.0
 10
4.2002592309
 20
6.7316813693
 30
0.0
 10
4.2003962385
 20
6.7323496401
 30
0.0
 10
4.2005565303
 20
6.7329443043
 30
0.0
 10
4.2007391234
 20
6.7334621221
 30
0.0
 10
4.2009431875
 20
6.73390048
 30
0.0
 10
4.2011680781
 20
6.7342574264
 30
0.0
 10
4.2014141564
 20
6.7345313629
 30
0.0
 10
4.2016824311
 20
6.7347193361
 30
0.0
 10
4.2018792859
 20
6.7347843844
 30
0.0
 10
4.2019756894
 20
6.734799712
 30
0.0
  0
SPLINE
  5
35E
100
AcDbEntity
  8
0
100
AcDbSpline
 62
7
  6
CONTINUOUS
 70
0
 71
3
 72
20
 73
16
 74
0
 42
0.0000001
 43
0.0000001
 44
0.0000000001
 40
0.0
 40
0.0
 40
0.0
 40
0.0
 40
0.1914929514
 40
0.3690343866
 40
0.52888316
 40
0.6011714784
 40
0.6679185118
 40
0.7288736368
 40
0.7838601633
 40
0.8328146788
 40
0.8758157087
 40
0.9131582586
 40
0.9454657533
 40
0.9738451901
 40
1.0
 40
1.0
 40
1.0
 40
1.0
 10
5.1566870267
 20
6.7242426037
 30
0.0
 10
5.1573998468
 20
6.7242942212
 30
0.0
 10
5.158775873
 20
6.7243653761
 30
0.0
 10
5.1607505089
 20
6.7243729112
 30
0.0
 10
5.1622785966
 20
6.7242920804
 30
0.0
 10
5.1633877197
 20
6.724170546
 30
0.0
 10
5.1641257921
 20
6.7240575757
 30
0.0
 10
5.164794063
 20
6.7239205681
 30
0.0
 10
5.1653887271
 20
6.7237602763
 30
0.0
 10
5.165906545
 20
6.7235776832
 30
0.0
 10
5.1663449028
 20
6.723373619
 30
0.0
 10
5.1667018493
 20
6.7231487284
 30
0.0
 10
5.1669757859
 20
6.7229026501
 30
0.0
 10
5.167163759
 20
6.7226343751
 30
0.0
 10
5.1672288073
 20
6.72243752
 30
0.0
 10
5.167244135
 20
6.7223411164
 30
0.0
  0
SPLINE
  5
35F
100
AcDbEntity
  8
0
100
AcDbSpline
 62
7
  6
CONTINUOUS
 70
0
 71
3
 72
20
 73
16
 74
0
 42
0.0000001
 43
0.0000001
 44
0.0000000001
 40
0.0
 40
0.0
 40
0.0
 40
0.0
 40
0.1914929717
 40
0.3690344166
 40
0.5288832003
 40
0.6011715227
 40
0.6679185597
 40
0.7288736879
 40
0.7838602171
 40
0.8328147337
 40
0.875815764
 40
0.913158318
 40
0.9454658117
 40
0.973845218
 40
1.0
 40
1.0
 40
1.0
 40
1.0
 10
5.1566870266
 20
5.7676297791
 30
0.0
 10
5.1567386442
 20
5.766916959
 30
0.0
 10
5.1568097978
 20
5.7655409327
 30
0.0
 10
5.1568173335
 20
5.7635662968
 30
0.0
 10
5.1567365024
 20
5.762038209
 30
0.0
 10
5.1566149681
 20
5.760929086
 30
0.0
 10
5.1565019979
 20
5.7601910135
 30
0.0
 10
5.1563649903
 20
5.7595227427
 30
0.0
 10
5.1562046985
 20
5.7589280786
 30
0.0
 10
5.1560221054
 20
5.7584102607
 30
0.0
 10
5.1558180412
 20
5.7579719028
 30
0.0
 10
5.1555931506
 20
5.7576149564
 30
0.0
 10
5.1553470724
 20
5.75734102
 30
0.0
 10
5.1550787977
 20
5.7571530467
 30
0.0
 10
5.1548819429
 20
5.7570879984
 30
0.0
 10
5.1547855394
 20
5.7570726708
 30
0.0
  0
SPLINE
  5
360
100
AcDbEntity
  8
0
100
AcDbSpline
 62
7
  6
CONTINUOUS
 70
0
 71
3
 72
20
 73
16
 74
0
 42
0.0000001
 43
0.0000001
 44
0.0000000001
 40
0.0
 40
0.0
 40
0.0
 40
0.0
 40
0.1914929514
 40
0.3690343866
 40
0.52888316
 40
0.6011714784
 40
0.6679185118
 40
0.7288736368
 40
0.7838601633
 40
0.8328146788
 40
0.8758157087
 40
0.9131582586
 40
0.9454657533
 40
0.9738451901
 40
1.0
 40
1.0
 40
1.0
 40
1.0
 10
4.2000742021
 20
5.7676297792
 30
0.0
 10
4.199361382
 20
5.7675781616
 30
0.0
 10
4.1979853558
 20
5.7675070067
 30
0.0
 10
4.1960107199
 20
5.7674994716
 30
0.0
 10
4.1944826321
 20
5.7675803024
 30
0.0
 10
4.1933735091
 20
5.7677018368
 30
0.0
 10
4.1926354367
 20
5.7678148071
 30
0.0
 10
4.1919671658
 20
5.7679518147
 30
0.0
 10
4.1913725017
 20
5.7681121065
 30
0.0
 10
4.1908546838
 20
5.7682946996
 30
0.0
 10
4.190416326
 20
5.7684987638
 30
0.0
 10
4.1900593795
 20
5.7687236544
 30
0.0
 10
4.1897854429
 20
5.7689697327
 30
0.0
 10
4.1895974698
 20
5.7692380077
 30
0.0
 10
4.1895324215
 20
5.7694348628
 30
0.0
 10
4.1895170938
 20
5.7695312664
 30
0.0
  0
LINE
  5
361
100
AcDbEntity
  8
0
100
AcDbLine
 62
7
  6
CONTINUOUS
 10
6.3812774055
 20
6.4209996492
 11
6.3788277342
 21
6.4130987406
  0
LINE
  5
362
100
AcDbEntity
  8
0
100
AcDbLine
 62
7
  6
CONTINUOUS
 10
6.0444838233
 20
6.4209996492
 11
6.0469331413
 21
6.4130985615
  0
SPLINE
  5
363
100
AcDbEntity
  8
0
100
AcDbSpline
 62
7
  6
CONTINUOUS
 70
0
 71
3
 72
31
 73
27
 74
0
 42
0.0000001
 43
0.0000001
 44
0.0000000001
 40
0.0
 40
0.0
 40
0.0
 40
0.0
 40
0.0229863966
 40
0.0432745266
 40
0.0610448078
 40
0.0766700772
 40
0.090774574
 40
0.1042492386
 40
0.118127509
 40
0.1333498014
 40
0.1506014673
 40
0.1703054003
 40
0.1926824952
 40
0.2178105275
 40
0.2456722216
 40
0.2761773877
 40
0.3091845571
 40
0.3445104201
 40
0.4212113594
 40
0.5042661199
 40
0.5913529702
 40
0.6799778533
 40
0.7675839949
 40
0.8516572238
 40
0.929827394
 40
1.0
 40
1.0
 40
1.0
 40
1.0
 10
4.7246317161
 20
2.1788206199
 30
0.0
 10
4.7248077739
 20
2.1789182148
 30
0.0
 10
4.7251318856
 20
2.1791159814
 30
0.0
 10
4.7255553402
 20
2.1794445424
 30
0.0
 10
4.7258825555
 20
2.1797850809
 30
0.0
 10
4.7261104179
 20
2.1801369639
 30
0.0
 10
4.7262339234
 20
2.1804995639
 30
0.0
 10
4.7262464861
 20
2.1808679535
 30
0.0
 10
4.7261472778
 20
2.1812325235
 30
0.0
 10
4.7259421235
 20
2.181586912
 30
0.0
 10
4.7256367809
 20
2.1819299859
 30
0.0
 10
4.7252345484
 20
2.1822613544
 30
0.0
 10
4.7247382874
 20
2.1825797674
 30
0.0
 10
4.7241514319
 20
2.1828834224
 30
0.0
 10
4.7234781775
 20
2.183170094
 30
0.0
 10
4.7227235926
 20
2.1834376432
 30
0.0
 10
4.7218934652
 20
2.1836839546
 30
0.0
 10
4.7206603568
 20
2.1839897375
 30
0.0
 10
4.7189785642
 20
2.1842994025
 30
0.0
 10
4.7168304963
 20
2.1845522895
 30
0.0
 10
4.7145672328
 20
2.1846872386
 30
0.0
 10
4.7122602132
 20
2.1846998058
 30
0.0
 10
4.7099821921
 20
2.1845895598
 30
0.0
 10
4.7078048921
 20
2.1843601847
 30
0.0
 10
4.7057969003
 20
2.1840194202
 30
0.0
 10
4.7045340961
 20
2.1837063212
 30
0.0
 10
4.7039460746
 20
2.1835278056
 30
0.0
  0
SPLINE
  5
364
100
AcDbEntity
  8
0
100
AcDbSpline
 62
7
  6
CONTINUOUS
 70
0
 71
3
 72
30
 73
26
 74
0
 42
0.0000001
 43
0.0000001
 44
0.0000000001
 40
0.0
 40
0.0
 40
0.0
 40
0.0
 40
0.0628166419
 40
0.1256528632
 40
0.1884927997
 40
0.2513000833
 40
0.3140358683
 40
0.345377978
 40
0.3766959331
 40
0.4079923001
 40
0.4392725692
 40
0.470541786
 40
0.5018023137
 40
0.5642777047
 40
0.6267016908
 40
0.6890493466
 40
0.7201981942
 40
0.7513239076
 40
0.7824289374
 40
0.7979764834
 40
0.8135211116
 40
0.844603194
 40
0.875684091
 40
0.9378355345
 40
1.0
 40
1.0
 40
1.0
 40
1.0
 10
4.6783806144
 20
2.4642154337
 30
0.0
 10
4.6690654451
 20
2.4642154337
 30
0.0
 10
4.6504195408
 20
2.4651511705
 30
0.0
 10
4.6227319728
 20
2.4692759259
 30
0.0
 10
4.5955667569
 20
2.4760370396
 30
0.0
 10
4.5691855919
 20
2.4853502568
 30
0.0
 10
4.5480541789
 20
2.4951765298
 30
0.0
 10
4.5318049966
 20
2.5042303454
 30
0.0
 10
4.5199775076
 20
2.5116062146
 30
0.0
 10
4.5085411716
 20
2.519558858
 30
0.0
 10
4.4975269656
 20
2.5280746609
 30
0.0
 10
4.4869541329
 20
2.537124663
 30
0.0
 10
4.4734779451
 20
2.5498622395
 30
0.0
 10
4.4578310384
 20
2.5669878586
 30
0.0
 10
4.4411451167
 20
2.5892336423
 30
0.0
 10
4.429104261
 20
2.6090197383
 30
0.0
 10
4.42068009
 20
2.6254753475
 30
0.0
 10
4.4149849935
 20
2.6381038138
 30
0.0
 10
4.4107738675
 20
2.6488470654
 30
0.0
 10
4.4077369397
 20
2.6575569953
 30
0.0
 10
4.4049250582
 20
2.6663385468
 30
0.0
 10
4.4018315221
 20
2.6774446847
 30
0.0
 10
4.3977827401
 20
2.6954359181
 30
0.0
 10
4.3944074224
 20
2.718270958
 30
0.0
 10
4.3935080827
 20
2.7367177343
 30
0.0
 10
4.3935080827
 20
2.7459361914
 30
0.0
  0
SPLINE
  5
365
100
AcDbEntity
  8
0
100
AcDbSpline
 62
7
  6
CONTINUOUS
 70
0
 71
3
 72
23
 73
19
 74
0
 42
0.0000001
 43
0.0000001
 44
0.0000000001
 40
0.0
 40
0.0
 40
0.0
 40
0.0
 40
0.0624739732
 40
0.1249350645
 40
0.1873867448
 40
0.249832587
 40
0.3122762278
 40
0.3747213256
 40
0.4371715216
 40
0.4996304023
 40
0.5621014631
 40
0.6245881
 40
0.6870935049
 40
0.7496207065
 40
0.812172739
 40
0.8747511014
 40
0.9373610042
 40
1.0
 40
1.0
 40
1.0
 40
1.0
 10
5.0076853305
 20
2.7509197052
 30
0.0
 10
5.0095251516
 20
2.7431606851
 30
0.0
 10
5.0128128932
 20
2.7275483804
 30
0.0
 10
5.0165535448
 20
2.7039148643
 30
0.0
 10
5.0190939927
 20
2.6801253665
 30
0.0
 10
5.020427711
 20
2.656240208
 30
0.0
 10
5.0205514209
 20
2.6323189563
 30
0.0
 10
5.0194647949
 20
2.6084215332
 30
0.0
 10
5.017170529
 20
2.5846077336
 30
0.0
 10
5.0136743658
 20
2.560937164
 30
0.0
 10
5.0089850893
 20
2.5374690577
 30
0.0
 10
5.003114437
 20
2.5142621467
 30
0.0
 10
4.996077105
 20
2.4913745134
 30
0.0
 10
4.9878906765
 20
2.4688634023
 30
0.0
 10
4.9785756697
 20
2.4467853187
 30
0.0
 10
4.9681553548
 20
2.4251950062
 30
0.0
 10
4.9566561275
 20
2.4041475833
 30
0.0
 10
4.9482910902
 20
2.3905146392
 30
0.0
 10
4.9439397828
 20
2.3838071935
 30
0.0
  0
SPLINE
  5
366
100
AcDbEntity
  8
0
100
AcDbSpline
 62
7
  6
CONTINUOUS
 70
0
 71
3
 72
23
 73
19
 74
0
 42
0.0000001
 43
0.0000001
 44
0.0000000001
 40
0.0
 40
0.0
 40
0.0
 40
0.0
 40
0.0624739732
 40
0.1249350645
 40
0.1873867448
 40
0.249832587
 40
0.3122762278
 40
0.3747213256
 40
0.4371715216
 40
0.4996304023
 40
0.5621014631
 40
0.6245881
 40
0.6870935049
 40
0.7496207065
 40
0.812172739
 40
0.8747511014
 40
0.9373610042
 40
1.0
 40
1.0
 40
1.0
 40
1.0
 10
4.3490758982
 20
2.7509197052
 30
0.0
 10
4.3472360772
 20
2.7431606851
 30
0.0
 10
4.3439483355
 20
2.7275483804
 30
0.0
 10
4.340207684
 20
2.7039148643
 30
0.0
 10
4.3376672361
 20
2.6801253665
 30
0.0
 10
4.3363335178
 20
2.656240208
 30
0.0
 10
4.3362098079
 20
2.6323189563
 30
0.0
 10
4.3372964339
 20
2.6084215332
 30
0.0
 10
4.3395906998
 20
2.5846077336
 30
0.0
 10
4.343086863
 20
2.560937164
 30
0.0
 10
4.3477761395
 20
2.5374690577
 30
0.0
 10
4.3536467918
 20
2.5142621467
 30
0.0
 10
4.3606841238
 20
2.4913745134
 30
0.0
 10
4.3688705523
 20
2.4688634023
 30
0.0
 10
4.3781855591
 20
2.4467853187
 30
0.0
 10
4.388605874
 20
2.4251950062
 30
0.0
 10
4.4001051013
 20
2.4041475833
 30
0.0
 10
4.4084701386
 20
2.3905146392
 30
0.0
 10
4.412821446
 20
2.3838071935
 30
0.0
  0
SPLINE
  5
367
100
AcDbEntity
  8
0
100
AcDbSpline
 62
7
  6
CONTINUOUS
 70
0
 71
3
 72
71
 73
67
 74
0
 42
0.0000001
 43
0.0000001
 44
0.0000000001
 40
0.0
 40
0.0
 40
0.0
 40
0.0
 40
0.0155343292
 40
0.0310701365
 40
0.0466071541
 40
0.0621469725
 40
0.0776901556
 40
0.093237543
 40
0.1087898887
 40
0.1243478851
 40
0.1399121827
 40
0.1554833641
 40
0.1710619457
 40
0.186648373
 40
0.2022430159
 40
0.2178461641
 40
0.2334580238
 40
0.2490787174
 40
0.2647082832
 40
0.2803466744
 40
0.295993758
 40
0.3116493172
 40
0.3273130547
 40
0.342984596
 40
0.3586634916
 40
0.3743492205
 40
0.390041197
 40
0.4057387768
 40
0.4214412629
 40
0.4371479108
 40
0.4528579354
 40
0.4685705209
 40
0.4842848277
 40
0.5
 40
0.5157151723
 40
0.5314294791
 40
0.5471420646
 40
0.5628520892
 40
0.5785587371
 40
0.5942612232
 40
0.609958803
 40
0.6256507795
 40
0.6413365084
 40
0.657015404
 40
0.6726869453
 40
0.6883506828
 40
0.704006242
 40
0.7196533256
 40
0.7352917168
 40
0.7509212826
 40
0.7665419762
 40
0.7821538359
 40
0.7977569841
 40
0.813351627
 40
0.8289380543
 40
0.8445166359
 40
0.8600878173
 40
0.8756521149
 40
0.8912101113
 40
0.906762457
 40
0.9223098444
 40
0.9378530275
 40
0.9533928459
 40
0.9689298635
 40
0.9844656708
 40
1.0
 40
1.0
 40
1.0
 40
1.0
 10
4.1888806144
 20
2.5107256159
 30
0.0
 10
4.1888806144
 20
2.5028092091
 30
0.0
 10
4.1892739306
 20
2.4869728277
 30
0.0
 10
4.191042107
 20
2.4632780806
 30
0.0
 10
4.1939845619
 20
2.439696924
 30
0.0
 10
4.1980938737
 20
2.4162872413
 30
0.0
 10
4.2033603731
 20
2.3931049907
 30
0.0
 10
4.2097712895
 20
2.370206181
 30
0.0
 10
4.2173111549
 20
2.3476459383
 30
0.0
 10
4.2259617998
 20
2.325478621
 30
0.0
 10
4.235702378
 20
2.3037576374
 30
0.0
 10
4.2465094483
 20
2.2825353337
 30
0.0
 10
4.2583569411
 20
2.261862829
 30
0.0
 10
4.27121629
 20
2.2417899151
 30
0.0
 10
4.285056508
 20
2.2223649461
 30
0.0
 10
4.2998442629
 20
2.2036347288
 30
0.0
 10
4.3155439317
 20
2.1856443939
 30
0.0
 10
4.3321176578
 20
2.1684372546
 30
0.0
 10
4.3495255035
 20
2.1520547522
 30
0.0
 10
4.3677255315
 20
2.1365363491
 30
0.0
 10
4.386673913
 20
2.1219194491
 30
0.0
 10
4.4063249839
 20
2.1082392459
 30
0.0
 10
4.4266313878
 20
2.0955286676
 30
0.0
 10
4.4475442057
 20
2.083818324
 30
0.0
 10
4.4690130671
 20
2.0731364319
 30
0.0
 10
4.4909862623
 20
2.0635087391
 30
0.0
 10
4.5134108436
 20
2.0549584001
 30
0.0
 10
4.536232791
 20
2.0475059959
 30
0.0
 10
4.5593971335
 20
2.0411694751
 30
0.0
 10
4.5828480805
 20
2.0359641273
 30
0.0
 10
4.60652914
 20
2.0319024823
 30
0.0
 10
4.6303832656
 20
2.0289942926
 30
0.0
 10
4.6543530016
 20
2.0272465589
 30
0.0
 10
4.6783806144
 20
2.0266635027
 30
0.0
 10
4.7024082272
 20
2.0272465589
 30
0.0
 10
4.7263779632
 20
2.0289942926
 30
0.0
 10
4.7502320888
 20
2.0319024823
 30
0.0
 10
4.7739131483
 20
2.0359641273
 30
0.0
 10
4.7973640953
 20
2.0411694751
 30
0.0
 10
4.8205284378
 20
2.0475059959
 30
0.0
 10
4.8433503852
 20
2.0549584001
 30
0.0
 10
4.8657749665
 20
2.0635087391
 30
0.0
 10
4.8877481617
 20
2.0731364319
 30
0.0
 10
4.9092170231
 20
2.083818324
 30
0.0
 10
4.930129841
 20
2.0955286676
 30
0.0
 10
4.9504362449
 20
2.1082392459
 30
0.0
 10
4.9700873158
 20
2.1219194491
 30
0.0
 10
4.9890356973
 20
2.1365363491
 30
0.0
 10
5.0072357253
 20
2.1520547522
 30
0.0
 10
5.024643571
 20
2.1684372546
 30
0.0
 10
5.041217297
 20
2.1856443939
 30
0.0
 10
5.0569169659
 20
2.2036347288
 30
0.0
 10
5.0717047208
 20
2.2223649461
 30
0.0
 10
5.0855449388
 20
2.2417899151
 30
0.0
 10
5.0984042877
 20
2.261862829
 30
0.0
 10
5.1102517805
 20
2.2825353337
 30
0.0
 10
5.1210588508
 20
2.3037576374
 30
0.0
 10
5.130799429
 20
2.325478621
 30
0.0
 10
5.1394500739
 20
2.3476459383
 30
0.0
 10
5.1469899393
 20
2.370206181
 30
0.0
 10
5.1534008557
 20
2.3931049907
 30
0.0
 10
5.1586673551
 20
2.4162872413
 30
0.0
 10
5.1627766669
 20
2.439696924
 30
0.0
 10
5.1657191218
 20
2.4632780806
 30
0.0
 10
5.1674872982
 20
2.4869728277
 30
0.0
 10
5.1678806144
 20
2.5028092091
 30
0.0
 10
5.1678806144
 20
2.5107256159
 30
0.0
  0
LINE
  5
368
100
AcDbEntity
  8
0
100
AcDbLine
 62
7
  6
CONTINUOUS
 10
6.3879440722
 20
6.0775394003
 11
6.3800431636
 21
6.0799890716
  0
LINE
  5
369
100
AcDbEntity
  8
0
100
AcDbLine
 62
7
  6
CONTINUOUS
 10
6.3879440722
 20
6.4143329825
 11
6.3800431634
 21
6.4118833118
  0
LINE
  5
36A
100
AcDbEntity
  8
0
100
AcDbLine
 62
7
  6
CONTINUOUS
 10
6.3812774055
 20
6.0708727336
 11
6.3788280874
 21
6.0787738213
  0
LINE
  5
36B
100
AcDbEntity
  8
0
100
AcDbLine
 62
7
  6
CONTINUOUS
 10
6.0444838233
 20
6.0708727336
 11
6.0469331413
 21
6.0787738213
  0
SPLINE
  5
36C
100
AcDbEntity
  8
0
100
AcDbSpline
 62
7
  6
CONTINUOUS
 70
0
 71
3
 72
9
 73
5
 74
0
 42
0.0000001
 43
0.0000001
 44
0.0000000001
 40
0.0
 40
0.0
 40
0.0
 40
0.0
 40
0.4820179225
 40
1.0
 40
1.0
 40
1.0
 40
1.0
 10
4.7996530743
 20
2.247357153
 30
0.0
 10
4.7996530743
 20
2.246139193
 30
0.0
 10
4.7994271162
 20
2.2436093898
 30
0.0
 10
4.798819587
 20
2.2411474934
 30
0.0
 10
4.7984280322
 20
2.2398986013
 30
0.0
  0
SPLINE
  5
36D
100
AcDbEntity
  8
0
100
AcDbSpline
 62
7
  6
CONTINUOUS
 70
0
 71
3
 72
11
 73
7
 74
0
 42
0.0000001
 43
0.0000001
 44
0.0000000001
 40
0.0
 40
0.0
 40
0.0
 40
0.0
 40
0.2423632978
 40
0.4879356122
 40
0.739663933
 40
1.0
 40
1.0
 40
1.0
 40
1.0
 10
4.7200412645
 20
2.176877354
 30
0.0
 10
4.7195033622
 20
2.1767140569
 30
0.0
 10
4.7183925162
 20
2.1764705588
 30
0.0
 10
4.7166735661
 20
2.1763674568
 30
0.0
 10
4.7149173282
 20
2.1765255631
 30
0.0
 10
4.7137569668
 20
2.1767981527
 30
0.0
 10
4.7131791765
 20
2.1769735622
 30
0.0
  0
SPLINE
  5
36E
100
AcDbEntity
  8
0
100
AcDbSpline
 62
7
  6
CONTINUOUS
 70
0
 71
3
 72
31
 73
27
 74
0
 42
0.0000001
 43
0.0000001
 44
0.0000000001
 40
0.0
 40
0.0
 40
0.0
 40
0.0
 40
0.0200822331
 40
0.0384772822
 40
0.0554176641
 40
0.0712247257
 40
0.086308676
 40
0.1011509785
 40
0.1162593608
 40
0.1321126494
 40
0.1491170056
 40
0.1675892438
 40
0.1877580315
 40
0.2097799806
 40
0.2337506417
 40
0.2597221968
 40
0.2877081309
 40
0.3176964561
 40
0.3835001771
 40
0.4566502316
 40
0.5364263357
 40
0.6219446923
 40
0.7121971945
 40
0.8060788071
 40
0.9024207926
 40
1.0
 40
1.0
 40
1.0
 40
1.0
 10
4.7063692243
 20
2.0809225866
 30
0.0
 10
4.7065468906
 20
2.0810830394
 30
0.0
 10
4.7068733981
 20
2.0814065979
 30
0.0
 10
4.7072869077
 20
2.0819239722
 30
0.0
 10
4.7075995907
 20
2.0824499916
 30
0.0
 10
4.7078093112
 20
2.0829832571
 30
0.0
 10
4.707913683
 20
2.0835217316
 30
0.0
 10
4.7079110816
 20
2.0840620761
 30
0.0
 10
4.7078015405
 20
2.0846003636
 30
0.0
 10
4.707586769
 20
2.085133319
 30
0.0
 10
4.7072691463
 20
2.085658937
 30
0.0
 10
4.7068507575
 20
2.0861759078
 30
0.0
 10
4.7063335622
 20
2.0866832155
 30
0.0
 10
4.7057193447
 20
2.0871795733
 30
0.0
 10
4.7050102111
 20
2.087663734
 30
0.0
 10
4.7042084255
 20
2.0881341137
 30
0.0
 10
4.7033167047
 20
2.0885893424
 30
0.0
 10
4.7019695768
 20
2.0891926458
 30
0.0
 10
4.7000774838
 20
2.0898894307
 30
0.0
 10
4.6975724197
 20
2.0906185162
 30
0.0
 10
4.6948005175
 20
2.0912540754
 30
0.0
 10
4.6918000828
 20
2.0917870398
 30
0.0
 10
4.6886125777
 20
2.0922097148
 30
0.0
 10
4.685282299
 20
2.0925160525
 30
0.0
 10
4.6818557469
 20
2.0927016171
 30
0.0
 10
4.6795438349
 20
2.0927429692
 30
0.0
 10
4.6783806144
 20
2.0927429692
 30
0.0
  0
SPLINE
  5
36F
100
AcDbEntity
  8
0
100
AcDbSpline
 62
7
  6
CONTINUOUS
 70
0
 71
3
 72
21
 73
17
 74
0
 42
0.0000001
 43
0.0000001
 44
0.0000000001
 40
0.0
 40
0.0
 40
0.0
 40
0.0
 40
0.0845916598
 40
0.1686176679
 40
0.3327320234
 40
0.4879603589
 40
0.6301580336
 40
0.6951674347
 40
0.7555289542
 40
0.810838244
 40
0.8607268803
 40
0.9048611733
 40
0.9429466543
 40
0.9747298237
 40
0.9881905388
 40
1.0
 40
1.0
 40
1.0
 40
1.0
 10
5.9812533586
 20
6.2459361914
 30
0.0
 10
5.9812533814
 20
6.2508934162
 30
0.0
 10
5.9812587169
 20
6.2607747181
 30
0.0
 10
5.981286982
 20
6.2802734001
 30
0.0
 10
5.9813578423
 20
6.3039114513
 30
0.0
 10
5.981497301
 20
6.3309582159
 30
0.0
 10
5.9816594797
 20
6.352197001
 30
0.0
 10
5.9818165341
 20
6.3678762264
 30
0.0
 10
5.9819413476
 20
6.3784636854
 30
0.0
 10
5.9820760371
 20
6.388164843
 30
0.0
 10
5.9822193864
 20
6.3969148183
 30
0.0
 10
5.9823703582
 20
6.4046551566
 30
0.0
 10
5.9825277953
 20
6.4113340991
 30
0.0
 10
5.9826696225
 20
6.4162153382
 30
0.0
 10
5.982788707
 20
6.4195566571
 30
0.0
 10
5.9828494792
 20
6.4210362998
 30
0.0
 10
5.9828805301
 20
6.4217276587
 30
0.0
  0
SPLINE
  5
370
100
AcDbEntity
  8
0
100
AcDbSpline
 62
7
  6
CONTINUOUS
 70
0
 71
3
 72
21
 73
17
 74
0
 42
0.0000001
 43
0.0000001
 44
0.0000000001
 40
0.0
 40
0.0
 40
0.0
 40
0.0
 40
0.2316062512
 40
0.4329100762
 40
0.603721522
 40
0.7438744078
 40
0.8532740022
 40
0.8964349671
 40
0.9319137579
 40
0.9467840344
 40
0.9597520748
 40
0.9708317834
 40
0.9800459962
 40
0.9874353385
 40
0.9930805941
 40
1.0
 40
1.0
 40
1.0
 40
1.0
 10
5.9828805301
 20
6.4217276587
 30
0.0
 10
5.9829022304
 20
6.4222108219
 30
0.0
 10
5.9829452211
 20
6.4231138288
 30
0.0
 10
5.9830145527
 20
6.4243726502
 30
0.0
 10
5.9830839658
 20
6.4254401682
 30
0.0
 10
5.9831533855
 20
6.4263152617
 30
0.0
 10
5.9832143839
 20
6.4269235795
 30
0.0
 10
5.9832654219
 20
6.4273129493
 30
0.0
 10
5.9832961153
 20
6.4275058373
 30
0.0
 10
5.9833213068
 20
6.4276356584
 30
0.0
 10
5.9833390193
 20
6.4277149691
 30
0.0
 10
5.9833567514
 20
6.4277822111
 30
0.0
 10
5.9833742091
 20
6.4278371751
 30
0.0
 10
5.9833921223
 20
6.4278806497
 30
0.0
 10
5.9834112619
 20
6.42791613
 30
0.0
 10
5.9834334862
 20
6.4279382004
 30
0.0
 10
5.9834479356
 20
6.4279381899
 30
0.0
  0
SPLINE
  5
371
100
AcDbEntity
  8
0
100
AcDbSpline
 62
7
  6
CONTINUOUS
 70
0
 71
3
 72
14
 73
10
 74
0
 42
0.0000001
 43
0.0000001
 44
0.0000000001
 40
0.0
 40
0.0
 40
0.0
 40
0.0
 40
0.317575878
 40
0.4565428277
 40
0.5831216488
 40
0.6985800748
 40
0.8047732665
 40
0.9042093584
 40
1.0
 40
1.0
 40
1.0
 40
1.0
 10
4.739045741
 20
2.1893850042
 30
0.0
 10
4.7392867393
 20
2.1895185912
 30
0.0
 10
4.7396237308
 20
2.1897306746
 30
0.0
 10
4.7400120345
 20
2.1900560997
 30
0.0
 10
4.7402420131
 20
2.1902946238
 30
0.0
 10
4.740422912
 20
2.1905378413
 30
0.0
 10
4.7405536374
 20
2.1907853456
 30
0.0
 10
4.7406328848
 20
2.1910361651
 30
0.0
 10
4.7406507907
 20
2.1912060275
 30
0.0
 10
4.7406507907
 20
2.1912891406
 30
0.0
  0
SPLINE
  5
372
100
AcDbEntity
  8
0
100
AcDbSpline
 62
7
  6
CONTINUOUS
 70
0
 71
3
 72
11
 73
7
 74
0
 42
0.0000001
 43
0.0000001
 44
0.0000000001
 40
0.0
 40
0.0
 40
0.0
 40
0.0
 40
0.2465319953
 40
0.4943995892
 40
0.7450858037
 40
1.0
 40
1.0
 40
1.0
 40
1.0
 10
4.5678986525
 20
2.1632819499
 30
0.0
 10
4.5678408428
 20
2.1695941909
 30
0.0
 10
4.5682462674
 20
2.182263722
 30
0.0
 10
4.5704181045
 20
2.2012381757
 30
0.0
 10
4.574151253
 20
2.2201863847
 30
0.0
 10
4.577643819
 20
2.2326678765
 30
0.0
 10
4.5796355433
 20
2.2388837039
 30
0.0
  0
SPLINE
  5
373
100
AcDbEntity
  8
0
100
AcDbSpline
 62
7
  6
CONTINUOUS
 70
0
 71
3
 72
14
 73
10
 74
0
 42
0.0000001
 43
0.0000001
 44
0.0000000001
 40
0.0
 40
0.0
 40
0.0
 40
0.0
 40
0.317575878
 40
0.4565428277
 40
0.5831216488
 40
0.6985800748
 40
0.8047732665
 40
0.9042093584
 40
1.0
 40
1.0
 40
1.0
 40
1.0
 10
4.6406205441
 20
2.1893850042
 30
0.0
 10
4.6408615424
 20
2.1895185912
 30
0.0
 10
4.6411985339
 20
2.1897306746
 30
0.0
 10
4.6415868376
 20
2.1900560997
 30
0.0
 10
4.6418168162
 20
2.1902946238
 30
0.0
 10
4.6419977151
 20
2.1905378413
 30
0.0
 10
4.6421284406
 20
2.1907853456
 30
0.0
 10
4.642207688
 20
2.1910361651
 30
0.0
 10
4.6422255939
 20
2.1912060275
 30
0.0
 10
4.6422255939
 20
2.1912891406
 30
0.0
  0
SPLINE
  5
374
100
AcDbEntity
  8
0
100
AcDbSpline
 62
7
  6
CONTINUOUS
 70
0
 71
3
 72
23
 73
19
 74
0
 42
0.0000001
 43
0.0000001
 44
0.0000000001
 40
0.0
 40
0.0
 40
0.0
 40
0.0
 40
0.0719583637
 40
0.1363143724
 40
0.1934789855
 40
0.2442481959
 40
0.2899611641
 40
0.3325775164
 40
0.3745823721
 40
0.4185788564
 40
0.4668012424
 40
0.5208729559
 40
0.581827178
 40
0.6502315763
 40
0.726324085
 40
0.8101232796
 40
0.9014792787
 40
1.0
 40
1.0
 40
1.0
 40
1.0
 10
4.7246316999
 20
2.1999493873
 30
0.0
 10
4.724791201
 20
2.2000378065
 30
0.0
 10
4.7250872607
 20
2.2002168636
 30
0.0
 10
4.7254804753
 20
2.2005114233
 30
0.0
 10
4.7257957931
 20
2.2008155315
 30
0.0
 10
4.7260309666
 20
2.2011284696
 30
0.0
 10
4.7261833981
 20
2.2014495925
 30
0.0
 10
4.7262489981
 20
2.2017771726
 30
0.0
 10
4.7262248505
 20
2.20210622
 30
0.0
 10
4.7261121109
 20
2.2024307311
 30
0.0
 10
4.7259148783
 20
2.2027475492
 30
0.0
 10
4.7256364237
 20
2.2030558281
 30
0.0
 10
4.7252790272
 20
2.2033549362
 30
0.0
 10
4.7248448506
 20
2.2036438414
 30
0.0
 10
4.7243363386
 20
2.2039211013
 30
0.0
 10
4.723756425
 20
2.2041851786
 30
0.0
 10
4.7231087549
 20
2.2044343174
 30
0.0
 10
4.722651199
 20
2.2045840372
 30
0.0
 10
4.7224122784
 20
2.2046565704
 30
0.0
  0
SPLINE
  5
375
100
AcDbEntity
  8
0
100
AcDbSpline
 62
7
  6
CONTINUOUS
 70
0
 71
3
 72
71
 73
67
 74
0
 42
0.0000001
 43
0.0000001
 44
0.0000000001
 40
0.0
 40
0.0
 40
0.0
 40
0.0
 40
0.0155343292
 40
0.0310701365
 40
0.0466071541
 40
0.0621469725
 40
0.0776901556
 40
0.093237543
 40
0.1087898887
 40
0.1243478851
 40
0.1399121827
 40
0.1554833641
 40
0.1710619457
 40
0.186648373
 40
0.2022430159
 40
0.2178461641
 40
0.2334580238
 40
0.2490787174
 40
0.2647082832
 40
0.2803466744
 40
0.295993758
 40
0.3116493172
 40
0.3273130547
 40
0.342984596
 40
0.3586634916
 40
0.3743492205
 40
0.390041197
 40
0.4057387768
 40
0.4214412629
 40
0.4371479108
 40
0.4528579354
 40
0.4685705209
 40
0.4842848277
 40
0.5
 40
0.5157151723
 40
0.5314294791
 40
0.5471420646
 40
0.5628520892
 40
0.5785587371
 40
0.5942612232
 40
0.609958803
 40
0.6256507795
 40
0.6413365084
 40
0.657015404
 40
0.6726869453
 40
0.6883506828
 40
0.704006242
 40
0.7196533256
 40
0.7352917168
 40
0.7509212826
 40
0.7665419762
 40
0.7821538359
 40
0.7977569841
 40
0.813351627
 40
0.8289380543
 40
0.8445166359
 40
0.8600878173
 40
0.8756521149
 40
0.8912101113
 40
0.906762457
 40
0.9223098444
 40
0.9378530275
 40
0.9533928459
 40
0.9689298635
 40
0.9844656708
 40
1.0
 40
1.0
 40
1.0
 40
1.0
 10
4.1888806144
 20
2.5220701774
 30
0.0
 10
4.1888806144
 20
2.5141537706
 30
0.0
 10
4.1892739306
 20
2.4983173892
 30
0.0
 10
4.191042107
 20
2.4746226421
 30
0.0
 10
4.1939845619
 20
2.4510414855
 30
0.0
 10
4.1980938737
 20
2.4276318029
 30
0.0
 10
4.2033603731
 20
2.4044495523
 30
0.0
 10
4.2097712895
 20
2.3815507425
 30
0.0
 10
4.2173111549
 20
2.3589904998
 30
0.0
 10
4.2259617998
 20
2.3368231825
 30
0.0
 10
4.235702378
 20
2.3151021989
 30
0.0
 10
4.2465094483
 20
2.2938798952
 30
0.0
 10
4.2583569411
 20
2.2732073905
 30
0.0
 10
4.27121629
 20
2.2531344766
 30
0.0
 10
4.285056508
 20
2.2337095076
 30
0.0
 10
4.2998442629
 20
2.2149792903
 30
0.0
 10
4.3155439317
 20
2.1969889554
 30
0.0
 10
4.3321176578
 20
2.1797818161
 30
0.0
 10
4.3495255035
 20
2.1633993137
 30
0.0
 10
4.3677255315
 20
2.1478809106
 30
0.0
 10
4.386673913
 20
2.1332640106
 30
0.0
 10
4.4063249839
 20
2.1195838074
 30
0.0
 10
4.4266313878
 20
2.1068732291
 30
0.0
 10
4.4475442057
 20
2.0951628855
 30
0.0
 10
4.4690130671
 20
2.0844809934
 30
0.0
 10
4.4909862623
 20
2.0748533006
 30
0.0
 10
4.5134108436
 20
2.0663029617
 30
0.0
 10
4.536232791
 20
2.0588505575
 30
0.0
 10
4.5593971335
 20
2.0525140367
 30
0.0
 10
4.5828480805
 20
2.0473086889
 30
0.0
 10
4.60652914
 20
2.0432470438
 30
0.0
 10
4.6303832656
 20
2.0403388541
 30
0.0
 10
4.6543530016
 20
2.0385911204
 30
0.0
 10
4.6783806144
 20
2.0380080642
 30
0.0
 10
4.7024082272
 20
2.0385911204
 30
0.0
 10
4.7263779632
 20
2.0403388541
 30
0.0
 10
4.7502320888
 20
2.0432470438
 30
0.0
 10
4.7739131483
 20
2.0473086889
 30
0.0
 10
4.7973640953
 20
2.0525140367
 30
0.0
 10
4.8205284378
 20
2.0588505575
 30
0.0
 10
4.8433503852
 20
2.0663029617
 30
0.0
 10
4.8657749665
 20
2.0748533006
 30
0.0
 10
4.8877481617
 20
2.0844809934
 30
0.0
 10
4.9092170231
 20
2.0951628855
 30
0.0
 10
4.930129841
 20
2.1068732291
 30
0.0
 10
4.9504362449
 20
2.1195838074
 30
0.0
 10
4.9700873158
 20
2.1332640106
 30
0.0
 10
4.9890356973
 20
2.1478809106
 30
0.0
 10
5.0072357253
 20
2.1633993137
 30
0.0
 10
5.024643571
 20
2.1797818161
 30
0.0
 10
5.041217297
 20
2.1969889554
 30
0.0
 10
5.0569169659
 20
2.2149792903
 30
0.0
 10
5.0717047208
 20
2.2337095076
 30
0.0
 10
5.0855449388
 20
2.2531344766
 30
0.0
 10
5.0984042877
 20
2.2732073905
 30
0.0
 10
5.1102517805
 20
2.2938798952
 30
0.0
 10
5.1210588508
 20
2.3151021989
 30
0.0
 10
5.130799429
 20
2.3368231825
 30
0.0
 10
5.1394500739
 20
2.3589904998
 30
0.0
 10
5.1469899393
 20
2.3815507425
 30
0.0
 10
5.1534008557
 20
2.4044495523
 30
0.0
 10
5.1586673551
 20
2.4276318029
 30
0.0
 10
5.1627766669
 20
2.4510414855
 30
0.0
 10
5.1657191218
 20
2.4746226421
 30
0.0
 10
5.1674872982
 20
2.4983173892
 30
0.0
 10
5.1678806144
 20
2.5141537706
 30
0.0
 10
5.1678806144
 20
2.5220701774
 30
0.0
  0
SPLINE
  5
376
100
AcDbEntity
  8
0
100
AcDbSpline
 62
7
  6
CONTINUOUS
 70
0
 71
3
 72
21
 73
17
 74
0
 42
0.0000001
 43
0.0000001
 44
0.0000000001
 40
0.0
 40
0.0
 40
0.0
 40
0.0
 40
0.0635486102
 40
0.1270179911
 40
0.1904015726
 40
0.2536989452
 40
0.3169033247
 40
0.3800080185
 40
0.4430022613
 40
0.5058723826
 40
0.5686001938
 40
0.6311608855
 40
0.7555993438
 40
0.8788074684
 40
0.9397411943
 40
1.0
 40
1.0
 40
1.0
 40
1.0
 10
5.0748370954
 20
2.6275329652
 30
0.0
 10
5.0748370418
 20
2.6211009511
 30
0.0
 10
5.0745149532
 20
2.6082425955
 30
0.0
 10
5.0730646855
 20
2.5890181598
 30
0.0
 10
5.0706512263
 20
2.5699158621
 30
0.0
 10
5.0672814462
 20
2.5509862277
 30
0.0
 10
5.0629641058
 20
2.5322788725
 30
0.0
 10
5.0577113183
 20
2.5138442262
 30
0.0
 10
5.051537678
 20
2.4957328689
 30
0.0
 10
5.044461086
 20
2.4779960386
 30
0.0
 10
5.0365023495
 20
2.4606848165
 30
0.0
 10
5.0247711637
 20
2.4382856876
 30
0.0
 10
5.008062369
 20
2.4116326159
 30
0.0
 10
4.9887551953
 20
2.3870023579
 30
0.0
 10
4.9719714188
 20
2.3688175583
 30
0.0
 10
4.9631691731
 20
2.3602635186
 30
0.0
 10
4.958678183
 20
2.3561368624
 30
0.0
  0
SPLINE
  5
377
100
AcDbEntity
  8
0
100
AcDbSpline
 62
7
  6
CONTINUOUS
 70
0
 71
3
 72
35
 73
31
 74
0
 42
0.0000001
 43
0.0000001
 44
0.0000000001
 40
0.0
 40
0.0
 40
0.0
 40
0.0
 40
0.031093881
 40
0.0621910373
 40
0.0932894082
 40
0.1243921683
 40
0.1866001611
 40
0.248839268
 40
0.2799807234
 40
0.3111332105
 40
0.3422976443
 40
0.3734748548
 40
0.4046655795
 40
0.4358704478
 40
0.4670899835
 40
0.4983246054
 40
0.5295746144
 40
0.5608401942
 40
0.5921214182
 40
0.6234182398
 40
0.6547304923
 40
0.6860578997
 40
0.7174000728
 40
0.7487565071
 40
0.8114951654
 40
0.874282348
 40
0.9056990617
 40
0.9371249985
 40
0.9685590366
 40
1.0
 40
1.0
 40
1.0
 40
1.0
 10
5.1472538092
 20
2.5243170524
 30
0.0
 10
5.1472538092
 20
2.5176382109
 30
0.0
 10
5.1469615321
 20
2.5042779664
 30
0.0
 10
5.1456475343
 20
2.4842768901
 30
0.0
 10
5.143459947
 20
2.4643497538
 30
0.0
 10
5.1393847993
 20
2.4379325648
 30
0.0
 10
5.1321288357
 20
2.4052720095
 30
0.0
 10
5.1220477
 20
2.3733615221
 30
0.0
 10
5.1123371343
 20
2.3484295588
 30
0.0
 10
5.1042407908
 20
2.3300529236
 30
0.0
 10
5.0953485761
 20
2.312039766
 30
0.0
 10
5.0856770654
 20
2.2944232753
 30
0.0
 10
5.0752443397
 20
2.2772365082
 30
0.0
 10
5.0640698484
 20
2.2605115859
 30
0.0
 10
5.0521745516
 20
2.2442797303
 30
0.0
 10
5.0395806756
 20
2.2285712759
 30
0.0
 10
5.0263117044
 20
2.2134156292
 30
0.0
 10
5.0123924977
 20
2.1988410681
 30
0.0
 10
4.9978490801
 20
2.1848748133
 30
0.0
 10
4.9827085889
 20
2.171543026
 30
0.0
 10
4.9669993283
 20
2.1588705732
 30
0.0
 10
4.9507507908
 20
2.146881152
 30
0.0
 10
4.9339929016
 20
2.1355970327
 30
0.0
 10
4.9110114267
 20
2.1215196084
 30
0.0
 10
4.8811626051
 20
2.1057854618
 30
0.0
 10
4.8500625089
 20
2.0926643609
 30
0.0
 10
4.8245711352
 20
2.0837908848
 30
0.0
 10
4.8051726811
 20
2.0779566759
 30
0.0
 10
4.7855379904
 20
2.0729568704
 30
0.0
 10
4.7723149835
 20
2.0701860767
 30
0.0
 10
4.7656770399
 20
2.0689426835
 30
0.0
  0
SPLINE
  5
378
100
AcDbEntity
  8
0
100
AcDbSpline
 62
7
  6
CONTINUOUS
 70
0
 71
3
 72
35
 73
31
 74
0
 42
0.0000001
 43
0.0000001
 44
0.0000000001
 40
0.0
 40
0.0
 40
0.0
 40
0.0
 40
0.0314409634
 40
0.0628750015
 40
0.0943009381
 40
0.1257176517
 40
0.1885048339
 40
0.2512434918
 40
0.2825999259
 40
0.3139420988
 40
0.345269506
 40
0.3765817582
 40
0.4078785796
 40
0.4391598034
 40
0.4704253831
 40
0.501675392
 40
0.5329100139
 40
0.5641295495
 40
0.5953344178
 40
0.6265251425
 40
0.657702353
 40
0.6888667869
 40
0.7200192742
 40
0.7511607298
 40
0.8133998372
 40
0.8756078305
 40
0.9067105909
 40
0.9378089621
 40
0.9689061187
 40
1.0
 40
1.0
 40
1.0
 40
1.0
 10
4.5910831139
 20
2.0689428848
 30
0.0
 10
4.5844451844
 20
2.0701862913
 30
0.0
 10
4.5712222063
 20
2.0729571103
 30
0.0
 10
4.5515875599
 20
2.0779569505
 30
0.0
 10
4.5321891513
 20
2.0837911909
 30
0.0
 10
4.5066978393
 20
2.0926647044
 30
0.0
 10
4.4755978218
 20
2.1057858436
 30
0.0
 10
4.4457490796
 20
2.1215200174
 30
0.0
 10
4.4227676679
 20
2.1355974569
 30
0.0
 10
4.4060098257
 20
2.1468815844
 30
0.0
 10
4.3897613347
 20
2.1588710105
 30
0.0
 10
4.3740521197
 20
2.1715434651
 30
0.0
 10
4.3589116732
 20
2.1848752512
 30
0.0
 10
4.3443682993
 20
2.1988415018
 30
0.0
 10
4.3304491349
 20
2.2134160559
 30
0.0
 10
4.3171802045
 20
2.2285716928
 30
0.0
 10
4.3045863676
 20
2.2442801348
 30
0.0
 10
4.2926911083
 20
2.2605119754
 30
0.0
 10
4.2815166525
 20
2.2772368804
 30
0.0
 10
4.2710839603
 20
2.2944236278
 30
0.0
 10
4.2614124809
 20
2.3120400968
 30
0.0
 10
4.2525202952
 20
2.3300532308
 30
0.0
 10
4.2444239782
 20
2.3484298406
 30
0.0
 10
4.2347134445
 20
2.3733617678
 30
0.0
 10
4.2246323423
 20
2.4052722063
 30
0.0
 10
4.2173764031
 20
2.437932709
 30
0.0
 10
4.213301269
 20
2.4643498545
 30
0.0
 10
4.2111136891
 20
2.4842769575
 30
0.0
 10
4.2097996957
 20
2.5042780002
 30
0.0
 10
4.2095074196
 20
2.5176382222
 30
0.0
 10
4.2095074196
 20
2.5243170524
 30
0.0
  0
SPLINE
  5
379
100
AcDbEntity
  8
0
100
AcDbSpline
 62
7
  6
CONTINUOUS
 70
0
 71
3
 72
21
 73
17
 74
0
 42
0.0000001
 43
0.0000001
 44
0.0000000001
 40
0.0
 40
0.0
 40
0.0
 40
0.0
 40
0.060258898
 40
0.1211926361
 40
0.2444005901
 40
0.3688391795
 40
0.4313999044
 40
0.4941275304
 40
0.556997726
 40
0.6199920623
 40
0.6830966545
 40
0.7463012079
 40
0.8095984588
 40
0.8729820316
 40
0.9364515149
 40
1.0
 40
1.0
 40
1.0
 40
1.0
 10
4.3980830437
 20
2.3561368644
 30
0.0
 10
4.393592044
 20
2.3602635237
 30
0.0
 10
4.3847898067
 20
2.3688175872
 30
0.0
 10
4.3680060362
 20
2.3870023806
 30
0.0
 10
4.3486988358
 20
2.4116326139
 30
0.0
 10
4.331990068
 20
2.4382857032
 30
0.0
 10
4.3202589027
 20
2.4606848381
 30
0.0
 10
4.3123001263
 20
2.4779960326
 30
0.0
 10
4.30522356
 20
2.4957328719
 30
0.0
 10
4.2990499316
 20
2.5138442384
 30
0.0
 10
4.2937971097
 20
2.5322788925
 30
0.0
 10
4.2894798164
 20
2.5509862526
 30
0.0
 10
4.2861099908
 20
2.5699158823
 30
0.0
 10
4.2836965613
 20
2.5890181817
 30
0.0
 10
4.2822462854
 20
2.6082426102
 30
0.0
 10
4.2819241351
 20
2.621100964
 30
0.0
 10
4.2819241333
 20
2.6275329652
 30
0.0
  0
LINE
  5
37A
100
AcDbEntity
  8
0
100
AcDbLine
 62
7
  6
CONTINUOUS
 10
4.3992737114
 20
2.3549598968
 11
4.3980830437
 21
2.3561368644
  0
SPLINE
  5
37B
100
AcDbEntity
  8
0
100
AcDbSpline
 62
7
  6
CONTINUOUS
 70
0
 71
3
 72
19
 73
15
 74
0
 42
0.0000001
 43
0.0000001
 44
0.0000000001
 40
0.0
 40
0.0
 40
0.0
 40
0.0
 40
0.0156884353
 40
0.031373247
 40
0.0627395014
 40
0.0941011172
 40
0.125457863
 40
0.1881555425
 40
0.2508306695
 40
0.376102039
 40
0.5012522437
 40
0.6262549813
 40
0.7510778978
 40
1.0
 40
1.0
 40
1.0
 40
1.0
 10
4.4469065813
 20
2.3124605203
 30
0.0
 10
4.4466388663
 20
2.312660608
 30
0.0
 10
4.4461049605
 20
2.3130626908
 30
0.0
 10
4.4450389297
 20
2.313868959
 30
0.0
 10
4.4437107561
 20
2.3148821446
 30
0.0
 10
4.442123517
 20
2.3161061577
 30
0.0
 10
4.4400164032
 20
2.3177489959
 30
0.0
 10
4.4373995325
 20
2.3198228969
 30
0.0
 10
4.4332500248
 20
2.323183675
 30
0.0
 10
4.4281336913
 20
2.3274640762
 30
0.0
 10
4.4221093543
 20
2.332725693
 30
0.0
 10
4.4162053281
 20
2.3381079249
 30
0.0
 10
4.4085070901
 20
2.3454321929
 30
0.0
 10
4.4029148013
 20
2.351104457
 30
0.0
 10
4.3992737114
 20
2.3549598968
 30
0.0
  0
SPLINE
  5
37C
100
AcDbEntity
  8
0
100
AcDbSpline
 62
7
  6
CONTINUOUS
 70
0
 71
3
 72
12
 73
8
 74
0
 42
0.0000001
 43
0.0000001
 44
0.0000000001
 40
0.0
 40
0.0
 40
0.0
 40
0.0
 40
0.2234837213
 40
0.4680868475
 40
0.5971513823
 40
0.7295296538
 40
1.0
 40
1.0
 40
1.0
 40
1.0
 10
4.4496310034
 20
2.3104406102
 30
0.0
 10
4.4495967666
 20
2.3096259714
 30
0.0
 10
4.449615784
 20
2.3079153483
 30
0.0
 10
4.4498267125
 20
2.3057446332
 30
0.0
 10
4.4501079046
 20
2.3039195857
 30
0.0
 10
4.4504667436
 20
2.302012149
 30
0.0
 10
4.4508032436
 20
2.3005804101
 30
0.0
 10
4.4510532945
 20
2.2996258331
 30
0.0
  0
SPLINE
  5
37D
100
AcDbEntity
  8
0
100
AcDbSpline
 62
7
  6
CONTINUOUS
 70
0
 71
3
 72
13
 73
9
 74
0
 42
0.0000001
 43
0.0000001
 44
0.0000000001
 40
0.0
 40
0.0
 40
0.0
 40
0.0
 40
0.1172204446
 40
0.2324015535
 40
0.4643484503
 40
0.5851443068
 40
0.7126809849
 40
1.0
 40
1.0
 40
1.0
 40
1.0
 10
4.4510352141
 20
2.2996378139
 30
0.0
 10
4.451684559
 20
2.2971588693
 30
0.0
 10
4.4529567857
 20
2.2922401185
 30
0.0
 10
4.4554374766
 20
2.2823966196
 30
0.0
 10
4.4578483404
 20
2.2724551724
 30
0.0
 10
4.4602554762
 20
2.2622353238
 30
0.0
 10
4.4628838994
 20
2.2508240898
 30
0.0
 10
4.4648493145
 20
2.2419701805
 30
0.0
 10
4.4661857491
 20
2.2358328645
 30
0.0
  0
SPLINE
  5
37E
100
AcDbEntity
  8
0
100
AcDbSpline
 62
7
  6
CONTINUOUS
 70
0
 71
3
 72
30
 73
26
 74
0
 42
0.0000001
 43
0.0000001
 44
0.0000000001
 40
0.0
 40
0.0
 40
0.0
 40
0.0
 40
0.0138256055
 40
0.0290877459
 40
0.0458581259
 40
0.0641495927
 40
0.0839187747
 40
0.105045728
 40
0.1274468218
 40
0.1511391545
 40
0.1761193468
 40
0.2023107177
 40
0.2580334405
 40
0.3179349227
 40
0.381784045
 40
0.4492569097
 40
0.4842554374
 40
0.5200550108
 40
0.5566382153
 40
0.5939859397
 40
0.6707797989
 40
0.7500509481
 40
0.8315050162
 40
0.914920444
 40
1.0
 40
1.0
 40
1.0
 40
1.0
 10
4.4662036058
 20
2.2358229833
 30
0.0
 10
4.466330943
 20
2.2352336547
 30
0.0
 10
4.4666697633
 20
2.234008591
 30
0.0
 10
4.4673765461
 20
2.2321355632
 30
0.0
 10
4.4683063382
 20
2.2301456387
 30
0.0
 10
4.4694545887
 20
2.2280467167
 30
0.0
 10
4.4708122196
 20
2.2258503183
 30
0.0
 10
4.4723620289
 20
2.2235652782
 30
0.0
 10
4.4740951586
 20
2.2212002622
 30
0.0
 10
4.4760145829
 20
2.218765836
 30
0.0
 10
4.4781196944
 20
2.2162696719
 30
0.0
 10
4.4812287887
 20
2.2127955931
 30
0.0
 10
4.4855407086
 20
2.2083580054
 30
0.0
 10
4.4912616185
 20
2.2030126241
 30
0.0
 10
4.4976153946
 20
2.1976071875
 30
0.0
 10
4.5033431191
 20
2.1931533288
 30
0.0
 10
4.5082184704
 20
2.1896043201
 30
0.0
 10
4.512062722
 20
2.186929561
 30
0.0
 10
4.5160491007
 20
2.1842816205
 30
0.0
 10
4.5216027672
 20
2.1807648845
 30
0.0
 10
4.5288741785
 20
2.1764850717
 30
0.0
 10
4.5380160229
 20
2.1716088742
 30
0.0
 10
4.5476150062
 20
2.1669952615
 30
0.0
 10
4.5576370761
 20
2.1627007913
 30
0.0
 10
4.564512642
 20
2.1601007735
 30
0.0
 10
4.5680108424
 20
2.1588643309
 30
0.0
  0
SPLINE
  5
37F
100
AcDbEntity
  8
0
100
AcDbSpline
 62
7
  6
CONTINUOUS
 70
0
 71
3
 72
30
 73
26
 74
0
 42
0.0000001
 43
0.0000001
 44
0.0000000001
 40
0.0
 40
0.0
 40
0.0
 40
0.0
 40
0.0850796023
 40
0.1684950959
 40
0.2499491092
 40
0.329220078
 40
0.4060139309
 40
0.4433616223
 40
0.4799448651
 40
0.5157445458
 40
0.5507430724
 40
0.618215739
 40
0.6820645396
 40
0.7419662046
 40
0.7976892956
 40
0.8238810121
 40
0.8488613786
 40
0.8725536514
 40
0.894954646
 40
0.9160813853
 40
0.9358502106
 40
0.9541415021
 40
0.970911968
 40
0.9861742995
 40
1.0
 40
1.0
 40
1.0
 40
1.0
 10
4.7887503751
 20
2.1588643343
 30
0.0
 10
4.7922485775
 20
2.1601007776
 30
0.0
 10
4.7991241502
 20
2.1627007923
 30
0.0
 10
4.8091462263
 20
2.1669952555
 30
0.0
 10
4.8187452028
 20
2.1716088671
 30
0.0
 10
4.82788703
 20
2.1764850753
 30
0.0
 10
4.8351584398
 20
2.1807648723
 30
0.0
 10
4.8407121067
 20
2.1842816083
 30
0.0
 10
4.8446984906
 20
2.18692955
 30
0.0
 10
4.8485427552
 20
2.1896043018
 30
0.0
 10
4.8534181056
 20
2.1931533055
 30
0.0
 10
4.8591458051
 20
2.1976071607
 30
0.0
 10
4.8654995484
 20
2.203012613
 30
0.0
 10
4.8712204787
 20
2.2083579874
 30
0.0
 10
4.8755324322
 20
2.2127955968
 30
0.0
 10
4.8786415785
 20
2.2162696812
 30
0.0
 10
4.8807467151
 20
2.2187658509
 30
0.0
 10
4.8826661327
 20
2.2212002836
 30
0.0
 10
4.884399246
 20
2.2235652915
 30
0.0
 10
4.8859490275
 20
2.2258503157
 30
0.0
 10
4.8873066104
 20
2.2280467058
 30
0.0
 10
4.8884548338
 20
2.2301456199
 30
0.0
 10
4.8893846368
 20
2.2321355437
 30
0.0
 10
4.8900914483
 20
2.2340085777
 30
0.0
 10
4.8904302861
 20
2.2352336504
 30
0.0
 10
4.8905576229
 20
2.2358229833
 30
0.0
  0
SPLINE
  5
380
100
AcDbEntity
  8
0
100
AcDbSpline
 62
7
  6
CONTINUOUS
 70
0
 71
3
 72
13
 73
9
 74
0
 42
0.0000001
 43
0.0000001
 44
0.0000000001
 40
0.0
 40
0.0
 40
0.0
 40
0.0
 40
0.2873242047
 40
0.4148609363
 40
0.5356559245
 40
0.7676002277
 40
0.882780208
 40
1.0
 40
1.0
 40
1.0
 40
1.0
 10
4.8905754679
 20
2.235832858
 30
0.0
 10
4.8919119267
 20
2.2419702847
 30
0.0
 10
4.8938773667
 20
2.2508243058
 30
0.0
 10
4.8965058139
 20
2.2622356322
 30
0.0
 10
4.8989129355
 20
2.2724554076
 30
0.0
 10
4.9013237766
 20
2.2823967568
 30
0.0
 10
4.9038044449
 20
2.2922401627
 30
0.0
 10
4.9050766621
 20
2.2971588757
 30
0.0
 10
4.9057260033
 20
2.2996378064
 30
0.0
  0
SPLINE
  5
381
100
AcDbEntity
  8
0
100
AcDbSpline
 62
7
  6
CONTINUOUS
 70
0
 71
3
 72
12
 73
8
 74
0
 42
0.0000001
 43
0.0000001
 44
0.0000000001
 40
0.0
 40
0.0
 40
0.0
 40
0.0
 40
0.2704707289
 40
0.4028494937
 40
0.5319144696
 40
0.7765176829
 40
1.0
 40
1.0
 40
1.0
 40
1.0
 10
4.9057079343
 20
2.2996258331
 30
0.0
 10
4.9059579855
 20
2.3005804114
 30
0.0
 10
4.906294486
 20
2.3020121535
 30
0.0
 10
4.9066533256
 20
2.303919595
 30
0.0
 10
4.9069345181
 20
2.3057446462
 30
0.0
 10
4.907145445
 20
2.3079153583
 30
0.0
 10
4.9071644618
 20
2.3096259765
 30
0.0
 10
4.9071302253
 20
2.3104406102
 30
0.0
  0
SPLINE
  5
382
100
AcDbEntity
  8
0
100
AcDbSpline
 62
7
  6
CONTINUOUS
 70
0
 71
3
 72
51
 73
47
 74
0
 42
0.0000001
 43
0.0000001
 44
0.0000000001
 40
0.0
 40
0.0
 40
0.0
 40
0.0
 40
0.0155369628
 40
0.0310760421
 40
0.0466158995
 40
0.0621585676
 40
0.0932454345
 40
0.1243520577
 40
0.1399192679
 40
0.1554933666
 40
0.1710748603
 40
0.186664203
 40
0.2022617696
 40
0.2178678354
 40
0.2334826132
 40
0.2491062333
 40
0.2803706461
 40
0.3116697835
 40
0.3430015863
 40
0.374362775
 40
0.4057489151
 40
0.4371546599
 40
0.4685738907
 40
0.5
 40
0.5314261093
 40
0.5628453401
 40
0.5942510849
 40
0.625637225
 40
0.6569984137
 40
0.6883302165
 40
0.7196293539
 40
0.7508937667
 40
0.7665173868
 40
0.7821321646
 40
0.7977382304
 40
0.813335797
 40
0.8289251397
 40
0.8445066334
 40
0.8600807321
 40
0.8756479423
 40
0.9067545655
 40
0.9378414324
 40
0.9533841005
 40
0.9689239579
 40
0.9844630372
 40
1.0
 40
1.0
 40
1.0
 40
1.0
 10
4.9736306144
 20
2.7156840274
 30
0.0
 10
4.9736306144
 20
2.7109092002
 30
0.0
 10
4.9733933389
 20
2.7013571838
 30
0.0
 10
4.9723269059
 20
2.6870653648
 30
0.0
 10
4.9705520396
 20
2.6728416755
 30
0.0
 10
4.967247688
 20
2.6540170368
 30
0.0
 10
4.9613691345
 20
2.6308185572
 30
0.0
 10
4.9532198145
 20
2.6083092372
 30
0.0
 10
4.945389348
 20
2.590848079
 30
0.0
 10
4.9388708217
 20
2.5780472376
 30
0.0
 10
4.9317248138
 20
2.5655783525
 30
0.0
 10
4.9239684954
 20
2.5534710222
 30
0.0
 10
4.9156205329
 20
2.5417545175
 30
0.0
 10
4.9067010866
 20
2.5304571455
 30
0.0
 10
4.8972313639
 20
2.5196057946
 30
0.0
 10
4.8839017737
 20
2.5057664428
 30
0.0
 10
4.8659732422
 20
2.489705286
 30
0.0
 10
4.8426639569
 20
2.4726190251
 30
0.0
 10
4.8177721736
 20
2.4578726485
 30
0.0
 10
4.7915388336
 20
2.4456094042
 30
0.0
 10
4.7642162462
 20
2.4359467337
 30
0.0
 10
4.7360674927
 20
2.4289777592
 30
0.0
 10
4.7073635235
 20
2.4247694
 30
0.0
 10
4.6783806144
 20
2.4233620596
 30
0.0
 10
4.6493977053
 20
2.4247694
 30
0.0
 10
4.6206937361
 20
2.4289777592
 30
0.0
 10
4.5925449826
 20
2.4359467337
 30
0.0
 10
4.5652223952
 20
2.4456094042
 30
0.0
 10
4.5389890552
 20
2.4578726485
 30
0.0
 10
4.5140972719
 20
2.4726190251
 30
0.0
 10
4.4907879866
 20
2.489705286
 30
0.0
 10
4.4728594551
 20
2.5057664428
 30
0.0
 10
4.4595298649
 20
2.5196057946
 30
0.0
 10
4.4500601422
 20
2.5304571455
 30
0.0
 10
4.4411406959
 20
2.5417545175
 30
0.0
 10
4.4327927334
 20
2.5534710222
 30
0.0
 10
4.4250364149
 20
2.5655783525
 30
0.0
 10
4.4178904071
 20
2.5780472376
 30
0.0
 10
4.4113718808
 20
2.590848079
 30
0.0
 10
4.4035414143
 20
2.6083092372
 30
0.0
 10
4.3953920943
 20
2.6308185572
 30
0.0
 10
4.3895135408
 20
2.6540170368
 30
0.0
 10
4.3862091892
 20
2.6728416755
 30
0.0
 10
4.3844343229
 20
2.6870653648
 30
0.0
 10
4.3833678899
 20
2.7013571838
 30
0.0
 10
4.3831306144
 20
2.7109092002
 30
0.0
 10
4.3831306144
 20
2.7156840274
 30
0.0
  0
SPLINE
  5
383
100
AcDbEntity
  8
0
100
AcDbSpline
 62
7
  6
CONTINUOUS
 70
0
 71
3
 72
23
 73
19
 74
0
 42
0.0000001
 43
0.0000001
 44
0.0000000001
 40
0.0
 40
0.0
 40
0.0
 40
0.0
 40
0.0623523667
 40
0.1247104349
 40
0.1870748463
 40
0.2494517087
 40
0.3118438222
 40
0.3742550075
 40
0.4366885369
 40
0.499147498
 40
0.5616347002
 40
0.6241526351
 40
0.6867034595
 40
0.7492889657
 40
0.8119105625
 40
0.8745692631
 40
0.9372656763
 40
1.0
 40
1.0
 40
1.0
 40
1.0
 10
4.2095074196
 20
2.5243170524
 30
0.0
 10
4.2095074196
 20
2.5323895418
 30
0.0
 10
4.209934395
 20
2.5485385121
 30
0.0
 10
4.2118537818
 20
2.5726928684
 30
0.0
 10
4.2150471262
 20
2.5967159163
 30
0.0
 10
4.2195054212
 20
2.6205409484
 30
0.0
 10
4.2252166853
 20
2.6441033267
 30
0.0
 10
4.2321652294
 20
2.6673385706
 30
0.0
 10
4.240332121
 20
2.6901832673
 30
0.0
 10
4.2496950269
 20
2.7125750328
 30
0.0
 10
4.2602283656
 20
2.7344527329
 30
0.0
 10
4.2719033659
 20
2.755756636
 30
0.0
 10
4.2846881392
 20
2.7764285734
 30
0.0
 10
4.2985477886
 20
2.796412113
 30
0.0
 10
4.3134444245
 20
2.8156526476
 30
0.0
 10
4.3293375215
 20
2.8340978176
 30
0.0
 10
4.3461830328
 20
2.8516966839
 30
0.0
 10
4.3580156764
 20
2.8628311541
 30
0.0
 10
4.3640737902
 20
2.8682408825
 30
0.0
  0
SPLINE
  5
384
100
AcDbEntity
  8
0
100
AcDbSpline
 62
7
  6
CONTINUOUS
 70
0
 71
3
 72
23
 73
19
 74
0
 42
0.0000001
 43
0.0000001
 44
0.0000000001
 40
0.0
 40
0.0
 40
0.0
 40
0.0
 40
0.0627343232
 40
0.1254307358
 40
0.188089436
 40
0.2507110325
 40
0.3132965384
 40
0.3758473627
 40
0.4383652975
 40
0.5008524997
 40
0.5633114609
 40
0.6257449905
 40
0.6881561759
 40
0.7505482897
 40
0.8129251525
 40
0.8752895643
 40
0.9376476329
 40
1.0
 40
1.0
 40
1.0
 40
1.0
 10
4.9926879207
 20
2.8682404521
 30
0.0
 10
4.9987460169
 20
2.8628307243
 30
0.0
 10
5.0105786257
 20
2.8516962569
 30
0.0
 10
5.0274240868
 20
2.8340973988
 30
0.0
 10
5.0433171356
 20
2.815652241
 30
0.0
 10
5.0582137257
 20
2.7964117225
 30
0.0
 10
5.072073332
 20
2.7764282023
 30
0.0
 10
5.084858065
 20
2.7557562877
 30
0.0
 10
5.0965330283
 20
2.7344524104
 30
0.0
 10
5.1070663332
 20
2.7125747389
 30
0.0
 10
5.1164292088
 20
2.6901830045
 30
0.0
 10
5.1245960739
 20
2.6673383412
 30
0.0
 10
5.1315445952
 20
2.6441031326
 30
0.0
 10
5.1372558406
 20
2.6205407911
 30
0.0
 10
5.1417141209
 20
2.5967157972
 30
0.0
 10
5.1449074548
 20
2.5726927885
 30
0.0
 10
5.1468268352
 20
2.5485384719
 30
0.0
 10
5.1472538092
 20
2.5323895284
 30
0.0
 10
5.1472538092
 20
2.5243170524
 30
0.0
  0
SPLINE
  5
385
100
AcDbEntity
  8
0
100
AcDbSpline
 62
7
  6
CONTINUOUS
 70
0
 71
3
 72
28
 73
24
 74
0
 42
0.0000001
 43
0.0000001
 44
0.0000000001
 40
0.0
 40
0.0
 40
0.0
 40
0.0
 40
0.0537651467
 40
0.0991647532
 40
0.119075661
 40
0.1374169403
 40
0.1545329927
 40
0.1708657277
 40
0.1869313736
 40
0.2032763649
 40
0.2204159463
 40
0.2387903998
 40
0.2587401872
 40
0.2805154194
 40
0.3042859687
 40
0.3301554844
 40
0.3883587381
 40
0.4551888413
 40
0.5302625374
 40
0.6129214109
 40
0.7023044257
 40
0.7973820015
 40
1.0
 40
1.0
 40
1.0
 40
1.0
 10
4.6898331473
 20
2.2043252952
 30
0.0
 10
4.6900614102
 20
2.2044518203
 30
0.0
 10
4.6904705918
 20
2.2047079773
 30
0.0
 10
4.6909090061
 20
2.2050909948
 30
0.0
 10
4.6911632446
 20
2.2054089606
 30
0.0
 10
4.6913011851
 20
2.2056407914
 30
0.0
 10
4.6913938547
 20
2.205875815
 30
0.0
 10
4.6914403372
 20
2.2061131065
 30
0.0
 10
4.6914397699
 20
2.2063512502
 30
0.0
 10
4.6913922442
 20
2.2065885045
 30
0.0
 10
4.6912985175
 20
2.206823469
 30
0.0
 10
4.6911595115
 20
2.2070551892
 30
0.0
 10
4.6909762833
 20
2.2072831766
 30
0.0
 10
4.6907495809
 20
2.2075069012
 30
0.0
 10
4.6904802433
 20
2.2077258578
 30
0.0
 10
4.6900482762
 20
2.2080223839
 30
0.0
 10
4.6894022754
 20
2.208371845
 30
0.0
 10
4.6885051737
 20
2.2087471102
 30
0.0
 10
4.6874689416
 20
2.2090884037
 30
0.0
 10
4.6863075217
 20
2.2093909519
 30
0.0
 10
4.6850365503
 20
2.2096504742
 30
0.0
 10
4.6831796203
 20
2.2099402603
 30
0.0
 10
4.6817386073
 20
2.2100721936
 30
0.0
 10
4.6807566186
 20
2.2101273613
 30
0.0
  0
SPLINE
  5
386
100
AcDbEntity
  8
0
100
AcDbSpline
 62
7
  6
CONTINUOUS
 70
0
 71
3
 72
30
 73
26
 74
0
 42
0.0000001
 43
0.0000001
 44
0.0000000001
 40
0.0
 40
0.0
 40
0.0
 40
0.0
 40
0.0621644655
 40
0.124315909
 40
0.155396806
 40
0.1864788884
 40
0.2020235166
 40
0.2175710626
 40
0.2486760924
 40
0.2798018058
 40
0.3109506534
 40
0.3732983092
 40
0.4357222953
 40
0.4981976863
 40
0.529458214
 40
0.5607274308
 40
0.5920076999
 40
0.6233040669
 40
0.654622022
 40
0.6859641317
 40
0.7486999167
 40
0.8115072003
 40
0.8743471368
 40
0.9371833581
 40
1.0
 40
1.0
 40
1.0
 40
1.0
 10
4.9632531461
 20
2.7459361914
 30
0.0
 10
4.9632531461
 20
2.7367177343
 30
0.0
 10
4.9623538064
 20
2.718270958
 30
0.0
 10
4.9589784887
 20
2.6954359181
 30
0.0
 10
4.9549297067
 20
2.6774446847
 30
0.0
 10
4.9518361706
 20
2.6663385468
 30
0.0
 10
4.9490242891
 20
2.6575569953
 30
0.0
 10
4.9459873613
 20
2.6488470654
 30
0.0
 10
4.9417762353
 20
2.6381038138
 30
0.0
 10
4.9360811388
 20
2.6254753475
 30
0.0
 10
4.9276569678
 20
2.6090197383
 30
0.0
 10
4.9156161121
 20
2.5892336423
 30
0.0
 10
4.8989301903
 20
2.5669878586
 30
0.0
 10
4.8832832837
 20
2.5498622395
 30
0.0
 10
4.8698070959
 20
2.537124663
 30
0.0
 10
4.8592342632
 20
2.5280746609
 30
0.0
 10
4.8482200572
 20
2.519558858
 30
0.0
 10
4.8367837212
 20
2.5116062146
 30
0.0
 10
4.8249562321
 20
2.5042303454
 30
0.0
 10
4.8087070499
 20
2.4951765298
 30
0.0
 10
4.7875756369
 20
2.4853502568
 30
0.0
 10
4.7611944719
 20
2.4760370396
 30
0.0
 10
4.734029256
 20
2.4692759259
 30
0.0
 10
4.706341688
 20
2.4651511705
 30
0.0
 10
4.6876957837
 20
2.4642154337
 30
0.0
 10
4.6783806144
 20
2.4642154337
 30
0.0
  0
SPLINE
  5
387
100
AcDbEntity
  8
0
100
AcDbSpline
 62
7
  6
CONTINUOUS
 70
0
 71
3
 72
71
 73
67
 74
0
 42
0.0000001
 43
0.0000001
 44
0.0000000001
 40
0.0
 40
0.0
 40
0.0
 40
0.0
 40
0.0155343054
 40
0.0310700779
 40
0.0466070927
 40
0.0621469117
 40
0.0776900992
 40
0.0932374921
 40
0.1087898401
 40
0.1243478365
 40
0.139912134
 40
0.1554833168
 40
0.1710619011
 40
0.1866483314
 40
0.2022429767
 40
0.2178461267
 40
0.2334579882
 40
0.2490786837
 40
0.2647082517
 40
0.280346645
 40
0.2959937308
 40
0.3116492921
 40
0.3273130317
 40
0.342984575
 40
0.3586634727
 40
0.3743492037
 40
0.3900411823
 40
0.4057387642
 40
0.4214412524
 40
0.4371479023
 40
0.4528579291
 40
0.4685705167
 40
0.4842848256
 40
0.5
 40
0.5157151744
 40
0.5314294833
 40
0.5471420709
 40
0.5628520977
 40
0.5785587476
 40
0.5942612358
 40
0.6099588177
 40
0.6256507963
 40
0.6413365273
 40
0.657015425
 40
0.6726869683
 40
0.6883507079
 40
0.7040062692
 40
0.719653355
 40
0.7352917483
 40
0.7509213163
 40
0.7665420118
 40
0.7821538733
 40
0.7977570233
 40
0.8133516686
 40
0.8289380989
 40
0.8445166832
 40
0.860087866
 40
0.8756521635
 40
0.8912101599
 40
0.9067625079
 40
0.9223099008
 40
0.9378530883
 40
0.9533929073
 40
0.9689299221
 40
0.9844656946
 40
1.0
 40
1.0
 40
1.0
 40
1.0
 10
4.1988806144
 20
2.5235827856
 30
0.0
 10
4.1988806144
 20
2.515828115
 30
0.0
 10
4.1992658914
 20
2.5003152843
 30
0.0
 10
4.2009979442
 20
2.4771046281
 30
0.0
 10
4.2038802799
 20
2.4540052289
 30
0.0
 10
4.207905639
 20
2.4310737811
 30
0.0
 10
4.2130645447
 20
2.4083651146
 30
0.0
 10
4.2193444903
 20
2.3859340979
 30
0.0
 10
4.226730322
 20
2.3638347339
 30
0.0
 10
4.2352042402
 20
2.3421202707
 30
0.0
 10
4.2447458248
 20
2.3208430231
 30
0.0
 10
4.2553321143
 20
2.3000542662
 30
0.0
 10
4.2669375738
 20
2.2798040758
 30
0.0
 10
4.2795342188
 20
2.2601412268
 30
0.0
 10
4.2930916947
 20
2.2411130861
 30
0.0
 10
4.3075773495
 20
2.222765504
 30
0.0
 10
4.3229562894
 20
2.2051426898
 30
0.0
 10
4.3391914311
 20
2.1882870717
 30
0.0
 10
4.3562436526
 20
2.172239244
 30
0.0
 10
4.374071873
 20
2.1570378626
 30
0.0
 10
4.3926331587
 20
2.1427195673
 30
0.0
 10
4.4118827793
 20
2.129318834
 30
0.0
 10
4.4317743453
 20
2.1168679173
 30
0.0
 10
4.452259937
 20
2.1053968016
 30
0.0
 10
4.4732902129
 20
2.094933127
 30
0.0
 10
4.4948145198
 20
2.0855021159
 30
0.0
 10
4.5167809917
 20
2.0771264498
 30
0.0
 10
4.5391367121
 20
2.0698262891
 30
0.0
 10
4.5618278328
 20
2.0636192154
 30
0.0
 10
4.5847997031
 20
2.0585202061
 30
0.0
 10
4.6079969851
 20
2.0545415355
 30
0.0
 10
4.6313637976
 20
2.0516927566
 30
0.0
 10
4.6548438588
 20
2.0499807269
 30
0.0
 10
4.6783806144
 20
2.0494095817
 30
0.0
 10
4.70191737
 20
2.0499807269
 30
0.0
 10
4.7253974312
 20
2.0516927566
 30
0.0
 10
4.7487642437
 20
2.0545415355
 30
0.0
 10
4.7719615257
 20
2.0585202061
 30
0.0
 10
4.794933396
 20
2.0636192154
 30
0.0
 10
4.8176245167
 20
2.0698262891
 30
0.0
 10
4.8399802371
 20
2.0771264498
 30
0.0
 10
4.861946709
 20
2.0855021159
 30
0.0
 10
4.8834710159
 20
2.094933127
 30
0.0
 10
4.9045012917
 20
2.1053968016
 30
0.0
 10
4.9249868835
 20
2.1168679173
 30
0.0
 10
4.9448784495
 20
2.129318834
 30
0.0
 10
4.9641280701
 20
2.1427195673
 30
0.0
 10
4.9826893558
 20
2.1570378626
 30
0.0
 10
5.0005175762
 20
2.172239244
 30
0.0
 10
5.0175697977
 20
2.1882870717
 30
0.0
 10
5.0338049394
 20
2.2051426898
 30
0.0
 10
5.0491838793
 20
2.222765504
 30
0.0
 10
5.0636695341
 20
2.2411130861
 30
0.0
 10
5.07722701
 20
2.2601412268
 30
0.0
 10
5.089823655
 20
2.2798040758
 30
0.0
 10
5.1014291145
 20
2.3000542662
 30
0.0
 10
5.112015404
 20
2.3208430231
 30
0.0
 10
5.1215569886
 20
2.3421202707
 30
0.0
 10
5.1300309068
 20
2.3638347339
 30
0.0
 10
5.1374167385
 20
2.3859340978
 30
0.0
 10
5.1436966841
 20
2.4083651146
 30
0.0
 10
5.1488555898
 20
2.4310737811
 30
0.0
 10
5.1528809489
 20
2.4540052289
 30
0.0
 10
5.1557632846
 20
2.4771046281
 30
0.0
 10
5.1574953374
 20
2.5003152843
 30
0.0
 10
5.1578806144
 20
2.515828115
 30
0.0
 10
5.1578806144
 20
2.5235827856
 30
0.0
  0
SPLINE
  5
388
100
AcDbEntity
  8
0
100
AcDbSpline
 62
7
  6
CONTINUOUS
 70
0
 71
3
 72
24
 73
20
 74
0
 42
0.0000001
 43
0.0000001
 44
0.0000000001
 40
0.0
 40
0.0
 40
0.0
 40
0.0
 40
0.0623221299
 40
0.1246498245
 40
0.1869869346
 40
0.2493389336
 40
0.3117100189
 40
0.3741045933
 40
0.4365265816
 40
0.4989795979
 40
0.5614668028
 40
0.6239908823
 40
0.6865540137
 40
0.7491578425
 40
0.8118034596
 40
0.8744913832
 40
0.9058545497
 40
0.9372282209
 40
1.0
 40
1.0
 40
1.0
 40
1.0
 10
5.1578806144
 20
2.5235827856
 30
0.0
 10
5.1578806144
 20
2.5328104391
 30
0.0
 10
5.157335033
 20
2.551271218
 30
0.0
 10
5.1548828281
 20
2.5788637955
 30
0.0
 10
5.1508050329
 20
2.6062688136
 30
0.0
 10
5.1451156861
 20
2.6333914144
 30
0.0
 10
5.1378341196
 20
2.6601394553
 30
0.0
 10
5.1289852427
 20
2.6864215568
 30
0.0
 10
5.1185992341
 20
2.7121480877
 30
0.0
 10
5.1067115524
 20
2.7372312777
 30
0.0
 10
5.093362767
 20
2.7615855618
 30
0.0
 10
5.0785984279
 20
2.78512787
 30
0.0
 10
5.0624689502
 20
2.8077778707
 30
0.0
 10
5.0450292634
 20
2.8294584108
 30
0.0
 10
5.0263392919
 20
2.8500951623
 30
0.0
 10
5.0097766943
 20
2.8663627816
 30
0.0
 10
4.9959691685
 20
2.8787852349
 30
0.0
 10
4.9817963468
 20
2.8908076981
 30
0.0
 10
4.9707739672
 20
2.8993579858
 30
0.0
 10
4.9632676357
 20
2.9048386522
 30
0.0
  0
SPLINE
  5
389
100
AcDbEntity
  8
0
100
AcDbSpline
 62
7
  6
CONTINUOUS
 70
0
 71
3
 72
24
 73
20
 74
0
 42
0.0000001
 43
0.0000001
 44
0.0000000001
 40
0.0
 40
0.0
 40
0.0
 40
0.0
 40
0.062771779
 40
0.0941454503
 40
0.1255086168
 40
0.1881965404
 40
0.2508421575
 40
0.3134459863
 40
0.3760091177
 40
0.4385331972
 40
0.5010204021
 40
0.5634734184
 40
0.6258954067
 40
0.688289981
 40
0.7506610664
 40
0.8130130654
 40
0.8753501755
 40
0.9376778701
 40
1.0
 40
1.0
 40
1.0
 40
1.0
 10
4.3934935931
 20
2.9048386522
 30
0.0
 10
4.3859872616
 20
2.8993579858
 30
0.0
 10
4.374964882
 20
2.8908076981
 30
0.0
 10
4.3607920603
 20
2.8787852349
 30
0.0
 10
4.3469845345
 20
2.8663627815
 30
0.0
 10
4.3304219369
 20
2.8500951623
 30
0.0
 10
4.3117319654
 20
2.8294584108
 30
0.0
 10
4.2942922786
 20
2.8077778706
 30
0.0
 10
4.2781628009
 20
2.78512787
 30
0.0
 10
4.2633984618
 20
2.7615855618
 30
0.0
 10
4.2500496763
 20
2.7372312777
 30
0.0
 10
4.2381619947
 20
2.7121480877
 30
0.0
 10
4.2277759861
 20
2.6864215568
 30
0.0
 10
4.2189271092
 20
2.6601394553
 30
0.0
 10
4.2116455427
 20
2.6333914144
 30
0.0
 10
4.2059561959
 20
2.6062688136
 30
0.0
 10
4.2018784007
 20
2.5788637955
 30
0.0
 10
4.1994261958
 20
2.551271218
 30
0.0
 10
4.1988806144
 20
2.5328104391
 30
0.0
 10
4.1988806144
 20
2.5235827856
 30
0.0
  0
SPLINE
  5
38A
100
AcDbEntity
  8
0
100
AcDbSpline
 62
7
  6
CONTINUOUS
 70
0
 71
3
 72
23
 73
19
 74
0
 42
0.0000001
 43
0.0000001
 44
0.0000000001
 40
0.0
 40
0.0
 40
0.0
 40
0.0
 40
0.0623348657
 40
0.1246752881
 40
0.1870239179
 40
0.2493864081
 40
0.3117663641
 40
0.3741679603
 40
0.4365948359
 40
0.4990504085
 40
0.561537706
 40
0.6240593515
 40
0.686617531
 40
0.7492139747
 40
0.8118499365
 40
0.874526176
 40
0.9372429479
 40
1.0
 40
1.0
 40
1.0
 40
1.0
 10
4.2037008259
 20
2.5235827856
 30
0.0
 10
4.2037008259
 20
2.5323231512
 30
0.0
 10
4.2041952636
 20
2.5498086913
 30
0.0
 10
4.2064177478
 20
2.575951487
 30
0.0
 10
4.2101143068
 20
2.6019316511
 30
0.0
 10
4.2152731981
 20
2.6276667961
 30
0.0
 10
4.2218784399
 20
2.6530769355
 30
0.0
 10
4.2299093121
 20
2.6780825742
 30
0.0
 10
4.239340758
 20
2.702605647
 30
0.0
 10
4.2501432961
 20
2.7265695567
 30
0.0
 10
4.2622831829
 20
2.7498994648
 30
0.0
 10
4.2757224933
 20
2.7725225106
 30
0.0
 10
4.2904192321
 20
2.7943680429
 30
0.0
 10
4.3063274978
 20
2.8153678594
 30
0.0
 10
4.3233975333
 20
2.8354563404
 30
0.0
 10
4.3415762384
 20
2.8545709466
 30
0.0
 10
4.3608059997
 20
2.872651315
 30
0.0
 10
4.3742843003
 20
2.8839758812
 30
0.0
 10
4.3811765813
 20
2.8894466006
 30
0.0
  0
SPLINE
  5
38B
100
AcDbEntity
  8
0
100
AcDbSpline
 62
7
  6
CONTINUOUS
 70
0
 71
3
 72
23
 73
19
 74
0
 42
0.0000001
 43
0.0000001
 44
0.0000000001
 40
0.0
 40
0.0
 40
0.0
 40
0.0
 40
0.0627570494
 40
0.1254738189
 40
0.1881500563
 40
0.2507860164
 40
0.3133824587
 40
0.3759406374
 40
0.4384622824
 40
0.5009495799
 40
0.5634051528
 40
0.6258320292
 40
0.6882336265
 40
0.750613584
 40
0.812976076
 40
0.8753247077
 40
0.9376651322
 40
1.0
 40
1.0
 40
1.0
 40
1.0
 10
4.9755872279
 20
2.8894445524
 30
0.0
 10
4.9824794166
 20
2.8839738281
 30
0.0
 10
4.9959575347
 20
2.8726492603
 30
0.0
 10
5.0151870304
 20
2.8545689128
 30
0.0
 10
5.0333654799
 20
2.8354543501
 30
0.0
 10
5.0504352716
 20
2.8153659339
 30
0.0
 10
5.0663433067
 20
2.7943662024
 30
0.0
 10
5.0810398296
 20
2.7725207741
 30
0.0
 10
5.0944789404
 20
2.7498978498
 30
0.0
 10
5.1066186451
 20
2.7265680793
 30
0.0
 10
5.1174210197
 20
2.7026043217
 30
0.0
 10
5.1268523218
 20
2.6780814138
 30
0.0
 10
5.1348830707
 20
2.6530759512
 30
0.0
 10
5.1414882105
 20
2.6276659973
 30
0.0
 10
5.1466470218
 20
2.6019310453
 30
0.0
 10
5.1503435234
 20
2.5759510799
 30
0.0
 10
5.1525659729
 20
2.5498084868
 30
0.0
 10
5.1530604029
 20
2.532323083
 30
0.0
 10
5.1530604029
 20
2.5235827856
 30
0.0
  0
SPLINE
  5
38C
100
AcDbEntity
  8
0
100
AcDbSpline
 62
7
  6
CONTINUOUS
 70
0
 71
3
 72
71
 73
67
 74
0
 42
0.0000001
 43
0.0000001
 44
0.0000000001
 40
0.0
 40
0.0
 40
0.0
 40
0.0
 40
0.0155343055
 40
0.0310700781
 40
0.0466070929
 40
0.0621469119
 40
0.0776900994
 40
0.0932374922
 40
0.1087898403
 40
0.1243478367
 40
0.1399121342
 40
0.155483317
 40
0.1710619012
 40
0.1866483315
 40
0.2022429768
 40
0.2178461269
 40
0.2334579883
 40
0.2490786838
 40
0.2647082518
 40
0.2803466451
 40
0.2959937309
 40
0.3116492921
 40
0.3273130317
 40
0.3429845751
 40
0.3586634728
 40
0.3743492038
 40
0.3900411823
 40
0.4057387642
 40
0.4214412524
 40
0.4371479024
 40
0.4528579291
 40
0.4685705167
 40
0.4842848256
 40
0.5
 40
0.5157151744
 40
0.5314294833
 40
0.5471420709
 40
0.5628520976
 40
0.5785587476
 40
0.5942612358
 40
0.6099588177
 40
0.6256507962
 40
0.6413365272
 40
0.6570154249
 40
0.6726869683
 40
0.6883507079
 40
0.7040062691
 40
0.7196533549
 40
0.7352917482
 40
0.7509213162
 40
0.7665420117
 40
0.7821538731
 40
0.7977570232
 40
0.8133516685
 40
0.8289380988
 40
0.844516683
 40
0.8600878658
 40
0.8756521633
 40
0.8912101597
 40
0.9067625078
 40
0.9223099006
 40
0.9378530881
 40
0.9533929071
 40
0.9689299219
 40
0.9844656945
 40
1.0
 40
1.0
 40
1.0
 40
1.0
 10
5.1530604029
 20
2.5235827856
 30
0.0
 10
5.1530604029
 20
2.5159060694
 30
0.0
 10
5.1526789989
 20
2.5005491826
 30
0.0
 10
5.1509643577
 20
2.4775718533
 30
0.0
 10
5.1481109968
 20
2.4547046625
 30
0.0
 10
5.144126103
 20
2.4320037349
 30
0.0
 10
5.1390190576
 20
2.409523349
 30
0.0
 10
5.1328022416
 20
2.3873178219
 30
0.0
 10
5.1254906566
 20
2.3654406135
 30
0.0
 10
5.1171019231
 20
2.3439444367
 30
0.0
 10
5.107656256
 20
2.3228810803
 30
0.0
 10
5.0971763861
 20
2.3023013041
 30
0.0
 10
5.0856875913
 20
2.2822546803
 30
0.0
 10
5.073217575
 20
2.2627894936
 30
0.0
 10
5.0597963868
 20
2.2439526349
 30
0.0
 10
5.0454563502
 20
2.2257894932
 30
0.0
 10
5.0302320083
 20
2.2083438338
 30
0.0
 10
5.0141600716
 20
2.1916576582
 30
0.0
 10
4.9972792689
 20
2.1757711526
 30
0.0
 10
4.9796302681
 20
2.1607225843
 30
0.0
 10
4.9612555712
 20
2.1465482248
 30
0.0
 10
4.9421994589
 20
2.1332822033
 30
0.0
 10
4.9225078544
 20
2.1209564505
 30
0.0
 10
4.9022281957
 20
2.1096006491
 30
0.0
 10
4.8814093284
 20
2.0992421614
 30
0.0
 10
4.8601013963
 20
2.0899059563
 30
0.0
 10
4.8383557441
 20
2.0816144873
 30
0.0
 10
4.8162247563
 20
2.074387712
 30
0.0
 10
4.7937617399
 20
2.0682430354
 30
0.0
 10
4.7710207962
 20
2.0631952843
 30
0.0
 10
4.7480567067
 20
2.0592566096
 30
0.0
 10
4.7249247909
 20
2.0564364683
 30
0.0
 10
4.7016807649
 20
2.0547416489
 30
0.0
 10
4.6783806144
 20
2.0541762452
 30
0.0
 10
4.6550804639
 20
2.0547416489
 30
0.0
 10
4.6318364379
 20
2.0564364683
 30
0.0
 10
4.6087045221
 20
2.0592566096
 30
0.0
 10
4.5857404326
 20
2.0631952843
 30
0.0
 10
4.5629994889
 20
2.0682430354
 30
0.0
 10
4.5405364725
 20
2.074387712
 30
0.0
 10
4.5184054847
 20
2.0816144873
 30
0.0
 10
4.4966598325
 20
2.0899059563
 30
0.0
 10
4.4753519004
 20
2.0992421614
 30
0.0
 10
4.4545330331
 20
2.1096006491
 30
0.0
 10
4.4342533744
 20
2.1209564505
 30
0.0
 10
4.4145617699
 20
2.1332822033
 30
0.0
 10
4.3955056576
 20
2.1465482248
 30
0.0
 10
4.3771309607
 20
2.1607225843
 30
0.0
 10
4.3594819599
 20
2.1757711526
 30
0.0
 10
4.3426011572
 20
2.1916576582
 30
0.0
 10
4.3265292205
 20
2.2083438338
 30
0.0
 10
4.3113048786
 20
2.2257894932
 30
0.0
 10
4.296964842
 20
2.2439526349
 30
0.0
 10
4.2835436537
 20
2.2627894936
 30
0.0
 10
4.2710736375
 20
2.2822546803
 30
0.0
 10
4.2595848427
 20
2.3023013041
 30
0.0
 10
4.2491049728
 20
2.3228810803
 30
0.0
 10
4.2396593057
 20
2.3439444367
 30
0.0
 10
4.2312705722
 20
2.3654406135
 30
0.0
 10
4.2239589872
 20
2.3873178219
 30
0.0
 10
4.2177421712
 20
2.409523349
 30
0.0
 10
4.2126351258
 20
2.4320037349
 30
0.0
 10
4.2086502319
 20
2.4547046625
 30
0.0
 10
4.2057968711
 20
2.4775718533
 30
0.0
 10
4.2040822299
 20
2.5005491826
 30
0.0
 10
4.2037008259
 20
2.5159060694
 30
0.0
 10
4.2037008259
 20
2.5235827856
 30
0.0
  0
SPLINE
  5
38D
100
AcDbEntity
  8
0
100
AcDbSpline
 62
7
  6
CONTINUOUS
 70
0
 71
3
 72
21
 73
17
 74
0
 42
0.0000001
 43
0.0000001
 44
0.0000000001
 40
0.0
 40
0.0
 40
0.0
 40
0.0
 40
0.0069208823
 40
0.0125665424
 40
0.019956209
 40
0.0291707073
 40
0.0402506766
 40
0.053218954
 40
0.0680894379
 40
0.103568514
 40
0.1467295587
 40
0.2561288329
 40
0.3962810004
 40
0.5670915726
 40
0.7683945091
 40
1.0
 40
1.0
 40
1.0
 40
1.0
 10
5.9834479356
 20
6.0639341929
 30
0.0
 10
5.9834334938
 20
6.0639341804
 30
0.0
 10
5.9834112763
 20
6.0639562296
 30
0.0
 10
5.9833921427
 20
6.0639916854
 30
0.0
 10
5.9833742361
 20
6.064035127
 30
0.0
 10
5.983356785
 20
6.0640900503
 30
0.0
 10
5.9833390596
 20
6.0641572424
 30
0.0
 10
5.9833213538
 20
6.0642364944
 30
0.0
 10
5.983296172
 20
6.0643662191
 30
0.0
 10
5.9832654903
 20
6.0645589634
 30
0.0
 10
5.9832144716
 20
6.0649480422
 30
0.0
 10
5.9831534959
 20
6.0655559047
 30
0.0
 10
5.9830841016
 20
6.0664303431
 30
0.0
 10
5.9830147132
 20
6.0674970626
 30
0.0
 10
5.9829454055
 20
6.0687549437
 30
0.0
 10
5.9829024292
 20
6.0696572767
 30
0.0
 10
5.9828807361
 20
6.0701400796
 30
0.0
  0
SPLINE
  5
38E
100
AcDbEntity
  8
0
100
AcDbSpline
 62
7
  6
CONTINUOUS
 70
0
 71
3
 72
19
 73
15
 74
0
 42
0.0000001
 43
0.0000001
 44
0.0000000001
 40
0.0
 40
0.0
 40
0.0
 40
0.0
 40
0.0118060823
 40
0.0252636872
 40
0.0570414577
 40
0.0951226689
 40
0.1392536231
 40
0.1891394254
 40
0.2444478135
 40
0.3698181947
 40
0.5120187214
 40
0.6672526507
 40
0.8313743542
 40
1.0
 40
1.0
 40
1.0
 40
1.0
 10
5.9828807361
 20
6.0701400796
 30
0.0
 10
5.9828496804
 20
6.0708312583
 30
0.0
 10
5.9827888996
 20
6.0723105592
 30
0.0
 10
5.9826698
 20
6.0756512687
 30
0.0
 10
5.9825279592
 20
6.0805318871
 30
0.0
 10
5.9823705142
 20
6.0872102432
 30
0.0
 10
5.9822195497
 20
6.0949501736
 30
0.0
 10
5.9820760819
 20
6.1036999634
 30
0.0
 10
5.9818887292
 20
6.1172105346
 30
0.0
 10
5.9816867437
 20
6.1361313144
 30
0.0
 10
5.9814972493
 20
6.1609084008
 30
0.0
 10
5.9813578044
 20
6.1879568087
 30
0.0
 10
5.9812724315
 20
6.2165540432
 30
0.0
 10
5.9812533613
 20
6.2360541619
 30
0.0
 10
5.9812533586
 20
6.2459361914
 30
0.0
  0
SPLINE
  5
38F
100
AcDbEntity
  8
0
100
AcDbSpline
 62
7
  6
CONTINUOUS
 70
0
 71
3
 72
23
 73
19
 74
0
 42
0.0000001
 43
0.0000001
 44
0.0000000001
 40
0.0
 40
0.0
 40
0.0
 40
0.0
 40
0.0719583637
 40
0.1363143724
 40
0.1934789855
 40
0.2442481959
 40
0.2899611641
 40
0.3325775164
 40
0.3745823721
 40
0.4185788564
 40
0.4668012424
 40
0.5208729559
 40
0.581827178
 40
0.6502315763
 40
0.726324085
 40
0.8101232796
 40
0.9014792787
 40
1.0
 40
1.0
 40
1.0
 40
1.0
 10
4.6550345758
 20
2.1788206226
 30
0.0
 10
4.6551940768
 20
2.1789090418
 30
0.0
 10
4.6554901366
 20
2.1790880989
 30
0.0
 10
4.6558833512
 20
2.1793826586
 30
0.0
 10
4.6561986689
 20
2.1796867668
 30
0.0
 10
4.6564338424
 20
2.1799997049
 30
0.0
 10
4.6565862739
 20
2.1803208278
 30
0.0
 10
4.6566518739
 20
2.1806484078
 30
0.0
 10
4.6566277263
 20
2.1809774553
 30
0.0
 10
4.6565149868
 20
2.1813019664
 30
0.0
 10
4.6563177542
 20
2.1816187845
 30
0.0
 10
4.6560392995
 20
2.1819270634
 30
0.0
 10
4.6556819031
 20
2.1822261714
 30
0.0
 10
4.6552477265
 20
2.1825150767
 30
0.0
 10
4.6547392145
 20
2.1827923365
 30
0.0
 10
4.6541593008
 20
2.1830564139
 30
0.0
 10
4.6535116308
 20
2.1833055526
 30
0.0
 10
4.6530540749
 20
2.1834552725
 30
0.0
 10
4.6528151542
 20
2.1835278056
 30
0.0
  0
SPLINE
  5
390
100
AcDbEntity
  8
0
100
AcDbSpline
 62
7
  6
CONTINUOUS
 70
0
 71
3
 72
11
 73
7
 74
0
 42
0.0000001
 43
0.0000001
 44
0.0000000001
 40
0.0
 40
0.0
 40
0.0
 40
0.0
 40
0.2896982904
 40
0.5497682628
 40
0.7844608852
 40
1.0
 40
1.0
 40
1.0
 40
1.0
 10
4.8160886958
 20
2.1747700408
 30
0.0
 10
4.8166300927
 20
2.1752977348
 30
0.0
 10
4.8176121211
 20
2.1763481848
 30
0.0
 10
4.8188201355
 20
2.1780089348
 30
0.0
 10
4.8196710245
 20
2.1796652996
 30
0.0
 10
4.8200033451
 20
2.1808025783
 30
0.0
 10
4.8200992733
 20
2.1813568289
 30
0.0
  0
SPLINE
  5
391
100
AcDbEntity
  8
0
100
AcDbSpline
 62
7
  6
CONTINUOUS
 70
0
 71
3
 72
11
 73
7
 74
0
 42
0.0000001
 43
0.0000001
 44
0.0000000001
 40
0.0
 40
0.0
 40
0.0
 40
0.0
 40
0.2647881055
 40
0.5188579803
 40
0.7633891376
 40
1.0
 40
1.0
 40
1.0
 40
1.0
 10
4.824834721
 20
2.2395844717
 30
0.0
 10
4.8250454649
 20
2.2402911898
 30
0.0
 10
4.825418839
 20
2.2416884087
 30
0.0
 10
4.825821551
 20
2.2437781358
 30
0.0
 10
4.8260452678
 20
2.2458159164
 30
0.0
 10
4.8260749028
 20
2.2471576645
 30
0.0
 10
4.8260603222
 20
2.2478164967
 30
0.0
  0
SPLINE
  5
392
100
AcDbEntity
  8
0
100
AcDbSpline
 62
7
  6
CONTINUOUS
 70
0
 71
3
 72
15
 73
11
 74
0
 42
0.0000001
 43
0.0000001
 44
0.0000000001
 40
0.0
 40
0.0
 40
0.0
 40
0.0
 40
0.1479179369
 40
0.2893038825
 40
0.4241530703
 40
0.5524576539
 40
0.6742022791
 40
0.7893732706
 40
0.8979691934
 40
1.0
 40
1.0
 40
1.0
 40
1.0
 10
4.8093064814
 20
2.1772301221
 30
0.0
 10
4.8099945404
 20
2.1803234798
 30
0.0
 10
4.8113497862
 20
2.1863714877
 30
0.0
 10
4.8133770698
 20
2.1952294515
 30
0.0
 10
4.8153628897
 20
2.2036657088
 30
0.0
 10
4.8173137745
 20
2.2116776695
 30
0.0
 10
4.8192292079
 20
2.2192640857
 30
0.0
 10
4.8211090548
 20
2.2264236942
 30
0.0
 10
4.8229568432
 20
2.2331546378
 30
0.0
 10
4.8242100679
 20
2.2374897425
 30
0.0
 10
4.824834721
 20
2.2395844717
 30
0.0
  0
SPLINE
  5
393
100
AcDbEntity
  8
0
100
AcDbSpline
 62
7
  6
CONTINUOUS
 70
0
 71
3
 72
20
 73
16
 74
0
 42
0.0000001
 43
0.0000001
 44
0.0000000001
 40
0.0
 40
0.0
 40
0.0
 40
0.0
 40
0.1714461279
 40
0.3294454764
 40
0.473547786
 40
0.5403855997
 40
0.6037834438
 40
0.6637921205
 40
0.7204848743
 40
0.7739477795
 40
0.8243071194
 40
0.8717633222
 40
0.9166015649
 40
0.9591937353
 40
1.0
 40
1.0
 40
1.0
 40
1.0
 10
4.7897531568
 20
2.1624069473
 30
0.0
 10
4.7911137514
 20
2.1629079715
 30
0.0
 10
4.7937045661
 20
2.163937441
 30
0.0
 10
4.7973327452
 20
2.1656389234
 30
0.0
 10
4.8000592868
 20
2.1671633007
 30
0.0
 10
4.8020064592
 20
2.1684260349
 30
0.0
 10
4.8033143466
 20
2.169364162
 30
0.0
 10
4.8045047097
 20
2.1703155581
 30
0.0
 10
4.8055755047
 20
2.1712783347
 30
0.0
 10
4.8065239529
 20
2.1722510505
 30
0.0
 10
4.8073467746
 20
2.173232487
 30
0.0
 10
4.8080409643
 20
2.1742211895
 30
0.0
 10
4.8086038737
 20
2.1752157284
 30
0.0
 10
4.8090327704
 20
2.1762142495
 30
0.0
 10
4.8092316587
 20
2.1768932346
 30
0.0
 10
4.8093064814
 20
2.1772301221
 30
0.0
  0
SPLINE
  5
394
100
AcDbEntity
  8
0
100
AcDbSpline
 62
7
  6
CONTINUOUS
 70
0
 71
3
 72
20
 73
16
 74
0
 42
0.0000001
 43
0.0000001
 44
0.0000000001
 40
0.0
 40
0.0
 40
0.0
 40
0.0
 40
0.0408278856
 40
0.0834395819
 40
0.1282921531
 40
0.175757154
 40
0.2261224725
 40
0.2795891704
 40
0.3362810589
 40
0.3962827629
 40
0.4596687605
 40
0.5264919092
 40
0.670572369
 40
0.8285708943
 40
1.0
 40
1.0
 40
1.0
 40
1.0
 10
4.5474547475
 20
2.1772301213
 30
0.0
 10
4.5475295523
 20
2.176893666
 30
0.0
 10
4.5477282964
 20
2.1762155805
 30
0.0
 10
4.5481565632
 20
2.1752183754
 30
0.0
 10
4.5487182892
 20
2.1742250791
 30
0.0
 10
4.5494108662
 20
2.1732375479
 30
0.0
 10
4.550231832
 20
2.1722572944
 30
0.0
 10
4.5511781757
 20
2.1712857672
 30
0.0
 10
4.5522465231
 20
2.170324119
 30
0.0
 10
4.5534340698
 20
2.1693737696
 30
0.0
 10
4.5547388235
 20
2.1684366271
 30
0.0
 10
4.5566814144
 20
2.1671750959
 30
0.0
 10
4.5594020761
 20
2.1656520987
 30
0.0
 10
4.5630229894
 20
2.1639525142
 30
0.0
 10
4.5656087213
 20
2.1629240168
 30
0.0
 10
4.5669664719
 20
2.1624230815
 30
0.0
  0
SPLINE
  5
395
100
AcDbEntity
  8
0
100
AcDbSpline
 62
7
  6
CONTINUOUS
 70
0
 71
3
 72
15
 73
11
 74
0
 42
0.0000001
 43
0.0000001
 44
0.0000000001
 40
0.0
 40
0.0
 40
0.0
 40
0.0
 40
0.1020308347
 40
0.2106267885
 40
0.3257977952
 40
0.447542415
 40
0.5758469825
 40
0.7106961527
 40
0.8520820812
 40
1.0
 40
1.0
 40
1.0
 40
1.0
 10
4.5319265078
 20
2.2395844717
 30
0.0
 10
4.5325511628
 20
2.2374897424
 30
0.0
 10
4.5338043929
 20
2.2331546378
 30
0.0
 10
4.53565219
 20
2.2264236948
 30
0.0
 10
4.5375320413
 20
2.2192640863
 30
0.0
 10
4.5394474732
 20
2.2116776697
 30
0.0
 10
4.5413983538
 20
2.2036657086
 30
0.0
 10
4.5433841691
 20
2.1952294512
 30
0.0
 10
4.5454114481
 20
2.1863714872
 30
0.0
 10
4.5467666904
 20
2.1803234792
 30
0.0
 10
4.5474547475
 20
2.1772301213
 30
0.0
  0
SPLINE
  5
396
100
AcDbEntity
  8
0
100
AcDbSpline
 62
7
  6
CONTINUOUS
 70
0
 71
3
 72
11
 73
7
 74
0
 42
0.0000001
 43
0.0000001
 44
0.0000000001
 40
0.0
 40
0.0
 40
0.0
 40
0.0
 40
0.2366113261
 40
0.4811439957
 40
0.7352126896
 40
1.0
 40
1.0
 40
1.0
 40
1.0
 10
4.5307006163
 20
2.2478161997
 30
0.0
 10
4.5306860357
 20
2.2471573887
 30
0.0
 10
4.5307159416
 20
2.245815682
 30
0.0
 10
4.5309397672
 20
2.2437779942
 30
0.0
 10
4.5313423918
 20
2.241688325
 30
0.0
 10
4.5317157719
 20
2.2402911636
 30
0.0
 10
4.5319265078
 20
2.2395844717
 30
0.0
  0
LINE
  5
397
100
AcDbEntity
  8
0
100
AcDbLine
 62
7
  6
CONTINUOUS
 10
4.5354334128
 20
2.2540649031
 11
4.5307006163
 21
2.2478161997
  0
SPLINE
  5
398
100
AcDbEntity
  8
0
100
AcDbSpline
 62
7
  6
CONTINUOUS
 70
0
 71
3
 72
14
 73
10
 74
0
 42
0.0000001
 43
0.0000001
 44
0.0000000001
 40
0.0
 40
0.0
 40
0.0
 40
0.0
 40
0.225000348
 40
0.3431411927
 40
0.4655548265
 40
0.5924342585
 40
0.7239243797
 40
0.8598959993
 40
1.0
 40
1.0
 40
1.0
 40
1.0
 10
4.5394822186
 20
2.2606899381
 30
0.0
 10
4.539241703
 20
2.2601581203
 30
0.0
 10
4.5388552788
 20
2.2593555465
 30
0.0
 10
4.5382798396
 20
2.2582935248
 30
0.0
 10
4.5377970063
 20
2.2574714833
 30
0.0
 10
4.5372694455
 20
2.256636173
 30
0.0
 10
4.5366962861
 20
2.2557886761
 30
0.0
 10
4.536081142
 20
2.2549286696
 30
0.0
 10
4.5356528833
 20
2.2543546018
 30
0.0
 10
4.5354334128
 20
2.2540649031
 30
0.0
  0
SPLINE
  5
399
100
AcDbEntity
  8
0
100
AcDbSpline
 62
7
  6
CONTINUOUS
 70
0
 71
3
 72
15
 73
11
 74
0
 42
0.0000001
 43
0.0000001
 44
0.0000000001
 40
0.0
 40
0.0
 40
0.0
 40
0.0
 40
0.0946076116
 40
0.1965859053
 40
0.3067680489
 40
0.4258093599
 40
0.554221883
 40
0.6924261161
 40
0.8408762702
 40
1.0
 40
1.0
 40
1.0
 40
1.0
 10
4.5531347001
 20
2.2795478468
 30
0.0
 10
4.5525125213
 20
2.2791413229
 30
0.0
 10
4.5512708559
 20
2.2782166529
 30
0.0
 10
4.5494942353
 20
2.2765833689
 30
0.0
 10
4.5477413374
 20
2.2746564883
 30
0.0
 10
4.5460155844
 20
2.2724364548
 30
0.0
 10
4.5443202502
 20
2.2699231325
 30
0.0
 10
4.5426595144
 20
2.2671151728
 30
0.0
 10
4.5410304323
 20
2.2640138951
 30
0.0
 10
4.5399972874
 20
2.2618289285
 30
0.0
 10
4.5394822186
 20
2.2606899381
 30
0.0
  0
LINE
  5
39A
100
AcDbEntity
  8
0
100
AcDbLine
 62
7
  6
CONTINUOUS
 10
4.6143150636
 20
2.2815108087
 11
4.613402004
 21
2.2815104905
  0
LINE
  5
39B
100
AcDbEntity
  8
0
100
AcDbLine
 62
7
  6
CONTINUOUS
 10
4.613402004
 20
2.2815104905
 11
4.6122922547
 21
2.2815097544
  0
SPLINE
  5
39C
100
AcDbEntity
  8
0
100
AcDbSpline
 62
7
  6
CONTINUOUS
 70
0
 71
3
 72
27
 73
23
 74
0
 42
0.0000001
 43
0.0000001
 44
0.0000000001
 40
0.0
 40
0.0
 40
0.0
 40
0.0
 40
0.1885760976
 40
0.3691625137
 40
0.4547166849
 40
0.5361243761
 40
0.6126641744
 40
0.6837877813
 40
0.7489534515
 40
0.8074909673
 40
0.858860662
 40
0.9028303149
 40
0.9219805666
 40
0.9391757241
 40
0.9543789052
 40
0.9675670449
 40
0.9787194371
 40
0.9878204826
 40
0.9916042121
 40
0.9948856481
 40
0.997677497
 40
1.0
 40
1.0
 40
1.0
 40
1.0
 10
4.6122922547
 20
2.2815097544
 30
0.0
 10
4.6085660739
 20
2.2815066306
 30
0.0
 10
4.601271589
 20
2.2814873802
 30
0.0
 10
4.5922867537
 20
2.281426248
 30
0.0
 10
4.5854197548
 20
2.2813507751
 30
0.0
 10
4.5806087579
 20
2.2812812266
 30
0.0
 10
4.5760831936
 20
2.281196202
 30
0.0
 10
4.5718789829
 20
2.2810947108
 30
0.0
 10
4.5680310885
 20
2.2809758878
 30
0.0
 10
4.5645743935
 20
2.28083833
 30
0.0
 10
4.5615378629
 20
2.2806806619
 30
0.0
 10
4.5592806647
 20
2.2805267709
 30
0.0
 10
4.5576995469
 20
2.280389856
 30
0.0
 10
4.5566861417
 20
2.2802868463
 30
0.0
 10
4.5557918089
 20
2.2801788435
 30
0.0
 10
4.5550184936
 20
2.2800661198
 30
0.0
 10
4.5543680683
 20
2.2799488622
 30
0.0
 10
4.5539048054
 20
2.2798424117
 30
0.0
 10
4.5535983255
 20
2.2797520081
 30
0.0
 10
4.5534144664
 20
2.2796873587
 30
0.0
 10
4.5532619619
 20
2.2796217201
 30
0.0
 10
4.5531731023
 20
2.2795729728
 30
0.0
 10
4.5531347001
 20
2.2795478468
 30
0.0
  0
LINE
  5
39D
100
AcDbEntity
  8
0
100
AcDbLine
 62
7
  6
CONTINUOUS
 10
4.7424461675
 20
2.2815108087
 11
4.6143150636
 21
2.2815108087
  0
SPLINE
  5
39E
100
AcDbEntity
  8
0
100
AcDbSpline
 62
7
  6
CONTINUOUS
 70
0
 71
3
 72
27
 73
23
 74
0
 42
0.0000001
 43
0.0000001
 44
0.0000000001
 40
0.0
 40
0.0
 40
0.0
 40
0.0
 40
0.0023208905
 40
0.0051119081
 40
0.0083932008
 40
0.0121773312
 40
0.021280208
 40
0.0324349212
 40
0.0456248593
 40
0.0608293637
 40
0.0780261856
 40
0.0971785296
 40
0.1411502504
 40
0.1925229981
 40
0.2510630911
 40
0.3162316724
 40
0.3873612235
 40
0.4639011505
 40
0.5453098686
 40
0.6308630284
 40
0.8114419442
 40
1.0
 40
1.0
 40
1.0
 40
1.0
 10
4.803626449
 20
2.2795478935
 30
0.0
 10
4.8035880721
 20
2.2795730319
 30
0.0
 10
4.8034992313
 20
2.2796217968
 30
0.0
 10
4.8033467177
 20
2.2796874456
 30
0.0
 10
4.8031627953
 20
2.2797521061
 30
0.0
 10
4.8028561508
 20
2.2798425289
 30
0.0
 10
4.802392613
 20
2.2799489953
 30
0.0
 10
4.8017418153
 20
2.2800662699
 30
0.0
 10
4.8009680931
 20
2.2801790152
 30
0.0
 10
4.8000733211
 20
2.2802870388
 30
0.0
 10
4.7990594257
 20
2.2803900629
 30
0.0
 10
4.7974775852
 20
2.2805269866
 30
0.0
 10
4.7952193805
 20
2.2806809046
 30
0.0
 10
4.7921815354
 20
2.2808385731
 30
0.0
 10
4.7887233503
 20
2.2809761349
 30
0.0
 10
4.7848737596
 20
2.2810949537
 30
0.0
 10
4.7806677649
 20
2.2811964117
 30
0.0
 10
4.7761403324
 20
2.281281433
 30
0.0
 10
4.7713274956
 20
2.2813509515
 30
0.0
 10
4.764458023
 20
2.2814263915
 30
0.0
 10
4.7554702829
 20
2.2814874735
 30
0.0
 10
4.7481735186
 20
2.2815066756
 30
0.0
 10
4.7444462723
 20
2.2815097732
 30
0.0
  0
LINE
  5
39F
100
AcDbEntity
  8
0
100
AcDbLine
 62
7
  6
CONTINUOUS
 10
4.7444462723
 20
2.2815097732
 11
4.7433592047
 21
2.2815104904
  0
LINE
  5
3A0
100
AcDbEntity
  8
0
100
AcDbLine
 62
7
  6
CONTINUOUS
 10
4.7433592047
 20
2.2815104904
 11
4.7424461675
 21
2.2815108087
  0
SPLINE
  5
3A1
100
AcDbEntity
  8
0
100
AcDbSpline
 62
7
  6
CONTINUOUS
 70
0
 71
3
 72
15
 73
11
 74
0
 42
0.0000001
 43
0.0000001
 44
0.0000000001
 40
0.0
 40
0.0
 40
0.0
 40
0.0
 40
0.159123718
 40
0.3075737816
 40
0.4457783396
 40
0.5741915013
 40
0.6932323498
 40
0.8034113747
 40
0.9053870068
 40
1.0
 40
1.0
 40
1.0
 40
1.0
 10
4.8172790081
 20
2.2606899429
 30
0.0
 10
4.816763936
 20
2.2618289374
 30
0.0
 10
4.8157307906
 20
2.2640139139
 30
0.0
 10
4.8141017076
 20
2.2671152098
 30
0.0
 10
4.8124409463
 20
2.2699231788
 30
0.0
 10
4.8107455714
 20
2.2724364939
 30
0.0
 10
4.8090198209
 20
2.2746565123
 30
0.0
 10
4.8072670148
 20
2.2765834221
 30
0.0
 10
4.8054904374
 20
2.2782167668
 30
0.0
 10
4.8042487051
 20
2.2791414047
 30
0.0
 10
4.803626449
 20
2.2795478935
 30
0.0
  0
SPLINE
  5
3A2
100
AcDbEntity
  8
0
100
AcDbSpline
 62
7
  6
CONTINUOUS
 70
0
 71
3
 72
14
 73
10
 74
0
 42
0.0000001
 43
0.0000001
 44
0.0000000001
 40
0.0
 40
0.0
 40
0.0
 40
0.0
 40
0.140101244
 40
0.2760741558
 40
0.4075678992
 40
0.5344462032
 40
0.6568577927
 40
0.7749997561
 40
1.0
 40
1.0
 40
1.0
 40
1.0
 10
4.8213278157
 20
2.2540649034
 30
0.0
 10
4.8211083657
 20
2.254354609
 30
0.0
 10
4.8206801253
 20
2.2549286861
 30
0.0
 10
4.8200649686
 20
2.2557886903
 30
0.0
 10
4.8194917441
 20
2.2566361562
 30
0.0
 10
4.8189642052
 20
2.2574714835
 30
0.0
 10
4.8184814129
 20
2.2582935429
 30
0.0
 10
4.8179059344
 20
2.2593555398
 30
0.0
 10
4.8175194808
 20
2.2601581056
 30
0.0
 10
4.8172790081
 20
2.2606899429
 30
0.0
  0
LINE
  5
3A3
100
AcDbEntity
  8
0
100
AcDbLine
 62
7
  6
CONTINUOUS
 10
4.8260603222
 20
2.2478164967
 11
4.8213278157
 21
2.2540649034
  0
SPLINE
  5
3A4
100
AcDbEntity
  8
0
100
AcDbSpline
 62
7
  6
CONTINUOUS
 70
0
 71
3
 72
9
 73
5
 74
0
 42
0.0000001
 43
0.0000001
 44
0.0000000001
 40
0.0
 40
0.0
 40
0.0
 40
0.0
 40
0.5179820775
 40
1.0
 40
1.0
 40
1.0
 40
1.0
 10
4.5583331966
 20
2.2398986013
 30
0.0
 10
4.5579416418
 20
2.2411474934
 30
0.0
 10
4.5573341126
 20
2.2436093898
 30
0.0
 10
4.5571081545
 20
2.246139193
 30
0.0
 10
4.5571081545
 20
2.247357153
 30
0.0
  0
SPLINE
  5
3A5
100
AcDbEntity
  8
0
100
AcDbSpline
 62
7
  6
CONTINUOUS
 70
0
 71
3
 72
16
 73
12
 74
0
 42
0.0000001
 43
0.0000001
 44
0.0000000001
 40
0.0
 40
0.0
 40
0.0
 40
0.0
 40
0.1186259056
 40
0.2394262588
 40
0.3623216034
 40
0.4871607083
 40
0.613709001
 40
0.6775362988
 40
0.7416616708
 40
0.8705762203
 40
1.0
 40
1.0
 40
1.0
 40
1.0
 10
5.1484585977
 20
6.4563359194
 30
0.0
 10
5.1526613436
 20
6.4487304376
 30
0.0
 10
5.1607058707
 20
6.433133152
 30
0.0
 10
5.1714738593
 20
6.4088589926
 30
0.0
 10
5.1809172319
 20
6.3835507748
 30
0.0
 10
5.1888942294
 20
6.3573019095
 30
0.0
 10
5.1941879521
 20
6.3348092882
 30
0.0
 10
5.1975746919
 20
6.3164742396
 30
0.0
 10
5.2003847324
 20
6.2978663885
 30
0.0
 10
5.20274133
 20
6.274345483
 30
0.0
 10
5.2033793407
 20
6.2554165877
 30
0.0
 10
5.2033806144
 20
6.2459361914
 30
0.0
  0
SPLINE
  5
3A6
100
AcDbEntity
  8
0
100
AcDbSpline
 62
7
  6
CONTINUOUS
 70
0
 71
3
 72
9
 73
5
 74
0
 42
0.0000001
 43
0.0000001
 44
0.0000000001
 40
0.0
 40
0.0
 40
0.0
 40
0.0
 40
0.5060295076
 40
1.0
 40
1.0
 40
1.0
 40
1.0
 10
4.4237534139
 20
2.4396701886
 30
0.0
 10
4.423949314
 20
2.4393478451
 30
0.0
 10
4.4244129559
 20
2.4387534891
 30
0.0
 10
4.4250121395
 20
2.4382943271
 30
0.0
 10
4.4253312104
 20
2.4381105463
 30
0.0
  0
SPLINE
  5
3A7
100
AcDbEntity
  8
0
100
AcDbSpline
 62
7
  6
CONTINUOUS
 70
0
 71
3
 72
16
 73
12
 74
0
 42
0.0000001
 43
0.0000001
 44
0.0000000001
 40
0.0
 40
0.0
 40
0.0
 40
0.0
 40
0.1242657594
 40
0.1866176368
 40
0.2490815087
 40
0.3742387816
 40
0.4995848493
 40
0.6249609699
 40
0.7502283895
 40
0.8752708039
 40
1.0
 40
1.0
 40
1.0
 40
1.0
 10
4.3509055954
 20
2.695234685
 30
0.0
 10
4.3509056567
 20
2.6840915514
 30
0.0
 10
4.3515076102
 20
2.6673493767
 30
0.0
 10
4.3534938542
 20
2.6450990244
 30
0.0
 10
4.3562716125
 20
2.6228520478
 30
0.0
 10
4.3612094683
 20
2.5952006226
 30
0.0
 10
4.3694151129
 20
2.5624823038
 30
0.0
 10
4.3798310568
 20
2.5303887527
 30
0.0
 10
4.3923701512
 20
2.4990934934
 30
0.0
 10
4.406935274
 20
2.4687548213
 30
0.0
 10
4.4179447561
 20
2.4492282638
 30
0.0
 10
4.4237534139
 20
2.4396701886
 30
0.0
  0
SPLINE
  5
3A8
100
AcDbEntity
  8
0
100
AcDbSpline
 62
7
  6
CONTINUOUS
 70
0
 71
3
 72
16
 73
12
 74
0
 42
0.0000001
 43
0.0000001
 44
0.0000000001
 40
0.0
 40
0.0
 40
0.0
 40
0.0
 40
0.1247292013
 40
0.2497716079
 40
0.3750390229
 40
0.5004151412
 40
0.6257612134
 40
0.7509184869
 40
0.8133823566
 40
0.8757342384
 40
1.0
 40
1.0
 40
1.0
 40
1.0
 10
4.9330078149
 20
2.4396701886
 30
0.0
 10
4.9388164531
 20
2.4492282762
 30
0.0
 10
4.9498259774
 20
2.4687548086
 30
0.0
 10
4.9643910582
 20
2.4990935023
 30
0.0
 10
4.9769301567
 20
2.5303887555
 30
0.0
 10
4.9873461522
 20
2.5624822914
 30
0.0
 10
4.9955517239
 20
2.595200629
 30
0.0
 10
5.0004896085
 20
2.6228520472
 30
0.0
 10
5.0032673852
 20
2.6450990224
 30
0.0
 10
5.0052536037
 20
2.6673493769
 30
0.0
 10
5.0058555833
 20
2.6840915513
 30
0.0
 10
5.0058556334
 20
2.695234685
 30
0.0
  0
SPLINE
  5
3A9
100
AcDbEntity
  8
0
100
AcDbSpline
 62
7
  6
CONTINUOUS
 70
0
 71
3
 72
9
 73
5
 74
0
 42
0.0000001
 43
0.0000001
 44
0.0000000001
 40
0.0
 40
0.0
 40
0.0
 40
0.0
 40
0.4939710505
 40
1.0
 40
1.0
 40
1.0
 40
1.0
 10
4.9314300184
 20
2.4381105463
 30
0.0
 10
4.9317490898
 20
2.438294327
 30
0.0
 10
4.9323482732
 20
2.4387534895
 30
0.0
 10
4.9328119148
 20
2.4393478456
 30
0.0
 10
4.9330078149
 20
2.4396701886
 30
0.0
  0
SPLINE
  5
3AA
100
AcDbEntity
  8
0
100
AcDbSpline
 62
7
  6
CONTINUOUS
 70
0
 71
3
 72
21
 73
17
 74
0
 42
0.0000001
 43
0.0000001
 44
0.0000000001
 40
0.0
 40
0.0
 40
0.0
 40
0.0
 40
0.0607429201
 40
0.1220890492
 40
0.1840185628
 40
0.2464876591
 40
0.3094288399
 40
0.3727504599
 40
0.4999999958
 40
0.6272495307
 40
0.6905711481
 40
0.7535123441
 40
0.8159814219
 40
0.8779109487
 40
0.939257119
 40
1.0
 40
1.0
 40
1.0
 40
1.0
 10
4.4253312104
 20
2.4381105463
 30
0.0
 10
4.4346150834
 20
2.4327633395
 30
0.0
 10
4.4536416358
 20
2.4226389579
 30
0.0
 10
4.4832617977
 20
2.40931451
 30
0.0
 10
4.5139814533
 20
2.3978617231
 30
0.0
 10
4.5456530992
 20
2.3883620521
 30
0.0
 10
4.5781165042
 20
2.3808887595
 30
0.0
 10
4.6222747942
 20
2.3736972564
 30
0.0
 10
4.6783806135
 20
2.3700787413
 30
0.0
 10
4.7344864217
 20
2.3736972886
 30
0.0
 10
4.77864473
 20
2.3808887145
 30
0.0
 10
4.8111081053
 20
2.3883621245
 30
0.0
 10
4.8427797949
 20
2.3978616452
 30
0.0
 10
4.873499454
 20
2.4093144631
 30
0.0
 10
4.9031195362
 20
2.4226390818
 30
0.0
 10
4.9221461532
 20
2.4327633397
 30
0.0
 10
4.9314300184
 20
2.4381105463
 30
0.0
  0
SPLINE
  5
3AB
100
AcDbEntity
  8
0
100
AcDbSpline
 62
7
  6
CONTINUOUS
 70
0
 71
3
 72
59
 73
55
 74
0
 42
0.0000001
 43
0.0000001
 44
0.0000000001
 40
0.0
 40
0.0
 40
0.0
 40
0.0
 40
0.0155358593
 40
0.031073702
 40
0.0466123998
 40
0.0621539284
 40
0.0932384559
 40
0.1243427567
 40
0.1399088002
 40
0.1554817306
 40
0.1710620631
 40
0.1866502409
 40
0.2022466353
 40
0.2178515366
 40
0.2334651493
 40
0.2490875971
 40
0.2647189197
 40
0.2803590678
 40
0.2960079075
 40
0.3116652252
 40
0.3273307237
 40
0.343004025
 40
0.3586846807
 40
0.3743721721
 40
0.4057559676
 40
0.4371593599
 40
0.468576242
 40
0.5
 40
0.531423758
 40
0.5628406401
 40
0.5942440324
 40
0.6256278279
 40
0.6413153193
 40
0.656995975
 40
0.6726692763
 40
0.6883347748
 40
0.7039920925
 40
0.7196409322
 40
0.7352810803
 40
0.7509124029
 40
0.7665348507
 40
0.7821484634
 40
0.7977533647
 40
0.8133497591
 40
0.8289379369
 40
0.8445182694
 40
0.8600911998
 40
0.8756572433
 40
0.9067615441
 40
0.9378460716
 40
0.9533876002
 40
0.968926298
 40
0.9844641407
 40
1.0
 40
1.0
 40
1.0
 40
1.0
 10
4.9950206301
 20
2.7081707938
 30
0.0
 10
4.9950206301
 20
2.7030500247
 30
0.0
 10
4.9947661726
 20
2.6928059969
 30
0.0
 10
4.9936224687
 20
2.6774787811
 30
0.0
 10
4.9917190152
 20
2.6622246431
 30
0.0
 10
4.9881752959
 20
2.6420362046
 30
0.0
 10
4.9818708207
 20
2.6171570669
 30
0.0
 10
4.9731311422
 20
2.5930170017
 30
0.0
 10
4.9647333519
 20
2.5742908458
 30
0.0
 10
4.9577425956
 20
2.5605626112
 30
0.0
 10
4.9500788876
 20
2.5471903866
 30
0.0
 10
4.9417606195
 20
2.5342059251
 30
0.0
 10
4.9328078919
 20
2.5216406055
 30
0.0
 10
4.9232422176
 20
2.5095247012
 30
0.0
 10
4.9130866556
 20
2.4978874068
 30
0.0
 10
4.9023657196
 20
2.4867567122
 30
0.0
 10
4.8911052166
 20
2.4761594475
 30
0.0
 10
4.8793322456
 20
2.466121178
 30
0.0
 10
4.8670752184
 20
2.4566660267
 30
0.0
 10
4.8543636715
 20
2.4478167639
 30
0.0
 10
4.8412281564
 20
2.4395947529
 30
0.0
 10
4.8277004693
 20
2.4320197952
 30
0.0
 10
4.8138127513
 20
2.4251099648
 30
0.0
 10
4.7948617961
 20
2.4168062534
 30
0.0
 10
4.7704339296
 20
2.4081669487
 30
0.0
 10
4.7402469695
 20
2.400693597
 30
0.0
 10
4.7094631983
 20
2.3961801658
 30
0.0
 10
4.6783806144
 20
2.3946710022
 30
0.0
 10
4.6472980305
 20
2.3961801658
 30
0.0
 10
4.6165142593
 20
2.400693597
 30
0.0
 10
4.5863272992
 20
2.4081669487
 30
0.0
 10
4.5618994327
 20
2.4168062534
 30
0.0
 10
4.5429484775
 20
2.4251099648
 30
0.0
 10
4.5290607595
 20
2.4320197952
 30
0.0
 10
4.5155330724
 20
2.4395947529
 30
0.0
 10
4.5023975573
 20
2.4478167639
 30
0.0
 10
4.4896860104
 20
2.4566660267
 30
0.0
 10
4.4774289832
 20
2.466121178
 30
0.0
 10
4.4656560122
 20
2.4761594475
 30
0.0
 10
4.4543955092
 20
2.4867567122
 30
0.0
 10
4.4436745732
 20
2.4978874068
 30
0.0
 10
4.4335190112
 20
2.5095247012
 30
0.0
 10
4.4239533369
 20
2.5216406055
 30
0.0
 10
4.4150006093
 20
2.5342059251
 30
0.0
 10
4.4066823412
 20
2.5471903866
 30
0.0
 10
4.3990186332
 20
2.5605626112
 30
0.0
 10
4.3920278769
 20
2.5742908458
 30
0.0
 10
4.3836300866
 20
2.5930170017
 30
0.0
 10
4.3748904081
 20
2.6171570669
 30
0.0
 10
4.3685859329
 20
2.6420362046
 30
0.0
 10
4.3650422136
 20
2.6622246431
 30
0.0
 10
4.3631387601
 20
2.6774787811
 30
0.0
 10
4.3619950562
 20
2.6928059969
 30
0.0
 10
4.3617405987
 20
2.7030500247
 30
0.0
 10
4.3617405987
 20
2.7081707938
 30
0.0
  0
SPLINE
  5
3AC
100
AcDbEntity
  8
0
100
AcDbSpline
 62
7
  6
CONTINUOUS
 70
0
 71
3
 72
15
 73
11
 74
0
 42
0.0000001
 43
0.0000001
 44
0.0000000001
 40
0.0
 40
0.0
 40
0.0
 40
0.0
 40
0.1274968007
 40
0.2543696625
 40
0.3805498612
 40
0.5059878184
 40
0.6306525585
 40
0.7545336302
 40
0.8776401983
 40
1.0
 40
1.0
 40
1.0
 40
1.0
 10
5.0058556334
 20
2.695234685
 30
0.0
 10
5.0058555872
 20
2.7036325428
 30
0.0
 10
5.0054016778
 20
2.7203908247
 30
0.0
 10
5.0033520339
 20
2.7453846908
 30
0.0
 10
4.9999473798
 20
2.7700942403
 30
0.0
 10
4.9952063495
 20
2.794434241
 30
0.0
 10
4.9891551201
 20
2.8183258405
 30
0.0
 10
4.9818251986
 20
2.8416959356
 30
0.0
 10
4.9732532012
 20
2.8644765322
 30
0.0
 10
4.9667169124
 20
2.8792755266
 30
0.0
 10
4.963255171
 20
2.8865537033
 30
0.0
  0
SPLINE
  5
3AD
100
AcDbEntity
  8
0
100
AcDbSpline
 62
7
  6
CONTINUOUS
 70
0
 71
3
 72
15
 73
11
 74
0
 42
0.0000001
 43
0.0000001
 44
0.0000000001
 40
0.0
 40
0.0
 40
0.0
 40
0.0
 40
0.1223597816
 40
0.2454663886
 40
0.3693474607
 40
0.4940121555
 40
0.6194501217
 40
0.7456303429
 40
0.8725031946
 40
1.0
 40
1.0
 40
1.0
 40
1.0
 10
4.3935060559
 20
2.8865536773
 30
0.0
 10
4.3900443219
 20
2.8792754998
 30
0.0
 10
4.3835080406
 20
2.8644765038
 30
0.0
 10
4.3749360108
 20
2.8416959217
 30
0.0
 10
4.3676060856
 20
2.8183258302
 30
0.0
 10
4.3615549031
 20
2.7944342247
 30
0.0
 10
4.3568138621
 20
2.7700942316
 30
0.0
 10
4.353409179
 20
2.7453846869
 30
0.0
 10
4.3513595678
 20
2.7203908207
 30
0.0
 10
4.3509056332
 20
2.7036325421
 30
0.0
 10
4.3509055954
 20
2.695234685
 30
0.0
  0
SPLINE
  5
3AE
100
AcDbEntity
  8
0
100
AcDbSpline
 62
7
  6
CONTINUOUS
 70
0
 71
3
 72
15
 73
11
 74
0
 42
0.0000001
 43
0.0000001
 44
0.0000000001
 40
0.0
 40
0.0
 40
0.0
 40
0.0
 40
0.1028215818
 40
0.212386991
 40
0.3285278425
 40
0.4510605715
 40
0.5797369511
 40
0.7142923355
 40
0.8545054145
 40
1.0
 40
1.0
 40
1.0
 40
1.0
 10
4.4510524372
 20
2.3439403579
 30
0.0
 10
4.4509958766
 20
2.3429563379
 30
0.0
 10
4.4508652891
 20
2.3409245537
 30
0.0
 10
4.4506426686
 20
2.3377831768
 30
0.0
 10
4.4504031133
 20
2.3344535758
 30
0.0
 10
4.4501639021
 20
2.3309402865
 30
0.0
 10
4.449941371
 20
2.327249012
 30
0.0
 10
4.4497531821
 20
2.3233860501
 30
0.0
 10
4.4496266221
 20
2.3193591721
 30
0.0
 10
4.4496027033
 20
2.3166201309
 30
0.0
 10
4.449609964
 20
2.3152254437
 30
0.0
  0
SPLINE
  5
3AF
100
AcDbEntity
  8
0
100
AcDbSpline
 62
7
  6
CONTINUOUS
 70
0
 71
3
 72
15
 73
11
 74
0
 42
0.0000001
 43
0.0000001
 44
0.0000000001
 40
0.0
 40
0.0
 40
0.0
 40
0.0
 40
0.1242674348
 40
0.2490660856
 40
0.3742253638
 40
0.4995726359
 40
0.6249494053
 40
0.7502179624
 40
0.8752635091
 40
1.0
 40
1.0
 40
1.0
 40
1.0
 10
4.3484253651
 20
2.6942893288
 30
0.0
 10
4.3484254184
 20
2.6831534384
 30
0.0
 10
4.34922073
 20
2.6608262181
 30
0.0
 10
4.3527654661
 20
2.6274529022
 30
0.0
 10
4.3586296647
 20
2.5943087612
 30
0.0
 10
4.3667584753
 20
2.561593879
 30
0.0
 10
4.3770801657
 20
2.5294936741
 30
0.0
 10
4.3895103633
 20
2.498178954
 30
0.0
 10
4.4039543409
 20
2.467806328
 30
0.0
 10
4.4148777432
 20
2.4482476876
 30
0.0
 10
4.420642248
 20
2.4386708164
 30
0.0
  0
LINE
  5
3B0
100
AcDbEntity
  8
0
100
AcDbLine
 62
7
  6
CONTINUOUS
 10
4.412821446
 20
2.3838071935
 11
4.420642248
 21
2.4386708164
  0
SPLINE
  5
3B1
100
AcDbEntity
  8
0
100
AcDbSpline
 62
7
  6
CONTINUOUS
 70
0
 71
3
 72
22
 73
18
 74
0
 42
0.0000001
 43
0.0000001
 44
0.0000000001
 40
0.0
 40
0.0
 40
0.0
 40
0.0
 40
0.0309158133
 40
0.0659712693
 40
0.1052969722
 40
0.1490646471
 40
0.1972815994
 40
0.2498175558
 40
0.3065123957
 40
0.3672958546
 40
0.501160649
 40
0.5742655805
 40
0.6514965791
 40
0.7328688099
 40
0.8182973422
 40
0.9074603395
 40
1.0
 40
1.0
 40
1.0
 40
1.0
 10
4.4535548044
 20
2.3585119767
 30
0.0
 10
4.4534977498
 20
2.3583703092
 30
0.0
 10
4.4533784876
 20
2.3580669781
 30
0.0
 10
4.4532038199
 20
2.3575768856
 30
0.0
 10
4.4530315576
 20
2.3570189717
 30
0.0
 10
4.4528726777
 20
2.3563898113
 30
0.0
 10
4.4527223788
 20
2.3556918014
 30
0.0
 10
4.4525737467
 20
2.3549283178
 30
0.0
 10
4.4524195029
 20
2.3541027253
 30
0.0
 10
4.45219851
 20
2.3528809041
 30
0.0
 10
4.4519801133
 20
2.3515762463
 30
0.0
 10
4.4517713686
 20
2.3501878619
 30
0.0
 10
4.4516164966
 20
2.3490537003
 30
0.0
 10
4.4514723328
 20
2.3478567739
 30
0.0
 10
4.4513394644
 20
2.3465992883
 30
0.0
 10
4.4512039593
 20
2.345286637
 30
0.0
 10
4.4511058392
 20
2.3443943762
 30
0.0
 10
4.4510524372
 20
2.3439403579
 30
0.0
  0
SPLINE
  5
3B2
100
AcDbEntity
  8
0
100
AcDbSpline
 62
7
  6
CONTINUOUS
 70
0
 71
3
 72
22
 73
18
 74
0
 42
0.0000001
 43
0.0000001
 44
0.0000000001
 40
0.0
 40
0.0
 40
0.0
 40
0.0
 40
0.1242013877
 40
0.1864257009
 40
0.2487230097
 40
0.3110925623
 40
0.3735341812
 40
0.4360466435
 40
0.4986271677
 40
0.5612708762
 40
0.6239697497
 40
0.6867114202
 40
0.7494772733
 40
0.8122401292
 40
0.8749596273
 40
0.9375752711
 40
1.0
 40
1.0
 40
1.0
 40
1.0
 10
4.2865934468
 20
2.6287629349
 30
0.0
 10
4.2865936211
 20
2.6411411053
 30
0.0
 10
4.2874820615
 20
2.6597364626
 30
0.0
 10
4.2904206534
 20
2.6843560907
 30
0.0
 10
4.2935013209
 20
2.702733192
 30
0.0
 10
4.2974497333
 20
2.7209648888
 30
0.0
 10
4.302255835
 20
2.7390118484
 30
0.0
 10
4.3079074655
 20
2.7568340904
 30
0.0
 10
4.3143902535
 20
2.7743925288
 30
0.0
 10
4.3216873094
 20
2.7916485848
 30
0.0
 10
4.3297787837
 20
2.8085644234
 30
0.0
 10
4.3386414701
 20
2.8251029609
 30
0.0
 10
4.3482484316
 20
2.8412278419
 30
0.0
 10
4.3585681921
 20
2.8569032599
 30
0.0
 10
4.3695635167
 20
2.8720938362
 30
0.0
 10
4.3811888434
 20
2.8867641747
 30
0.0
 10
4.3893405485
 20
2.8961956767
 30
0.0
 10
4.3935051698
 20
2.9008175258
 30
0.0
  0
SPLINE
  5
3B3
100
AcDbEntity
  8
0
100
AcDbSpline
 62
7
  6
CONTINUOUS
 70
0
 71
3
 72
19
 73
15
 74
0
 42
0.0000001
 43
0.0000001
 44
0.0000000001
 40
0.0
 40
0.0
 40
0.0
 40
0.0
 40
0.1867874216
 40
0.3575326327
 40
0.511224409
 40
0.6469898118
 40
0.7079149894
 40
0.7640961887
 40
0.8154750694
 40
0.8620090454
 40
0.9036832611
 40
0.940518782
 40
0.972579648
 40
1.0
 40
1.0
 40
1.0
 40
1.0
 10
4.3984188921
 20
2.3595859949
 30
0.0
 10
4.3994684584
 20
2.3610038037
 30
0.0
 10
4.401455881
 20
2.3637337413
 30
0.0
 10
4.404221327
 20
2.3676917079
 30
0.0
 10
4.4066262914
 20
2.3713123461
 30
0.0
 10
4.408376183
 20
2.3741216656
 30
0.0
 10
4.4095776696
 20
2.376185728
 30
0.0
 10
4.4103466795
 20
2.377578919
 30
0.0
 10
4.4110155476
 20
2.3788715952
 30
0.0
 10
4.411583269
 20
2.3800616593
 30
0.0
 10
4.4120490244
 20
2.381147248
 30
0.0
 10
4.4124122081
 20
2.3821269309
 30
0.0
 10
4.4126723618
 20
2.3829992652
 30
0.0
 10
4.4127859405
 20
2.3835506811
 30
0.0
 10
4.412821446
 20
2.3838071935
 30
0.0
  0
SPLINE
  5
3B4
100
AcDbEntity
  8
0
100
AcDbSpline
 62
7
  6
CONTINUOUS
 70
0
 71
3
 72
21
 73
17
 74
0
 42
0.0000001
 43
0.0000001
 44
0.0000000001
 40
0.0
 40
0.0
 40
0.0
 40
0.0
 40
0.0604913141
 40
0.1215866496
 40
0.2449731402
 40
0.3694605688
 40
0.4320116781
 40
0.4947129107
 40
0.5575427108
 40
0.6204848071
 40
0.6835269495
 40
0.7466600868
 40
0.8098779121
 40
0.8731748669
 40
0.9365509289
 40
1.0
 40
1.0
 40
1.0
 40
1.0
 10
4.3984188921
 20
2.3595859949
 30
0.0
 10
4.3940704863
 20
2.363772108
 30
0.0
 10
4.3855561658
 20
2.3724245905
 30
0.0
 10
4.3693468264
 20
2.3907327581
 30
0.0
 10
4.3507380651
 20
2.4153858685
 30
0.0
 10
4.334657829
 20
2.4419249569
 30
0.0
 10
4.3233810194
 20
2.4641565107
 30
0.0
 10
4.3157364222
 20
2.481305008
 30
0.0
 10
4.3089425047
 20
2.4988492725
 30
0.0
 10
4.3030178537
 20
2.5167417659
 30
0.0
 10
4.2979785475
 20
2.5349348276
 30
0.0
 10
4.2938378466
 20
2.5533813929
 30
0.0
 10
4.2906065256
 20
2.5720345239
 30
0.0
 10
4.2882926393
 20
2.5908480499
 30
0.0
 10
4.2869022966
 20
2.6097749199
 30
0.0
 10
4.2865934496
 20
2.6224318985
 30
0.0
 10
4.2865934468
 20
2.6287629349
 30
0.0
  0
SPLINE
  5
3B5
100
AcDbEntity
  8
0
100
AcDbSpline
 62
7
  6
CONTINUOUS
 70
0
 71
3
 72
19
 73
15
 74
0
 42
0.0000001
 43
0.0000001
 44
0.0000000001
 40
0.0
 40
0.0
 40
0.0
 40
0.0
 40
0.1873968288
 40
0.3585130192
 40
0.5123487463
 40
0.648052575
 40
0.7088810473
 40
0.7649292729
 40
0.8161475132
 40
0.8625048185
 40
0.9040002082
 40
0.9406718277
 40
0.9726111123
 40
1.0
 40
1.0
 40
1.0
 40
1.0
 10
4.4019006396
 20
2.3561443094
 30
0.0
 10
4.4030221758
 20
2.3574897559
 30
0.0
 10
4.4051473209
 20
2.3600809739
 30
0.0
 10
4.4081096406
 20
2.3638442232
 30
0.0
 10
4.4106890124
 20
2.3672924533
 30
0.0
 10
4.4125685046
 20
2.3699753255
 30
0.0
 10
4.4138598393
 20
2.3719519474
 30
0.0
 10
4.414686372
 20
2.3732883754
 30
0.0
 10
4.415405516
 20
2.3745315128
 30
0.0
 10
4.4160159796
 20
2.3756795276
 30
0.0
 10
4.416516854
 20
2.3767306611
 30
0.0
 10
4.4169077017
 20
2.3776834947
 30
0.0
 10
4.4171880924
 20
2.3785367384
 30
0.0
 10
4.4173102764
 20
2.3790791895
 30
0.0
 10
4.4173483872
 20
2.3793323397
 30
0.0
  0
SPLINE
  5
3B6
100
AcDbEntity
  8
0
100
AcDbSpline
 62
7
  6
CONTINUOUS
 70
0
 71
3
 72
41
 73
37
 74
0
 42
0.0000001
 43
0.0000001
 44
0.0000000001
 40
0.0
 40
0.0
 40
0.0
 40
0.0
 40
0.0009806159
 40
0.0019566033
 40
0.002936918
 40
0.0039166471
 40
0.0048959392
 40
0.0058758373
 40
0.0078350491
 40
0.0117536254
 40
0.0156721284
 40
0.0195905761
 40
0.0235089695
 40
0.0313455929
 40
0.0391819967
 40
0.047018178
 40
0.0548541341
 40
0.0626898621
 40
0.078360619
 40
0.0940304284
 40
0.1096992662
 40
0.1253671078
 40
0.1566996739
 40
0.188027943
 40
0.2193516883
 40
0.250670675
 40
0.2819846607
 40
0.31329339
 40
0.3758937647
 40
0.4384696496
 40
0.5010184473
 40
0.5635372724
 40
0.6260229135
 40
0.7508781136
 40
0.8755513856
 40
1.0
 40
1.0
 40
1.0
 40
1.0
 10
4.449609964
 20
2.3152254437
 30
0.0
 10
4.4495925882
 20
2.31523645
 30
0.0
 10
4.449558259
 20
2.315259143
 30
0.0
 10
4.449512641
 20
2.3153008431
 30
0.0
 10
4.449460537
 20
2.3153339466
 30
0.0
 10
4.4494110598
 20
2.3153707239
 30
0.0
 10
4.4493614771
 20
2.3154073549
 30
0.0
 10
4.4492945021
 20
2.315454995
 30
0.0
 10
4.4491784474
 20
2.3155399757
 30
0.0
 10
4.4490119316
 20
2.3156603624
 30
0.0
 10
4.4488125665
 20
2.3158054523
 30
0.0
 10
4.4486132034
 20
2.3159505377
 30
0.0
 10
4.4483475495
 20
2.3161441981
 30
0.0
 10
4.4480157112
 20
2.3163865729
 30
0.0
 10
4.4476178932
 20
2.3166779355
 30
0.0
 10
4.4472204603
 20
2.3169697995
 30
0.0
 10
4.4468234151
 20
2.3172621669
 30
0.0
 10
4.4462945468
 20
2.3176526536
 30
0.0
 10
4.445634434
 20
2.318142016
 30
0.0
 10
4.4448438494
 20
2.3187312614
 30
0.0
 10
4.4440548337
 20
2.319322504
 30
0.0
 10
4.4430049486
 20
2.3201134577
 30
0.0
 10
4.4416965488
 20
2.3211071172
 30
0.0
 10
4.4401328001
 20
2.322307459
 30
0.0
 10
4.438575486
 20
2.3235156732
 30
0.0
 10
4.4370246606
 20
2.3247317192
 30
0.0
 10
4.4354803773
 20
2.3259555562
 30
0.0
 10
4.4334303184
 20
2.3275975185
 30
0.0
 10
4.4308843931
 20
2.3296692108
 30
0.0
 10
4.427856069
 20
2.332185922
 30
0.0
 10
4.424855249
 20
2.3347327243
 30
0.0
 10
4.4218823912
 20
2.3373092289
 30
0.0
 10
4.4179577404
 20
2.3407825184
 30
0.0
 10
4.4131245617
 20
2.3451958254
 30
0.0
 10
4.4074428978
 20
2.3506048379
 30
0.0
 10
4.4037339332
 20
2.3542861663
 30
0.0
 10
4.4019006396
 20
2.3561443094
 30
0.0
  0
SPLINE
  5
3B7
100
AcDbEntity
  8
0
100
AcDbSpline
 62
7
  6
CONTINUOUS
 70
0
 71
3
 72
11
 73
7
 74
0
 42
0.0000001
 43
0.0000001
 44
0.0000000001
 40
0.0
 40
0.0
 40
0.0
 40
0.0
 40
0.2467387692
 40
0.4958721984
 40
0.7471589193
 40
1.0
 40
1.0
 40
1.0
 40
1.0
 10
5.1566870266
 20
6.7242426037
 30
0.0
 10
5.1219782791
 20
6.7298652572
 30
0.0
 10
5.0520224061
 20
6.7399590892
 30
0.0
 10
4.9461524424
 20
6.7514743088
 30
0.0
 10
4.8390713576
 20
6.7592757438
 30
0.0
 10
4.7672597926
 20
6.761890122
 30
0.0
 10
4.7312348027
 20
6.762538418
 30
0.0
  0
SPLINE
  5
3B8
100
AcDbEntity
  8
0
100
AcDbSpline
 62
7
  6
CONTINUOUS
 70
0
 71
3
 72
15
 73
11
 74
0
 42
0.0000001
 43
0.0000001
 44
0.0000000001
 40
0.0
 40
0.0
 40
0.0
 40
0.0
 40
0.1247364882
 40
0.2497820406
 40
0.3750505894
 40
0.500427354
 40
0.6257746347
 40
0.7509339275
 40
0.8757325664
 40
1.0
 40
1.0
 40
1.0
 40
1.0
 10
4.9361189808
 20
2.4386708164
 30
0.0
 10
4.941883471
 20
2.4482476961
 30
0.0
 10
4.9528068932
 20
2.4678063246
 30
0.0
 10
4.9672508676
 20
2.4981789528
 30
0.0
 10
4.9796810595
 20
2.5294936738
 30
0.0
 10
4.9900027606
 20
2.561593875
 30
0.0
 10
4.9981315626
 20
2.5943087613
 30
0.0
 10
5.0039957562
 20
2.6274529042
 30
0.0
 10
5.0075404924
 20
2.6608262193
 30
0.0
 10
5.0083358213
 20
2.6831534385
 30
0.0
 10
5.0083358637
 20
2.6942893288
 30
0.0
  0
SPLINE
  5
3B9
100
AcDbEntity
  8
0
100
AcDbSpline
 62
7
  6
CONTINUOUS
 70
0
 71
3
 72
11
 73
7
 74
0
 42
0.0000001
 43
0.0000001
 44
0.0000000001
 40
0.0
 40
0.0
 40
0.0
 40
0.0
 40
0.2520856204
 40
0.502871158
 40
0.75220972
 40
1.0
 40
1.0
 40
1.0
 40
1.0
 10
5.0083358637
 20
2.6942893288
 30
0.0
 10
5.0083358218
 20
2.7030553578
 30
0.0
 10
5.0078454756
 20
2.7205462649
 30
0.0
 10
5.0056310798
 20
2.7466234064
 30
0.0
 10
5.0019535452
 20
2.7723839174
 30
0.0
 10
4.9985294175
 20
2.7893400824
 30
0.0
 10
4.9965799604
 20
2.7977333234
 30
0.0
  0
LINE
  5
3BA
100
AcDbEntity
  8
0
100
AcDbLine
 62
7
  6
CONTINUOUS
 10
4.9439397828
 20
2.3838071935
 11
4.9361189808
 21
2.4386708164
  0
SPLINE
  5
3BB
100
AcDbEntity
  8
0
100
AcDbSpline
 62
7
  6
CONTINUOUS
 70
0
 71
3
 72
23
 73
19
 74
0
 42
0.0000001
 43
0.0000001
 44
0.0000000001
 40
0.0
 40
0.0
 40
0.0
 40
0.0
 40
0.0624225527
 40
0.1250359956
 40
0.1877532867
 40
0.2505139315
 40
0.3132775689
 40
0.3760170296
 40
0.4387136981
 40
0.5013552111
 40
0.563933552
 40
0.6264438157
 40
0.6888832145
 40
0.7512505592
 40
0.813545733
 40
0.8757679996
 40
0.9379208962
 40
1.0
 40
1.0
 40
1.0
 40
1.0
 10
4.9632560648
 20
2.9008175181
 30
0.0
 10
4.9674206818
 20
2.8961956631
 30
0.0
 10
4.9755723627
 20
2.8867641386
 30
0.0
 10
4.9871976945
 20
2.872093804
 30
0.0
 10
4.9981930379
 20
2.8569032436
 30
0.0
 10
5.0085128315
 20
2.8412278499
 30
0.0
 10
5.0181197691
 20
2.8251029567
 30
0.0
 10
5.0269824095
 20
2.8085643975
 30
0.0
 10
5.0350738847
 20
2.7916485612
 30
0.0
 10
5.0423709719
 20
2.7743925168
 30
0.0
 10
5.0488538407
 20
2.7568341103
 30
0.0
 10
5.054505466
 20
2.7390118531
 30
0.0
 10
5.0593114171
 20
2.7209649047
 30
0.0
 10
5.063259678
 20
2.7027329986
 30
0.0
 10
5.0663404933
 20
2.6843565756
 30
0.0
 10
5.0685466043
 20
2.6658761284
 30
0.0
 10
5.069872466
 20
2.6473337535
 30
0.0
 10
5.0701677792
 20
2.6349500856
 30
0.0
 10
5.070167782
 20
2.6287629349
 30
0.0
  0
SPLINE
  5
3BC
100
AcDbEntity
  8
0
100
AcDbSpline
 62
7
  6
CONTINUOUS
 70
0
 71
3
 72
21
 73
17
 74
0
 42
0.0000001
 43
0.0000001
 44
0.0000000001
 40
0.0
 40
0.0
 40
0.0
 40
0.0
 40
0.0634487031
 40
0.1268245649
 40
0.1901214238
 40
0.2533390899
 40
0.3794753394
 40
0.5052080135
 40
0.5679090593
 40
0.6304599597
 40
0.6928320888
 40
0.7549868591
 40
0.8168720541
 40
0.8784137909
 40
0.9395089128
 40
1.0
 40
1.0
 40
1.0
 40
1.0
 10
5.070167782
 20
2.6287629349
 30
0.0
 10
5.0701676928
 20
2.6224319144
 30
0.0
 10
5.0698583725
 20
2.609774943
 30
0.0
 10
5.0684681945
 20
2.5908481731
 30
0.0
 10
5.0661547248
 20
2.5720342311
 30
0.0
 10
5.0618505761
 20
2.5471858823
 30
0.0
 10
5.0541996617
 20
2.5166350052
 30
0.0
 10
5.0435809764
 20
2.4870387182
 30
0.0
 10
5.0333804831
 20
2.464156978
 30
0.0
 10
5.0249076083
 20
2.4474533765
 30
0.0
 10
5.0156323672
 20
2.4312448232
 30
0.0
 10
5.005584858
 20
2.4155819532
 30
0.0
 10
4.9948008085
 20
2.4005185551
 30
0.0
 10
4.9833229505
 20
2.3861114761
 30
0.0
 10
4.9712049027
 20
2.3724243482
 30
0.0
 10
4.9626907312
 20
2.3637721118
 30
0.0
 10
4.9583423344
 20
2.3595859933
 30
0.0
  0
SPLINE
  5
3BD
100
AcDbEntity
  8
0
100
AcDbSpline
 62
7
  6
CONTINUOUS
 70
0
 71
3
 72
19
 73
15
 74
0
 42
0.0000001
 43
0.0000001
 44
0.0000000001
 40
0.0
 40
0.0
 40
0.0
 40
0.0
 40
0.1867873262
 40
0.3575323332
 40
0.5112241058
 40
0.6469895617
 40
0.7079147459
 40
0.764096025
 40
0.8154748019
 40
0.862008072
 40
0.903681288
 40
0.9405167137
 40
0.9725788226
 40
1.0
 40
1.0
 40
1.0
 40
1.0
 10
4.9583423344
 20
2.3595859933
 30
0.0
 10
4.9572927646
 20
2.3610037993
 30
0.0
 10
4.9553053512
 20
2.3637337417
 30
0.0
 10
4.952539888
 20
2.3676916953
 30
0.0
 10
4.9501349302
 20
2.3713123386
 30
0.0
 10
4.9483850465
 20
2.3741216651
 30
0.0
 10
4.9471835586
 20
2.3761857295
 30
0.0
 10
4.9464145553
 20
2.3775789247
 30
0.0
 10
4.9457456916
 20
2.3788715958
 30
0.0
 10
4.9451779475
 20
2.3800616302
 30
0.0
 10
4.9447121497
 20
2.3811471829
 30
0.0
 10
4.9443489561
 20
2.3821268654
 30
0.0
 10
4.9440888493
 20
2.3829992347
 30
0.0
 10
4.9439752917
 20
2.3835506736
 30
0.0
 10
4.9439397828
 20
2.3838071935
 30
0.0
  0
SPLINE
  5
3BE
100
AcDbEntity
  8
0
100
AcDbSpline
 62
7
  6
CONTINUOUS
 70
0
 71
3
 72
21
 73
17
 74
0
 42
0.0000001
 43
0.0000001
 44
0.0000000001
 40
0.0
 40
0.0
 40
0.0
 40
0.0
 40
0.0607534104
 40
0.1221046338
 40
0.1840352538
 40
0.2465027437
 40
0.3094404821
 40
0.3727579864
 40
0.499999991
 40
0.6272419872
 40
0.6905595583
 40
0.7534973105
 40
0.8159647426
 40
0.8778953884
 40
0.9392465611
 40
1.0
 40
1.0
 40
1.0
 40
1.0
 10
4.4252765657
 20
2.4340898217
 30
0.0
 10
4.4345800406
 20
2.4287857796
 30
0.0
 10
4.453639857
 20
2.4187459396
 30
0.0
 10
4.4832951072
 20
2.4055402049
 30
0.0
 10
4.5140345082
 20
2.3941948375
 30
0.0
 10
4.5457126803
 20
2.384788801
 30
0.0
 10
4.5781713969
 20
2.3773920254
 30
0.0
 10
4.6223121391
 20
2.3702764487
 30
0.0
 10
4.6783806052
 20
2.3666975966
 30
0.0
 10
4.7344490973
 20
2.3702763763
 30
0.0
 10
4.7785898354
 20
2.3773920629
 30
0.0
 10
4.8110485515
 20
2.3847888462
 30
0.0
 10
4.8427267389
 20
2.3941948241
 30
0.0
 10
4.8734661121
 20
2.4055402251
 30
0.0
 10
4.9031213811
 20
2.4187459178
 30
0.0
 10
4.9221811847
 20
2.4287857756
 30
0.0
 10
4.9314846631
 20
2.4340898217
 30
0.0
  0
LINE
  5
3BF
100
AcDbEntity
  8
0
100
AcDbLine
 62
7
  6
CONTINUOUS
 10
4.9394128416
 20
2.3793323397
 11
4.9314846631
 21
2.4340898217
  0
SPLINE
  5
3C0
100
AcDbEntity
  8
0
100
AcDbSpline
 62
7
  6
CONTINUOUS
 70
0
 71
3
 72
39
 73
35
 74
0
 42
0.0000001
 43
0.0000001
 44
0.0000000001
 40
0.0
 40
0.0
 40
0.0
 40
0.0
 40
0.0039949095
 40
0.0080367122
 40
0.0122248528
 40
0.0166490177
 40
0.0213839806
 40
0.026488561
 40
0.0320066224
 40
0.0379643534
 40
0.0443755977
 40
0.051247301
 40
0.0664118322
 40
0.0835372286
 40
0.1026288802
 40
0.1236496878
 40
0.1465567033
 40
0.171311963
 40
0.1978860034
 40
0.2262188307
 40
0.2562374444
 40
0.2878967856
 40
0.3211530524
 40
0.3921913009
 40
0.4685530525
 40
0.5495269823
 40
0.5915479053
 40
0.634463408
 40
0.678190039
 40
0.7226600083
 40
0.8134813472
 40
0.8596467956
 40
0.9061909868
 40
1.0
 40
1.0
 40
1.0
 40
1.0
 10
4.8905576229
 20
2.3896781382
 30
0.0
 10
4.8904838763
 20
2.389864303
 30
0.0
 10
4.8903048155
 20
2.3902275086
 30
0.0
 10
4.889946535
 20
2.3907276903
 30
0.0
 10
4.8895000649
 20
2.3911815601
 30
0.0
 10
4.8889666795
 20
2.3915886196
 30
0.0
 10
4.8883478947
 20
2.3919498358
 30
0.0
 10
4.8876447853
 20
2.3922661645
 30
0.0
 10
4.886858556
 20
2.3925382822
 30
0.0
 10
4.8859912545
 20
2.3927681168
 30
0.0
 10
4.8850450747
 20
2.3929573834
 30
0.0
 10
4.8836338165
 20
2.3931646811
 30
0.0
 10
4.8816745519
 20
2.3933172132
 30
0.0
 10
4.8790979859
 20
2.3933451924
 30
0.0
 10
4.8762303081
 20
2.3932318153
 30
0.0
 10
4.8730805257
 20
2.3929862334
 30
0.0
 10
4.8696573433
 20
2.3926169551
 30
0.0
 10
4.8659678368
 20
2.3921318276
 30
0.0
 10
4.8620191869
 20
2.3915374055
 30
0.0
 10
4.8578192786
 20
2.3908432471
 30
0.0
 10
4.8533761096
 20
2.3900596348
 30
0.0
 10
4.8486970286
 20
2.3891939056
 30
0.0
 10
4.8420041599
 20
2.3879118958
 30
0.0
 10
4.8331225999
 20
2.3861470204
 30
0.0
 10
4.8218972947
 20
2.3839054335
 30
0.0
 10
4.8120910878
 20
2.3819846703
 30
0.0
 10
4.8039223349
 20
2.3804263574
 30
0.0
 10
4.7975823442
 20
2.3792451278
 30
0.0
 10
4.7911159189
 20
2.378072695
 30
0.0
 10
4.7822788893
 20
2.376516133
 30
0.0
 10
4.7733086411
 20
2.3750117643
 30
0.0
 10
4.764222893
 20
2.3735708177
 30
0.0
 10
4.7549806587
 20
2.3721616728
 30
0.0
 10
4.7480169851
 20
2.3711607806
 30
0.0
 10
4.7433587781
 20
2.3705201318
 30
0.0
  0
SPLINE
  5
3C1
100
AcDbEntity
  8
0
100
AcDbSpline
 62
7
  6
CONTINUOUS
 70
0
 71
3
 72
39
 73
35
 74
0
 42
0.0000001
 43
0.0000001
 44
0.0000000001
 40
0.0
 40
0.0
 40
0.0
 40
0.0
 40
0.0938096971
 40
0.1403542205
 40
0.1865199959
 40
0.2773419736
 40
0.3218122794
 40
0.365539239
 40
0.4084550446
 40
0.4504762929
 40
0.5314507611
 40
0.6078130262
 40
0.6788517834
 40
0.7121083612
 40
0.7437680389
 40
0.7737869729
 40
0.8021199953
 40
0.8286939814
 40
0.8534489873
 40
0.8763558201
 40
0.8973769405
 40
0.9164697997
 40
0.9335972294
 40
0.9487634658
 40
0.9556351826
 40
0.9620456455
 40
0.9680017505
 40
0.9735173435
 40
0.9786189411
 40
0.9833514199
 40
0.987774356
 40
0.9919626131
 40
0.996005153
 40
1.0
 40
1.0
 40
1.0
 40
1.0
 10
4.6134024507
 20
2.3705201318
 30
0.0
 10
4.608744246
 20
2.3711607807
 30
0.0
 10
4.6017805764
 20
2.3721616743
 30
0.0
 10
4.5925383472
 20
2.3735708172
 30
0.0
 10
4.5834526051
 20
2.3750117613
 30
0.0
 10
4.5744823619
 20
2.3765161271
 30
0.0
 10
4.5656453368
 20
2.3780726896
 30
0.0
 10
4.5591789145
 20
2.379245124
 30
0.0
 10
4.5528389253
 20
2.3804263504
 30
0.0
 10
4.5446701791
 20
2.3819846658
 30
0.0
 10
4.5348639797
 20
2.3839054225
 30
0.0
 10
4.5236386851
 20
2.3861470077
 30
0.0
 10
4.5147571282
 20
2.3879118803
 30
0.0
 10
4.5080642557
 20
2.3891938969
 30
0.0
 10
4.5033851645
 20
2.3900596344
 30
0.0
 10
4.4989419891
 20
2.3908432547
 30
0.0
 10
4.4947420908
 20
2.3915374127
 30
0.0
 10
4.4907934748
 20
2.3921318146
 30
0.0
 10
4.4871040174
 20
2.3926169048
 30
0.0
 10
4.4836808645
 20
2.3929861494
 30
0.0
 10
4.4805310404
 20
2.3932317338
 30
0.0
 10
4.4776632106
 20
2.3933451891
 30
0.0
 10
4.4750864182
 20
2.3933173739
 30
0.0
 10
4.4731269636
 20
2.3931650185
 30
0.0
 10
4.4717156665
 20
2.3929577252
 30
0.0
 10
4.4707696278
 20
2.3927683917
 30
0.0
 10
4.469902623
 20
2.3925384063
 30
0.0
 10
4.4691168571
 20
2.3922660346
 30
0.0
 10
4.4684143627
 20
2.3919493087
 30
0.0
 10
4.4677962072
 20
2.3915876941
 30
0.0
 10
4.467263269
 20
2.3911803768
 30
0.0
 10
4.4668168405
 20
2.390726541
 30
0.0
 10
4.4664579993
 20
2.3902267691
 30
0.0
 10
4.4662779877
 20
2.3898640451
 30
0.0
 10
4.4662036058
 20
2.3896781382
 30
0.0
  0
LINE
  5
3C2
100
AcDbEntity
  8
0
100
AcDbLine
 62
7
  6
CONTINUOUS
 10
4.4173483872
 20
2.3793323397
 11
4.4252765657
 21
2.4340898217
  0
SPLINE
  5
3C3
100
AcDbEntity
  8
0
100
AcDbSpline
 62
7
  6
CONTINUOUS
 70
0
 71
3
 72
19
 73
15
 74
0
 42
0.0000001
 43
0.0000001
 44
0.0000000001
 40
0.0
 40
0.0
 40
0.0
 40
0.0
 40
0.1873967265
 40
0.3585128368
 40
0.5123484708
 40
0.6480522334
 40
0.7088806709
 40
0.7649288671
 40
0.8161470665
 40
0.8625042221
 40
0.9039993477
 40
0.9406709276
 40
0.9726107195
 40
1.0
 40
1.0
 40
1.0
 40
1.0
 10
4.9548605874
 20
2.356144307
 30
0.0
 10
4.9537390476
 20
2.3574897506
 30
0.0
 10
4.9516139107
 20
2.3600809757
 30
0.0
 10
4.9486515725
 20
2.3638442107
 30
0.0
 10
4.9460722075
 20
2.3672924468
 30
0.0
 10
4.9441927246
 20
2.3699753256
 30
0.0
 10
4.9429013896
 20
2.3719519475
 30
0.0
 10
4.9420748645
 20
2.3732883803
 30
0.0
 10
4.941355723
 20
2.3745315174
 30
0.0
 10
4.9407452271
 20
2.3756795104
 30
0.0
 10
4.9402442967
 20
2.3767306133
 30
0.0
 10
4.9398534353
 20
2.3776834459
 30
0.0
 10
4.9395731067
 20
2.3785367209
 30
0.0
 10
4.9394509557
 20
2.3790791862
 30
0.0
 10
4.9394128416
 20
2.3793323397
 30
0.0
  0
SPLINE
  5
3C4
100
AcDbEntity
  8
0
100
AcDbSpline
 62
7
  6
CONTINUOUS
 70
0
 71
3
 72
15
 73
11
 74
0
 42
0.0000001
 43
0.0000001
 44
0.0000000001
 40
0.0
 40
0.0
 40
0.0
 40
0.0
 40
0.1455024578
 40
0.2857207795
 40
0.4202730439
 40
0.5489472612
 40
0.6714787182
 40
0.7876176261
 40
0.8971807992
 40
1.0
 40
1.0
 40
1.0
 40
1.0
 10
4.9071490539
 20
2.3152235253
 30
0.0
 10
4.9071564429
 20
2.3166183789
 30
0.0
 10
4.9071339648
 20
2.3193577279
 30
0.0
 10
4.9070087682
 20
2.3233850261
 30
0.0
 10
4.9068198733
 20
2.3272482106
 30
0.0
 10
4.9065973062
 20
2.3309396605
 30
0.0
 10
4.9063582495
 20
2.3344531412
 30
0.0
 10
4.9061186336
 20
2.3377829055
 30
0.0
 10
4.9058959653
 20
2.3409244235
 30
0.0
 10
4.9057653629
 20
2.3429562965
 30
0.0
 10
4.9057087916
 20
2.3439403579
 30
0.0
  0
SPLINE
  5
3C5
100
AcDbEntity
  8
0
100
AcDbSpline
 62
7
  6
CONTINUOUS
 70
0
 71
3
 72
22
 73
18
 74
0
 42
0.0000001
 43
0.0000001
 44
0.0000000001
 40
0.0
 40
0.0
 40
0.0
 40
0.0
 40
0.092539698
 40
0.1817027327
 40
0.267131296
 40
0.3485035464
 40
0.4257345492
 40
0.4988394672
 40
0.6327041842
 40
0.6934876013
 40
0.7501824153
 40
0.8027183663
 40
0.850935326
 40
0.8947030121
 40
0.9340287237
 40
0.9690841848
 40
1.0
 40
1.0
 40
1.0
 40
1.0
 10
4.9057087916
 20
2.3439403579
 30
0.0
 10
4.9056553902
 20
2.3443943765
 30
0.0
 10
4.9055572712
 20
2.3452866377
 30
0.0
 10
4.9054217678
 20
2.3465992898
 30
0.0
 10
4.9052889007
 20
2.347856776
 30
0.0
 10
4.9051447378
 20
2.3490537027
 30
0.0
 10
4.9049898659
 20
2.3501878644
 30
0.0
 10
4.9047811205
 20
2.3515762483
 30
0.0
 10
4.904562721
 20
2.352880905
 30
0.0
 10
4.9043417251
 20
2.354102725
 30
0.0
 10
4.9041874799
 20
2.3549283167
 30
0.0
 10
4.9040388477
 20
2.3556918003
 30
0.0
 10
4.9038885492
 20
2.3563898102
 30
0.0
 10
4.90372967
 20
2.357018971
 30
0.0
 10
4.9035574083
 20
2.3575768852
 30
0.0
 10
4.903382741
 20
2.358066978
 30
0.0
 10
4.903263479
 20
2.3583703092
 30
0.0
 10
4.9032064244
 20
2.3585119767
 30
0.0
  0
SPLINE
  5
3C6
100
AcDbEntity
  8
0
100
AcDbSpline
 62
7
  6
CONTINUOUS
 70
0
 71
3
 72
11
 73
7
 74
0
 42
0.0000001
 43
0.0000001
 44
0.0000000001
 40
0.0
 40
0.0
 40
0.0
 40
0.0
 40
0.2528411296
 40
0.5041278642
 40
0.7532612769
 40
1.0
 40
1.0
 40
1.0
 40
1.0
 10
4.1617783878
 20
6.1930820031
 30
0.0
 10
4.1624266826
 20
6.1570570062
 30
0.0
 10
4.1650410685
 20
6.0852454327
 30
0.0
 10
4.1728424976
 20
5.978164341
 30
0.0
 10
4.1843577291
 20
5.8722943857
 30
0.0
 10
4.1944515499
 20
5.8023385202
 30
0.0
 10
4.2000742021
 20
5.7676297792
 30
0.0
  0
SPLINE
  5
3C7
100
AcDbEntity
  8
0
100
AcDbSpline
 62
7
  6
CONTINUOUS
 70
0
 71
3
 72
45
 73
41
 74
0
 42
0.0000001
 43
0.0000001
 44
0.0000000001
 40
0.0
 40
0.0
 40
0.0
 40
0.0
 40
0.0892424142
 40
0.1751110074
 40
0.2158688856
 40
0.2547275281
 40
0.2913856001
 40
0.3255738321
 40
0.3570618239
 40
0.3856694715
 40
0.4112827137
 40
0.4338756667
 40
0.4535482222
 40
0.4623796917
 40
0.4706104704
 40
0.4855801622
 40
0.4925795213
 40
0.4994300441
 40
0.5062865795
 40
0.5133034632
 40
0.5283380696
 40
0.5366122704
 40
0.5454925733
 40
0.565273092
 40
0.5879809212
 40
0.6137101358
 40
0.6424307122
 40
0.6740256946
 40
0.7083132465
 40
0.7450609467
 40
0.7839980001
 40
0.8248209779
 40
0.8458360333
 40
0.8671978828
 40
0.8888677604
 40
0.910803547
 40
0.9329426237
 40
0.955213779
 40
0.9775669133
 40
1.0
 40
1.0
 40
1.0
 40
1.0
 10
4.6777630092
 20
2.0729945066
 30
0.0
 10
4.6762856067
 20
2.0730181805
 30
0.0
 10
4.6733867315
 20
2.0731224992
 30
0.0
 10
4.6698266887
 20
2.0734703872
 30
0.0
 10
4.667116591
 20
2.0738770813
 30
0.0
 10
4.6652242284
 20
2.0742336989
 30
0.0
 10
4.6634541023
 20
2.0746436082
 30
0.0
 10
4.6618224452
 20
2.0751028937
 30
0.0
 10
4.66034415
 20
2.0756072885
 30
0.0
 10
4.6590325272
 20
2.0761520743
 30
0.0
 10
4.6578989024
 20
2.0767324178
 30
0.0
 10
4.6569530275
 20
2.0773433938
 30
0.0
 10
4.6563052978
 20
2.077893379
 30
0.0
 10
4.655898677
 20
2.078347098
 30
0.0
 10
4.6555864105
 20
2.0787763585
 30
0.0
 10
4.6553623944
 20
2.0792312593
 30
0.0
 10
4.6552526834
 20
2.0796973982
 30
0.0
 10
4.6552270915
 20
2.080040764
 30
0.0
 10
4.6552569219
 20
2.0803840732
 30
0.0
 10
4.6553724227
 20
2.0808503099
 30
0.0
 10
4.6556019982
 20
2.0813046689
 30
0.0
 10
4.655919355
 20
2.0817334022
 30
0.0
 10
4.6563314812
 20
2.0821865976
 30
0.0
 10
4.6569857278
 20
2.082735736
 30
0.0
 10
4.6579389412
 20
2.0833456148
 30
0.0
 10
4.6590795795
 20
2.0839246814
 30
0.0
 10
4.6603978097
 20
2.0844680082
 30
0.0
 10
4.6618822331
 20
2.0849707737
 30
0.0
 10
4.6635194926
 20
2.085428199
 30
0.0
 10
4.665294596
 20
2.0858362256
 30
0.0
 10
4.667191276
 20
2.086190663
 30
0.0
 10
4.6688420778
 20
2.0864358199
 30
0.0
 10
4.6702092735
 20
2.086604733
 30
0.0
 10
4.671263758
 20
2.0867173313
 30
0.0
 10
4.6723351974
 20
2.086813278
 30
0.0
 10
4.6734209929
 20
2.0868912081
 30
0.0
 10
4.6745176916
 20
2.0869544386
 30
0.0
 10
4.6756218513
 20
2.0870071531
 30
0.0
 10
4.6767312864
 20
2.0870507718
 30
0.0
 10
4.6774726534
 20
2.0870685274
 30
0.0
 10
4.6778440456
 20
2.0870735344
 30
0.0
  0
SPLINE
  5
3C8
100
AcDbEntity
  8
0
100
AcDbSpline
 62
7
  6
CONTINUOUS
 70
0
 71
3
 72
44
 73
40
 74
0
 42
0.0000001
 43
0.0000001
 44
0.0000000001
 40
0.0
 40
0.0
 40
0.0
 40
0.0
 40
0.0894034776
 40
0.1333334596
 40
0.1762131073
 40
0.2176887449
 40
0.2574195809
 40
0.2950864996
 40
0.3304015408
 40
0.363112571
 40
0.3930131042
 40
0.4199545539
 40
0.4438655495
 40
0.4647834404
 40
0.4829038272
 40
0.4910505192
 40
0.4986863329
 40
0.5059170279
 40
0.5128718071
 40
0.5196977514
 40
0.526551647
 40
0.5335880006
 40
0.5409484504
 40
0.5487541356
 40
0.5571026172
 40
0.5756945923
 40
0.5971333226
 40
0.6215812605
 40
0.6349459571
 40
0.6490590707
 40
0.6794695998
 40
0.7126579508
 40
0.7484085577
 40
0.8265107959
 40
0.8682558812
 40
0.9113510088
 40
0.9554310521
 40
0.9776762352
 40
1.0
 40
1.0
 40
1.0
 40
1.0
 10
4.6778440456
 20
2.0870735344
 30
0.0
 10
4.6793355402
 20
2.087063848
 30
0.0
 10
4.6815604116
 20
2.0870115325
 30
0.0
 10
4.6844941343
 20
2.0868163086
 30
0.0
 10
4.6866242511
 20
2.0866048446
 30
0.0
 10
4.6886768013
 20
2.0863325339
 30
0.0
 10
4.6906326473
 20
2.086001632
 30
0.0
 10
4.6924734163
 20
2.0856149822
 30
0.0
 10
4.6941819916
 20
2.0851765193
 30
0.0
 10
4.6957425513
 20
2.0846903608
 30
0.0
 10
4.6971408372
 20
2.0841611195
 30
0.0
 10
4.6983642943
 20
2.0835937385
 30
0.0
 10
4.6994025075
 20
2.0829929838
 30
0.0
 10
4.7002466971
 20
2.0823637398
 30
0.0
 10
4.7008019147
 20
2.0817987832
 30
0.0
 10
4.7011293576
 20
2.0813362101
 30
0.0
 10
4.7013126465
 20
2.080997662
 30
0.0
 10
4.7014415269
 20
2.0806558722
 30
0.0
 10
4.7015153044
 20
2.0803117575
 30
0.0
 10
4.7015333866
 20
2.0799664895
 30
0.0
 10
4.7014955333
 20
2.0796214803
 30
0.0
 10
4.7014021989
 20
2.079278062
 30
0.0
 10
4.7012539583
 20
2.0789373396
 30
0.0
 10
4.7010516424
 20
2.0786000972
 30
0.0
 10
4.7006980848
 20
2.0781394043
 30
0.0
 10
4.7001117122
 20
2.0775781711
 30
0.0
 10
4.6992327411
 20
2.0769537467
 30
0.0
 10
4.6983671078
 20
2.0764729045
 30
0.0
 10
4.6975845772
 20
2.0761009733
 30
0.0
 10
4.6966964863
 20
2.0757209231
 30
0.0
 10
4.6954778576
 20
2.0752755549
 30
0.0
 10
4.693890051
 20
2.0747975136
 30
0.0
 10
4.6915082167
 20
2.0742071838
 30
0.0
 10
4.6889496071
 20
2.0737506557
 30
0.0
 10
4.6862527231
 20
2.0734077538
 30
0.0
 10
4.6841107272
 20
2.0732078463
 30
0.0
 10
4.6822881456
 20
2.0731012786
 30
0.0
 10
4.6808107534
 20
2.0730338014
 30
0.0
 10
4.6800676409
 20
2.0730074565
 30
0.0
 10
4.6796953448
 20
2.0729974978
 30
0.0
  0
SPLINE
  5
3C9
100
AcDbEntity
  8
0
100
AcDbSpline
 62
7
  6
CONTINUOUS
 70
0
 71
3
 72
11
 73
7
 74
0
 42
0.0000001
 43
0.0000001
 44
0.0000000001
 40
0.0
 40
0.0
 40
0.0
 40
0.0
 40
0.2510319736
 40
0.5014872535
 40
0.7511867839
 40
1.0
 40
1.0
 40
1.0
 40
1.0
 10
4.4206422482
 20
2.4386708179
 30
0.0
 10
4.4209348163
 20
2.4382052356
 30
0.0
 10
4.4215726967
 20
2.4373074613
 30
0.0
 10
4.4226761098
 20
2.4360820278
 30
0.0
 10
4.4239104056
 20
2.434995839
 30
0.0
 10
4.4248110045
 20
2.4343731857
 30
0.0
 10
4.4252765659
 20
2.4340898232
 30
0.0
  0
LINE
  5
3CA
100
AcDbEntity
  8
0
100
AcDbLine
 62
7
  6
CONTINUOUS
 10
4.4019005713
 20
2.3561442254
 11
4.3984188206
 21
2.3595859122
  0
SPLINE
  5
3CB
100
AcDbEntity
  8
0
100
AcDbSpline
 62
7
  6
CONTINUOUS
 70
0
 71
3
 72
11
 73
7
 74
0
 42
0.0000001
 43
0.0000001
 44
0.0000000001
 40
0.0
 40
0.0
 40
0.0
 40
0.0
 40
0.2488131771
 40
0.4985128498
 40
0.7489681106
 40
1.0
 40
1.0
 40
1.0
 40
1.0
 10
4.9314846629
 20
2.4340898231
 30
0.0
 10
4.9319502271
 20
2.4343731809
 30
0.0
 10
4.9328508227
 20
2.4349958403
 30
0.0
 10
4.9340851191
 20
2.4360820278
 30
0.0
 10
4.9351885331
 20
2.4373074614
 30
0.0
 10
4.9358264093
 20
2.4382052378
 30
0.0
 10
4.9361189806
 20
2.4386708179
 30
0.0
  0
LINE
  5
3CC
100
AcDbEntity
  8
0
100
AcDbLine
 62
7
  6
CONTINUOUS
 10
4.9583424052
 20
2.3595859117
 11
4.9548606567
 21
2.3561442221
  0
SPLINE
  5
3CD
100
AcDbEntity
  8
0
100
AcDbSpline
 62
7
  6
CONTINUOUS
 70
0
 71
3
 72
13
 73
9
 74
0
 42
0.0000001
 43
0.0000001
 44
0.0000000001
 40
0.0
 40
0.0
 40
0.0
 40
0.0
 40
0.189824023
 40
0.2981574693
 40
0.4167526019
 40
0.546192196
 40
0.6866908817
 40
1.0
 40
1.0
 40
1.0
 40
1.0
 10
4.3980830522
 20
2.3561368727
 30
0.0
 10
4.3979837178
 20
2.3563384739
 30
0.0
 10
4.3978918341
 20
2.3566876594
 30
0.0
 10
4.3978617995
 20
2.3571803209
 30
0.0
 10
4.3978836067
 20
2.357602684
 30
0.0
 10
4.3979508563
 20
2.3580582734
 30
0.0
 10
4.3981060246
 20
2.3587317362
 30
0.0
 10
4.3982815379
 20
2.3592414151
 30
0.0
 10
4.3984188913
 20
2.3595859957
 30
0.0
  0
SPLINE
  5
3CE
100
AcDbEntity
  8
0
100
AcDbSpline
 62
7
  6
CONTINUOUS
 70
0
 71
3
 72
14
 73
10
 74
0
 42
0.0000001
 43
0.0000001
 44
0.0000000001
 40
0.0
 40
0.0
 40
0.0
 40
0.0
 40
0.0651746534
 40
0.1464925793
 40
0.2452622205
 40
0.361854874
 40
0.4961783225
 40
0.6478144223
 40
1.0
 40
1.0
 40
1.0
 40
1.0
 10
4.3992737114
 20
2.3549598968
 30
0.0
 10
4.3993365654
 20
2.3549517173
 30
0.0
 10
4.3994805191
 20
2.3549553652
 30
0.0
 10
4.3997148307
 20
2.3550027032
 30
0.0
 10
4.3999896985
 20
2.3550920935
 30
0.0
 10
4.4003037288
 20
2.3552232476
 30
0.0
 10
4.4006554225
 20
2.3553956645
 30
0.0
 10
4.4011994111
 20
2.3556947101
 30
0.0
 10
4.4016147706
 20
2.355955488
 30
0.0
 10
4.4019005896
 20
2.3561442216
 30
0.0
  0
SPLINE
  5
3CF
100
AcDbEntity
  8
0
100
AcDbSpline
 62
7
  6
CONTINUOUS
 70
0
 71
3
 72
15
 73
11
 74
0
 42
0.0000001
 43
0.0000001
 44
0.0000000001
 40
0.0
 40
0.0
 40
0.0
 40
0.0
 40
0.023729237
 40
0.0528838267
 40
0.127616883
 40
0.2240602908
 40
0.341585087
 40
0.4792162083
 40
0.6357803778
 40
1.0
 40
1.0
 40
1.0
 40
1.0
 10
4.4469065813
 20
2.3124605203
 30
0.0
 10
4.4469339665
 20
2.3124742949
 30
0.0
 10
4.4469929174
 20
2.3125090988
 30
0.0
 10
4.447128094
 20
2.3126036062
 30
0.0
 10
4.4473274417
 20
2.3127691962
 30
0.0
 10
4.4476007416
 20
2.3130230505
 30
0.0
 10
4.4479216831
 20
2.3133445972
 30
0.0
 10
4.4482873389
 20
2.3137308972
 30
0.0
 10
4.4488593578
 20
2.3143604458
 30
0.0
 10
4.4492993015
 20
2.3148695834
 30
0.0
 10
4.4496033519
 20
2.3152286595
 30
0.0
  0
SPLINE
  5
3D0
100
AcDbEntity
  8
0
100
AcDbSpline
 62
7
  6
CONTINUOUS
 70
0
 71
3
 72
13
 73
9
 74
0
 42
0.0000001
 43
0.0000001
 44
0.0000000001
 40
0.0
 40
0.0
 40
0.0
 40
0.0
 40
0.1897239891
 40
0.2980375696
 40
0.4166341685
 40
0.5460909912
 40
0.6866171429
 40
1.0
 40
1.0
 40
1.0
 40
1.0
 10
4.958678183
 20
2.3561368624
 30
0.0
 10
4.9587774016
 20
2.3563383665
 30
0.0
 10
4.9588690707
 20
2.3566874275
 30
0.0
 10
4.9588989771
 20
2.3571799063
 30
0.0
 10
4.9588771504
 20
2.3576022278
 30
0.0
 10
4.9588099535
 20
2.3580578369
 30
0.0
 10
4.9586549369
 20
2.358731415
 30
0.0
 10
4.9584796046
 20
2.3592412267
 30
0.0
 10
4.9583424077
 20
2.3595859285
 30
0.0
  0
SPLINE
  5
3D1
100
AcDbEntity
  8
0
100
AcDbSpline
 62
7
  6
CONTINUOUS
 70
0
 71
3
 72
31
 73
27
 74
0
 42
0.0000001
 43
0.0000001
 44
0.0000000001
 40
0.0
 40
0.0
 40
0.0
 40
0.0
 40
0.097579181
 40
0.1939211999
 40
0.287802726
 40
0.3780552834
 40
0.4635735886
 40
0.543349723
 40
0.6164997887
 40
0.6823034957
 40
0.7122918462
 40
0.7402777908
 40
0.7662493436
 40
0.7902199969
 40
0.8122419424
 40
0.8324107404
 40
0.8508829954
 40
0.8678873487
 40
0.8837406205
 40
0.8988490032
 40
0.9136913239
 40
0.9287752746
 40
0.9445823163
 40
0.9615226936
 40
0.9799177586
 40
1.0
 40
1.0
 40
1.0
 40
1.0
 10
4.6783806144
 20
2.0899696976
 30
0.0
 10
4.6773043507
 20
2.0899696976
 30
0.0
 10
4.6751652656
 20
2.0899314368
 30
0.0
 10
4.6719948662
 20
2.089759744
 30
0.0
 10
4.6689135425
 20
2.0894763069
 30
0.0
 10
4.6659643203
 20
2.0890852287
 30
0.0
 10
4.6631881825
 20
2.0885921066
 30
0.0
 10
4.6606234941
 20
2.0880040582
 30
0.0
 10
4.6583056956
 20
2.087329476
 30
0.0
 10
4.6565550459
 20
2.0866847789
 30
0.0
 10
4.6553086222
 20
2.0861265755
 30
0.0
 10
4.6544835616
 20
2.0857053773
 30
0.0
 10
4.6537417135
 20
2.0852701609
 30
0.0
 10
4.6530855912
 20
2.0848221937
 30
0.0
 10
4.6525172895
 20
2.0843629413
 30
0.0
 10
4.6520387572
 20
2.083893557
 30
0.0
 10
4.6516516447
 20
2.0834152322
 30
0.0
 10
4.6513577656
 20
2.0829289071
 30
0.0
 10
4.6511590492
 20
2.082435793
 30
0.0
 10
4.6510576975
 20
2.081937745
 30
0.0
 10
4.6510552904
 20
2.0814377938
 30
0.0
 10
4.6511518593
 20
2.0809395728
 30
0.0
 10
4.6513459019
 20
2.0804461717
 30
0.0
 10
4.6516352107
 20
2.0799594752
 30
0.0
 10
4.6520178084
 20
2.079480777
 30
0.0
 10
4.6523199078
 20
2.0791814058
 30
0.0
 10
4.6524842927
 20
2.0790329476
 30
0.0
  0
SPLINE
  5
3D2
100
AcDbEntity
  8
0
100
AcDbSpline
 62
7
  6
CONTINUOUS
 70
0
 71
3
 72
15
 73
11
 74
0
 42
0.0000001
 43
0.0000001
 44
0.0000000001
 40
0.0
 40
0.0
 40
0.0
 40
0.0
 40
0.3675784464
 40
0.5240304402
 40
0.6607517594
 40
0.7769141792
 40
0.8719794562
 40
0.9459598674
 40
0.9753374172
 40
1.0
 40
1.0
 40
1.0
 40
1.0
 10
4.9330078149
 20
2.4396701886
 30
0.0
 10
4.933374657
 20
2.4395011535
 30
0.0
 10
4.9339018332
 20
2.4392687788
 30
0.0
 10
4.9345783458
 20
2.4390048296
 30
0.0
 10
4.9350030387
 20
2.4388563503
 30
0.0
 10
4.93536973
 20
2.4387471877
 30
0.0
 10
4.9356755963
 20
2.4386781091
 30
0.0
 10
4.9358929224
 20
2.4386514658
 30
0.0
 10
4.9360337856
 20
2.4386547462
 30
0.0
 10
4.9360927696
 20
2.4386639311
 30
0.0
 10
4.9361189808
 20
2.4386708164
 30
0.0
  0
SPLINE
  5
3D3
100
AcDbEntity
  8
0
100
AcDbSpline
 62
7
  6
CONTINUOUS
 70
0
 71
3
 72
14
 73
10
 74
0
 42
0.0000001
 43
0.0000001
 44
0.0000000001
 40
0.0
 40
0.0
 40
0.0
 40
0.0
 40
0.3245623977
 40
0.4688034799
 40
0.6002074902
 40
0.7185533772
 40
0.824005014
 40
0.9173248553
 40
1.0
 40
1.0
 40
1.0
 40
1.0
 10
4.9314300184
 20
2.4381105463
 30
0.0
 10
4.9315445274
 20
2.4376808802
 30
0.0
 10
4.9316852132
 20
2.4370525966
 30
0.0
 10
4.9317911877
 20
2.436236654
 30
0.0
 10
4.9318228208
 20
2.4356972467
 30
0.0
 10
4.9318097288
 20
2.4352100737
 30
0.0
 10
4.9317517238
 20
2.4347784145
 30
0.0
 10
4.931648955
 20
2.4344053863
 30
0.0
 10
4.931544755
 20
2.4341858396
 30
0.0
 10
4.9314846652
 20
2.4340898245
 30
0.0
  0
SPLINE
  5
3D4
100
AcDbEntity
  8
0
100
AcDbSpline
 62
7
  6
CONTINUOUS
 70
0
 71
3
 72
14
 73
10
 74
0
 42
0.0000001
 43
0.0000001
 44
0.0000000001
 40
0.0
 40
0.0
 40
0.0
 40
0.0
 40
0.3246660484
 40
0.4689465821
 40
0.6003744904
 40
0.718722709
 40
0.8241488982
 40
0.9174141226
 40
1.0
 40
1.0
 40
1.0
 40
1.0
 10
4.4253312104
 20
2.4381105463
 30
0.0
 10
4.4252169505
 20
2.4376807207
 30
0.0
 10
4.4250767317
 20
2.4370522143
 30
0.0
 10
4.4249710479
 20
2.4362361055
 30
0.0
 10
4.4249394898
 20
2.4356966701
 30
0.0
 10
4.4249525072
 20
2.4352095561
 30
0.0
 10
4.4250102827
 20
2.4347780301
 30
0.0
 10
4.4251127134
 20
2.4344052013
 30
0.0
 10
4.4252166265
 20
2.4341857712
 30
0.0
 10
4.4252765657
 20
2.4340898217
 30
0.0
  0
SPLINE
  5
3D5
100
AcDbEntity
  8
0
100
AcDbSpline
 62
7
  6
CONTINUOUS
 70
0
 71
3
 72
15
 73
11
 74
0
 42
0.0000001
 43
0.0000001
 44
0.0000000001
 40
0.0
 40
0.0
 40
0.0
 40
0.0
 40
0.3674957977
 40
0.5239152854
 40
0.6606145851
 40
0.7767700328
 40
0.8718496839
 40
0.9458721394
 40
0.9752860302
 40
1.0
 40
1.0
 40
1.0
 40
1.0
 10
4.4237534139
 20
2.4396701886
 30
0.0
 10
4.4233867337
 20
2.4395009006
 30
0.0
 10
4.4228598252
 20
2.4392680512
 30
0.0
 10
4.422183497
 20
2.4390037909
 30
0.0
 10
4.4217588445
 20
2.438855228
 30
0.0
 10
4.4213920981
 20
2.4387461279
 30
0.0
 10
4.4210860836
 20
2.4386772654
 30
0.0
 10
4.420868583
 20
2.4386509118
 30
0.0
 10
4.4207275642
 20
2.4386544886
 30
0.0
 10
4.4206684997
 20
2.4386638431
 30
0.0
 10
4.4206422496
 20
2.4386708155
 30
0.0
  0
SPLINE
  5
3D6
100
AcDbEntity
  8
0
100
AcDbSpline
 62
7
  6
CONTINUOUS
 70
0
 71
3
 72
14
 73
10
 74
0
 42
0.0000001
 43
0.0000001
 44
0.0000000001
 40
0.0
 40
0.0
 40
0.0
 40
0.0
 40
0.0652309314
 40
0.1465859619
 40
0.2453687278
 40
0.36195673
 40
0.4962636221
 40
0.6478757895
 40
1.0
 40
1.0
 40
1.0
 40
1.0
 10
4.957487507
 20
2.354959903
 30
0.0
 10
4.9574245995
 20
2.3549516571
 30
0.0
 10
4.9572805356
 20
2.3549551494
 30
0.0
 10
4.957046051
 20
2.3550023107
 30
0.0
 10
4.9567710723
 20
2.3550916147
 30
0.0
 10
4.9564570043
 20
2.3552227578
 30
0.0
 10
4.9561053413
 20
2.3553952355
 30
0.0
 10
4.9555614802
 20
2.3556944462
 30
0.0
 10
4.955146272
 20
2.3559554125
 30
0.0
 10
4.9548605865
 20
2.3561443061
 30
0.0
  0
SPLINE
  5
3D7
100
AcDbEntity
  8
0
100
AcDbSpline
 62
7
  6
CONTINUOUS
 70
0
 71
3
 72
32
 73
28
 74
0
 42
0.0000001
 43
0.0000001
 44
0.0000000001
 40
0.0
 40
0.0
 40
0.0
 40
0.0
 40
0.0025743518
 40
0.0055429452
 40
0.0089463573
 40
0.0128117441
 40
0.017157625
 40
0.0219948636
 40
0.0331619695
 40
0.0463338635
 40
0.0615094097
 40
0.0786774045
 40
0.0978078417
 40
0.1188553522
 40
0.1417870097
 40
0.1932404636
 40
0.2518897196
 40
0.3171640035
 40
0.3884195557
 40
0.4261183626
 40
0.4651107441
 40
0.5466334623
 40
0.632220254
 40
0.721096708
 40
0.8125590073
 40
0.9058109513
 40
1.0
 40
1.0
 40
1.0
 40
1.0
 10
4.8181940249
 20
2.2911740302
 30
0.0
 10
4.8181514972
 20
2.2912234206
 30
0.0
 10
4.8180498133
 20
2.2913211331
 30
0.0
 10
4.8178667536
 20
2.2914552466
 30
0.0
 10
4.8176429896
 20
2.2915867483
 30
0.0
 10
4.8173783711
 20
2.2917155148
 30
0.0
 10
4.8170727553
 20
2.2918414089
 30
0.0
 10
4.8165870157
 20
2.2920136909
 30
0.0
 10
4.815876181
 20
2.2922169537
 30
0.0
 10
4.814900498
 20
2.2924393783
 30
0.0
 10
4.8137671983
 20
2.292649498
 30
0.0
 10
4.8124787624
 20
2.2928462333
 30
0.0
 10
4.8110384139
 20
2.2930296998
 30
0.0
 10
4.8094497627
 20
2.2932011108
 30
0.0
 10
4.8070436962
 20
2.2934224111
 30
0.0
 10
4.8036836197
 20
2.2936604486
 30
0.0
 10
4.7992489668
 20
2.2938851022
 30
0.0
 10
4.7943106318
 20
2.2940650947
 30
0.0
 10
4.7899010079
 20
2.2941810336
 30
0.0
 10
4.7861560093
 20
2.2942532025
 30
0.0
 10
4.7821507665
 20
2.2943095261
 30
0.0
 10
4.7769327671
 20
2.2943443915
 30
0.0
 10
4.7704517254
 20
2.2943352718
 30
0.0
 10
4.763719271
 20
2.2942791051
 30
0.0
 10
4.7567932543
 20
2.2941791161
 30
0.0
 10
4.7497332842
 20
2.2940466731
 30
0.0
 10
4.7449886553
 20
2.2939508776
 30
0.0
 10
4.7426046189
 20
2.2938965228
 30
0.0
  0
SPLINE
  5
3D8
100
AcDbEntity
  8
0
100
AcDbSpline
 62
7
  6
CONTINUOUS
 70
0
 71
3
 72
26
 73
22
 74
0
 42
0.0000001
 43
0.0000001
 44
0.0000000001
 40
0.0
 40
0.0
 40
0.0
 40
0.0
 40
0.2057427464
 40
0.2998918781
 40
0.3882310636
 40
0.4707651703
 40
0.5475001701
 40
0.6184434996
 40
0.6836045784
 40
0.7429955774
 40
0.7966325953
 40
0.8445375324
 40
0.8867412134
 40
0.9057193769
 40
0.9232910329
 40
0.9394658637
 40
0.9542562948
 40
0.9676785972
 40
0.9797545735
 40
0.9905142134
 40
1.0
 40
1.0
 40
1.0
 40
1.0
 10
4.7426046189
 20
2.2938965228
 30
0.0
 10
4.7422961033
 20
2.2991617092
 30
0.0
 10
4.7418812362
 20
2.3068384484
 30
0.0
 10
4.7414373529
 20
2.3167809106
 30
0.0
 10
4.741181304
 20
2.3235699999
 30
0.0
 10
4.7409920108
 20
2.3299146923
 30
0.0
 10
4.7408694422
 20
2.3358150108
 30
0.0
 10
4.7408135231
 20
2.3412709816
 30
0.0
 10
4.7408241568
 20
2.3462826491
 30
0.0
 10
4.740901224
 20
2.3508500721
 30
0.0
 10
4.7410445096
 20
2.3549733808
 30
0.0
 10
4.7412538634
 20
2.3586526824
 30
0.0
 10
4.741490464
 20
2.361439658
 30
0.0
 10
4.7417184784
 20
2.3634457148
 30
0.0
 10
4.7419000188
 20
2.3647851878
 30
0.0
 10
4.7420981146
 20
2.3660137168
 30
0.0
 10
4.7423127546
 20
2.3671313719
 30
0.0
 10
4.7425438939
 20
2.3681382444
 30
0.0
 10
4.742791514
 20
2.3690345265
 30
0.0
 10
4.7430555748
 20
2.3698203513
 30
0.0
 10
4.743254833
 20
2.3703002996
 30
0.0
 10
4.7433587781
 20
2.3705201318
 30
0.0
  0
SPLINE
  5
3D9
100
AcDbEntity
  8
0
100
AcDbSpline
 62
7
  6
CONTINUOUS
 70
0
 71
3
 72
23
 73
19
 74
0
 42
0.0000001
 43
0.0000001
 44
0.0000000001
 40
0.0
 40
0.0
 40
0.0
 40
0.0
 40
0.0624984774
 40
0.0937477803
 40
0.1249972686
 40
0.1874968891
 40
0.2499970779
 40
0.3124975371
 40
0.374998214
 40
0.4999999974
 40
0.6250017829
 40
0.6875024615
 40
0.7500029218
 40
0.812503111
 40
0.8750027311
 40
0.9062522195
 40
0.9375015226
 40
1.0
 40
1.0
 40
1.0
 40
1.0
 10
4.7426046193
 20
2.2938965151
 30
0.0
 10
4.7399287895
 20
2.2938640693
 30
0.0
 10
4.7359151064
 20
2.2938102551
 30
0.0
 10
4.7305634922
 20
2.2937406709
 30
0.0
 10
4.7252117509
 20
2.2936772601
 30
0.0
 10
4.7185218716
 20
2.29361118
 30
0.0
 10
4.7104938352
 20
2.2935473532
 30
0.0
 10
4.7024656572
 20
2.2934969834
 30
0.0
 10
4.6917612649
 20
2.2934495232
 30
0.0
 10
4.6783806147
 20
2.2934273501
 30
0.0
 10
4.6649999643
 20
2.2934495171
 30
0.0
 10
4.6542955719
 20
2.2934970021
 30
0.0
 10
4.6462673937
 20
2.2935473572
 30
0.0
 10
4.6382393572
 20
2.293611173
 30
0.0
 10
4.6315494779
 20
2.2936772571
 30
0.0
 10
4.6261977367
 20
2.2937406727
 30
0.0
 10
4.6208461224
 20
2.2938102555
 30
0.0
 10
4.6168324393
 20
2.2938640674
 30
0.0
 10
4.6141566095
 20
2.2938965158
 30
0.0
  0
SPLINE
  5
3DA
100
AcDbEntity
  8
0
100
AcDbSpline
 62
7
  6
CONTINUOUS
 70
0
 71
3
 72
26
 73
22
 74
0
 42
0.0000001
 43
0.0000001
 44
0.0000000001
 40
0.0
 40
0.0
 40
0.0
 40
0.0
 40
0.2057427476
 40
0.2998918798
 40
0.3882310657
 40
0.4707651726
 40
0.5475001726
 40
0.6184435023
 40
0.6836045811
 40
0.7429955801
 40
0.7966325978
 40
0.8445375348
 40
0.8867412154
 40
0.9057193788
 40
0.9232910346
 40
0.9394658651
 40
0.954256296
 40
0.9676785982
 40
0.9797545741
 40
0.9905142137
 40
1.0
 40
1.0
 40
1.0
 40
1.0
 10
4.6141566095
 20
2.2938965158
 30
0.0
 10
4.6144651252
 20
2.2991617028
 30
0.0
 10
4.6148799923
 20
2.3068384427
 30
0.0
 10
4.6153238757
 20
2.3167809058
 30
0.0
 10
4.6155799246
 20
2.3235699958
 30
0.0
 10
4.6157692179
 20
2.3299146888
 30
0.0
 10
4.6158917866
 20
2.3358150078
 30
0.0
 10
4.6159477057
 20
2.3412709791
 30
0.0
 10
4.615937072
 20
2.3462826471
 30
0.0
 10
4.6158600048
 20
2.3508500705
 30
0.0
 10
4.6157167193
 20
2.3549733796
 30
0.0
 10
4.6155073655
 20
2.3586526815
 30
0.0
 10
4.6152707649
 20
2.3614396574
 30
0.0
 10
4.6150427505
 20
2.3634457143
 30
0.0
 10
4.61486121
 20
2.3647851874
 30
0.0
 10
4.6146631143
 20
2.3660137165
 30
0.0
 10
4.6144484742
 20
2.3671313717
 30
0.0
 10
4.6142173349
 20
2.3681382442
 30
0.0
 10
4.6139697148
 20
2.3690345264
 30
0.0
 10
4.613705654
 20
2.3698203513
 30
0.0
 10
4.6135063958
 20
2.3703002996
 30
0.0
 10
4.6134024507
 20
2.3705201318
 30
0.0
  0
SPLINE
  5
3DB
100
AcDbEntity
  8
0
100
AcDbSpline
 62
7
  6
CONTINUOUS
 70
0
 71
3
 72
32
 73
28
 74
0
 42
0.0000001
 43
0.0000001
 44
0.0000000001
 40
0.0
 40
0.0
 40
0.0
 40
0.0
 40
0.0941892879
 40
0.1874415251
 40
0.2789040526
 40
0.3677807233
 40
0.4533677189
 40
0.5348905647
 40
0.5738830313
 40
0.6115819311
 40
0.6828375852
 40
0.7481119021
 40
0.8067610718
 40
0.8582142016
 40
0.8811458052
 40
0.9021934235
 40
0.9213241348
 40
0.938492279
 40
0.9536675667
 40
0.9668385641
 40
0.9780041978
 40
0.9828406763
 40
0.9871859004
 40
0.9910508689
 40
0.9944543327
 40
0.9974237365
 40
1.0
 40
1.0
 40
1.0
 40
1.0
 10
4.6141566097
 20
2.2938965192
 30
0.0
 10
4.6117725653
 20
2.2939508434
 30
0.0
 10
4.6070279225
 20
2.2940467455
 30
0.0
 10
4.5999679276
 20
2.2941790969
 30
0.0
 10
4.593041889
 20
2.2942791237
 30
0.0
 10
4.5863094141
 20
2.2943352402
 30
0.0
 10
4.5798283551
 20
2.2943444034
 30
0.0
 10
4.5746103426
 20
2.2943094939
 30
0.0
 10
4.5706050896
 20
2.294253201
 30
0.0
 10
4.5668600792
 20
2.2941811671
 30
0.0
 10
4.5624504492
 20
2.294065111
 30
0.0
 10
4.5575121168
 20
2.293884974
 30
0.0
 10
4.5530774647
 20
2.2936604455
 30
0.0
 10
4.5497173975
 20
2.2934224194
 30
0.0
 10
4.5473113305
 20
2.2932011854
 30
0.0
 10
4.5457226718
 20
2.2930297543
 30
0.0
 10
4.5442823172
 20
2.2928462214
 30
0.0
 10
4.5429938859
 20
2.2926494244
 30
0.0
 10
4.5418606164
 20
2.2924392803
 30
0.0
 10
4.540884994
 20
2.2922168909
 30
0.0
 10
4.5401742185
 20
2.292013712
 30
0.0
 10
4.539688527
 20
2.2918415124
 30
0.0
 10
4.5393829368
 20
2.2917156783
 30
0.0
 10
4.5391183227
 20
2.2915869615
 30
0.0
 10
4.538894536
 20
2.2914554748
 30
0.0
 10
4.538711419
 20
2.2913213182
 30
0.0
 10
4.538609697
 20
2.2912235447
 30
0.0
 10
4.5385671425
 20
2.2911741134
 30
0.0
  0
SPLINE
  5
3DC
100
AcDbEntity
  8
0
100
AcDbSpline
 62
7
  6
CONTINUOUS
 70
0
 71
3
 72
21
 73
17
 74
0
 42
0.0000001
 43
0.0000001
 44
0.0000000001
 40
0.0
 40
0.0
 40
0.0
 40
0.0
 40
0.1398835059
 40
0.2727359797
 40
0.3369140353
 40
0.3997986148
 40
0.4615661981
 40
0.5224029864
 40
0.5825038332
 40
0.6420708142
 40
0.7013114687
 40
0.7604367726
 40
0.8196589344
 40
0.879189127
 40
0.9392352732
 40
1.0
 40
1.0
 40
1.0
 40
1.0
 10
4.5385671425
 20
2.2911741134
 30
0.0
 10
4.5371800237
 20
2.2969015932
 30
0.0
 10
4.5340342019
 20
2.3079687761
 30
0.0
 10
4.5289288775
 20
2.321237086
 30
0.0
 10
4.5242348306
 20
2.3311344027
 30
0.0
 10
4.5204553033
 20
2.3381386536
 30
0.0
 10
4.516376465
 20
2.344808593
 30
0.0
 10
4.511998189
 20
2.3511441295
 30
0.0
 10
4.50732046
 20
2.3571449707
 30
0.0
 10
4.5023433069
 20
2.3628108575
 30
0.0
 10
4.4970668293
 20
2.3681415237
 30
0.0
 10
4.4914911818
 20
2.3731367352
 30
0.0
 10
4.4856165975
 20
2.3777962874
 30
0.0
 10
4.4794432554
 20
2.3821200805
 30
0.0
 10
4.4729717016
 20
2.3861079014
 30
0.0
 10
4.4684895082
 20
2.3885258275
 30
0.0
 10
4.4662036058
 20
2.3896781382
 30
0.0
  0
SPLINE
  5
3DD
100
AcDbEntity
  8
0
100
AcDbSpline
 62
7
  6
CONTINUOUS
 70
0
 71
3
 72
15
 73
11
 74
0
 42
0.0000001
 43
0.0000001
 44
0.0000000001
 40
0.0
 40
0.0
 40
0.0
 40
0.0
 40
0.0963229758
 40
0.2001804252
 40
0.3120518979
 40
0.4321700078
 40
0.5607382722
 40
0.6980060715
 40
0.8442683306
 40
1.0
 40
1.0
 40
1.0
 40
1.0
 10
4.5385671093
 20
2.2911742505
 30
0.0
 10
4.537967475
 20
2.2906677521
 30
0.0
 10
4.5367742138
 20
2.2895515253
 30
0.0
 10
4.5350691052
 20
2.2876618063
 30
0.0
 10
4.533387087
 20
2.2855003381
 30
0.0
 10
4.531724175
 20
2.2830763048
 30
0.0
 10
4.5300806548
 20
2.2803933756
 30
0.0
 10
4.5284581663
 20
2.2774520186
 30
0.0
 10
4.5268582757
 20
2.2742490549
 30
0.0
 10
4.525835388
 20
2.2720102918
 30
0.0
 10
4.5253240498
 20
2.2708488354
 30
0.0
  0
SPLINE
  5
3DE
100
AcDbEntity
  8
0
100
AcDbSpline
 62
7
  6
CONTINUOUS
 70
0
 71
3
 72
20
 73
16
 74
0
 42
0.0000001
 43
0.0000001
 44
0.0000000001
 40
0.0
 40
0.0
 40
0.0
 40
0.0
 40
0.1364683716
 40
0.2674839978
 40
0.3940188866
 40
0.4559571582
 40
0.5171878066
 40
0.577859602
 40
0.6381254532
 40
0.6981413719
 40
0.7580653221
 40
0.8180559942
 40
0.8782715509
 40
0.9388683943
 40
1.0
 40
1.0
 40
1.0
 40
1.0
 10
4.5253240498
 20
2.2708488354
 30
0.0
 10
4.5236074769
 20
2.2758486702
 30
0.0
 10
4.5198769312
 20
2.2855289613
 30
0.0
 10
4.5132207207
 20
2.2992835028
 30
0.0
 10
4.5068450805
 20
2.3099136511
 30
0.0
 10
4.5012845886
 20
2.3178321579
 30
0.0
 10
4.4969109124
 20
2.3234559537
 30
0.0
 10
4.4923047964
 20
2.3288057379
 30
0.0
 10
4.4874662101
 20
2.3338815412
 30
0.0
 10
4.4823952322
 20
2.3386831897
 30
0.0
 10
4.4770919423
 20
2.3432105806
 30
0.0
 10
4.4715564657
 20
2.3474636073
 30
0.0
 10
4.4657888773
 20
2.3514422259
 30
0.0
 10
4.4597895087
 20
2.3551462908
 30
0.0
 10
4.4556565528
 20
2.3574210234
 30
0.0
 10
4.4535548044
 20
2.3585119767
 30
0.0
  0
LINE
  5
3DF
100
AcDbEntity
  8
0
100
AcDbLine
 62
7
  6
CONTINUOUS
 10
4.5253240497
 20
2.2708488355
 11
4.5219617985
 21
2.2628467013
  0
SPLINE
  5
3E0
100
AcDbEntity
  8
0
100
AcDbSpline
 62
7
  6
CONTINUOUS
 70
0
 71
3
 72
15
 73
11
 74
0
 42
0.0000001
 43
0.0000001
 44
0.0000000001
 40
0.0
 40
0.0
 40
0.0
 40
0.0
 40
0.1309427732
 40
0.2590619321
 40
0.3848899303
 40
0.5089887162
 40
0.6319439497
 40
0.754357705
 40
0.8768400416
 40
1.0
 40
1.0
 40
1.0
 40
1.0
 10
4.5219617985
 20
2.2628467013
 30
0.0
 10
4.5198620968
 20
2.26711946
 30
0.0
 10
4.515454907
 20
2.2754516683
 30
0.0
 10
4.508138659
 20
2.2873914722
 30
0.0
 10
4.5001960689
 20
2.2986219653
 30
0.0
 10
4.4916273384
 20
2.3091416821
 30
0.0
 10
4.4824326112
 20
2.3189498142
 30
0.0
 10
4.4726121542
 20
2.3280455664
 30
0.0
 10
4.4621673319
 20
2.3364277604
 30
0.0
 10
4.4548189138
 20
2.3415186551
 30
0.0
 10
4.4510524372
 20
2.3439403579
 30
0.0
  0
SPLINE
  5
3E1
100
AcDbEntity
  8
0
100
AcDbSpline
 62
7
  6
CONTINUOUS
 70
0
 71
3
 72
13
 73
9
 74
0
 42
0.0000001
 43
0.0000001
 44
0.0000000001
 40
0.0
 40
0.0
 40
0.0
 40
0.0
 40
0.2236831217
 40
0.3423436129
 40
0.4655689881
 40
0.5931871686
 40
0.7250919025
 40
1.0
 40
1.0
 40
1.0
 40
1.0
 10
4.5219618016
 20
2.262846695
 30
0.0
 10
4.5216765702
 20
2.2620926726
 30
0.0
 10
4.5212852196
 20
2.2609205914
 30
0.0
 10
4.5208604981
 20
2.2592968122
 30
0.0
 10
4.5205859071
 20
2.2579931258
 30
0.0
 10
4.520374068
 20
2.2566292138
 30
0.0
 10
4.5201902035
 20
2.2547112304
 30
0.0
 10
4.5201899813
 20
2.2532391059
 30
0.0
 10
4.5202602913
 20
2.2522508179
 30
0.0
  0
SPLINE
  5
3E2
100
AcDbEntity
  8
0
100
AcDbSpline
 62
7
  6
CONTINUOUS
 70
0
 71
3
 72
20
 73
16
 74
0
 42
0.0000001
 43
0.0000001
 44
0.0000000001
 40
0.0
 40
0.0
 40
0.0
 40
0.0
 40
0.1249613629
 40
0.1874499457
 40
0.2499430787
 40
0.3124421826
 40
0.3749480659
 40
0.4374585455
 40
0.499973187
 40
0.5624939978
 40
0.6250220989
 40
0.6875524644
 40
0.7500792997
 40
0.875094401
 40
1.0
 40
1.0
 40
1.0
 40
1.0
 10
4.5202602913
 20
2.2522508179
 30
0.0
 10
4.5175582635
 20
2.254941776
 30
0.0
 10
4.5135240398
 20
2.2589974012
 30
0.0
 10
4.5081378463
 20
2.2643980683
 30
0.0
 10
4.5040830456
 20
2.268434451
 30
0.0
 10
4.5000016346
 20
2.2724447251
 30
0.0
 10
4.4958847639
 20
2.2764193882
 30
0.0
 10
4.49172877
 20
2.2803538417
 30
0.0
 10
4.4875293034
 20
2.28424257
 30
0.0
 10
4.4832820754
 20
2.2880799233
 30
0.0
 10
4.4789840632
 20
2.2918610481
 30
0.0
 10
4.4746364424
 20
2.2955853159
 30
0.0
 10
4.4687753127
 20
2.3004729111
 30
0.0
 10
4.4613307866
 20
2.3064324307
 30
0.0
 10
4.4552520095
 20
2.3110402281
 30
0.0
 10
4.4521844955
 20
2.3133028796
 30
0.0
  0
SPLINE
  5
3E3
100
AcDbEntity
  8
0
100
AcDbSpline
 62
7
  6
CONTINUOUS
 70
0
 71
3
 72
11
 73
7
 74
0
 42
0.0000001
 43
0.0000001
 44
0.0000000001
 40
0.0
 40
0.0
 40
0.0
 40
0.0
 40
0.2350540808
 40
0.4786850785
 40
0.7330634534
 40
1.0
 40
1.0
 40
1.0
 40
1.0
 10
4.5202988706
 20
2.2519886941
 30
0.0
 10
4.520282832
 20
2.2513143162
 30
0.0
 10
4.5203119256
 20
2.2499387151
 30
0.0
 10
4.5205442904
 20
2.2478452114
 30
0.0
 10
4.520969511
 20
2.2456891752
 30
0.0
 10
4.5213675311
 20
2.2442456151
 30
0.0
 10
4.5215933773
 20
2.2435135966
 30
0.0
  0
SPLINE
  5
3E4
100
AcDbEntity
  8
0
100
AcDbSpline
 62
7
  6
CONTINUOUS
 70
0
 71
3
 72
20
 73
16
 74
0
 42
0.0000001
 43
0.0000001
 44
0.0000000001
 40
0.0
 40
0.0
 40
0.0
 40
0.0
 40
0.1043606173
 40
0.1587496575
 40
0.2146514972
 40
0.3309893287
 40
0.391408499
 40
0.4532949975
 40
0.5166219196
 40
0.5813792387
 40
0.647579283
 40
0.7152333968
 40
0.7843332665
 40
0.8548550975
 40
1.0
 40
1.0
 40
1.0
 40
1.0
 10
4.5215933773
 20
2.2435135966
 30
0.0
 10
4.5222515317
 20
2.2413873517
 30
0.0
 10
4.5232102046
 20
2.2381398038
 30
0.0
 10
4.5244551799
 20
2.233734309
 30
0.0
 10
4.5257391166
 20
2.2290744374
 30
0.0
 10
4.5270102523
 20
2.2242777585
 30
0.0
 10
4.5282671248
 20
2.2193456276
 30
0.0
 10
4.5292168046
 20
2.2155020466
 30
0.0
 10
4.5301569903
 20
2.211560946
 30
0.0
 10
4.5310867635
 20
2.2075229243
 30
0.0
 10
4.5320125172
 20
2.2033893685
 30
0.0
 10
4.5329401394
 20
2.1991613692
 30
0.0
 10
4.5338715261
 20
2.1948398587
 30
0.0
 10
4.5351288627
 20
2.1888979971
 30
0.0
 10
4.5360551997
 20
2.184392464
 30
0.0
 10
4.5366619003
 20
2.1813568844
 30
0.0
  0
SPLINE
  5
3E5
100
AcDbEntity
  8
0
100
AcDbSpline
 62
7
  6
CONTINUOUS
 70
0
 71
3
 72
11
 73
7
 74
0
 42
0.0000001
 43
0.0000001
 44
0.0000000001
 40
0.0
 40
0.0
 40
0.0
 40
0.0
 40
0.2155747806
 40
0.4502568433
 40
0.7102751867
 40
1.0
 40
1.0
 40
1.0
 40
1.0
 10
4.5366619415
 20
2.1813568429
 30
0.0
 10
4.536758021
 20
2.1808021287
 30
0.0
 10
4.5370909423
 20
2.1796640999
 30
0.0
 10
4.5379424914
 20
2.1780067239
 30
0.0
 10
4.5391515778
 20
2.1763450892
 30
0.0
 10
4.5401345057
 20
2.1752942069
 30
0.0
 10
4.5406764506
 20
2.1747662261
 30
0.0
  0
SPLINE
  5
3E6
100
AcDbEntity
  8
0
100
AcDbSpline
 62
7
  6
CONTINUOUS
 70
0
 71
3
 72
31
 73
27
 74
0
 42
0.0000001
 43
0.0000001
 44
0.0000000001
 40
0.0
 40
0.0
 40
0.0
 40
0.0
 40
0.0975791893
 40
0.1939212261
 40
0.2878027614
 40
0.378055325
 40
0.463573626
 40
0.5433497514
 40
0.6164998104
 40
0.6823035138
 40
0.7122918628
 40
0.7402778054
 40
0.7662493559
 40
0.7902200076
 40
0.8122419509
 40
0.8324107479
 40
0.8508830011
 40
0.867887354
 40
0.8837406245
 40
0.8988490068
 40
0.9136913269
 40
0.928775277
 40
0.9445823186
 40
0.9615226948
 40
0.9799177597
 40
1.0
 40
1.0
 40
1.0
 40
1.0
 10
4.6783806144
 20
2.0899696976
 30
0.0
 10
4.6794568782
 20
2.0899696976
 30
0.0
 10
4.6815959636
 20
2.0899314368
 30
0.0
 10
4.6847663633
 20
2.0897597439
 30
0.0
 10
4.6878476874
 20
2.0894763068
 30
0.0
 10
4.6907969098
 20
2.0890852285
 30
0.0
 10
4.6935730474
 20
2.0885921064
 30
0.0
 10
4.6961377356
 20
2.088004058
 30
0.0
 10
4.6984555339
 20
2.0873294757
 30
0.0
 10
4.7002061835
 20
2.0866847786
 30
0.0
 10
4.7014526071
 20
2.0861265753
 30
0.0
 10
4.7022776676
 20
2.0857053771
 30
0.0
 10
4.7030195156
 20
2.0852701606
 30
0.0
 10
4.7036756379
 20
2.0848221936
 30
0.0
 10
4.7042439395
 20
2.0843629411
 30
0.0
 10
4.7047224718
 20
2.0838935569
 30
0.0
 10
4.7051095841
 20
2.083415232
 30
0.0
 10
4.7054034633
 20
2.0829289069
 30
0.0
 10
4.7056021796
 20
2.0824357928
 30
0.0
 10
4.7057035314
 20
2.0819377449
 30
0.0
 10
4.7057059383
 20
2.0814377937
 30
0.0
 10
4.7056093696
 20
2.0809395727
 30
0.0
 10
4.7054153268
 20
2.0804461717
 30
0.0
 10
4.7051260181
 20
2.0799594751
 30
0.0
 10
4.7047434204
 20
2.079480777
 30
0.0
 10
4.7044413209
 20
2.0791814058
 30
0.0
 10
4.7042769361
 20
2.0790329476
 30
0.0
  0
SPLINE
  5
3E7
100
AcDbEntity
  8
0
100
AcDbSpline
 62
7
  6
CONTINUOUS
 70
0
 71
3
 72
11
 73
7
 74
0
 42
0.0000001
 43
0.0000001
 44
0.0000000001
 40
0.0
 40
0.0
 40
0.0
 40
0.0
 40
0.260336067
 40
0.5120643878
 40
0.7576367022
 40
1.0
 40
1.0
 40
1.0
 40
1.0
 10
4.6435820523
 20
2.1981023269
 30
0.0
 10
4.6441598427
 20
2.1979269174
 30
0.0
 10
4.6453202041
 20
2.1976543279
 30
0.0
 10
4.647076442
 20
2.1974962216
 30
0.0
 10
4.6487953921
 20
2.1975993235
 30
0.0
 10
4.649906238
 20
2.1978428216
 30
0.0
 10
4.6504441404
 20
2.1980061188
 30
0.0
  0
SPLINE
  5
3E8
100
AcDbEntity
  8
0
100
AcDbSpline
 62
7
  6
CONTINUOUS
 70
0
 71
3
 72
11
 73
7
 74
0
 42
0.0000001
 43
0.0000001
 44
0.0000000001
 40
0.0
 40
0.0
 40
0.0
 40
0.0
 40
0.270793116
 40
0.5280441247
 40
0.7709780181
 40
1.0
 40
1.0
 40
1.0
 40
1.0
 10
4.6343489504
 20
2.2046565704
 30
0.0
 10
4.6350126225
 20
2.2038618922
 30
0.0
 10
4.6363965371
 20
2.2023839505
 30
0.0
 10
4.6386757738
 20
2.2005007845
 30
0.0
 10
4.6410637057
 20
2.1990424592
 30
0.0
 10
4.6427441612
 20
2.1983566995
 30
0.0
 10
4.6435820523
 20
2.1981023269
 30
0.0
  0
SPLINE
  5
3E9
100
AcDbEntity
  8
0
100
AcDbSpline
 62
7
  6
CONTINUOUS
 70
0
 71
3
 72
20
 73
16
 74
0
 42
0.0000001
 43
0.0000001
 44
0.0000000001
 40
0.0
 40
0.0
 40
0.0
 40
0.0
 40
0.1451448554
 40
0.2156666291
 40
0.2847664754
 40
0.3524206217
 40
0.4186208893
 40
0.4833786275
 40
0.5467059709
 40
0.6085923443
 40
0.6690109133
 40
0.7853481716
 40
0.8412503646
 40
0.895639373
 40
1.0
 40
1.0
 40
1.0
 40
1.0
 10
4.8200993286
 20
2.1813568846
 30
0.0
 10
4.8207060297
 20
2.184392463
 30
0.0
 10
4.8216323662
 20
2.1888979938
 30
0.0
 10
4.8228897033
 20
2.1948398523
 30
0.0
 10
4.8238210924
 20
2.1991613612
 30
0.0
 10
4.824748698
 20
2.2033893691
 30
0.0
 10
4.8256744566
 20
2.2075229385
 30
0.0
 10
4.8266042787
 20
2.2115609723
 30
0.0
 10
4.8275445609
 20
2.2155020653
 30
0.0
 10
4.8284942086
 20
2.2193456472
 30
0.0
 10
4.8297509411
 20
2.2242777849
 30
0.0
 10
4.831022021
 20
2.2290744615
 30
0.0
 10
4.8323060702
 20
2.2337342963
 30
0.0
 10
4.8335510102
 20
2.2381398081
 30
0.0
 10
4.8345096979
 20
2.2413873513
 30
0.0
 10
4.8351678515
 20
2.2435135966
 30
0.0
  0
SPLINE
  5
3EA
100
AcDbEntity
  8
0
100
AcDbSpline
 62
7
  6
CONTINUOUS
 70
0
 71
3
 72
11
 73
7
 74
0
 42
0.0000001
 43
0.0000001
 44
0.0000000001
 40
0.0
 40
0.0
 40
0.0
 40
0.0
 40
0.2669368826
 40
0.5213153563
 40
0.7649461405
 40
1.0
 40
1.0
 40
1.0
 40
1.0
 10
4.8351678515
 20
2.2435135966
 30
0.0
 10
4.8353936978
 20
2.2442456152
 30
0.0
 10
4.8357917185
 20
2.2456891747
 30
0.0
 10
4.836216936
 20
2.2478452096
 30
0.0
 10
4.8364492999
 20
2.24993871
 30
0.0
 10
4.8364783907
 20
2.2513143085
 30
0.0
 10
4.8364623493
 20
2.2519886849
 30
0.0
  0
SPLINE
  5
3EB
100
AcDbEntity
  8
0
100
AcDbSpline
 62
7
  6
CONTINUOUS
 70
0
 71
3
 72
13
 73
9
 74
0
 42
0.0000001
 43
0.0000001
 44
0.0000000001
 40
0.0
 40
0.0
 40
0.0
 40
0.0
 40
0.2749012291
 40
0.4068042117
 40
0.5344241285
 40
0.6576521786
 40
0.7763145275
 40
1.0
 40
1.0
 40
1.0
 40
1.0
 10
4.8365010835
 20
2.252250963
 30
0.0
 10
4.8365713756
 20
2.2532392141
 30
0.0
 10
4.8365710547
 20
2.25471129
 30
0.0
 10
4.8363871305
 20
2.2566292145
 30
0.0
 10
4.8361753003
 20
2.2579931181
 30
0.0
 10
4.835900732
 20
2.2592968142
 30
0.0
 10
4.8354760183
 20
2.2609205982
 30
0.0
 10
4.8350846577
 20
2.2620926747
 30
0.0
 10
4.8347994271
 20
2.2628466948
 30
0.0
  0
SPLINE
  5
3EC
100
AcDbEntity
  8
0
100
AcDbSpline
 62
7
  6
CONTINUOUS
 70
0
 71
3
 72
15
 73
11
 74
0
 42
0.0000001
 43
0.0000001
 44
0.0000000001
 40
0.0
 40
0.0
 40
0.0
 40
0.0
 40
0.1309427742
 40
0.2590619336
 40
0.3848899321
 40
0.5089887179
 40
0.6319439511
 40
0.754357706
 40
0.8768400421
 40
1.0
 40
1.0
 40
1.0
 40
1.0
 10
4.8347994271
 20
2.2628466948
 30
0.0
 10
4.8368991289
 20
2.2671194539
 30
0.0
 10
4.8413063187
 20
2.2754516629
 30
0.0
 10
4.848622567
 20
2.2873914679
 30
0.0
 10
4.8565651573
 20
2.2986219619
 30
0.0
 10
4.8651338882
 20
2.3091416796
 30
0.0
 10
4.8743286158
 20
2.3189498125
 30
0.0
 10
4.8841490733
 20
2.3280455654
 30
0.0
 10
4.8945938963
 20
2.33642776
 30
0.0
 10
4.9019423148
 20
2.341518655
 30
0.0
 10
4.9057087916
 20
2.3439403579
 30
0.0
  0
SPLINE
  5
3ED
100
AcDbEntity
  8
0
100
AcDbSpline
 62
7
  6
CONTINUOUS
 70
0
 71
3
 72
20
 73
16
 74
0
 42
0.0000001
 43
0.0000001
 44
0.0000000001
 40
0.0
 40
0.0
 40
0.0
 40
0.0
 40
0.1249055968
 40
0.2499206925
 40
0.3124475246
 40
0.3749778865
 40
0.4375059831
 40
0.5000267916
 40
0.5625414374
 40
0.625051924
 40
0.6875578136
 40
0.7500569206
 40
0.8125500544
 40
0.8750386369
 40
1.0
 40
1.0
 40
1.0
 40
1.0
 10
4.9045767665
 20
2.3133029073
 30
0.0
 10
4.9015092584
 20
2.3110402591
 30
0.0
 10
4.8954304928
 20
2.3064324695
 30
0.0
 10
4.8879859796
 20
2.3004729615
 30
0.0
 10
4.8821248597
 20
2.2955853764
 30
0.0
 10
4.8777772464
 20
2.291861116
 30
0.0
 10
4.8734792426
 20
2.2880799976
 30
0.0
 10
4.8692320232
 20
2.2842426502
 30
0.0
 10
4.8650325617
 20
2.2803539308
 30
0.0
 10
4.8608765719
 20
2.2764194871
 30
0.0
 10
4.8567597054
 20
2.2724448337
 30
0.0
 10
4.8526783
 20
2.2684345679
 30
0.0
 10
4.8486235059
 20
2.2643981929
 30
0.0
 10
4.8432373219
 20
2.2589975354
 30
0.0
 10
4.8392031061
 20
2.2549419168
 30
0.0
 10
4.8365010835
 20
2.252250963
 30
0.0
  0
LINE
  5
3EE
100
AcDbEntity
  8
0
100
AcDbLine
 62
7
  6
CONTINUOUS
 10
4.8347994248
 20
2.26284669
 11
4.8314371769
 21
2.2708488402
  0
SPLINE
  5
3EF
100
AcDbEntity
  8
0
100
AcDbSpline
 62
7
  6
CONTINUOUS
 70
0
 71
3
 72
20
 73
16
 74
0
 42
0.0000001
 43
0.0000001
 44
0.0000000001
 40
0.0
 40
0.0
 40
0.0
 40
0.0
 40
0.1364683671
 40
0.2674839903
 40
0.3940188776
 40
0.4559571488
 40
0.5171877973
 40
0.577859593
 40
0.6381254448
 40
0.6981413645
 40
0.7580653158
 40
0.8180559892
 40
0.8782715475
 40
0.9388683926
 40
1.0
 40
1.0
 40
1.0
 40
1.0
 10
4.8314371769
 20
2.2708488402
 30
0.0
 10
4.8331537499
 20
2.2758486747
 30
0.0
 10
4.8368842959
 20
2.2855289651
 30
0.0
 10
4.8435405068
 20
2.2992835055
 30
0.0
 10
4.8499161473
 20
2.3099136531
 30
0.0
 10
4.8554766393
 20
2.3178321594
 30
0.0
 10
4.8598503157
 20
2.3234559549
 30
0.0
 10
4.8644564318
 20
2.3288057388
 30
0.0
 10
4.8692950183
 20
2.3338815419
 30
0.0
 10
4.8743659962
 20
2.3386831901
 30
0.0
 10
4.8796692862
 20
2.3432105809
 30
0.0
 10
4.8852047629
 20
2.3474636074
 30
0.0
 10
4.8909723514
 20
2.351442226
 30
0.0
 10
4.89697172
 20
2.3551462908
 30
0.0
 10
4.901104676
 20
2.3574210234
 30
0.0
 10
4.9032064244
 20
2.3585119767
 30
0.0
  0
SPLINE
  5
3F0
100
AcDbEntity
  8
0
100
AcDbSpline
 62
7
  6
CONTINUOUS
 70
0
 71
3
 72
15
 73
11
 74
0
 42
0.0000001
 43
0.0000001
 44
0.0000000001
 40
0.0
 40
0.0
 40
0.0
 40
0.0
 40
0.1557319071
 40
0.3019931186
 40
0.4392615797
 40
0.5678301591
 40
0.6879473274
 40
0.7998194747
 40
0.9036762977
 40
1.0
 40
1.0
 40
1.0
 40
1.0
 10
4.8314371769
 20
2.2708488402
 30
0.0
 10
4.830925836
 20
2.2720103005
 30
0.0
 10
4.8299029265
 20
2.2742490513
 30
0.0
 10
4.8283030799
 20
2.2774520444
 30
0.0
 10
4.8266805393
 20
2.2803933803
 30
0.0
 10
4.8250370442
 20
2.2830763313
 30
0.0
 10
4.8233741318
 20
2.2855003746
 30
0.0
 10
4.8216920932
 20
2.2876618207
 30
0.0
 10
4.8199870086
 20
2.2895515857
 30
0.0
 10
4.8187936748
 20
2.2906677317
 30
0.0
 10
4.8181940905
 20
2.291174301
 30
0.0
  0
SPLINE
  5
3F1
100
AcDbEntity
  8
0
100
AcDbSpline
 62
7
  6
CONTINUOUS
 70
0
 71
3
 72
21
 73
17
 74
0
 42
0.0000001
 43
0.0000001
 44
0.0000000001
 40
0.0
 40
0.0
 40
0.0
 40
0.0
 40
0.1398838888
 40
0.2727365787
 40
0.3369146862
 40
0.3997992841
 40
0.4615668558
 40
0.5224036069
 40
0.5825043952
 40
0.6420713015
 40
0.7013118703
 40
0.760437083
 40
0.8196591536
 40
0.8791892604
 40
0.9392353319
 40
1.0
 40
1.0
 40
1.0
 40
1.0
 10
4.8181940905
 20
2.291174301
 30
0.0
 10
4.8195811977
 20
2.2969017975
 30
0.0
 10
4.8227269978
 20
2.3079690076
 30
0.0
 10
4.827832305
 20
2.3212373469
 30
0.0
 10
4.8325263428
 20
2.3311346759
 30
0.0
 10
4.8363058646
 20
2.3381389284
 30
0.0
 10
4.8403846996
 20
2.3448088643
 30
0.0
 10
4.8447629744
 20
2.3511443921
 30
0.0
 10
4.8494407043
 20
2.3571452192
 30
0.0
 10
4.8544178604
 20
2.3628110866
 30
0.0
 10
4.8596943432
 20
2.3681417282
 30
0.0
 10
4.8652699979
 20
2.3731369096
 30
0.0
 10
4.8711445916
 20
2.3777964265
 30
0.0
 10
4.8773179452
 20
2.3821201789
 30
0.0
 10
4.8837895125
 20
2.3861079538
 30
0.0
 10
4.8882717156
 20
2.3885258455
 30
0.0
 10
4.8905576229
 20
2.3896781382
 30
0.0
  0
LINE
  5
3F2
100
AcDbEntity
  8
0
100
AcDbLine
 62
7
  6
CONTINUOUS
 10
4.4496313895
 20
2.3104404025
 11
4.4521847476
 21
2.3133026928
  0
LINE
  5
3F3
100
AcDbEntity
  8
0
100
AcDbLine
 62
7
  6
CONTINUOUS
 10
4.5202600465
 20
2.2522510617
 11
4.5202987342
 21
2.2519888212
  0
SPLINE
  5
3F4
100
AcDbEntity
  8
0
100
AcDbSpline
 62
7
  6
CONTINUOUS
 70
0
 71
3
 72
15
 73
11
 74
0
 42
0.0000001
 43
0.0000001
 44
0.0000000001
 40
0.0
 40
0.0
 40
0.0
 40
0.0
 40
0.0237576025
 40
0.0529336184
 40
0.1276930544
 40
0.2241457028
 40
0.3416662925
 40
0.4792838073
 40
0.6358279773
 40
1.0
 40
1.0
 40
1.0
 40
1.0
 10
4.9098557357
 20
2.3124589889
 30
0.0
 10
4.9098283219
 20
2.312472703
 30
0.0
 10
4.9097693178
 20
2.3125073772
 30
0.0
 10
4.9096340644
 20
2.3126015889
 30
0.0
 10
4.9094346763
 20
2.3127667453
 30
0.0
 10
4.9091614084
 20
2.3130200124
 30
0.0
 10
4.9088405924
 20
2.3133408711
 30
0.0
 10
4.9084751539
 20
2.3137263986
 30
0.0
 10
4.9079035649
 20
2.3143547664
 30
0.0
 10
4.9074640301
 20
2.3148630374
 30
0.0
 10
4.907160286
 20
2.3152215248
 30
0.0
  0
LINE
  5
3F5
100
AcDbEntity
  8
0
100
AcDbLine
 62
7
  6
CONTINUOUS
 10
4.8364624994
 20
2.2519888248
 11
4.8365011904
 21
2.2522510695
  0
LINE
  5
3F6
100
AcDbEntity
  8
0
100
AcDbLine
 62
7
  6
CONTINUOUS
 10
4.907129868
 20
2.3104403872
 11
4.9045764972
 21
2.3133026693
  0
SPLINE
  5
3F7
100
AcDbEntity
  8
0
100
AcDbSpline
 62
7
  6
CONTINUOUS
 70
0
 71
3
 72
15
 73
11
 74
0
 42
0.0000001
 43
0.0000001
 44
0.0000000001
 40
0.0
 40
0.0
 40
0.0
 40
0.0
 40
0.1245104129
 40
0.2493358589
 40
0.374405007
 40
0.4996276126
 40
0.6249015762
 40
0.7501208403
 40
0.8751835635
 40
1.0
 40
1.0
 40
1.0
 40
1.0
 10
4.8213278157
 20
2.2540649034
 30
0.0
 10
4.8220300192
 20
2.2540794925
 30
0.0
 10
4.823436105
 20
2.2542079103
 30
0.0
 10
4.8254984092
 20
2.254692662
 30
0.0
 10
4.8274777407
 20
2.2554601024
 30
0.0
 10
4.8293341232
 20
2.2564948835
 30
0.0
 10
4.8310307059
 20
2.2577763279
 30
0.0
 10
4.8325337036
 20
2.2592790322
 30
0.0
 10
4.8338129262
 20
2.2609725796
 30
0.0
 10
4.8345009037
 20
2.2622090257
 30
0.0
 10
4.8347994248
 20
2.2628466899
 30
0.0
  0
SPLINE
  5
3F8
100
AcDbEntity
  8
0
100
AcDbSpline
 62
7
  6
CONTINUOUS
 70
0
 71
3
 72
15
 73
11
 74
0
 42
0.0000001
 43
0.0000001
 44
0.0000000001
 40
0.0
 40
0.0
 40
0.0
 40
0.0
 40
0.1250616072
 40
0.2502398719
 40
0.3754743282
 40
0.5006840089
 40
0.6257972893
 40
0.7507515708
 40
0.8754922364
 40
1.0
 40
1.0
 40
1.0
 40
1.0
 10
4.8172790081
 20
2.2606899429
 30
0.0
 10
4.818052313
 20
2.2606972626
 30
0.0
 10
4.8196011259
 20
2.2608312545
 30
0.0
 10
4.8218649564
 20
2.2613845684
 30
0.0
 10
4.8240193658
 20
2.2622769604
 30
0.0
 10
4.8260120516
 20
2.2634871632
 30
0.0
 10
4.8277954764
 20
2.2649860985
 30
0.0
 10
4.829326843
 20
2.2667381281
 30
0.0
 10
4.8305692749
 20
2.268700599
 30
0.0
 10
4.8311861492
 20
2.2701209983
 30
0.0
 10
4.8314371769
 20
2.2708488402
 30
0.0
  0
LINE
  5
3F9
100
AcDbEntity
  8
0
100
AcDbLine
 62
7
  6
CONTINUOUS
 10
4.7424461675
 20
2.2815108087
 11
4.7426046191
 21
2.2938965151
  0
LINE
  5
3FA
100
AcDbEntity
  8
0
100
AcDbLine
 62
7
  6
CONTINUOUS
 10
4.6143150636
 20
2.2815108087
 11
4.6141566097
 21
2.2938965192
  0
SPLINE
  5
3FB
100
AcDbEntity
  8
0
100
AcDbSpline
 62
7
  6
CONTINUOUS
 70
0
 71
3
 72
15
 73
11
 74
0
 42
0.0000001
 43
0.0000001
 44
0.0000000001
 40
0.0
 40
0.0
 40
0.0
 40
0.0
 40
0.1250616065
 40
0.2502398733
 40
0.375474334
 40
0.5006840202
 40
0.6257973054
 40
0.7507515887
 40
0.8754922499
 40
1.0
 40
1.0
 40
1.0
 40
1.0
 10
4.5394822186
 20
2.2606899381
 30
0.0
 10
4.5387089136
 20
2.2606972579
 30
0.0
 10
4.5371601008
 20
2.26083125
 30
0.0
 10
4.5348962704
 20
2.2613845641
 30
0.0
 10
4.5327418611
 20
2.2622769563
 30
0.0
 10
4.5307491754
 20
2.2634871592
 30
0.0
 10
4.5289657507
 20
2.2649860946
 30
0.0
 10
4.527434384
 20
2.2667381241
 30
0.0
 10
4.5261919519
 20
2.2687005946
 30
0.0
 10
4.5255750775
 20
2.2701209936
 30
0.0
 10
4.5253240497
 20
2.2708488355
 30
0.0
  0
SPLINE
  5
3FC
100
AcDbEntity
  8
0
100
AcDbSpline
 62
7
  6
CONTINUOUS
 70
0
 71
3
 72
15
 73
11
 74
0
 42
0.0000001
 43
0.0000001
 44
0.0000000001
 40
0.0
 40
0.0
 40
0.0
 40
0.0
 40
0.124510408
 40
0.2493358519
 40
0.3744050005
 40
0.4996276088
 40
0.6249015759
 40
0.7501208431
 40
0.8751835672
 40
1.0
 40
1.0
 40
1.0
 40
1.0
 10
4.5354334128
 20
2.2540649031
 30
0.0
 10
4.5347312091
 20
2.2540794922
 30
0.0
 10
4.533325123
 20
2.2542079102
 30
0.0
 10
4.5312628183
 20
2.2546926625
 30
0.0
 10
4.5292834862
 20
2.2554601035
 30
0.0
 10
4.5274271034
 20
2.2564948854
 30
0.0
 10
4.5257305204
 20
2.2577763306
 30
0.0
 10
4.5242275226
 20
2.2592790358
 30
0.0
 10
4.5229483
 20
2.260972584
 30
0.0
 10
4.5222603226
 20
2.2622090306
 30
0.0
 10
4.5219618016
 20
2.262846695
 30
0.0
  0
SPLINE
  5
3FD
100
AcDbEntity
  8
0
100
AcDbSpline
 62
7
  6
CONTINUOUS
 70
0
 71
3
 72
11
 73
7
 74
0
 42
0.0000001
 43
0.0000001
 44
0.0000000001
 40
0.0
 40
0.0
 40
0.0
 40
0.0
 40
0.2514669691
 40
0.5020433649
 40
0.7515604794
 40
1.0
 40
1.0
 40
1.0
 40
1.0
 10
4.5319265078
 20
2.2395844717
 30
0.0
 10
4.5309788244
 20
2.2395727304
 30
0.0
 10
4.5290798323
 20
2.2397262904
 30
0.0
 10
4.5263332042
 20
2.2404824439
 30
0.0
 10
4.5237876574
 20
2.2417362458
 30
0.0
 10
4.5222815026
 20
2.2428785948
 30
0.0
 10
4.5215933773
 20
2.2435135966
 30
0.0
  0
SPLINE
  5
3FE
100
AcDbEntity
  8
0
100
AcDbSpline
 62
7
  6
CONTINUOUS
 70
0
 71
3
 72
11
 73
7
 74
0
 42
0.0000001
 43
0.0000001
 44
0.0000000001
 40
0.0
 40
0.0
 40
0.0
 40
0.0
 40
0.2534864155
 40
0.5049746418
 40
0.7538750219
 40
1.0
 40
1.0
 40
1.0
 40
1.0
 10
4.5474547475
 20
2.1772301213
 30
0.0
 10
4.5464544503
 20
2.1772076363
 30
0.0
 10
4.5444520764
 20
2.1773533915
 30
0.0
 10
4.5415636061
 20
2.1781412514
 30
0.0
 10
4.5389105337
 20
2.1794659721
 30
0.0
 10
4.5373603507
 20
2.1806816227
 30
0.0
 10
4.5366619304
 20
2.1813569064
 30
0.0
  0
SPLINE
  5
3FF
100
AcDbEntity
  8
0
100
AcDbSpline
 62
7
  6
CONTINUOUS
 70
0
 71
3
 72
11
 73
7
 74
0
 42
0.0000001
 43
0.0000001
 44
0.0000000001
 40
0.0
 40
0.0
 40
0.0
 40
0.0
 40
0.2534867133
 40
0.5049747257
 40
0.753874813
 40
1.0
 40
1.0
 40
1.0
 40
1.0
 10
4.8093064814
 20
2.1772301221
 30
0.0
 10
4.810306779
 20
2.1772076197
 30
0.0
 10
4.8123091551
 20
2.1773533431
 30
0.0
 10
4.8151976332
 20
2.1781411695
 30
0.0
 10
4.8178507123
 20
2.1794658737
 30
0.0
 10
4.8194008947
 20
2.1806815242
 30
0.0
 10
4.8200993136
 20
2.18135681
 30
0.0
  0
SPLINE
  5
400
100
AcDbEntity
  8
0
100
AcDbSpline
 62
7
  6
CONTINUOUS
 70
0
 71
3
 72
11
 73
7
 74
0
 42
0.0000001
 43
0.0000001
 44
0.0000000001
 40
0.0
 40
0.0
 40
0.0
 40
0.0
 40
0.2514669696
 40
0.5020433657
 40
0.7515604801
 40
1.0
 40
1.0
 40
1.0
 40
1.0
 10
4.824834721
 20
2.2395844717
 30
0.0
 10
4.8257824044
 20
2.2395727304
 30
0.0
 10
4.8276813965
 20
2.2397262904
 30
0.0
 10
4.8304280246
 20
2.2404824439
 30
0.0
 10
4.8329735714
 20
2.2417362458
 30
0.0
 10
4.8344797262
 20
2.2428785948
 30
0.0
 10
4.8351678515
 20
2.2435135966
 30
0.0
  0
SPLINE
  5
401
100
AcDbEntity
  8
0
100
AcDbSpline
 62
7
  6
CONTINUOUS
 70
0
 71
3
 72
14
 73
10
 74
0
 42
0.0000001
 43
0.0000001
 44
0.0000000001
 40
0.0
 40
0.0
 40
0.0
 40
0.0
 40
0.1245914507
 40
0.2493864325
 40
0.3743248942
 40
0.4993954711
 40
0.6245634865
 40
0.7497830303
 40
1.0
 40
1.0
 40
1.0
 40
1.0
 10
4.5202991764
 20
2.2519884903
 30
0.0
 10
4.520644235
 20
2.251660076
 30
0.0
 10
4.521366857
 20
2.2510353506
 30
0.0
 10
4.5225357578
 20
2.2502059662
 30
0.0
 10
4.5237792784
 20
2.2494894989
 30
0.0
 10
4.5250853731
 20
2.2488914535
 30
0.0
 10
4.5264434922
 20
2.2484192127
 30
0.0
 10
4.5283047266
 20
2.247964552
 30
0.0
 10
4.5297441739
 20
2.2478221015
 30
0.0
 10
4.5307008372
 20
2.2478166555
 30
0.0
  0
SPLINE
  5
402
100
AcDbEntity
  8
0
100
AcDbSpline
 62
7
  6
CONTINUOUS
 70
0
 71
3
 72
14
 73
10
 74
0
 42
0.0000001
 43
0.0000001
 44
0.0000000001
 40
0.0
 40
0.0
 40
0.0
 40
0.0
 40
0.250215816
 40
0.3754355157
 40
0.5006041987
 40
0.6256758554
 40
0.7506134607
 40
0.875406425
 40
1.0
 40
1.0
 40
1.0
 40
1.0
 10
4.8260603991
 20
2.2478166426
 30
0.0
 10
4.8270170669
 20
2.247821821
 30
0.0
 10
4.828456598
 20
2.2479640931
 30
0.0
 10
4.8303177051
 20
2.2484193594
 30
0.0
 10
4.8316757607
 20
2.2488917624
 30
0.0
 10
4.8329821453
 20
2.2494891779
 30
0.0
 10
4.8342258904
 20
2.2502053126
 30
0.0
 10
4.8353945068
 20
2.2510351708
 30
0.0
 10
4.8361167143
 20
2.2516603524
 30
0.0
 10
4.8364618235
 20
2.2519887306
 30
0.0
  0
SPLINE
  5
403
100
AcDbEntity
  8
0
100
AcDbSpline
 62
7
  6
CONTINUOUS
 70
0
 71
3
 72
11
 73
7
 74
0
 42
0.0000001
 43
0.0000001
 44
0.0000000001
 40
0.0
 40
0.0
 40
0.0
 40
0.0
 40
0.2511672482
 40
0.5018372491
 40
0.7515699041
 40
1.0
 40
1.0
 40
1.0
 40
1.0
 10
4.629168016
 20
2.1875379445
 30
0.0
 10
4.6303196471
 20
2.1875379445
 30
0.0
 10
4.6326238391
 20
2.1876986744
 30
0.0
 10
4.6360052233
 20
2.1884174046
 30
0.0
 10
4.6392411093
 20
2.1895978289
 30
0.0
 10
4.6412627047
 20
2.1906805768
 30
0.0
 10
4.6422255939
 20
2.1912891406
 30
0.0
  0
SPLINE
  5
404
100
AcDbEntity
  8
0
100
AcDbSpline
 62
7
  6
CONTINUOUS
 70
0
 71
3
 72
11
 73
7
 74
0
 42
0.0000001
 43
0.0000001
 44
0.0000000001
 40
0.0
 40
0.0
 40
0.0
 40
0.0
 40
0.2484300959
 40
0.4981627509
 40
0.7488327518
 40
1.0
 40
1.0
 40
1.0
 40
1.0
 10
4.6161104381
 20
2.1912891406
 30
0.0
 10
4.6170733272
 20
2.1906805768
 30
0.0
 10
4.6190949227
 20
2.1895978289
 30
0.0
 10
4.6223308087
 20
2.1884174046
 30
0.0
 10
4.6257121928
 20
2.1876986744
 30
0.0
 10
4.6280163848
 20
2.1875379445
 30
0.0
 10
4.629168016
 20
2.1875379445
 30
0.0
  0
SPLINE
  5
405
100
AcDbEntity
  8
0
100
AcDbSpline
 62
7
  6
CONTINUOUS
 70
0
 71
3
 72
11
 73
7
 74
0
 42
0.0000001
 43
0.0000001
 44
0.0000000001
 40
0.0
 40
0.0
 40
0.0
 40
0.0
 40
0.2290219819
 40
0.4719558753
 40
0.729206884
 40
1.0
 40
1.0
 40
1.0
 40
1.0
 10
4.6435820523
 20
2.1769735622
 30
0.0
 10
4.6444199434
 20
2.1772279348
 30
0.0
 10
4.646100399
 20
2.1779136945
 30
0.0
 10
4.6484883309
 20
2.1793720198
 30
0.0
 10
4.6507675675
 20
2.1812551858
 30
0.0
 10
4.6521514822
 20
2.1827331274
 30
0.0
 10
4.6528151542
 20
2.1835278056
 30
0.0
  0
SPLINE
  5
406
100
AcDbEntity
  8
0
100
AcDbSpline
 62
7
  6
CONTINUOUS
 70
0
 71
3
 72
11
 73
7
 74
0
 42
0.0000001
 43
0.0000001
 44
0.0000000001
 40
0.0
 40
0.0
 40
0.0
 40
0.0
 40
0.2290219819
 40
0.4719558753
 40
0.729206884
 40
1.0
 40
1.0
 40
1.0
 40
1.0
 10
4.7131791765
 20
2.1769735622
 30
0.0
 10
4.7123412854
 20
2.1772279348
 30
0.0
 10
4.7106608298
 20
2.1779136945
 30
0.0
 10
4.7082728979
 20
2.1793720198
 30
0.0
 10
4.7059936613
 20
2.1812551858
 30
0.0
 10
4.7046097466
 20
2.1827331274
 30
0.0
 10
4.7039460746
 20
2.1835278056
 30
0.0
  0
SPLINE
  5
407
100
AcDbEntity
  8
0
100
AcDbSpline
 62
7
  6
CONTINUOUS
 70
0
 71
3
 72
11
 73
7
 74
0
 42
0.0000001
 43
0.0000001
 44
0.0000000001
 40
0.0
 40
0.0
 40
0.0
 40
0.0
 40
0.2511672482
 40
0.5018372491
 40
0.7515699041
 40
1.0
 40
1.0
 40
1.0
 40
1.0
 10
4.7275932128
 20
2.1875379445
 30
0.0
 10
4.7264415817
 20
2.1875379445
 30
0.0
 10
4.7241373897
 20
2.1876986744
 30
0.0
 10
4.7207560055
 20
2.1884174046
 30
0.0
 10
4.7175201195
 20
2.1895978289
 30
0.0
 10
4.7154985241
 20
2.1906805768
 30
0.0
 10
4.7145356349
 20
2.1912891406
 30
0.0
  0
SPLINE
  5
408
100
AcDbEntity
  8
0
100
AcDbSpline
 62
7
  6
CONTINUOUS
 70
0
 71
3
 72
11
 73
7
 74
0
 42
0.0000001
 43
0.0000001
 44
0.0000000001
 40
0.0
 40
0.0
 40
0.0
 40
0.0
 40
0.2484300959
 40
0.4981627509
 40
0.7488327518
 40
1.0
 40
1.0
 40
1.0
 40
1.0
 10
4.7406507907
 20
2.1912891406
 30
0.0
 10
4.7396879016
 20
2.1906805768
 30
0.0
 10
4.7376663061
 20
2.1895978289
 30
0.0
 10
4.7344304201
 20
2.1884174046
 30
0.0
 10
4.731049036
 20
2.1876986744
 30
0.0
 10
4.728744844
 20
2.1875379445
 30
0.0
 10
4.7275932128
 20
2.1875379445
 30
0.0
  0
SPLINE
  5
409
100
AcDbEntity
  8
0
100
AcDbSpline
 62
7
  6
CONTINUOUS
 70
0
 71
3
 72
11
 73
7
 74
0
 42
0.0000001
 43
0.0000001
 44
0.0000000001
 40
0.0
 40
0.0
 40
0.0
 40
0.0
 40
0.260336067
 40
0.5120643878
 40
0.7576367022
 40
1.0
 40
1.0
 40
1.0
 40
1.0
 10
4.7131791765
 20
2.1981023269
 30
0.0
 10
4.7126013861
 20
2.1979269174
 30
0.0
 10
4.7114410247
 20
2.1976543279
 30
0.0
 10
4.7096847868
 20
2.1974962216
 30
0.0
 10
4.7079658367
 20
2.1975993235
 30
0.0
 10
4.7068549908
 20
2.1978428216
 30
0.0
 10
4.7063170884
 20
2.1980061188
 30
0.0
  0
SPLINE
  5
40A
100
AcDbEntity
  8
0
100
AcDbSpline
 62
7
  6
CONTINUOUS
 70
0
 71
3
 72
11
 73
7
 74
0
 42
0.0000001
 43
0.0000001
 44
0.0000000001
 40
0.0
 40
0.0
 40
0.0
 40
0.0
 40
0.270793116
 40
0.5280441247
 40
0.7709780181
 40
1.0
 40
1.0
 40
1.0
 40
1.0
 10
4.7224122784
 20
2.2046565704
 30
0.0
 10
4.7217486063
 20
2.2038618922
 30
0.0
 10
4.7203646917
 20
2.2023839505
 30
0.0
 10
4.718085455
 20
2.2005007845
 30
0.0
 10
4.7156975231
 20
2.1990424592
 30
0.0
 10
4.7140170676
 20
2.1983566995
 30
0.0
 10
4.7131791765
 20
2.1981023269
 30
0.0
  0
SPLINE
  5
40B
100
AcDbEntity
  8
0
100
AcDbSpline
 62
7
  6
CONTINUOUS
 70
0
 71
3
 72
11
 73
7
 74
0
 42
0.0000001
 43
0.0000001
 44
0.0000000001
 40
0.0
 40
0.0
 40
0.0
 40
0.0
 40
0.2423632978
 40
0.4879356122
 40
0.739663933
 40
1.0
 40
1.0
 40
1.0
 40
1.0
 10
4.6367199643
 20
2.176877354
 30
0.0
 10
4.6372578666
 20
2.1767140569
 30
0.0
 10
4.6383687126
 20
2.1764705588
 30
0.0
 10
4.6400876627
 20
2.1763674568
 30
0.0
 10
4.6418439006
 20
2.1765255631
 30
0.0
 10
4.643004262
 20
2.1767981527
 30
0.0
 10
4.6435820523
 20
2.1769735622
 30
0.0
  0
SPLINE
  5
40C
100
AcDbEntity
  8
0
100
AcDbSpline
 62
7
  6
CONTINUOUS
 70
0
 71
3
 72
15
 73
11
 74
0
 42
0.0000001
 43
0.0000001
 44
0.0000000001
 40
0.0
 40
0.0
 40
0.0
 40
0.0
 40
0.1274325181
 40
0.2527912098
 40
0.376741013
 40
0.4999821694
 40
0.6232256074
 40
0.7471822105
 40
0.8725520925
 40
1.0
 40
1.0
 40
1.0
 40
1.0
 10
4.7477380426
 20
2.2101271732
 30
0.0
 10
4.7496534333
 20
2.2041496461
 30
0.0
 10
4.7530244205
 20
2.1921488173
 30
0.0
 10
4.7566733024
 20
2.1739360507
 30
0.0
 10
4.7588624097
 20
2.1556970543
 30
0.0
 10
4.7595891371
 20
2.1374457175
 30
0.0
 10
4.7588530544
 20
2.1191944216
 30
0.0
 10
4.7566546011
 20
2.1009555469
 30
0.0
 10
4.7529963919
 20
2.0827429793
 30
0.0
 10
4.7496193075
 20
2.0707425099
 30
0.0
 10
4.7477008827
 20
2.0647651597
 30
0.0
  0
SPLINE
  5
40D
100
AcDbEntity
  8
0
100
AcDbSpline
 62
7
  6
CONTINUOUS
 70
0
 71
3
 72
15
 73
11
 74
0
 42
0.0000001
 43
0.0000001
 44
0.0000000001
 40
0.0
 40
0.0
 40
0.0
 40
0.0
 40
0.127448107
 40
0.2528179938
 40
0.3767745456
 40
0.5000179658
 40
0.6232590911
 40
0.747208801
 40
0.8725674168
 40
1.0
 40
1.0
 40
1.0
 40
1.0
 10
4.6090605065
 20
2.0647648036
 30
0.0
 10
4.6071420232
 20
2.0707421466
 30
0.0
 10
4.6037648512
 20
2.0827426063
 30
0.0
 10
4.6001066277
 20
2.1009551856
 30
0.0
 10
4.5979082478
 20
2.1191940697
 30
0.0
 10
4.5971721788
 20
2.1374453624
 30
0.0
 10
4.5978988373
 20
2.155696696
 30
0.0
 10
4.6000878149
 20
2.1739357017
 30
0.0
 10
4.6037366439
 20
2.1921484801
 30
0.0
 10
4.6071076657
 20
2.2041493029
 30
0.0
 10
4.6090230863
 20
2.2101268251
 30
0.0
  0
SPLINE
  5
40E
100
AcDbEntity
  8
0
100
AcDbSpline
 62
7
  6
CONTINUOUS
 70
0
 71
3
 72
28
 73
24
 74
0
 42
0.0000001
 43
0.0000001
 44
0.0000000001
 40
0.0
 40
0.0
 40
0.0
 40
0.0
 40
0.2026244792
 40
0.2977003815
 40
0.3870828975
 40
0.4697410802
 40
0.5448140688
 40
0.6116435476
 40
0.6698462271
 40
0.6957154865
 40
0.7194858027
 40
0.7412608276
 40
0.7612104356
 40
0.7795847401
 40
0.7967242036
 40
0.813069107
 40
0.829134691
 40
0.8454673834
 40
0.8625834038
 40
0.8809246528
 40
0.900835525
 40
0.9462350252
 40
1.0
 40
1.0
 40
1.0
 40
1.0
 10
4.6760046102
 20
2.210127227
 30
0.0
 10
4.6750225908
 20
2.2100720575
 30
0.0
 10
4.6735815351
 20
2.2099403233
 30
0.0
 10
4.6717245984
 20
2.20965044
 30
0.0
 10
4.6704536385
 20
2.2093909408
 30
0.0
 10
4.6692922298
 20
2.2090883869
 30
0.0
 10
4.6682560095
 20
2.2087470924
 30
0.0
 10
4.667358918
 20
2.2083718284
 30
0.0
 10
4.6667129256
 20
2.2080223676
 30
0.0
 10
4.6662809648
 20
2.2077258422
 30
0.0
 10
4.6660116313
 20
2.2075068863
 30
0.0
 10
4.6657849327
 20
2.2072831624
 30
0.0
 10
4.6656017079
 20
2.2070551758
 30
0.0
 10
4.6654627051
 20
2.2068234565
 30
0.0
 10
4.6653689812
 20
2.2065884929
 30
0.0
 10
4.6653214579
 20
2.2063512397
 30
0.0
 10
4.6653208926
 20
2.2061130971
 30
0.0
 10
4.6653673766
 20
2.2058758067
 30
0.0
 10
4.6654600472
 20
2.2056407843
 30
0.0
 10
4.6655979884
 20
2.2054089547
 30
0.0
 10
4.6658522271
 20
2.2050909906
 30
0.0
 10
4.6662906404
 20
2.204707975
 30
0.0
 10
4.6666998207
 20
2.2044518191
 30
0.0
 10
4.6669280827
 20
2.2043252946
 30
0.0
  0
SPLINE
  5
40F
100
AcDbEntity
  8
0
100
AcDbSpline
 62
7
  6
CONTINUOUS
 70
0
 71
3
 72
31
 73
27
 74
0
 42
0.0000001
 43
0.0000001
 44
0.0000000001
 40
0.0
 40
0.0
 40
0.0
 40
0.0
 40
0.0701726026
 40
0.1483427674
 40
0.2324159806
 40
0.3200221194
 40
0.4086469828
 40
0.4957338421
 40
0.5787885961
 40
0.6554895465
 40
0.6908154083
 40
0.723822581
 40
0.7543277509
 40
0.7821894494
 40
0.8073174817
 40
0.8296945768
 40
0.849398517
 40
0.8666501856
 40
0.8818724776
 40
0.8957507515
 40
0.9092254193
 40
0.9233299144
 40
0.9389551857
 40
0.9567254708
 40
0.9770136026
 40
1.0
 40
1.0
 40
1.0
 40
1.0
 10
4.7224122784
 20
2.2046565704
 30
0.0
 10
4.7218242569
 20
2.2048350859
 30
0.0
 10
4.7205614527
 20
2.2051481849
 30
0.0
 10
4.7185534611
 20
2.2054889494
 30
0.0
 10
4.7163761614
 20
2.2057183245
 30
0.0
 10
4.7140981406
 20
2.2058285705
 30
0.0
 10
4.7117911211
 20
2.2058160033
 30
0.0
 10
4.7095278578
 20
2.2056810543
 30
0.0
 10
4.7073797898
 20
2.2054281673
 30
0.0
 10
4.7056979971
 20
2.2051185025
 30
0.0
 10
4.7044648886
 20
2.2048127195
 30
0.0
 10
4.7036347611
 20
2.2045664082
 30
0.0
 10
4.7028801761
 20
2.204298859
 30
0.0
 10
4.7022069216
 20
2.2040121874
 30
0.0
 10
4.701620066
 20
2.2037085325
 30
0.0
 10
4.701123805
 20
2.2033901194
 30
0.0
 10
4.7007215724
 20
2.2030587509
 30
0.0
 10
4.7004162296
 20
2.202715677
 30
0.0
 10
4.7002110753
 20
2.2023612885
 30
0.0
 10
4.7001118669
 20
2.2019967185
 30
0.0
 10
4.7001244295
 20
2.2016283288
 30
0.0
 10
4.7002479349
 20
2.2012657288
 30
0.0
 10
4.7004757974
 20
2.2009138458
 30
0.0
 10
4.7008030126
 20
2.2005733072
 30
0.0
 10
4.7012264673
 20
2.2002447462
 30
0.0
 10
4.701550579
 20
2.2000469795
 30
0.0
 10
4.7017266368
 20
2.1999493846
 30
0.0
  0
SPLINE
  5
410
100
AcDbEntity
  8
0
100
AcDbSpline
 62
7
  6
CONTINUOUS
 70
0
 71
3
 72
14
 73
10
 74
0
 42
0.0000001
 43
0.0000001
 44
0.0000000001
 40
0.0
 40
0.0
 40
0.0
 40
0.0
 40
0.0957906502
 40
0.1952267472
 40
0.3014199361
 40
0.4168783573
 40
0.5434571877
 40
0.682424153
 40
1.0
 40
1.0
 40
1.0
 40
1.0
 10
4.7145356349
 20
2.1912891406
 30
0.0
 10
4.7145356349
 20
2.1912060274
 30
0.0
 10
4.7145535408
 20
2.1910361651
 30
0.0
 10
4.7146327882
 20
2.1907853456
 30
0.0
 10
4.7147635137
 20
2.1905378412
 30
0.0
 10
4.7149444126
 20
2.1902946237
 30
0.0
 10
4.7151743912
 20
2.1900560997
 30
0.0
 10
4.7155626949
 20
2.1897306746
 30
0.0
 10
4.7158996864
 20
2.1895185912
 30
0.0
 10
4.7161406846
 20
2.1893850042
 30
0.0
  0
SPLINE
  5
411
100
AcDbEntity
  8
0
100
AcDbSpline
 62
7
  6
CONTINUOUS
 70
0
 71
3
 72
35
 73
31
 74
0
 42
0.0000001
 43
0.0000001
 44
0.0000000001
 40
0.0
 40
0.0
 40
0.0
 40
0.0
 40
0.0068031517
 40
0.013768869
 40
0.0287095988
 40
0.0457722601
 40
0.0655187278
 40
0.0882255237
 40
0.1139815913
 40
0.1427501184
 40
0.1744032937
 40
0.2087495909
 40
0.2455468248
 40
0.3253139174
 40
0.4111107119
 40
0.4999999768
 40
0.5888892472
 40
0.674686036
 40
0.7544531397
 40
0.7912503721
 40
0.8255966822
 40
0.8572498632
 40
0.88601839
 40
0.911774466
 40
0.9344812675
 40
0.9542277358
 40
0.9712903992
 40
0.9862311308
 40
0.9931968483
 40
1.0
 40
1.0
 40
1.0
 40
1.0
 10
4.7406507907
 20
2.1912891406
 30
0.0
 10
4.7406507907
 20
2.1913541583
 30
0.0
 10
4.7406399667
 20
2.1914859862
 30
0.0
 10
4.740574304
 20
2.1917534115
 30
0.0
 10
4.7404034873
 20
2.1920900261
 30
0.0
 10
4.7400808823
 20
2.192468978
 30
0.0
 10
4.7396415604
 20
2.1928335866
 30
0.0
 10
4.7390891644
 20
2.1931822507
 30
0.0
 10
4.7384281328
 20
2.1935127465
 30
0.0
 10
4.7376641455
 20
2.1938222066
 30
0.0
 10
4.7368041145
 20
2.1941078051
 30
0.0
 10
4.7358560094
 20
2.1943667938
 30
0.0
 10
4.73444811
 20
2.1946816347
 30
0.0
 10
4.7325360567
 20
2.1949850688
 30
0.0
 10
4.7301126178
 20
2.1952041991
 30
0.0
 10
4.7275932134
 20
2.1952781989
 30
0.0
 10
4.7250738091
 20
2.1952041991
 30
0.0
 10
4.7226503702
 20
2.1949850689
 30
0.0
 10
4.7207383168
 20
2.194681635
 30
0.0
 10
4.7193304171
 20
2.194366794
 30
0.0
 10
4.7183823118
 20
2.1941078053
 30
0.0
 10
4.7175222807
 20
2.1938222069
 30
0.0
 10
4.7167582933
 20
2.1935127467
 30
0.0
 10
4.7160972616
 20
2.1931822508
 30
0.0
 10
4.7155448654
 20
2.1928335867
 30
0.0
 10
4.7151055435
 20
2.192468978
 30
0.0
 10
4.7147829384
 20
2.1920900262
 30
0.0
 10
4.7146121216
 20
2.1917534115
 30
0.0
 10
4.7145464589
 20
2.1914859862
 30
0.0
 10
4.7145356349
 20
2.1913541583
 30
0.0
 10
4.7145356349
 20
2.1912891406
 30
0.0
  0
SPLINE
  5
412
100
AcDbEntity
  8
0
100
AcDbSpline
 62
7
  6
CONTINUOUS
 70
0
 71
3
 72
23
 73
19
 74
0
 42
0.0000001
 43
0.0000001
 44
0.0000000001
 40
0.0
 40
0.0
 40
0.0
 40
0.0
 40
0.0985207276
 40
0.1898767263
 40
0.2736759164
 40
0.349768424
 40
0.4181728266
 40
0.4791270442
 40
0.5331987482
 40
0.5814211315
 40
0.6254176239
 40
0.6674224749
 40
0.7100388174
 40
0.7557517936
 40
0.8065210103
 40
0.8636856152
 40
0.9280416228
 40
1.0
 40
1.0
 40
1.0
 40
1.0
 10
4.7039460746
 20
2.1835278056
 30
0.0
 10
4.7037071539
 20
2.1834552725
 30
0.0
 10
4.703249598
 20
2.1833055526
 30
0.0
 10
4.7026019279
 20
2.1830564139
 30
0.0
 10
4.7020220143
 20
2.1827923365
 30
0.0
 10
4.7015135023
 20
2.1825150767
 30
0.0
 10
4.7010793257
 20
2.1822261714
 30
0.0
 10
4.7007219293
 20
2.1819270634
 30
0.0
 10
4.7004434746
 20
2.1816187845
 30
0.0
 10
4.7002462421
 20
2.1813019664
 30
0.0
 10
4.7001335025
 20
2.1809774553
 30
0.0
 10
4.7001093548
 20
2.1806484079
 30
0.0
 10
4.7001749548
 20
2.1803208278
 30
0.0
 10
4.7003273864
 20
2.179999705
 30
0.0
 10
4.7005625598
 20
2.1796867668
 30
0.0
 10
4.7008778776
 20
2.1793826586
 30
0.0
 10
4.7012710922
 20
2.1790880989
 30
0.0
 10
4.701567152
 20
2.1789090418
 30
0.0
 10
4.701726653
 20
2.1788206226
 30
0.0
  0
SPLINE
  5
413
100
AcDbEntity
  8
0
100
AcDbSpline
 62
7
  6
CONTINUOUS
 70
0
 71
3
 72
31
 73
27
 74
0
 42
0.0000001
 43
0.0000001
 44
0.0000000001
 40
0.0
 40
0.0
 40
0.0
 40
0.0
 40
0.0995448317
 40
0.1975897211
 40
0.2926335388
 40
0.383279318
 40
0.4682091443
 40
0.5462549533
 40
0.6164340255
 40
0.6780209085
 40
0.7054739914
 40
0.7306851937
 40
0.7536982006
 40
0.7746148032
 40
0.7936113857
 40
0.8109580181
 40
0.8270428383
 40
0.8423703765
 40
0.8575358892
 40
0.8731550906
 40
0.8897866061
 40
0.907880075
 40
0.9277664789
 40
0.9496667979
 40
0.973721225
 40
1.0
 40
1.0
 40
1.0
 40
1.0
 10
4.6783806144
 20
2.1803129554
 30
0.0
 10
4.6778184952
 20
2.1803129554
 30
0.0
 10
4.6767026
 20
2.1802911503
 30
0.0
 10
4.6750525931
 20
2.1801933943
 30
0.0
 10
4.6734579951
 20
2.1800322934
 30
0.0
 10
4.6719454145
 20
2.1798106965
 30
0.0
 10
4.6705398639
 20
2.1795323769
 30
0.0
 10
4.6692644003
 20
2.1792021765
 30
0.0
 10
4.6681399213
 20
2.1788257044
 30
0.0
 10
4.6673138537
 20
2.1784661791
 30
0.0
 10
4.6667478954
 20
2.1781555717
 30
0.0
 10
4.6663882399
 20
2.1779240036
 30
0.0
 10
4.6660782929
 20
2.1776856936
 30
0.0
 10
4.6658192791
 20
2.17744138
 30
0.0
 10
4.6656122369
 20
2.1771917543
 30
0.0
 10
4.6654583846
 20
2.1769373015
 30
0.0
 10
4.6653589584
 20
2.1766787599
 30
0.0
 10
4.6653156304
 20
2.1764173463
 30
0.0
 10
4.6653292377
 20
2.1761552786
 30
0.0
 10
4.6653995465
 20
2.1758950145
 30
0.0
 10
4.6655251508
 20
2.175638324
 30
0.0
 10
4.6657045471
 20
2.1753860968
 30
0.0
 10
4.665936553
 20
2.1751389527
 30
0.0
 10
4.6662200181
 20
2.1748973941
 30
0.0
 10
4.6665538654
 20
2.1746622343
 30
0.0
 10
4.6667982953
 20
2.1745166583
 30
0.0
 10
4.6669280802
 20
2.1744447104
 30
0.0
  0
SPLINE
  5
414
100
AcDbEntity
  8
0
100
AcDbSpline
 62
7
  6
CONTINUOUS
 70
0
 71
3
 72
24
 73
20
 74
0
 42
0.0000001
 43
0.0000001
 44
0.0000000001
 40
0.0
 40
0.0
 40
0.0
 40
0.0
 40
0.1728255034
 40
0.3479570759
 40
0.433634833
 40
0.5164883837
 40
0.5953056117
 40
0.668879664
 40
0.736133518
 40
0.7964829335
 40
0.8494743084
 40
0.8946730781
 40
0.9318232981
 40
0.9474865123
 40
0.9613000372
 40
0.9733457831
 40
0.9837215267
 40
0.9925508187
 40
1.0
 40
1.0
 40
1.0
 40
1.0
 10
4.6108515507
 20
2.2635881852
 30
0.0
 10
4.6091338912
 20
2.2636046461
 30
0.0
 10
4.6056751612
 20
2.2635970661
 30
0.0
 10
4.6013661213
 20
2.2634848767
 30
0.0
 10
4.5979541906
 20
2.263321617
 30
0.0
 10
4.5955005547
 20
2.2631663975
 30
0.0
 10
4.5931697846
 20
2.2629794361
 30
0.0
 10
4.5909973213
 20
2.2627626368
 30
0.0
 10
4.5890127305
 20
2.262516865
 30
0.0
 10
4.5872378502
 20
2.2622474397
 30
0.0
 10
4.5856882335
 20
2.2619595736
 30
0.0
 10
4.5843767774
 20
2.261658317
 30
0.0
 10
4.5834407117
 20
2.2613851055
 30
0.0
 10
4.5828183819
 20
2.2611580832
 30
0.0
 10
4.5824382681
 20
2.260996777
 30
0.0
 10
4.5821160992
 20
2.2608351528
 30
0.0
 10
4.5818502804
 20
2.260673577
 30
0.0
 10
4.5816392773
 20
2.2605124841
 30
0.0
 10
4.5815252822
 20
2.2603963447
 30
0.0
 10
4.5814792602
 20
2.2603383474
 30
0.0
  0
SPLINE
  5
415
100
AcDbEntity
  8
0
100
AcDbSpline
 62
7
  6
CONTINUOUS
 70
0
 71
3
 72
31
 73
27
 74
0
 42
0.0000001
 43
0.0000001
 44
0.0000000001
 40
0.0
 40
0.0
 40
0.0
 40
0.0
 40
0.0701726026
 40
0.1483427674
 40
0.2324159806
 40
0.3200221194
 40
0.4086469828
 40
0.4957338421
 40
0.5787885961
 40
0.6554895465
 40
0.6908154083
 40
0.723822581
 40
0.7543277509
 40
0.7821894494
 40
0.8073174817
 40
0.8296945768
 40
0.849398517
 40
0.8666501856
 40
0.8818724776
 40
0.8957507515
 40
0.9092254193
 40
0.9233299144
 40
0.9389551857
 40
0.9567254708
 40
0.9770136026
 40
1.0
 40
1.0
 40
1.0
 40
1.0
 10
4.6528151542
 20
2.1835278056
 30
0.0
 10
4.6522271327
 20
2.1837063212
 30
0.0
 10
4.6509643286
 20
2.1840194202
 30
0.0
 10
4.648956337
 20
2.1843601847
 30
0.0
 10
4.6467790372
 20
2.1845895598
 30
0.0
 10
4.6445010165
 20
2.1846998057
 30
0.0
 10
4.642193997
 20
2.1846872386
 30
0.0
 10
4.6399307337
 20
2.1845522896
 30
0.0
 10
4.6377826657
 20
2.1842994026
 30
0.0
 10
4.636100873
 20
2.1839897377
 30
0.0
 10
4.6348677645
 20
2.1836839548
 30
0.0
 10
4.6340376369
 20
2.1834376435
 30
0.0
 10
4.633283052
 20
2.1831700943
 30
0.0
 10
4.6326097975
 20
2.1828834227
 30
0.0
 10
4.6320229419
 20
2.1825797678
 30
0.0
 10
4.6315266809
 20
2.1822613547
 30
0.0
 10
4.6311244482
 20
2.1819299862
 30
0.0
 10
4.6308191055
 20
2.1815869123
 30
0.0
 10
4.6306139511
 20
2.1812325238
 30
0.0
 10
4.6305147428
 20
2.1808679538
 30
0.0
 10
4.6305273053
 20
2.1804995641
 30
0.0
 10
4.6306508107
 20
2.180136964
 30
0.0
 10
4.6308786733
 20
2.1797850811
 30
0.0
 10
4.6312058885
 20
2.1794445425
 30
0.0
 10
4.6316293432
 20
2.1791159814
 30
0.0
 10
4.6319534549
 20
2.1789182148
 30
0.0
 10
4.6321295127
 20
2.1788206199
 30
0.0
  0
SPLINE
  5
416
100
AcDbEntity
  8
0
100
AcDbSpline
 62
7
  6
CONTINUOUS
 70
0
 71
3
 72
22
 73
18
 74
0
 42
0.0000001
 43
0.0000001
 44
0.0000000001
 40
0.0
 40
0.0
 40
0.0
 40
0.0
 40
0.1174263844
 40
0.1781451095
 40
0.2399299695
 40
0.3026579579
 40
0.3662199138
 40
0.4303802013
 40
0.4948959985
 40
0.5595500672
 40
0.6241319536
 40
0.688455138
 40
0.7523439717
 40
0.8156154923
 40
0.8780992865
 40
0.9396102716
 40
1.0
 40
1.0
 40
1.0
 40
1.0
 10
4.6090605738
 20
2.0647645096
 30
0.0
 10
4.6076339245
 20
2.064722302
 30
0.0
 10
4.605461124
 20
2.0648136061
 30
0.0
 10
4.6025748317
 20
2.0652422535
 30
0.0
 10
4.6003758949
 20
2.0657360314
 30
0.0
 10
4.5981880433
 20
2.0664065151
 30
0.0
 10
4.5960336564
 20
2.067260142
 30
0.0
 10
4.5939348356
 20
2.0682928565
 30
0.0
 10
4.5919165674
 20
2.0695016574
 30
0.0
 10
4.5900019021
 20
2.0708774798
 30
0.0
 10
4.5882111867
 20
2.0724077505
 30
0.0
 10
4.5865654222
 20
2.0740799293
 30
0.0
 10
4.5850779315
 20
2.0758736464
 30
0.0
 10
4.5837629878
 20
2.0777703147
 30
0.0
 10
4.5826294718
 20
2.0797473357
 30
0.0
 10
4.5816819483
 20
2.0817811584
 30
0.0
 10
4.58117201
 20
2.0831744768
 30
0.0
 10
4.580948403
 20
2.0838736028
 30
0.0
  0
SPLINE
  5
417
100
AcDbEntity
  8
0
100
AcDbSpline
 62
7
  6
CONTINUOUS
 70
0
 71
3
 72
35
 73
31
 74
0
 42
0.0000001
 43
0.0000001
 44
0.0000000001
 40
0.0
 40
0.0
 40
0.0
 40
0.0
 40
0.0068031517
 40
0.013768869
 40
0.0287095988
 40
0.0457722601
 40
0.0655187278
 40
0.0882255237
 40
0.1139815913
 40
0.1427501184
 40
0.1744032937
 40
0.2087495909
 40
0.2455468248
 40
0.3253139174
 40
0.4111107119
 40
0.4999999768
 40
0.5888892472
 40
0.674686036
 40
0.7544531397
 40
0.7912503721
 40
0.8255966822
 40
0.8572498632
 40
0.88601839
 40
0.911774466
 40
0.9344812675
 40
0.9542277358
 40
0.9712903992
 40
0.9862311308
 40
0.9931968483
 40
1.0
 40
1.0
 40
1.0
 40
1.0
 10
4.6422255939
 20
2.1912891406
 30
0.0
 10
4.6422255939
 20
2.1913541583
 30
0.0
 10
4.6422147699
 20
2.1914859862
 30
0.0
 10
4.6421491072
 20
2.1917534115
 30
0.0
 10
4.6419782905
 20
2.1920900261
 30
0.0
 10
4.6416556854
 20
2.192468978
 30
0.0
 10
4.6412163636
 20
2.1928335866
 30
0.0
 10
4.6406639675
 20
2.1931822507
 30
0.0
 10
4.6400029359
 20
2.1935127465
 30
0.0
 10
4.6392389487
 20
2.1938222066
 30
0.0
 10
4.6383789177
 20
2.1941078051
 30
0.0
 10
4.6374308126
 20
2.1943667938
 30
0.0
 10
4.6360229132
 20
2.1946816347
 30
0.0
 10
4.6341108598
 20
2.1949850688
 30
0.0
 10
4.631687421
 20
2.1952041991
 30
0.0
 10
4.6291680166
 20
2.1952781989
 30
0.0
 10
4.6266486123
 20
2.1952041991
 30
0.0
 10
4.6242251733
 20
2.1949850689
 30
0.0
 10
4.6223131199
 20
2.194681635
 30
0.0
 10
4.6209052203
 20
2.194366794
 30
0.0
 10
4.619957115
 20
2.1941078053
 30
0.0
 10
4.6190970838
 20
2.1938222069
 30
0.0
 10
4.6183330964
 20
2.1935127467
 30
0.0
 10
4.6176720647
 20
2.1931822508
 30
0.0
 10
4.6171196685
 20
2.1928335867
 30
0.0
 10
4.6166803466
 20
2.192468978
 30
0.0
 10
4.6163577415
 20
2.1920900262
 30
0.0
 10
4.6161869248
 20
2.1917534115
 30
0.0
 10
4.6161212621
 20
2.1914859862
 30
0.0
 10
4.6161104381
 20
2.1913541583
 30
0.0
 10
4.6161104381
 20
2.1912891406
 30
0.0
  0
SPLINE
  5
418
100
AcDbEntity
  8
0
100
AcDbSpline
 62
7
  6
CONTINUOUS
 70
0
 71
3
 72
14
 73
10
 74
0
 42
0.0000001
 43
0.0000001
 44
0.0000000001
 40
0.0
 40
0.0
 40
0.0
 40
0.0
 40
0.0957906502
 40
0.1952267472
 40
0.3014199361
 40
0.4168783573
 40
0.5434571877
 40
0.682424153
 40
1.0
 40
1.0
 40
1.0
 40
1.0
 10
4.6161104381
 20
2.1912891406
 30
0.0
 10
4.6161104381
 20
2.1912060274
 30
0.0
 10
4.616128344
 20
2.1910361651
 30
0.0
 10
4.6162075914
 20
2.1907853456
 30
0.0
 10
4.6163383169
 20
2.1905378412
 30
0.0
 10
4.6165192157
 20
2.1902946237
 30
0.0
 10
4.6167491943
 20
2.1900560997
 30
0.0
 10
4.617137498
 20
2.1897306746
 30
0.0
 10
4.6174744895
 20
2.1895185912
 30
0.0
 10
4.6177154878
 20
2.1893850042
 30
0.0
  0
SPLINE
  5
419
100
AcDbEntity
  8
0
100
AcDbSpline
 62
7
  6
CONTINUOUS
 70
0
 71
3
 72
22
 73
18
 74
0
 42
0.0000001
 43
0.0000001
 44
0.0000000001
 40
0.0
 40
0.0
 40
0.0
 40
0.0
 40
0.0557037731
 40
0.1134631103
 40
0.1730794094
 40
0.2344364903
 40
0.2974490172
 40
0.3618147689
 40
0.4271920134
 40
0.4932207338
 40
0.5595391311
 40
0.6257645929
 40
0.6914891266
 40
0.7562904382
 40
0.8816008965
 40
0.9418217292
 40
1.0
 40
1.0
 40
1.0
 40
1.0
 10
4.5796355438
 20
2.2388837038
 30
0.0
 10
4.5796432178
 20
2.2380417723
 30
0.0
 10
4.5797419088
 20
2.2363265997
 30
0.0
 10
4.5801371249
 20
2.2337367901
 30
0.0
 10
4.5807974459
 20
2.2311128229
 30
0.0
 10
4.5817378653
 20
2.2284907738
 30
0.0
 10
4.5829694316
 20
2.2259122105
 30
0.0
 10
4.5844832843
 20
2.2234171228
 30
0.0
 10
4.5862690361
 20
2.2210513434
 30
0.0
 10
4.5883010317
 20
2.2188529954
 30
0.0
 10
4.590552993
 20
2.2168612379
 30
0.0
 10
4.5929847034
 20
2.2151016553
 30
0.0
 10
4.5955570205
 20
2.213599527
 30
0.0
 10
4.5990701544
 20
2.2119727372
 30
0.0
 10
4.6027170321
 20
2.2108727666
 30
0.0
 10
4.6063567005
 20
2.2102855745
 30
0.0
 10
4.6081442729
 20
2.2101533658
 30
0.0
 10
4.6090232584
 20
2.2101274074
 30
0.0
  0
SPLINE
  5
41A
100
AcDbEntity
  8
0
100
AcDbSpline
 62
7
  6
CONTINUOUS
 70
0
 71
3
 72
23
 73
19
 74
0
 42
0.0000001
 43
0.0000001
 44
0.0000000001
 40
0.0
 40
0.0
 40
0.0
 40
0.0
 40
0.0985207276
 40
0.1898767263
 40
0.2736759164
 40
0.349768424
 40
0.4181728266
 40
0.4791270442
 40
0.5331987482
 40
0.5814211315
 40
0.6254176239
 40
0.6674224749
 40
0.7100388174
 40
0.7557517936
 40
0.8065210103
 40
0.8636856152
 40
0.9280416228
 40
1.0
 40
1.0
 40
1.0
 40
1.0
 10
4.6343489504
 20
2.2046565704
 30
0.0
 10
4.6341100298
 20
2.2045840372
 30
0.0
 10
4.6336524738
 20
2.2044343174
 30
0.0
 10
4.6330048038
 20
2.2041851786
 30
0.0
 10
4.6324248901
 20
2.2039211013
 30
0.0
 10
4.6319163782
 20
2.2036438414
 30
0.0
 10
4.6314822016
 20
2.2033549362
 30
0.0
 10
4.6311248051
 20
2.2030558281
 30
0.0
 10
4.6308463505
 20
2.2027475493
 30
0.0
 10
4.630649118
 20
2.2024307311
 30
0.0
 10
4.6305363783
 20
2.2021062201
 30
0.0
 10
4.6305122307
 20
2.2017771726
 30
0.0
 10
4.6305778307
 20
2.2014495926
 30
0.0
 10
4.6307302623
 20
2.2011284697
 30
0.0
 10
4.6309654357
 20
2.2008155316
 30
0.0
 10
4.6312807534
 20
2.2005114233
 30
0.0
 10
4.631673968
 20
2.2002168636
 30
0.0
 10
4.6319700278
 20
2.2000378065
 30
0.0
 10
4.6321295289
 20
2.1999493873
 30
0.0
  0
SPLINE
  5
41B
100
AcDbEntity
  8
0
100
AcDbSpline
 62
7
  6
CONTINUOUS
 70
0
 71
3
 72
19
 73
15
 74
0
 42
0.0000001
 43
0.0000001
 44
0.0000000001
 40
0.0
 40
0.0
 40
0.0
 40
0.0
 40
0.2238022563
 40
0.4190914086
 40
0.5856201728
 40
0.7232528623
 40
0.7812691943
 40
0.8321317655
 40
0.8759116841
 40
0.9127324125
 40
0.9428222699
 40
0.9666225002
 40
0.985039381
 40
1.0
 40
1.0
 40
1.0
 40
1.0
 10
4.6090559795
 20
2.0647644503
 30
0.0
 10
4.6090797289
 20
2.0645839658
 30
0.0
 10
4.6091264953
 20
2.0642462844
 30
0.0
 10
4.6092007043
 20
2.0637757167
 30
0.0
 10
4.60927422
 20
2.0633761246
 30
0.0
 10
4.6093378664
 20
2.0630883641
 30
0.0
 10
4.6093896488
 20
2.0628946198
 30
0.0
 10
4.6094260162
 20
2.0627758575
 30
0.0
 10
4.609462113
 20
2.0626751449
 30
0.0
 10
4.6094979214
 20
2.0625924501
 30
0.0
 10
4.609533423
 20
2.0625275809
 30
0.0
 10
4.6095688551
 20
2.0624803067
 30
0.0
 10
4.6096049103
 20
2.0624498457
 30
0.0
 10
4.609632144
 20
2.0624418231
 30
0.0
 10
4.6096443129
 20
2.0624418182
 30
0.0
  0
SPLINE
  5
41C
100
AcDbEntity
  8
0
100
AcDbSpline
 62
7
  6
CONTINUOUS
 70
0
 71
3
 72
31
 73
27
 74
0
 42
0.0000001
 43
0.0000001
 44
0.0000000001
 40
0.0
 40
0.0
 40
0.0
 40
0.0
 40
0.0975792072
 40
0.1939211906
 40
0.2878028016
 40
0.3780553026
 40
0.4635736545
 40
0.5433497612
 40
0.61649981
 40
0.6823035337
 40
0.7122918639
 40
0.7402777954
 40
0.7662493463
 40
0.7902200098
 40
0.8122419652
 40
0.8324107544
 40
0.8508829911
 40
0.8678873467
 40
0.8837406372
 40
0.8988490207
 40
0.9136913234
 40
0.9287752729
 40
0.9445823332
 40
0.961522716
 40
0.9799177674
 40
1.0
 40
1.0
 40
1.0
 40
1.0
 10
4.6783806144
 20
2.0927429692
 30
0.0
 10
4.6772173939
 20
2.0927429692
 30
0.0
 10
4.6749054819
 20
2.0927016171
 30
0.0
 10
4.6714789298
 20
2.0925160525
 30
0.0
 10
4.6681486513
 20
2.0922097149
 30
0.0
 10
4.6649611462
 20
2.0917870398
 30
0.0
 10
4.6619607115
 20
2.0912540755
 30
0.0
 10
4.6591888095
 20
2.0906185163
 30
0.0
 10
4.6566837453
 20
2.0898894308
 30
0.0
 10
4.6547916523
 20
2.0891926459
 30
0.0
 10
4.6534445243
 20
2.0885893425
 30
0.0
 10
4.6525528036
 20
2.0881341139
 30
0.0
 10
4.651751018
 20
2.0876637342
 30
0.0
 10
4.6510418844
 20
2.0871795734
 30
0.0
 10
4.6504276667
 20
2.0866832156
 30
0.0
 10
4.6499104714
 20
2.0861759079
 30
0.0
 10
4.6494920825
 20
2.0856589371
 30
0.0
 10
4.6491744599
 20
2.0851333191
 30
0.0
 10
4.6489596883
 20
2.0846003637
 30
0.0
 10
4.6488501472
 20
2.0840620761
 30
0.0
 10
4.6488475458
 20
2.0835217316
 30
0.0
 10
4.6489519176
 20
2.0829832571
 30
0.0
 10
4.649161638
 20
2.0824499916
 30
0.0
 10
4.6494743211
 20
2.0819239722
 30
0.0
 10
4.6498878307
 20
2.0814065979
 30
0.0
 10
4.6502143382
 20
2.0810830394
 30
0.0
 10
4.6503920045
 20
2.0809225866
 30
0.0
  0
SPLINE
  5
41D
100
AcDbEntity
  8
0
100
AcDbSpline
 62
7
  6
CONTINUOUS
 70
0
 71
3
 72
18
 73
14
 74
0
 42
0.0000001
 43
0.0000001
 44
0.0000000001
 40
0.0
 40
0.0
 40
0.0
 40
0.0
 40
0.1602071087
 40
0.3192748732
 40
0.4723746097
 40
0.6148592568
 40
0.74241386
 40
0.7993671892
 40
0.8511859426
 40
0.8974809897
 40
0.9379052005
 40
0.9721621347
 40
1.0
 40
1.0
 40
1.0
 40
1.0
 10
4.6108474652
 20
2.2635893741
 30
0.0
 10
4.6108341061
 20
2.260731839
 30
0.0
 10
4.6107885292
 20
2.2550371612
 30
0.0
 10
4.6106649633
 20
2.2466124024
 30
0.0
 10
4.610489915
 20
2.238504723
 30
0.0
 10
4.6102689076
 20
2.2309604791
 30
0.0
 10
4.6100451027
 20
2.2251321812
 30
0.0
 10
4.6098442256
 20
2.2209216535
 30
0.0
 10
4.6096924685
 20
2.2181599036
 30
0.0
 10
4.6095352756
 20
2.2156938123
 30
0.0
 10
4.6093739002
 20
2.2135419676
 30
0.0
 10
4.6092099119
 20
2.2117206802
 30
0.0
 10
4.6090877048
 20
2.2106196902
 30
0.0
 10
4.6090232068
 20
2.2101273613
 30
0.0
  0
SPLINE
  5
41E
100
AcDbEntity
  8
0
100
AcDbSpline
 62
7
  6
CONTINUOUS
 70
0
 71
3
 72
18
 73
14
 74
0
 42
0.0000001
 43
0.0000001
 44
0.0000000001
 40
0.0
 40
0.0
 40
0.0
 40
0.0
 40
0.1603630345
 40
0.3194210147
 40
0.4722694234
 40
0.6142749203
 40
0.7412949179
 40
0.7980408048
 40
0.8497401021
 40
0.8960620506
 40
0.9367135228
 40
0.9714344505
 40
1.0
 40
1.0
 40
1.0
 40
1.0
 10
4.5814792606
 20
2.2603383476
 30
0.0
 10
4.5814679687
 20
2.2591851113
 30
0.0
 10
4.5814236043
 20
2.2568881894
 30
0.0
 10
4.5812977152
 20
2.2534939101
 30
0.0
 10
4.581117274
 20
2.2502342735
 30
0.0
 10
4.5808894049
 20
2.247208626
 30
0.0
 10
4.5806600688
 20
2.2448767025
 30
0.0
 10
4.5804559557
 20
2.2431955732
 30
0.0
 10
4.5803024776
 20
2.2420930876
 30
0.0
 10
4.5801442462
 20
2.2411083367
 30
0.0
 10
4.5799827229
 20
2.2402480228
 30
0.0
 10
4.5798192552
 20
2.2395184747
 30
0.0
 10
4.5796983462
 20
2.2390793053
 30
0.0
 10
4.5796355433
 20
2.2388837039
 30
0.0
  0
SPLINE
  5
41F
100
AcDbEntity
  8
0
100
AcDbSpline
 62
7
  6
CONTINUOUS
 70
0
 71
3
 72
19
 73
15
 74
0
 42
0.0000001
 43
0.0000001
 44
0.0000000001
 40
0.0
 40
0.0
 40
0.0
 40
0.0
 40
0.2238028411
 40
0.4190924162
 40
0.585621464
 40
0.7232542321
 40
0.7812705198
 40
0.8321330014
 40
0.8759127936
 40
0.9127333633
 40
0.9428230072
 40
0.9666229799
 40
0.9850395919
 40
1.0
 40
1.0
 40
1.0
 40
1.0
 10
4.7477052507
 20
2.0647644503
 30
0.0
 10
4.747681507
 20
2.0645839659
 30
0.0
 10
4.747634751
 20
2.0642462845
 30
0.0
 10
4.7475605566
 20
2.0637757169
 30
0.0
 10
4.7474870533
 20
2.0633761247
 30
0.0
 10
4.7474234157
 20
2.0630883641
 30
0.0
 10
4.7473716392
 20
2.0628946198
 30
0.0
 10
4.7473352753
 20
2.0627758575
 30
0.0
 10
4.7472991816
 20
2.0626751449
 30
0.0
 10
4.7472633757
 20
2.0625924501
 30
0.0
 10
4.7472278762
 20
2.062527581
 30
0.0
 10
4.7471924457
 20
2.0624803068
 30
0.0
 10
4.7471563917
 20
2.0624498457
 30
0.0
 10
4.7471291586
 20
2.0624418231
 30
0.0
 10
4.7471169899
 20
2.0624418183
 30
0.0
  0
SPLINE
  5
420
100
AcDbEntity
  8
0
100
AcDbSpline
 62
7
  6
CONTINUOUS
 70
0
 71
3
 72
22
 73
18
 74
0
 42
0.0000001
 43
0.0000001
 44
0.0000000001
 40
0.0
 40
0.0
 40
0.0
 40
0.0
 40
0.1174263722
 40
0.1781450879
 40
0.2399299372
 40
0.3026579134
 40
0.3662198571
 40
0.4303801338
 40
0.4948959224
 40
0.5595499852
 40
0.6241318691
 40
0.6884550545
 40
0.7523438937
 40
0.815615425
 40
0.8780992355
 40
0.9396102441
 40
1.0
 40
1.0
 40
1.0
 40
1.0
 10
4.747700655
 20
2.0647645135
 30
0.0
 10
4.7491273014
 20
2.064722306
 30
0.0
 10
4.7513000975
 20
2.0648136096
 30
0.0
 10
4.754186384
 20
2.065242255
 30
0.0
 10
4.7563853164
 20
2.0657360307
 30
0.0
 10
4.7585731639
 20
2.0664065114
 30
0.0
 10
4.7607275471
 20
2.0672601346
 30
0.0
 10
4.7628263646
 20
2.0682928447
 30
0.0
 10
4.7648446302
 20
2.0695016406
 30
0.0
 10
4.7667592936
 20
2.0708774574
 30
0.0
 10
4.7685500079
 20
2.0724077222
 30
0.0
 10
4.7701957724
 20
2.0740798948
 30
0.0
 10
4.7716832639
 20
2.0758736058
 30
0.0
 10
4.7729982094
 20
2.0777702679
 30
0.0
 10
4.7741317281
 20
2.0797472831
 30
0.0
 10
4.7750792552
 20
2.0817811002
 30
0.0
 10
4.7755891963
 20
2.0831744152
 30
0.0
 10
4.7758128047
 20
2.0838735396
 30
0.0
  0
SPLINE
  5
421
100
AcDbEntity
  8
0
100
AcDbSpline
 62
7
  6
CONTINUOUS
 70
0
 71
3
 72
11
 73
7
 74
0
 42
0.0000001
 43
0.0000001
 44
0.0000000001
 40
0.0
 40
0.0
 40
0.0
 40
0.0
 40
0.2549141963
 40
0.5056004108
 40
0.7534680047
 40
1.0
 40
1.0
 40
1.0
 40
1.0
 10
4.7771256855
 20
2.2388837039
 30
0.0
 10
4.7791174098
 20
2.2326678765
 30
0.0
 10
4.7826099758
 20
2.2201863847
 30
0.0
 10
4.7863431243
 20
2.2012381757
 30
0.0
 10
4.7885149614
 20
2.182263722
 30
0.0
 10
4.788920386
 20
2.1695941909
 30
0.0
 10
4.7888625763
 20
2.1632819499
 30
0.0
  0
SPLINE
  5
422
100
AcDbEntity
  8
0
100
AcDbSpline
 62
7
  6
CONTINUOUS
 70
0
 71
3
 72
18
 73
14
 74
0
 42
0.0000001
 43
0.0000001
 44
0.0000000001
 40
0.0
 40
0.0
 40
0.0
 40
0.0
 40
0.0285708515
 40
0.0632878104
 40
0.1039364288
 40
0.1502558246
 40
0.2019541849
 40
0.258702254
 40
0.3857278505
 40
0.5277303537
 40
0.6805775247
 40
0.8396366128
 40
1.0
 40
1.0
 40
1.0
 40
1.0
 10
4.7771256855
 20
2.2388837039
 30
0.0
 10
4.7770629116
 20
2.2390793546
 30
0.0
 10
4.7769419916
 20
2.2395185282
 30
0.0
 10
4.7767785001
 20
2.2402480611
 30
0.0
 10
4.7766169797
 20
2.2411083066
 30
0.0
 10
4.7764587417
 20
2.2420930103
 30
0.0
 10
4.776305261
 20
2.243195486
 30
0.0
 10
4.7761011573
 20
2.2448766662
 30
0.0
 10
4.7758718495
 20
2.2472086267
 30
0.0
 10
4.7756439428
 20
2.2502342809
 30
0.0
 10
4.7754634972
 20
2.253493895
 30
0.0
 10
4.7753376219
 20
2.2568881766
 30
0.0
 10
4.775293285
 20
2.259185109
 30
0.0
 10
4.7752819682
 20
2.2603383476
 30
0.0
  0
SPLINE
  5
423
100
AcDbEntity
  8
0
100
AcDbSpline
 62
7
  6
CONTINUOUS
 70
0
 71
3
 72
22
 73
18
 74
0
 42
0.0000001
 43
0.0000001
 44
0.0000000001
 40
0.0
 40
0.0
 40
0.0
 40
0.0
 40
0.058178274
 40
0.1183991094
 40
0.2437095712
 40
0.3085108829
 40
0.3742354159
 40
0.4404608765
 40
0.5067792721
 40
0.5728079904
 40
0.6381852326
 40
0.7025509822
 40
0.7655635075
 40
0.8269205876
 40
0.8865368866
 40
0.9442962248
 40
1.0
 40
1.0
 40
1.0
 40
1.0
 10
4.7477379705
 20
2.2101274283
 30
0.0
 10
4.7486169556
 20
2.2101533867
 30
0.0
 10
4.7504045274
 20
2.2102855953
 30
0.0
 10
4.7540441943
 20
2.210872787
 30
0.0
 10
4.7576910707
 20
2.2119727566
 30
0.0
 10
4.7612042034
 20
2.2135995449
 30
0.0
 10
4.7637765198
 20
2.2151016718
 30
0.0
 10
4.7662082297
 20
2.2168612527
 30
0.0
 10
4.7684601907
 20
2.2188530085
 30
0.0
 10
4.7704921863
 20
2.2210513546
 30
0.0
 10
4.7722779383
 20
2.2234171321
 30
0.0
 10
4.7737917915
 20
2.2259122178
 30
0.0
 10
4.7750233586
 20
2.2284907793
 30
0.0
 10
4.775963779
 20
2.2311128268
 30
0.0
 10
4.7766241011
 20
2.2337367924
 30
0.0
 10
4.7770193185
 20
2.2363266007
 30
0.0
 10
4.7771180103
 20
2.2380417725
 30
0.0
 10
4.7771256848
 20
2.2388837037
 30
0.0
  0
SPLINE
  5
424
100
AcDbEntity
  8
0
100
AcDbSpline
 62
7
  6
CONTINUOUS
 70
0
 71
3
 72
24
 73
20
 74
0
 42
0.0000001
 43
0.0000001
 44
0.0000000001
 40
0.0
 40
0.0
 40
0.0
 40
0.0
 40
0.1728477049
 40
0.3479889755
 40
0.4336676486
 40
0.5165198195
 40
0.5953337831
 40
0.6689031014
 40
0.7361516885
 40
0.7964960758
 40
0.8494828363
 40
0.8946775868
 40
0.9318248438
 40
0.9474870768
 40
0.961299935
 40
0.973345313
 40
0.9837209696
 40
0.9925504312
 40
1.0
 40
1.0
 40
1.0
 40
1.0
 10
4.7459176936
 20
2.263588265
 30
0.0
 10
4.7476351126
 20
2.2636046597
 30
0.0
 10
4.7510932295
 20
2.2635969639
 30
0.0
 10
4.7554014335
 20
2.2634846504
 30
0.0
 10
4.7588125331
 20
2.2633213124
 30
0.0
 10
4.7612654673
 20
2.2631660548
 30
0.0
 10
4.7635955117
 20
2.2629790714
 30
0.0
 10
4.765767252
 20
2.2627622637
 30
0.0
 10
4.7677511516
 20
2.2625164993
 30
0.0
 10
4.7695253978
 20
2.262247099
 30
0.0
 10
4.7710744526
 20
2.2619592709
 30
0.0
 10
4.7723854303
 20
2.2616580611
 30
0.0
 10
4.7733211544
 20
2.2613848977
 30
0.0
 10
4.7739432621
 20
2.2611579197
 30
0.0
 10
4.7743232468
 20
2.2609966446
 30
0.0
 10
4.7746453107
 20
2.2608350521
 30
0.0
 10
4.7749110476
 20
2.2606735082
 30
0.0
 10
4.7751219911
 20
2.2605124471
 30
0.0
 10
4.7752359565
 20
2.2603963325
 30
0.0
 10
4.7752819684
 20
2.2603383478
 30
0.0
  0
SPLINE
  5
425
100
AcDbEntity
  8
0
100
AcDbSpline
 62
7
  6
CONTINUOUS
 70
0
 71
3
 72
19
 73
15
 74
0
 42
0.0000001
 43
0.0000001
 44
0.0000000001
 40
0.0
 40
0.0
 40
0.0
 40
0.0
 40
0.0278378826
 40
0.0620948424
 40
0.1025190331
 40
0.1488140209
 40
0.2006326892
 40
0.2575859248
 40
0.385140267
 40
0.5276246611
 40
0.6807243077
 40
0.8397922
 40
0.9200630363
 40
1.0
 40
1.0
 40
1.0
 40
1.0
 10
4.7477380426
 20
2.2101273613
 30
0.0
 10
4.7476735549
 20
2.2106196866
 30
0.0
 10
4.7475513638
 20
2.2117206672
 30
0.0
 10
4.7473873837
 20
2.2135419364
 30
0.0
 10
4.7472260152
 20
2.2156937578
 30
0.0
 10
4.7470688485
 20
2.2181598218
 30
0.0
 10
4.7469171297
 20
2.2209215402
 30
0.0
 10
4.7467162758
 20
2.2251320165
 30
0.0
 10
4.7464924616
 20
2.2309602416
 30
0.0
 10
4.7462715601
 20
2.2385043989
 30
0.0
 10
4.7460964881
 20
2.246611985
 30
0.0
 10
4.7459935747
 20
2.253611019
 30
0.0
 10
4.7459392331
 20
2.2593055351
 30
0.0
 10
4.7459231302
 20
2.2621630469
 30
0.0
 10
4.7459176936
 20
2.2635888332
 30
0.0
  0
SPLINE
  5
426
100
AcDbEntity
  8
0
100
AcDbSpline
 62
7
  6
CONTINUOUS
 70
0
 71
3
 72
31
 73
27
 74
0
 42
0.0000001
 43
0.0000001
 44
0.0000000001
 40
0.0
 40
0.0
 40
0.0
 40
0.0
 40
0.0229863966
 40
0.0432745266
 40
0.0610448078
 40
0.0766700772
 40
0.090774574
 40
0.1042492386
 40
0.118127509
 40
0.1333498014
 40
0.1506014673
 40
0.1703054003
 40
0.1926824952
 40
0.2178105275
 40
0.2456722216
 40
0.2761773877
 40
0.3091845571
 40
0.3445104201
 40
0.4212113594
 40
0.5042661199
 40
0.5913529702
 40
0.6799778533
 40
0.7675839949
 40
0.8516572238
 40
0.929827394
 40
1.0
 40
1.0
 40
1.0
 40
1.0
 10
4.655034592
 20
2.1999493846
 30
0.0
 10
4.6552106497
 20
2.2000469795
 30
0.0
 10
4.6555347614
 20
2.2002447462
 30
0.0
 10
4.6559582161
 20
2.2005733072
 30
0.0
 10
4.6562854313
 20
2.2009138457
 30
0.0
 10
4.6565132938
 20
2.2012657286
 30
0.0
 10
4.6566367993
 20
2.2016283286
 30
0.0
 10
4.656649362
 20
2.2019967183
 30
0.0
 10
4.6565501536
 20
2.2023612882
 30
0.0
 10
4.6563449994
 20
2.2027156767
 30
0.0
 10
4.6560396568
 20
2.2030587506
 30
0.0
 10
4.6556374242
 20
2.2033901191
 30
0.0
 10
4.6551411633
 20
2.2037085322
 30
0.0
 10
4.6545543078
 20
2.2040121871
 30
0.0
 10
4.6538810534
 20
2.2042988587
 30
0.0
 10
4.6531264685
 20
2.2045664079
 30
0.0
 10
4.652296341
 20
2.2048127193
 30
0.0
 10
4.6510632326
 20
2.2051185022
 30
0.0
 10
4.64938144
 20
2.2054281672
 30
0.0
 10
4.6472333721
 20
2.2056810542
 30
0.0
 10
4.6449701086
 20
2.2058160033
 30
0.0
 10
4.6426630891
 20
2.2058285705
 30
0.0
 10
4.640385068
 20
2.2057183246
 30
0.0
 10
4.638207768
 20
2.2054889495
 30
0.0
 10
4.6361997762
 20
2.205148185
 30
0.0
 10
4.634936972
 20
2.2048350859
 30
0.0
 10
4.6343489504
 20
2.2046565704
 30
0.0
  0
SPLINE
  5
427
100
AcDbEntity
  8
0
100
AcDbSpline
 62
7
  6
CONTINUOUS
 70
0
 71
3
 72
31
 73
27
 74
0
 42
0.0000001
 43
0.0000001
 44
0.0000000001
 40
0.0
 40
0.0
 40
0.0
 40
0.0
 40
0.0262787707
 40
0.0503331917
 40
0.0722335115
 40
0.0921199199
 40
0.110213389
 40
0.1268449036
 40
0.1424641029
 40
0.157629615
 40
0.1729571531
 40
0.1890419736
 40
0.2063886043
 40
0.2253851825
 40
0.2463017782
 40
0.2693147865
 40
0.2945259907
 40
0.3219790727
 40
0.3835659408
 40
0.4537450268
 40
0.53179083
 40
0.6167206646
 40
0.7073664562
 40
0.8024102723
 40
0.9004551698
 40
1.0
 40
1.0
 40
1.0
 40
1.0
 10
4.6898331486
 20
2.1744447104
 30
0.0
 10
4.6899629335
 20
2.1745166582
 30
0.0
 10
4.6902073634
 20
2.1746622342
 30
0.0
 10
4.6905412106
 20
2.1748973941
 30
0.0
 10
4.6908246756
 20
2.1751389526
 30
0.0
 10
4.6910566817
 20
2.1753860967
 30
0.0
 10
4.6912360779
 20
2.1756383239
 30
0.0
 10
4.6913616823
 20
2.1758950143
 30
0.0
 10
4.691431991
 20
2.1761552785
 30
0.0
 10
4.6914455985
 20
2.1764173461
 30
0.0
 10
4.6914022704
 20
2.1766787598
 30
0.0
 10
4.6913028442
 20
2.1769373013
 30
0.0
 10
4.691148992
 20
2.1771917541
 30
0.0
 10
4.6909419498
 20
2.1774413798
 30
0.0
 10
4.6906829362
 20
2.1776856935
 30
0.0
 10
4.6903729891
 20
2.1779240033
 30
0.0
 10
4.6900133337
 20
2.1781555715
 30
0.0
 10
4.6894473754
 20
2.1784661789
 30
0.0
 10
4.6886213079
 20
2.1788257042
 30
0.0
 10
4.687496829
 20
2.1792021764
 30
0.0
 10
4.6862213653
 20
2.1795323769
 30
0.0
 10
4.6848158145
 20
2.1798106964
 30
0.0
 10
4.6833032338
 20
2.1800322934
 30
0.0
 10
4.6817086357
 20
2.1801933943
 30
0.0
 10
4.6800586288
 20
2.1802911503
 30
0.0
 10
4.6789427336
 20
2.1803129554
 30
0.0
 10
4.6783806144
 20
2.1803129554
 30
0.0
  0
ELLIPSE
  5
428
100
AcDbEntity
  8
0
100
AcDbEllipse
 62
7
  6
CONTINUOUS
 10
4.5602646144
 20
0.2818906539
 30
0.0
 11
0.0194391751
 21
1.999999622
 31
0.0
 40
0.0632576567
 41
0.0489966133
 42
0.1675482572
  0
ELLIPSE
  5
429
100
AcDbEntity
  8
0
100
AcDbEllipse
 62
7
  6
CONTINUOUS
 10
4.7964966144
 20
0.2818906539
 30
0.0
 11
-0.0194391751
 21
1.999999622
 31
0.0
 40
0.0632576567
 41
-0.1675482572
 42
-0.0489966133
  0
ELLIPSE
  5
42A
100
AcDbEntity
  8
0
100
AcDbEllipse
 62
7
  6
CONTINUOUS
 10
4.5514966144
 20
0.2818906539
 30
0.0
 11
-0.0194391751
 21
1.999999622
 31
0.0
 40
0.0632576567
 41
-0.2779136262
 42
-0.205894709
  0
ELLIPSE
  5
42B
100
AcDbEntity
  8
0
100
AcDbEllipse
 62
7
  6
CONTINUOUS
 10
4.8052646144
 20
0.2818906539
 30
0.0
 11
0.0194391751
 21
1.999999622
 31
0.0
 40
0.0632576567
 41
0.205894709
 42
0.2779136262
  0
ENDSEC
  0
SECTION
  2
OBJECTS
  0
DICTIONARY
  5
C
100
AcDbDictionary
280
0
281
1
  3
ACAD_GROUP
350
D
  3
ACAD_MLINESTYLE
350
17
  3
ACAD_LAYOUT
350
1A
  3
ACAD_PLOTSETTINGS
350
19
  3
ACAD_PLOTSTYLENAME
350
E
  0
DICTIONARY
  5
D
102
{ACAD_REACTORS
330
C
102
}
100
AcDbDictionary
280
0
281
1
  0
ACDBDICTIONARYWDFLT
  5
E
102
{ACAD_REACTORS
330
C
102
}
100
AcDbDictionary
281
1
  3
Normal
350
F
100
AcDbDictionaryWithDefault
340
F
  0
DICTIONARY
  5
17
102
{ACAD_REACTORS
330
C
102
}
100
AcDbDictionary
280
0
281
1
  3
Standard
350
18
  0
DICTIONARY
  5
19
102
{ACAD_REACTORS
330
C
102
}
100
AcDbDictionary
281
1
  0
DICTIONARY
  5
1A
102
{ACAD_REACTORS
330
C
102
}
100
AcDbDictionary
281
1
  3
Model
350
42C
  3
Layout1
350
42D
  0
ACDBPLACEHOLDER
  5
F
102
{ACAD_REACTORS
330
E
102
}
  0
MLINESTYLE
  5
18
102
{ACAD_REACTORS
330
17
102
}
100
AcDbMlineStyle
  2
STANDARD
 70
0
  3

 62
256
 51
90.0
 52
90.0
 71
2
 49
0.5
 62
256
  6
BYLAYER
 49
-0.5
 62
256
  6
BYLAYER
  0
LAYOUT
  5
42C
102
{ACAD_REACTORS
330
1A
102
}
100
AcDbPlotSettings
  1

  2
none_device
  4
ANSI_A_(11.00_x_8.50_Inches)
  6

 40
0.0
 41
0.0
 42
0.0
 43
0.0
 44
279.4
 45
215.9
 46
0.0
 47
0.0
 48
0.0
 49
0.0
140
0.0
141
0.0
142
1.0
143
1.0
 70
1024
 72
0
 73
0
 74
0
  7

 75
0
147
1.0
148
0.0
149
0.0
100
AcDbLayout
  1
Model
 70
0
 71
0
 10
0.0
 20
0.0
 11
11.0
 21
8.5
 12
0.0
 22
0.0
 32
0.0
 14
0.0
 24
0.0
 34
0.0
 15
0.0
 25
0.0
 35
0.0
146
0.0
 13
0.0
 23
0.0
 33
0.0
 16
1.0
 26
0.0
 36
0.0
 17
0.0
 27
1.0
 37
0.0
 76
0
330
202
345
0
346
0
  0
LAYOUT
  5
42D
102
{ACAD_REACTORS
330
1A
102
}
100
AcDbPlotSettings
  1

  2
none_device
  4
ANSI_A_(11.00_x_8.50_Inches)
  6

 40
0.0
 41
0.0
 42
0.0
 43
0.0
 44
279.4
 45
215.9
 46
0.0
 47
0.0
 48
0.0
 49
0.0
140
0.0
141
0.0
142
1.0
143
1.0
 70
0
 72
0
 73
0
 74
0
  7

 75
0
147
1.0
148
0.0
149
0.0
100
AcDbLayout
  1
Layout1
 70
0
 71
1
 10
0.0
 20
0.0
 11
11.0
 21
8.5
 12
0.0
 22
0.0
 32
0.0
 14
0.0
 24
0.0
 34
0.0
 15
0.0
 25
0.0
 35
0.0
146
0.0
 13
0.0
 23
0.0
 33
0.0
 16
1.0
 26
0.0
 36
0.0
 17
0.0
 27
1.0
 37
0.0
 76
0
330
203
345
0
346
0
  0
ENDSEC
  0
EOF
