999
DXF file: E:\BT Custom\CADOUTPUT\_FRONT.dxf
999
Pro/ENGINEER 2018400 by Parametric Technology Corporation
  0
SECTION
  2
HEADER
  9
$ACADVER
  1
AC1018
  9
$DWGCODEPAGE
  3
ANSI_1252
  9
$EXTMAX
 10
22.0
 20
17.0
 30
0.0
  9
$EXTMIN
 10
0.0
 20
0.0
 30
0.0
  9
$LIMMIN
 10
0.0
 20
0.0
  9
$LIMMAX
 10
22.0
 20
17.0
  9
$VIEWCTR
 10
11.0
 20
8.5
  9
$VIEWSIZE
 40
17.0
  9
$CLAYER
  8
0
  9
$LTSCALE
 40
1.21
  9
$CELTYPE
  6
BYLAYER
  9
$DIMSCALE
 40
1.0
  9
$DIMASZ
 40
0.1
  9
$DIMEXO
 40
0.0625
  9
$DIMDLI
 40
0.836
  9
$DIMEXE
 40
0.125
  9
$DIMCEN
 40
0.198
  9
$DIMLFAC
 40
1.0
  9
$DIMBLK
  1
_FILLED
  9
$DIMALT
 70
1
  9
$DIMALTD
 70
2
  9
$DIMALTTD
 70
2
  9
$DIMALTF
 40
25.4
  9
$DIMTXT
 40
0.08
  9
$DIMTOL
 70
1
  9
$DIMLIM
 70
0
  9
$DIMTFAC
 40
1.0
  9
$DIMTP
 40
0.001
  9
$DIMTM
 40
0.001
  9
$DIMGAP
 40
0.09
  9
$DIMDSEP
 70
46
  9
$AUNITS
 70
0
  9
$PDMODE
 70
3
  9
$PDSIZE
 40
0.06
  9
$HANDSEED
  5
3DA
  9
$TILEMODE
 70
1
  9
$MEASUREMENT
 70
0
  9
$INSUNITS
 70
1
  0
ENDSEC
  0
SECTION
  2
CLASSES
  0
CLASS
  1
ACDBDICTIONARYWDFLT
  2
AcDbDictionaryWithDefault
  3
AutoCAD 2000
 90
0
 91
1
280
0
281
0
  0
CLASS
  1
ACDBPLACEHOLDER
  2
AcDbPlaceHolder
  3
AutoCAD 2000
 90
0
 91
1
280
0
281
0
  0
CLASS
  1
LAYOUT
  2
AcDbLayout
  3
AutoCAD 2000
 90
0
 91
0
280
0
281
0
  0
ENDSEC
  0
SECTION
  2
TABLES
  0
TABLE
  2
VPORT
  5
8
100
AcDbSymbolTable
 70
2
  0
VPORT
  5
1F4
100
AcDbSymbolTableRecord
100
AcDbViewportTableRecord
  2
*ACTIVE
 70
0
 10
0.0
 20
0.0
 11
1.0
 21
1.0
 12
11.0
 22
8.5
 13
0.0
 23
0.0
 14
1.0
 24
1.0
 15
0.0
 25
0.0
 16
0.0
 26
0.0
 36
1.0
 17
0.0
 27
0.0
 37
0.0
 40
17.0
 41
1.2941176471
 42
50.0
 43
0.0
 44
0.0
 50
0.0
 51
0.0
 71
0
 72
100
 73
1
 74
1
 75
0
 76
0
 77
0
 78
0
  0
ENDTAB
  0
TABLE
  2
LTYPE
  5
5
100
AcDbSymbolTable
 70
6
  0
LTYPE
  5
14
100
AcDbSymbolTableRecord
100
AcDbLinetypeTableRecord
  2
BYBLOCK
 70
0
  3

 72
65
 73
0
 40
0.0
  0
LTYPE
  5
15
100
AcDbSymbolTableRecord
100
AcDbLinetypeTableRecord
  2
BYLAYER
 70
0
  3

 72
65
 73
0
 40
0.0
  0
LTYPE
  5
16
100
AcDbSymbolTableRecord
100
AcDbLinetypeTableRecord
  2
CONTINUOUS
 70
64
  3
Solid line
 72
65
 73
0
 40
0.0
  0
LTYPE
  5
1F5
100
AcDbSymbolTableRecord
100
AcDbLinetypeTableRecord
  2
CENTER
 70
64
  3
____ _ ____ _ ____ _ ____ _ ____ _ ____ _ ____
 72
65
 73
4
 40
0.6
 49
0.375
 74
0
 49
-0.075
 74
0
 49
0.075
 74
0
 49
-0.075
 74
0
  0
LTYPE
  5
1F6
100
AcDbSymbolTableRecord
100
AcDbLinetypeTableRecord
  2
HIDDEN
 70
64
  3
- - - - - - - - - - - - - - - - - - - -
 72
65
 73
2
 40
0.2
 49
0.1
 74
0
 49
-0.1
 74
0
  0
LTYPE
  5
1F7
100
AcDbSymbolTableRecord
100
AcDbLinetypeTableRecord
  2
PHANTOM
 70
64
  3
_____ _ _ _____ _ _ _____ _ _ _____
 72
65
 73
6
 40
0.8
 49
0.45
 74
0
 49
-0.05
 74
0
 49
0.1
 74
0
 49
-0.05
 74
0
 49
0.1
 74
0
 49
-0.05
 74
0
  0
LTYPE
  5
1F8
100
AcDbSymbolTableRecord
100
AcDbLinetypeTableRecord
  2
DOT
 70
64
  3
. . . . . . . . . . . . . . . . . . . .
 72
65
 73
2
 40
0.2
 49
0.1
 74
0
 49
-0.1
 74
0
  0
LTYPE
  5
1F9
100
AcDbSymbolTableRecord
100
AcDbLinetypeTableRecord
  2
DASHED
 70
64
  3
- - - - - - - - - - - - - - - - - - - -
 72
65
 73
2
 40
0.2
 49
0.1
 74
0
 49
-0.1
 74
0
  0
ENDTAB
  0
TABLE
  2
LAYER
  5
2
100
AcDbSymbolTable
 70
36
  0
LAYER
  5
10
100
AcDbSymbolTableRecord
100
AcDbLayerTableRecord
  2
0
 70
0
 62
7
  6
CONTINUOUS
370
-3
390
F
  0
LAYER
  5
1FA
100
AcDbSymbolTableRecord
100
AcDbLayerTableRecord
  2
DEFAULT_1
 70
0
 62
7
  6
CENTER
370
-3
390
F
  0
LAYER
  5
1FB
100
AcDbSymbolTableRecord
100
AcDbLayerTableRecord
  2
DEFAULT_2
 70
0
 62
8
  6
HIDDEN
370
-3
390
F
  0
LAYER
  5
1FC
100
AcDbSymbolTableRecord
100
AcDbLayerTableRecord
  2
DEFAULT_3
 70
0
 62
7
  6
PHANTOM
370
-3
390
F
  0
LAYER
  5
1FD
100
AcDbSymbolTableRecord
100
AcDbLayerTableRecord
  2
ALL_FEATURES
 70
0
 62
7
  6
CONTINUOUS
370
-3
390
F
  0
LAYER
  5
1FE
100
AcDbSymbolTableRecord
100
AcDbLayerTableRecord
  2
AXES_FEATURES
 70
0
 62
7
  6
CONTINUOUS
370
-3
390
F
  0
LAYER
  5
1FF
100
AcDbSymbolTableRecord
100
AcDbLayerTableRecord
  2
DIMENSIONS
 70
0
 62
7
  6
CONTINUOUS
370
-3
390
F
  0
ENDTAB
  0
TABLE
  2
STYLE
  5
3
100
AcDbSymbolTable
 70
1
  0
STYLE
  5
11
100
AcDbSymbolTableRecord
100
AcDbTextStyleTableRecord
  2
STANDARD
 70
0
 40
0.0
 41
0.8
 50
0.0
 71
0
 42
0.2
  3
txt
  4

  0
STYLE
  5
200
100
AcDbSymbolTableRecord
100
AcDbTextStyleTableRecord
  2
TEXTSTYLE_1
 70
0
 40
0.0
 41
0.8
 50
0.0
 71
0
 42
0.2
  3
gdt
  4

  0
ENDTAB
  0
TABLE
  2
VIEW
  5
6
100
AcDbSymbolTable
 70
0
  0
ENDTAB
  0
TABLE
  2
UCS
  5
7
100
AcDbSymbolTable
 70
0
  0
ENDTAB
  0
TABLE
  2
APPID
  5
9
100
AcDbSymbolTable
 70
1
  0
APPID
  5
201
100
AcDbSymbolTableRecord
100
AcDbRegAppTableRecord
  2
ACAD
 70
0
  0
ENDTAB
  0
TABLE
  2
BLOCK_RECORD
  5
1
100
AcDbSymbolTable
 70
0
  0
BLOCK_RECORD
  5
202
100
AcDbSymbolTableRecord
100
AcDbBlockTableRecord
  2
*Model_Space
  0
BLOCK_RECORD
  5
203
100
AcDbSymbolTableRecord
100
AcDbBlockTableRecord
  2
*Paper_Space
  0
BLOCK_RECORD
  5
204
100
AcDbSymbolTableRecord
100
AcDbBlockTableRecord
  2
_FILLED
  0
ENDTAB
  0
TABLE
  2
DIMSTYLE
  5
A
100
AcDbSymbolTable
 70
1
100
AcDbDimStyleTable
 71
0
  0
DIMSTYLE
105
205
100
AcDbSymbolTableRecord
100
AcDbDimStyleTableRecord
  2
STANDARD
 70
0
  3

  4

 40
1.0
 41
0.1
 42
0.0625
 43
0.38
 44
0.125
 45
0.0
 46
0.0
 47
0.001
 48
0.001
140
0.08
141
0.09
142
0.0
143
25.4
144
1.0
145
0.0
146
1.0
147
0.09
 71
1.0
 72
0.0
 73
1
 74
1
 75
0
 76
0
 77
0
 78
4
 79
1
170
1
171
2
172
0
173
0
174
0
175
0
176
0
177
0
178
0
270
2
179
3
271
3
272
3
273
2
274
2
275
0
280
0
281
0
282
0
283
1
284
4
285
0
286
0
287
3
288
0
340
11
278
46
341
204
342
204
343
204
344
204
  0
ENDTAB
  0
ENDSEC
  0
SECTION
  2
BLOCKS
  0
BLOCK
  5
20
100
AcDbEntity
  8
0
100
AcDbBlockBegin
  2
*Model_Space
 70
0
 10
0.0
 20
0.0
 30
0.0
  3
*Model_Space
  1

  0
ENDBLK
  5
21
100
AcDbEntity
  8
0
100
AcDbBlockEnd
  0
BLOCK
  5
1C
100
AcDbEntity
  8
0
100
AcDbBlockBegin
  2
*Paper_Space
 70
0
 10
0.0
 20
0.0
 30
0.0
  3
*Paper_Space
  1

  0
ENDBLK
  5
1D
100
AcDbEntity
  8
0
100
AcDbBlockEnd
  0
BLOCK
  5
206
100
AcDbEntity
  8
0
100
AcDbBlockBegin
  2
_FILLED
 70
64
 10
0.0
 20
0.0
  3
_FILLED
  1

  0
SOLID
  5
207
100
AcDbEntity
  8
0
  6
BYBLOCK
 62
0
100
AcDbTrace
 10
0.0
 20
0.0
 11
-1.0
 21
0.2
 12
-1.0
 22
-0.2
 13
-1.0
 23
-0.2
  0
ENDBLK
  5
208
100
AcDbEntity
  8
0
  6
BYBLOCK
 62
0
100
AcDbBlockEnd
  0
ENDSEC
  0
SECTION
  2
ENTITIES
  0
LINE
  5
209
100
AcDbEntity
  8
0
100
AcDbLine
 62
7
  6
CONTINUOUS
 10
10.7633431387
 20
4.7944485715
 11
11.1120415468
 21
4.7944485715
  0
LINE
  5
20A
100
AcDbEntity
  8
0
100
AcDbLine
 62
9
  6
CONTINUOUS
 10
11.190730809
 20
4.8288485715
 11
11.1607963185
 21
4.8288485715
  0
LINE
  5
20B
100
AcDbEntity
  8
0
100
AcDbLine
 62
9
  6
CONTINUOUS
 10
11.1507297845
 20
4.8288485715
 11
10.7246549161
 21
4.8288485715
  0
LINE
  5
20C
100
AcDbEntity
  8
0
100
AcDbLine
 62
9
  6
CONTINUOUS
 10
10.714588367
 20
4.8288485715
 11
10.6846538764
 21
4.8288485715
  0
LINE
  5
20D
100
AcDbEntity
  8
0
100
AcDbLine
 62
9
  6
CONTINUOUS
 10
11.2055069423
 20
4.8392384647
 11
11.1715859286
 21
4.8392384647
  0
LINE
  5
20E
100
AcDbEntity
  8
0
100
AcDbLine
 62
9
  6
CONTINUOUS
 10
11.1663761955
 20
4.8392384647
 11
10.7090084899
 21
4.8392384647
  0
LINE
  5
20F
100
AcDbEntity
  8
0
100
AcDbLine
 62
9
  6
CONTINUOUS
 10
10.7037987569
 20
4.8392384647
 11
10.6698777432
 21
4.8392384647
  0
LINE
  5
210
100
AcDbEntity
  8
0
100
AcDbLine
 62
9
  6
CONTINUOUS
 10
10.6576923427
 20
4.8576485715
 11
11.2176923427
 21
4.8576485715
  0
LINE
  5
211
100
AcDbEntity
  8
0
100
AcDbLine
 62
9
  6
CONTINUOUS
 10
11.2176923427
 20
4.8979629103
 11
10.6576923427
 21
4.8979629103
  0
LINE
  5
212
100
AcDbEntity
  8
0
100
AcDbLine
 62
9
  6
CONTINUOUS
 10
10.6617570815
 20
4.910048747
 11
10.6960277473
 21
4.910048747
  0
LINE
  5
213
100
AcDbEntity
  8
0
100
AcDbLine
 62
9
  6
CONTINUOUS
 10
10.7066512552
 20
4.910048747
 11
11.1687334303
 21
4.910048747
  0
LINE
  5
214
100
AcDbEntity
  8
0
100
AcDbLine
 62
9
  6
CONTINUOUS
 10
11.1793569382
 20
4.910048747
 11
11.213627604
 21
4.910048747
  0
LINE
  5
215
100
AcDbEntity
  8
0
100
AcDbLine
 62
9
  6
CONTINUOUS
 10
10.7076923427
 20
5.0409339577
 11
10.7324269471
 21
5.0409339577
  0
LINE
  5
216
100
AcDbEntity
  8
0
100
AcDbLine
 62
9
  6
CONTINUOUS
 10
10.7466685068
 20
5.0409339577
 11
11.1287161787
 21
5.0409339577
  0
LINE
  5
217
100
AcDbEntity
  8
0
100
AcDbLine
 62
9
  6
CONTINUOUS
 10
11.1429577384
 20
5.0409339577
 11
11.1676923427
 21
5.0409339577
  0
LINE
  5
218
100
AcDbEntity
  8
0
100
AcDbLine
 62
9
  6
CONTINUOUS
 10
9.6595818007
 20
6.1171843049
 11
9.674811412
 21
6.1214278777
  0
LINE
  5
219
100
AcDbEntity
  8
0
100
AcDbLine
 62
9
  6
CONTINUOUS
 10
10.7658706503
 20
6.6138382191
 11
10.816076406
 21
6.6138382191
  0
LINE
  5
21A
100
AcDbEntity
  8
0
100
AcDbLine
 62
9
  6
CONTINUOUS
 10
11.0593082635
 20
6.6138382191
 11
11.1095139038
 21
6.6138382191
  0
LINE
  5
21B
100
AcDbEntity
  8
0
100
AcDbLine
 62
9
  6
CONTINUOUS
 10
11.1084753342
 20
6.6530070828
 11
11.0585722421
 21
6.6530070828
  0
LINE
  5
21C
100
AcDbEntity
  8
0
100
AcDbLine
 62
9
  6
CONTINUOUS
 10
10.8168121309
 20
6.6530070828
 11
10.7669096886
 21
6.6530070828
  0
LINE
  5
21D
100
AcDbEntity
  8
0
100
AcDbLine
 62
9
  6
CONTINUOUS
 10
11.1464511869
 20
6.7088680762
 11
10.7289334986
 21
6.7088680762
  0
LINE
  5
21E
100
AcDbEntity
  8
0
100
AcDbLine
 62
9
  6
CONTINUOUS
 10
11.1432237865
 20
6.7426417403
 11
10.732160899
 21
6.7426417403
  0
LINE
  5
21F
100
AcDbEntity
  8
0
100
AcDbLine
 62
9
  6
CONTINUOUS
 10
10.7465598312
 20
6.7904961412
 11
11.1288248543
 21
6.7904961412
  0
LINE
  5
220
100
AcDbEntity
  8
0
100
AcDbLine
 62
9
  6
CONTINUOUS
 10
12.2005737399
 20
6.1214290231
 11
12.2158032131
 21
6.1171846717
  0
LINE
  5
221
100
AcDbEntity
  8
0
100
AcDbLine
 62
9
  6
CONTINUOUS
 10
10.7626923427
 20
6.8170986366
 11
11.1126923427
 21
6.8170986366
  0
LINE
  5
222
100
AcDbEntity
  8
0
100
AcDbLine
 62
7
  6
CONTINUOUS
 10
11.1349991515
 20
12.2219792273
 11
11.1386391325
 21
12.2251131382
  0
LINE
  5
223
100
AcDbEntity
  8
0
100
AcDbLine
 62
7
  6
CONTINUOUS
 10
9.503482018
 20
7.3744111696
 11
9.4876918517
 21
7.3744110347
  0
LINE
  5
224
100
AcDbEntity
  8
0
100
AcDbLine
 62
7
  6
CONTINUOUS
 10
12.3236922238
 20
7.3744844998
 11
12.3718736669
 21
7.3744859574
  0
LINE
  5
225
100
AcDbEntity
  8
0
100
AcDbLine
 62
7
  6
CONTINUOUS
 10
9.5516924617
 20
7.3744126432
 11
9.5035110184
 21
7.3744111855
  0
LINE
  5
226
100
AcDbEntity
  8
0
100
AcDbLine
 62
7
  6
CONTINUOUS
 10
12.3719026667
 20
7.3744859734
 11
12.3876928337
 21
7.3744861082
  0
LWPOLYLINE
  5
227
100
AcDbEntity
  8
0
100
AcDbPolyline
 62
7
  6
CONTINUOUS
 90
4
 70
0
 10
10.736745553
 20
6.6451131382
 10
10.740385534
 20
6.6419792273
 10
10.7460918435
 20
6.6338838588
 10
10.7488511368
 20
6.62437204
  0
LINE
  5
228
100
AcDbEntity
  8
0
100
AcDbLine
 62
9
  6
CONTINUOUS
 10
9.6804280762
 20
8.6525591135
 11
9.684671649
 21
8.6373295022
  0
LINE
  5
229
100
AcDbEntity
  8
0
100
AcDbLine
 62
9
  6
CONTINUOUS
 10
12.2158028848
 20
8.631712838
 11
12.2005732735
 21
8.6274692652
  0
LINE
  5
22A
100
AcDbEntity
  8
0
100
AcDbLine
 62
7
  6
CONTINUOUS
 10
10.3376923427
 20
8.1244485715
 11
11.5376923427
 21
8.1244485715
  0
LINE
  5
22B
100
AcDbEntity
  8
0
100
AcDbLine
 62
9
  6
CONTINUOUS
 10
9.6748109455
 20
8.6274681199
 11
9.6595814723
 21
8.6317124712
  0
LINE
  5
22C
100
AcDbEntity
  8
0
100
AcDbLine
 62
7
  6
CONTINUOUS
 10
10.3376923427
 20
13.7208904327
 11
10.3376923427
 21
12.0644485715
  0
LINE
  5
22D
100
AcDbEntity
  8
0
100
AcDbLine
 62
7
  6
CONTINUOUS
 10
10.3376923427
 20
8.8844485715
 11
10.3376923427
 21
7.668403635
  0
LINE
  5
22E
100
AcDbEntity
  8
0
100
AcDbLine
 62
7
  6
CONTINUOUS
 10
10.3376923427
 20
9.2044485715
 11
10.3376923427
 21
11.7444485715
  0
LINE
  5
22F
100
AcDbEntity
  8
0
100
AcDbLine
 62
7
  6
CONTINUOUS
 10
10.7488511368
 20
6.62437204
 11
10.749044271
 21
6.6200991012
  0
LINE
  5
230
100
AcDbEntity
  8
0
100
AcDbLine
 62
7
  6
CONTINUOUS
 10
10.3776923427
 20
8.8844485715
 11
10.3776923427
 21
9.1844485715
  0
LINE
  5
231
100
AcDbEntity
  8
0
100
AcDbLine
 62
7
  6
CONTINUOUS
 10
10.3776923427
 20
11.7444485715
 11
10.3776923427
 21
12.0444485715
  0
LINE
  5
232
100
AcDbEntity
  8
0
100
AcDbLine
 62
7
  6
CONTINUOUS
 10
10.3876923427
 20
12.1044485715
 11
10.3876923427
 21
12.7321596476
  0
LINE
  5
233
100
AcDbEntity
  8
0
100
AcDbLine
 62
7
  6
CONTINUOUS
 10
10.4676923427
 20
12.0644485715
 11
10.4676923427
 21
12.0444485715
  0
LINE
  5
234
100
AcDbEntity
  8
0
100
AcDbLine
 62
7
  6
CONTINUOUS
 10
10.4676923427
 20
9.2044485715
 11
10.4676923427
 21
9.1844485715
  0
LINE
  5
235
100
AcDbEntity
  8
0
100
AcDbLine
 62
7
  6
CONTINUOUS
 10
10.4751923427
 20
12.1044485715
 11
10.4751923427
 21
11.9194485715
  0
LINE
  5
236
100
AcDbEntity
  8
0
100
AcDbLine
 62
7
  6
CONTINUOUS
 10
10.5714423427
 20
11.7494485715
 11
10.5714423427
 21
11.7414485715
  0
LINE
  5
237
100
AcDbEntity
  8
0
100
AcDbLine
 62
7
  6
CONTINUOUS
 10
10.6576923427
 20
4.8576485715
 11
10.6576923427
 21
4.8979629103
  0
LINE
  5
238
100
AcDbEntity
  8
0
100
AcDbLine
 62
7
  6
CONTINUOUS
 10
10.6576923427
 20
10.4376485715
 11
10.6576923427
 21
10.4779629103
  0
LWPOLYLINE
  5
239
100
AcDbEntity
  8
0
100
AcDbPolyline
 62
7
  6
CONTINUOUS
 90
4
 70
0
 10
10.3376949182
 20
7.6684036349
 10
10.3375831918
 20
7.6647444303
 10
10.3359589924
 20
7.6540781713
 10
10.3325061017
 20
7.6440008657
  0
LINE
  5
23A
100
AcDbEntity
  8
0
100
AcDbLine
 62
9
  6
CONTINUOUS
 10
9.6846727953
 20
6.1115671771
 11
9.6804284434
 21
6.096337701
  0
LINE
  5
23B
100
AcDbEntity
  8
0
100
AcDbLine
 62
7
  6
CONTINUOUS
 10
11.5376923427
 20
8.8844485715
 11
11.4976923427
 21
8.8844485715
  0
LINE
  5
23C
100
AcDbEntity
  8
0
100
AcDbLine
 62
7
  6
CONTINUOUS
 10
10.3776923427
 20
8.8844485715
 11
10.3376923427
 21
8.8844485715
  0
LINE
  5
23D
100
AcDbEntity
  8
0
100
AcDbLine
 62
7
  6
CONTINUOUS
 10
10.7488511368
 20
12.20437204
 11
10.749044271
 21
12.2000991012
  0
LINE
  5
23E
100
AcDbEntity
  8
0
100
AcDbLine
 62
9
  6
CONTINUOUS
 10
10.6921380245
 20
4.8576485715
 11
10.6921380245
 21
4.8979631582
  0
LINE
  5
23F
100
AcDbEntity
  8
0
100
AcDbLine
 62
9
  6
CONTINUOUS
 10
10.6921380245
 20
10.4376485715
 11
10.6921380245
 21
10.4779631582
  0
LINE
  5
240
100
AcDbEntity
  8
0
100
AcDbLine
 62
9
  6
CONTINUOUS
 10
10.7054713578
 20
4.8576485715
 11
10.7054713578
 21
4.8979629103
  0
LINE
  5
241
100
AcDbEntity
  8
0
100
AcDbLine
 62
9
  6
CONTINUOUS
 10
10.7054713578
 20
10.4376485715
 11
10.7054713578
 21
10.4779629103
  0
LINE
  5
242
100
AcDbEntity
  8
0
100
AcDbLine
 62
7
  6
CONTINUOUS
 10
10.7626923427
 20
6.8170986366
 11
10.7626923427
 21
6.9609879493
  0
LINE
  5
243
100
AcDbEntity
  8
0
100
AcDbLine
 62
7
  6
CONTINUOUS
 10
10.7626923427
 20
12.3970986366
 11
10.7626923427
 21
12.5409879493
  0
LINE
  5
244
100
AcDbEntity
  8
0
100
AcDbLine
 62
9
  6
CONTINUOUS
 10
10.9376923304
 20
12.2251132291
 11
10.9376923299
 21
12.2000992231
  0
LINE
  5
245
100
AcDbEntity
  8
0
100
AcDbLine
 62
9
  6
CONTINUOUS
 10
10.9376923304
 20
6.6451132291
 11
10.9376923299
 21
6.6200992231
  0
LINE
  5
246
100
AcDbEntity
  8
0
100
AcDbLine
 62
9
  6
CONTINUOUS
 10
10.9376923997
 20
8.0969485715
 11
10.9376923639
 21
8.0369481941
  0
LINE
  5
247
100
AcDbEntity
  8
0
100
AcDbLine
 62
7
  6
CONTINUOUS
 10
10.7490442373
 20
12.2000991006
 11
10.7076923427
 21
10.6209339577
  0
LINE
  5
248
100
AcDbEntity
  8
0
100
AcDbLine
 62
7
  6
CONTINUOUS
 10
10.7490442373
 20
6.6200991006
 11
10.7076923427
 21
5.0409339577
  0
LINE
  5
249
100
AcDbEntity
  8
0
100
AcDbLine
 62
7
  6
CONTINUOUS
 10
11.4976923427
 20
9.1844485715
 11
10.3776923427
 21
9.1844485715
  0
LINE
  5
24A
100
AcDbEntity
  8
0
100
AcDbLine
 62
7
  6
CONTINUOUS
 10
10.3376929928
 20
9.2044485715
 11
11.5376916926
 21
9.2044485715
  0
LINE
  5
24B
100
AcDbEntity
  8
0
100
AcDbLine
 62
7
  6
CONTINUOUS
 10
10.3576923427
 20
9.3044485715
 11
11.5176912578
 21
9.3044485715
  0
LINE
  5
24C
100
AcDbEntity
  8
0
100
AcDbLine
 62
7
  6
CONTINUOUS
 10
11.1263404482
 20
6.6200991006
 11
11.1676923427
 21
5.0409339577
  0
LINE
  5
24D
100
AcDbEntity
  8
0
100
AcDbLine
 62
7
  6
CONTINUOUS
 10
11.1263404482
 20
12.2000991006
 11
11.1676923427
 21
10.6209339577
  0
LINE
  5
24E
100
AcDbEntity
  8
0
100
AcDbLine
 62
7
  6
CONTINUOUS
 10
11.1126923427
 20
6.8170986366
 11
11.1126923427
 21
6.9609879493
  0
LINE
  5
24F
100
AcDbEntity
  8
0
100
AcDbLine
 62
7
  6
CONTINUOUS
 10
11.1126923427
 20
12.3970986366
 11
11.1126923427
 21
12.5409879493
  0
LINE
  5
250
100
AcDbEntity
  8
0
100
AcDbLine
 62
9
  6
CONTINUOUS
 10
11.1699133276
 20
4.8576485715
 11
11.1699133276
 21
4.8979631582
  0
LINE
  5
251
100
AcDbEntity
  8
0
100
AcDbLine
 62
9
  6
CONTINUOUS
 10
11.1699133276
 20
10.4376485715
 11
11.1699133276
 21
10.4779631582
  0
LINE
  5
252
100
AcDbEntity
  8
0
100
AcDbLine
 62
9
  6
CONTINUOUS
 10
11.183246661
 20
4.8576485715
 11
11.183246661
 21
4.8979629103
  0
LINE
  5
253
100
AcDbEntity
  8
0
100
AcDbLine
 62
9
  6
CONTINUOUS
 10
11.183246661
 20
10.4376485715
 11
11.183246661
 21
10.4779629103
  0
LINE
  5
254
100
AcDbEntity
  8
0
100
AcDbLine
 62
7
  6
CONTINUOUS
 10
11.2176923427
 20
4.8576485715
 11
11.2176923427
 21
4.8979629103
  0
LINE
  5
255
100
AcDbEntity
  8
0
100
AcDbLine
 62
7
  6
CONTINUOUS
 10
11.2176923427
 20
10.4376485715
 11
11.2176923427
 21
10.4779629103
  0
LWPOLYLINE
  5
256
100
AcDbEntity
  8
0
100
AcDbPolyline
 62
7
  6
CONTINUOUS
 90
4
 70
0
 10
11.1263404145
 20
12.2000991012
 10
11.1265335486
 20
12.20437204
 10
11.129292842
 20
12.2138838588
 10
11.1349991515
 20
12.2219792273
  0
LWPOLYLINE
  5
257
100
AcDbEntity
  8
0
100
AcDbPolyline
 62
7
  6
CONTINUOUS
 90
4
 70
0
 10
11.1263404145
 20
6.6200991012
 10
11.1265335486
 20
6.62437204
 10
11.129292842
 20
6.6338838588
 10
11.1349991515
 20
6.6419792273
  0
LINE
  5
258
100
AcDbEntity
  8
0
100
AcDbLine
 62
9
  6
CONTINUOUS
 10
10.3376923427
 20
9.3244485715
 11
11.5376923427
 21
9.3244485715
  0
LWPOLYLINE
  5
259
100
AcDbEntity
  8
0
100
AcDbPolyline
 62
7
  6
CONTINUOUS
 90
4
 70
0
 10
11.5428785747
 20
7.6440008961
 10
11.5394249979
 20
7.654080993
 10
11.5378013086
 20
7.664747385
 10
11.537689762
 20
7.6684036451
  0
LINE
  5
25A
100
AcDbEntity
  8
0
100
AcDbLine
 62
7
  6
CONTINUOUS
 10
11.3039423427
 20
11.7494485715
 11
11.3039423427
 21
11.7414485715
  0
LINE
  5
25B
100
AcDbEntity
  8
0
100
AcDbLine
 62
7
  6
CONTINUOUS
 10
11.4001923427
 20
12.1044485715
 11
11.4001923427
 21
11.9194485715
  0
LINE
  5
25C
100
AcDbEntity
  8
0
100
AcDbLine
 62
7
  6
CONTINUOUS
 10
11.4076923427
 20
12.0644485715
 11
11.4076923427
 21
12.0444485715
  0
LINE
  5
25D
100
AcDbEntity
  8
0
100
AcDbLine
 62
7
  6
CONTINUOUS
 10
11.4076923427
 20
9.2044485715
 11
11.4076923427
 21
9.1844485715
  0
LINE
  5
25E
100
AcDbEntity
  8
0
100
AcDbLine
 62
7
  6
CONTINUOUS
 10
11.4876923427
 20
12.1044485715
 11
11.4876923427
 21
12.7321596476
  0
LINE
  5
25F
100
AcDbEntity
  8
0
100
AcDbLine
 62
7
  6
CONTINUOUS
 10
11.4976923427
 20
12.0444485715
 11
11.4976923427
 21
11.7444485715
  0
LINE
  5
260
100
AcDbEntity
  8
0
100
AcDbLine
 62
7
  6
CONTINUOUS
 10
11.4976923427
 20
9.1844485715
 11
11.4976923427
 21
8.8844485715
  0
LINE
  5
261
100
AcDbEntity
  8
0
100
AcDbLine
 62
7
  6
CONTINUOUS
 10
11.5376923427
 20
13.7208904327
 11
11.5376923427
 21
12.0644485715
  0
LINE
  5
262
100
AcDbEntity
  8
0
100
AcDbLine
 62
7
  6
CONTINUOUS
 10
11.5376923427
 20
8.8844485715
 11
11.5376923427
 21
7.6684036451
  0
LINE
  5
263
100
AcDbEntity
  8
0
100
AcDbLine
 62
7
  6
CONTINUOUS
 10
11.5376923427
 20
9.2044485715
 11
11.5376923427
 21
11.7444485715
  0
LINE
  5
264
100
AcDbEntity
  8
0
100
AcDbLine
 62
9
  6
CONTINUOUS
 10
12.1949566114
 20
6.09633803
 11
12.1907130365
 21
6.1115676407
  0
LINE
  5
265
100
AcDbEntity
  8
0
100
AcDbLine
 62
7
  6
CONTINUOUS
 10
10.7633431387
 20
10.3744485715
 11
11.1120415468
 21
10.3744485715
  0
LINE
  5
266
100
AcDbEntity
  8
0
100
AcDbLine
 62
9
  6
CONTINUOUS
 10
11.190730809
 20
10.4088485715
 11
11.1607963185
 21
10.4088485715
  0
LINE
  5
267
100
AcDbEntity
  8
0
100
AcDbLine
 62
9
  6
CONTINUOUS
 10
11.1507297845
 20
10.4088485715
 11
10.7246549161
 21
10.4088485715
  0
LINE
  5
268
100
AcDbEntity
  8
0
100
AcDbLine
 62
9
  6
CONTINUOUS
 10
10.714588367
 20
10.4088485715
 11
10.6846538764
 21
10.4088485715
  0
LINE
  5
269
100
AcDbEntity
  8
0
100
AcDbLine
 62
9
  6
CONTINUOUS
 10
11.2055069423
 20
10.4192384647
 11
11.1715859286
 21
10.4192384647
  0
LINE
  5
26A
100
AcDbEntity
  8
0
100
AcDbLine
 62
9
  6
CONTINUOUS
 10
11.1663761955
 20
10.4192384647
 11
10.7090084899
 21
10.4192384647
  0
LINE
  5
26B
100
AcDbEntity
  8
0
100
AcDbLine
 62
9
  6
CONTINUOUS
 10
10.7037987569
 20
10.4192384647
 11
10.6698777432
 21
10.4192384647
  0
LINE
  5
26C
100
AcDbEntity
  8
0
100
AcDbLine
 62
9
  6
CONTINUOUS
 10
10.6576923427
 20
10.4376485715
 11
11.2176923427
 21
10.4376485715
  0
LINE
  5
26D
100
AcDbEntity
  8
0
100
AcDbLine
 62
9
  6
CONTINUOUS
 10
11.2176923427
 20
10.4779629103
 11
10.6576923427
 21
10.4779629103
  0
LINE
  5
26E
100
AcDbEntity
  8
0
100
AcDbLine
 62
9
  6
CONTINUOUS
 10
10.6617570815
 20
10.490048747
 11
10.6960277473
 21
10.490048747
  0
LINE
  5
26F
100
AcDbEntity
  8
0
100
AcDbLine
 62
9
  6
CONTINUOUS
 10
10.7066512552
 20
10.490048747
 11
11.1687334303
 21
10.490048747
  0
LINE
  5
270
100
AcDbEntity
  8
0
100
AcDbLine
 62
9
  6
CONTINUOUS
 10
11.1793569382
 20
10.490048747
 11
11.213627604
 21
10.490048747
  0
LINE
  5
271
100
AcDbEntity
  8
0
100
AcDbLine
 62
9
  6
CONTINUOUS
 10
12.1907118911
 20
8.6373299687
 11
12.1949562425
 21
8.6525594419
  0
LINE
  5
272
100
AcDbEntity
  8
0
100
AcDbLine
 62
9
  6
CONTINUOUS
 10
10.7076923427
 20
10.6209339577
 11
10.7324269471
 21
10.6209339577
  0
LINE
  5
273
100
AcDbEntity
  8
0
100
AcDbLine
 62
9
  6
CONTINUOUS
 10
10.7466685068
 20
10.6209339577
 11
11.1287161787
 21
10.6209339577
  0
LINE
  5
274
100
AcDbEntity
  8
0
100
AcDbLine
 62
9
  6
CONTINUOUS
 10
11.1429577384
 20
10.6209339577
 11
11.1676923427
 21
10.6209339577
  0
LINE
  5
275
100
AcDbEntity
  8
0
100
AcDbLine
 62
7
  6
CONTINUOUS
 10
11.5376916806
 20
10.9844485715
 11
11.1581733776
 21
10.9844485715
  0
LINE
  5
276
100
AcDbEntity
  8
0
100
AcDbLine
 62
7
  6
CONTINUOUS
 10
10.7172113079
 20
10.9844485715
 11
10.3376930049
 21
10.9844485715
  0
LINE
  5
277
100
AcDbEntity
  8
0
100
AcDbLine
 62
7
  6
CONTINUOUS
 10
11.1349991515
 20
6.6419792273
 11
11.1386391325
 21
6.6451131382
  0
LWPOLYLINE
  5
278
100
AcDbEntity
  8
0
100
AcDbPolyline
 62
7
  6
CONTINUOUS
 90
4
 70
0
 10
10.736745553
 20
12.2251131382
 10
10.740385534
 20
12.2219792273
 10
10.7460918435
 20
12.2138838588
 10
10.7488511368
 20
12.20437204
  0
LINE
  5
279
100
AcDbEntity
  8
0
100
AcDbLine
 62
7
  6
CONTINUOUS
 10
10.5714423427
 20
11.7414485715
 11
10.7370340505
 21
11.7414485715
  0
LINE
  5
27A
100
AcDbEntity
  8
0
100
AcDbLine
 62
7
  6
CONTINUOUS
 10
11.1383506349
 20
11.7414485715
 11
11.3039423427
 21
11.7414485715
  0
LINE
  5
27B
100
AcDbEntity
  8
0
100
AcDbLine
 62
7
  6
CONTINUOUS
 10
11.5376923427
 20
11.7444485715
 11
11.4976923427
 21
11.7444485715
  0
LINE
  5
27C
100
AcDbEntity
  8
0
100
AcDbLine
 62
7
  6
CONTINUOUS
 10
10.3776923427
 20
11.7444485715
 11
10.3376923427
 21
11.7444485715
  0
LINE
  5
27D
100
AcDbEntity
  8
0
100
AcDbLine
 62
7
  6
CONTINUOUS
 10
10.5195239579
 20
11.7494485715
 11
10.7372435379
 21
11.7494485715
  0
LINE
  5
27E
100
AcDbEntity
  8
0
100
AcDbLine
 62
7
  6
CONTINUOUS
 10
11.1381411476
 20
11.7494485715
 11
11.3558557738
 21
11.7494485715
  0
LINE
  5
27F
100
AcDbEntity
  8
0
100
AcDbLine
 62
9
  6
CONTINUOUS
 10
11.3649804299
 20
11.7553460077
 11
11.1379867178
 21
11.7553460074
  0
LINE
  5
280
100
AcDbEntity
  8
0
100
AcDbLine
 62
9
  6
CONTINUOUS
 10
10.7373979677
 20
11.7553460074
 11
10.5104042555
 21
11.7553460077
  0
LINE
  5
281
100
AcDbEntity
  8
0
100
AcDbLine
 62
9
  6
CONTINUOUS
 10
10.4751923427
 20
11.9194485715
 11
10.7416951446
 21
11.9194485715
  0
LINE
  5
282
100
AcDbEntity
  8
0
100
AcDbLine
 62
9
  6
CONTINUOUS
 10
11.1336895409
 20
11.9194485715
 11
11.4001923427
 21
11.9194485715
  0
LINE
  5
283
100
AcDbEntity
  8
0
100
AcDbLine
 62
7
  6
CONTINUOUS
 10
11.4976923427
 20
12.0444485715
 11
11.4001923427
 21
12.0444485715
  0
LINE
  5
284
100
AcDbEntity
  8
0
100
AcDbLine
 62
7
  6
CONTINUOUS
 10
10.4751923427
 20
12.0444485715
 11
10.3776923427
 21
12.0444485715
  0
LINE
  5
285
100
AcDbEntity
  8
0
100
AcDbLine
 62
7
  6
CONTINUOUS
 10
10.3376929928
 20
12.0644485715
 11
10.4751923427
 21
12.0644485715
  0
LINE
  5
286
100
AcDbEntity
  8
0
100
AcDbLine
 62
7
  6
CONTINUOUS
 10
11.4001923427
 20
12.0644485715
 11
11.5376916926
 21
12.0644485715
  0
LINE
  5
287
100
AcDbEntity
  8
0
100
AcDbLine
 62
7
  6
CONTINUOUS
 10
10.387701324
 20
12.1044485715
 11
10.7465395401
 21
12.1044485715
  0
LINE
  5
288
100
AcDbEntity
  8
0
100
AcDbLine
 62
7
  6
CONTINUOUS
 10
11.1288451454
 20
12.1044485715
 11
11.4876833615
 21
12.1044485715
  0
LINE
  5
289
100
AcDbEntity
  8
0
100
AcDbLine
 62
9
  6
CONTINUOUS
 10
10.7658706503
 20
12.1938382191
 11
10.816076406
 21
12.1938382191
  0
LINE
  5
28A
100
AcDbEntity
  8
0
100
AcDbLine
 62
9
  6
CONTINUOUS
 10
11.0593082635
 20
12.1938382191
 11
11.1095139038
 21
12.1938382191
  0
LINE
  5
28B
100
AcDbEntity
  8
0
100
AcDbLine
 62
9
  6
CONTINUOUS
 10
11.1084753342
 20
12.2330070828
 11
11.0585722421
 21
12.2330070828
  0
LINE
  5
28C
100
AcDbEntity
  8
0
100
AcDbLine
 62
9
  6
CONTINUOUS
 10
10.8168121309
 20
12.2330070828
 11
10.7669096886
 21
12.2330070828
  0
LINE
  5
28D
100
AcDbEntity
  8
0
100
AcDbLine
 62
9
  6
CONTINUOUS
 10
11.1464511869
 20
12.2888680762
 11
10.7289334986
 21
12.2888680762
  0
LINE
  5
28E
100
AcDbEntity
  8
0
100
AcDbLine
 62
9
  6
CONTINUOUS
 10
11.1432237865
 20
12.3226417403
 11
10.732160899
 21
12.3226417403
  0
LINE
  5
28F
100
AcDbEntity
  8
0
100
AcDbLine
 62
9
  6
CONTINUOUS
 10
10.7465598312
 20
12.3704961412
 11
11.1288248543
 21
12.3704961412
  0
LINE
  5
290
100
AcDbEntity
  8
0
100
AcDbLine
 62
9
  6
CONTINUOUS
 10
10.7626923427
 20
12.3970986366
 11
11.1126923427
 21
12.3970986366
  0
LINE
  5
291
100
AcDbEntity
  8
0
100
AcDbLine
 62
9
  6
CONTINUOUS
 10
11.5376923427
 20
13.7208904327
 11
10.3376923427
 21
13.7208904327
  0
LINE
  5
292
100
AcDbEntity
  8
0
100
AcDbLine
 62
7
  6
CONTINUOUS
 10
11.5176923427
 20
13.7408904327
 11
10.3576934086
 21
13.7408904327
  0
ARC
  5
293
100
AcDbEntity
  8
0
100
AcDbCircle
 62
7
  6
CONTINUOUS
 10
7.7036616314
 20
7.3744549654
 40
4.6840337463
100
AcDbArc
 50
344.4299488172
 51
0.0001513686
  0
ARC
  5
294
100
AcDbEntity
  8
0
100
AcDbCircle
 62
7
  6
CONTINUOUS
 10
7.7036923427
 20
7.3744485715
 40
4.684
100
AcDbArc
 50
0.0002295821
 51
15.5700766762
  0
ARC
  5
295
100
AcDbEntity
  8
0
100
AcDbCircle
 62
9
  6
CONTINUOUS
 10
7.7036923427
 20
7.3744485715
 40
4.6681902246
100
AcDbArc
 50
0.0004530777
 51
15.5700885407
  0
ARC
  5
296
100
AcDbEntity
  8
0
100
AcDbCircle
 62
7
  6
CONTINUOUS
 10
7.7037408621
 20
7.3744403527
 40
4.6681474572
100
AcDbArc
 50
344.4298752901
 51
0.0005597438
  0
ARC
  5
297
100
AcDbEntity
  8
0
100
AcDbCircle
 62
7
  6
CONTINUOUS
 10
7.7036923427
 20
7.3744485715
 40
4.62
100
AcDbArc
 50
344.8816363
 51
15.1183624534
  0
ARC
  5
298
100
AcDbEntity
  8
0
100
AcDbCircle
 62
7
  6
CONTINUOUS
 10
7.7037041044
 20
7.3744477054
 40
4.6199885986
100
AcDbArc
 50
344.8816086254
 51
348.3983467215
  0
ARC
  5
299
100
AcDbEntity
  8
0
100
AcDbCircle
 62
7
  6
CONTINUOUS
 10
7.7037041044
 20
7.3744477054
 40
4.6199885986
100
AcDbArc
 50
348.7885157965
 51
0.0002342135
  0
ARC
  5
29A
100
AcDbEntity
  8
0
100
AcDbCircle
 62
7
  6
CONTINUOUS
 10
10.9376859488
 20
4.1404178601
 40
4.6840337463
100
AcDbArc
 50
74.4299488172
 51
82.6389833584
  0
ARC
  5
29B
100
AcDbEntity
  8
0
100
AcDbCircle
 62
7
  6
CONTINUOUS
 10
10.4813699244
 20
5.0468604188
 40
0.2264
100
AcDbArc
 50
322.8220998293
 51
358.5
  0
ARC
  5
29C
100
AcDbEntity
  8
0
100
AcDbCircle
 62
7
  6
CONTINUOUS
 10
10.7633431387
 20
4.9016485715
 40
0.1072
100
AcDbArc
 50
222.7737033384
 51
270.0
  0
ARC
  5
29D
100
AcDbEntity
  8
0
100
AcDbCircle
 62
9
  6
CONTINUOUS
 10
10.7812280862
 20
4.8733675389
 40
0.0789213908
100
AcDbArc
 50
255.2911910809
 51
257.0965929569
  0
ARC
  5
29E
100
AcDbEntity
  8
0
100
AcDbCircle
 62
9
  6
CONTINUOUS
 10
10.7812176375
 20
4.8733229613
 40
0.0788756057
100
AcDbArc
 50
257.0967602254
 51
257.8741155808
  0
ARC
  5
29F
100
AcDbEntity
  8
0
100
AcDbCircle
 62
9
  6
CONTINUOUS
 10
10.7812053323
 20
4.8732616014
 40
0.0788130299
100
AcDbArc
 50
257.8734914153
 51
270.0008927462
  0
ARC
  5
2A0
100
AcDbEntity
  8
0
100
AcDbCircle
 62
9
  6
CONTINUOUS
 10
9.7289475957
 20
6.1656993567
 40
0.069932495
100
AcDbArc
 50
224.9980034856
 51
230.7202172761
  0
ARC
  5
2A1
100
AcDbEntity
  8
0
100
AcDbCircle
 62
9
  6
CONTINUOUS
 10
9.72837822
 20
6.1651974545
 40
0.0691750019
100
AcDbArc
 50
219.252358097
 51
225.0374992915
  0
ARC
  5
2A2
100
AcDbEntity
  8
0
100
AcDbCircle
 62
9
  6
CONTINUOUS
 10
10.7813348034
 20
4.8514308298
 40
0.0569824028
100
AcDbArc
 50
253.1293524984
 51
269.8709821767
  0
ARC
  5
2A3
100
AcDbEntity
  8
0
100
AcDbCircle
 62
7
  6
CONTINUOUS
 10
10.6530607249
 20
4.7996199148
 40
0.04304
100
AcDbArc
 50
42.7737033383
 51
67.0000715387
  0
ARC
  5
2A4
100
AcDbEntity
  8
0
100
AcDbCircle
 62
7
  6
CONTINUOUS
 10
9.6884807316
 20
6.1252369603
 40
0.03
100
AcDbArc
 50
195.5700766756
 51
254.4299233238
  0
ARC
  5
2A5
100
AcDbEntity
  8
0
100
AcDbCircle
 62
7
  6
CONTINUOUS
 10
9.7405564185
 20
6.1773126473
 40
0.03
100
AcDbArc
 50
195.1182551381
 51
254.8816368445
  0
ARC
  5
2A6
100
AcDbEntity
  8
0
100
AcDbCircle
 62
7
  6
CONTINUOUS
 10
10.6776923427
 20
4.8979629103
 40
0.02
100
AcDbArc
 50
142.8220998293
 51
180.0
  0
ARC
  5
2A7
100
AcDbEntity
  8
0
100
AcDbCircle
 62
7
  6
CONTINUOUS
 10
10.6776923427
 20
4.8576485715
 40
0.02
100
AcDbArc
 50
180.0
 51
247.0000715384
  0
ARC
  5
2A8
100
AcDbEntity
  8
0
100
AcDbCircle
 62
9
  6
CONTINUOUS
 10
10.3502750208
 20
6.8473346099
 40
0.8055940752
100
AcDbArc
 50
340.5345955708
 51
343.8965915926
  0
ARC
  5
2A9
100
AcDbEntity
  8
0
100
AcDbCircle
 62
9
  6
CONTINUOUS
 10
9.7289431277
 20
8.5831933189
 40
0.0699324946
100
AcDbArc
 50
134.9980034798
 51
140.7202184201
  0
ARC
  5
2AA
100
AcDbEntity
  8
0
100
AcDbCircle
 62
9
  6
CONTINUOUS
 10
9.7284412258
 20
8.5837626942
 40
0.0691750019
100
AcDbArc
 50
129.2523580974
 51
135.0374992915
  0
ARC
  5
2AB
100
AcDbEntity
  8
0
100
AcDbCircle
 62
7
  6
CONTINUOUS
 10
10.7626923427
 20
6.6806485715
 40
0.044
100
AcDbArc
 50
140.10726293
 51
233.9033894567
  0
ARC
  5
2AC
100
AcDbEntity
  8
0
100
AcDbCircle
 62
7
  6
CONTINUOUS
 10
10.7626923427
 20
6.7595485715
 40
0.0349
100
AcDbArc
 50
117.5323665693
 51
208.9755550787
  0
ARC
  5
2AD
100
AcDbEntity
  8
0
100
AcDbCircle
 62
7
  6
CONTINUOUS
 10
10.7326923427
 20
6.8170986366
 40
0.03
100
AcDbArc
 50
297.5323665693
 51
360.0
  0
ARC
  5
2AE
100
AcDbEntity
  8
0
100
AcDbCircle
 62
7
  6
CONTINUOUS
 10
10.7059161049
 20
6.7281086475
 40
0.03
100
AcDbArc
 50
320.1072629301
 51
28.9755550787
  0
ARC
  5
2AF
100
AcDbEntity
  8
0
100
AcDbCircle
 62
7
  6
CONTINUOUS
 10
9.7405564185
 20
8.5715844957
 40
0.03
100
AcDbArc
 50
105.1182551379
 51
164.8816368445
  0
ARC
  5
2B0
100
AcDbEntity
  8
0
100
AcDbCircle
 62
7
  6
CONTINUOUS
 10
9.6884807316
 20
8.6236601826
 40
0.03
100
AcDbArc
 50
105.5700766756
 51
164.4299233238
  0
ARC
  5
2B1
100
AcDbEntity
  8
0
100
AcDbCircle
 62
7
  6
CONTINUOUS
 10
10.9376841244
 20
10.6084000573
 40
4.6681479439
100
AcDbArc
 50
254.4298753022
 51
267.4661875505
  0
ARC
  5
2B2
100
AcDbEntity
  8
0
100
AcDbCircle
 62
7
  6
CONTINUOUS
 10
10.9376914768
 20
10.6084368129
 40
4.6199886016
100
AcDbArc
 50
254.8816086336
 51
258.3988620143
  0
ARC
  5
2B3
100
AcDbEntity
  8
0
100
AcDbCircle
 62
7
  6
CONTINUOUS
 10
10.9376914768
 20
10.6084368129
 40
4.6199886016
100
AcDbArc
 50
258.7883219197
 51
267.314407103
  0
ARC
  5
2B4
100
AcDbEntity
  8
0
100
AcDbCircle
 62
9
  6
CONTINUOUS
 10
10.3502750208
 20
12.4273346099
 40
0.8055940752
100
AcDbArc
 50
340.5345955708
 51
343.8965915926
  0
ARC
  5
2B5
100
AcDbEntity
  8
0
100
AcDbCircle
 62
7
  6
CONTINUOUS
 10
10.8751923427
 20
11.9194485715
 40
0.4
100
AcDbArc
 50
180.0
 51
204.2209430598
  0
ARC
  5
2B6
100
AcDbEntity
  8
0
100
AcDbCircle
 62
7
  6
CONTINUOUS
 10
10.4813699244
 20
10.6268604188
 40
0.2264
100
AcDbArc
 50
322.8220998293
 51
358.5
  0
ARC
  5
2B7
100
AcDbEntity
  8
0
100
AcDbCircle
 62
7
  6
CONTINUOUS
 10
10.7633431387
 20
10.4816485715
 40
0.1072
100
AcDbArc
 50
222.7737033384
 51
270.0
  0
ARC
  5
2B8
100
AcDbEntity
  8
0
100
AcDbCircle
 62
9
  6
CONTINUOUS
 10
10.7812280862
 20
10.4533675389
 40
0.0789213908
100
AcDbArc
 50
255.2911910808
 51
257.0965929569
  0
ARC
  5
2B9
100
AcDbEntity
  8
0
100
AcDbCircle
 62
9
  6
CONTINUOUS
 10
10.7812176375
 20
10.4533229614
 40
0.0788756057
100
AcDbArc
 50
257.0967602256
 51
257.8741155807
  0
ARC
  5
2BA
100
AcDbEntity
  8
0
100
AcDbCircle
 62
9
  6
CONTINUOUS
 10
10.7812053323
 20
10.4532616014
 40
0.0788130299
100
AcDbArc
 50
257.8734914153
 51
270.0008927462
  0
ARC
  5
2BB
100
AcDbEntity
  8
0
100
AcDbCircle
 62
9
  6
CONTINUOUS
 10
10.7813348034
 20
10.4314308298
 40
0.0569824028
100
AcDbArc
 50
253.1293524984
 51
269.8709821767
  0
ARC
  5
2BC
100
AcDbEntity
  8
0
100
AcDbCircle
 62
7
  6
CONTINUOUS
 10
10.7626923427
 20
12.2606485715
 40
0.044
100
AcDbArc
 50
140.10726293
 51
233.9033894567
  0
ARC
  5
2BD
100
AcDbEntity
  8
0
100
AcDbCircle
 62
7
  6
CONTINUOUS
 10
10.6530607249
 20
10.3796199148
 40
0.04304
100
AcDbArc
 50
42.7737033383
 51
67.0000715387
  0
ARC
  5
2BE
100
AcDbEntity
  8
0
100
AcDbCircle
 62
7
  6
CONTINUOUS
 10
10.7626923427
 20
12.3395485715
 40
0.0349
100
AcDbArc
 50
117.5323665693
 51
208.9755550787
  0
ARC
  5
2BF
100
AcDbEntity
  8
0
100
AcDbCircle
 62
7
  6
CONTINUOUS
 10
10.7326923427
 20
12.3970986366
 40
0.03
100
AcDbArc
 50
297.5323665693
 51
360.0
  0
ARC
  5
2C0
100
AcDbEntity
  8
0
100
AcDbCircle
 62
7
  6
CONTINUOUS
 10
10.7059161049
 20
12.3081086475
 40
0.03
100
AcDbArc
 50
320.1072629301
 51
28.9755550787
  0
ARC
  5
2C1
100
AcDbEntity
  8
0
100
AcDbCircle
 62
7
  6
CONTINUOUS
 10
10.3576923427
 20
9.3244485715
 40
0.02
100
AcDbArc
 50
180.0
 51
270.0
  0
ARC
  5
2C2
100
AcDbEntity
  8
0
100
AcDbCircle
 62
7
  6
CONTINUOUS
 10
10.3576923427
 20
13.7208904327
 40
0.02
100
AcDbArc
 50
90.0
 51
180.0
  0
ARC
  5
2C3
100
AcDbEntity
  8
0
100
AcDbCircle
 62
7
  6
CONTINUOUS
 10
10.6776923427
 20
10.4779629103
 40
0.02
100
AcDbArc
 50
142.8220998293
 51
180.0
  0
ARC
  5
2C4
100
AcDbEntity
  8
0
100
AcDbCircle
 62
7
  6
CONTINUOUS
 10
10.6776923427
 20
10.4376485715
 40
0.02
100
AcDbArc
 50
180.0
 51
247.0000715384
  0
ARC
  5
2C5
100
AcDbEntity
  8
0
100
AcDbCircle
 62
7
  6
CONTINUOUS
 10
10.5195239579
 20
11.7594485715
 40
0.01
100
AcDbArc
 50
204.2209411427
 51
270.0
  0
ARC
  5
2C6
100
AcDbEntity
  8
0
100
AcDbCircle
 62
7
  6
CONTINUOUS
 10
10.9376923427
 20
4.1404485715
 40
4.684
100
AcDbArc
 50
97.3609917713
 51
105.5700766762
  0
ARC
  5
2C7
100
AcDbEntity
  8
0
100
AcDbCircle
 62
9
  6
CONTINUOUS
 10
10.9376923427
 20
4.1404485715
 40
4.6681902246
100
AcDbArc
 50
97.3859824194
 51
105.5700885418
  0
ARC
  5
2C8
100
AcDbEntity
  8
0
100
AcDbCircle
 62
7
  6
CONTINUOUS
 10
10.9377005615
 20
4.1404970908
 40
4.6681474572
100
AcDbArc
 50
74.4298752901
 51
82.6140701669
  0
ARC
  5
2C9
100
AcDbEntity
  8
0
100
AcDbCircle
 62
7
  6
CONTINUOUS
 10
10.9376923427
 20
4.1404485715
 40
4.62
100
AcDbArc
 50
74.8816363
 51
82.5372390707
  0
ARC
  5
2CA
100
AcDbEntity
  8
0
100
AcDbCircle
 62
7
  6
CONTINUOUS
 10
10.9376923427
 20
4.1404485715
 40
4.62
100
AcDbArc
 50
97.4624307532
 51
105.1183624541
  0
ARC
  5
2CB
100
AcDbEntity
  8
0
100
AcDbCircle
 62
7
  6
CONTINUOUS
 10
10.9376932088
 20
4.1404603332
 40
4.6199885986
100
AcDbArc
 50
74.8816086254
 51
78.3988623994
  0
ARC
  5
2CC
100
AcDbEntity
  8
0
100
AcDbCircle
 62
7
  6
CONTINUOUS
 10
10.9376932088
 20
4.1404603332
 40
4.6199885986
100
AcDbArc
 50
78.7883221048
 51
82.5375667208
  0
ARC
  5
2CD
100
AcDbEntity
  8
0
100
AcDbCircle
 62
7
  6
CONTINUOUS
 10
11.3940147611
 20
5.0468604188
 40
0.2264
100
AcDbArc
 50
181.5
 51
217.1779001707
  0
ARC
  5
2CE
100
AcDbEntity
  8
0
100
AcDbCircle
 62
7
  6
CONTINUOUS
 10
11.1120415468
 20
4.9016485715
 40
0.1072
100
AcDbArc
 50
270.0
 51
317.2262966616
  0
ARC
  5
2CF
100
AcDbEntity
  8
0
100
AcDbCircle
 62
9
  6
CONTINUOUS
 10
11.0941021291
 20
4.873946249
 40
0.0794977138
100
AcDbArc
 50
270.0547353781
 51
282.0796315193
  0
ARC
  5
2D0
100
AcDbEntity
  8
0
100
AcDbCircle
 62
9
  6
CONTINUOUS
 10
11.0942013898
 20
4.8733468203
 40
0.0788907956
100
AcDbArc
 50
282.8773405666
 51
284.4899126831
  0
ARC
  5
2D1
100
AcDbEntity
  8
0
100
AcDbCircle
 62
9
  6
CONTINUOUS
 10
11.0942075781
 20
4.8733206158
 40
0.078863871
100
AcDbArc
 50
282.0998379066
 51
282.8772006796
  0
ARC
  5
2D2
100
AcDbEntity
  8
0
100
AcDbCircle
 62
9
  6
CONTINUOUS
 10
12.1464415576
 20
6.1657038241
 40
0.0699324946
100
AcDbArc
 50
314.9980036052
 51
320.7202185403
  0
ARC
  5
2D3
100
AcDbEntity
  8
0
100
AcDbCircle
 62
9
  6
CONTINUOUS
 10
12.1469434595
 20
6.1651344487
 40
0.069175002
100
AcDbArc
 50
309.2523582169
 51
315.0374994166
  0
ARC
  5
2D4
100
AcDbEntity
  8
0
100
AcDbCircle
 62
9
  6
CONTINUOUS
 10
11.0935355077
 20
4.8532493432
 40
0.0588711203
100
AcDbArc
 50
286.8296802149
 51
287.2705113914
  0
ARC
  5
2D5
100
AcDbEntity
  8
0
100
AcDbCircle
 62
7
  6
CONTINUOUS
 10
11.2223239606
 20
4.7996199148
 40
0.04304
100
AcDbArc
 50
112.9999284613
 51
137.2262966617
  0
ARC
  5
2D6
100
AcDbEntity
  8
0
100
AcDbCircle
 62
7
  6
CONTINUOUS
 10
12.1869039539
 20
6.1252369603
 40
0.03
100
AcDbArc
 50
285.5700766767
 51
344.4299233238
  0
ARC
  5
2D7
100
AcDbEntity
  8
0
100
AcDbCircle
 62
7
  6
CONTINUOUS
 10
12.134828267
 20
6.1773126473
 40
0.03
100
AcDbArc
 50
285.1182550293
 51
344.8816368445
  0
ARC
  5
2D8
100
AcDbEntity
  8
0
100
AcDbCircle
 62
7
  6
CONTINUOUS
 10
11.1976923427
 20
4.8979629103
 40
0.02
100
AcDbArc
 50
0.0
 51
37.1779001707
  0
ARC
  5
2D9
100
AcDbEntity
  8
0
100
AcDbCircle
 62
7
  6
CONTINUOUS
 10
11.1976923427
 20
4.8576485715
 40
0.02
100
AcDbArc
 50
292.9999284616
 51
360.0
  0
ARC
  5
2DA
100
AcDbEntity
  8
0
100
AcDbCircle
 62
7
  6
CONTINUOUS
 10
11.1126923427
 20
6.6806485715
 40
0.044
100
AcDbArc
 50
306.0966105433
 51
39.89273707
  0
ARC
  5
2DB
100
AcDbEntity
  8
0
100
AcDbCircle
 62
7
  6
CONTINUOUS
 10
11.1126923427
 20
6.7595485715
 40
0.0349
100
AcDbArc
 50
331.0244449213
 51
62.4676334307
  0
ARC
  5
2DC
100
AcDbEntity
  8
0
100
AcDbCircle
 62
7
  6
CONTINUOUS
 10
11.1426923427
 20
6.8170986366
 40
0.03
100
AcDbArc
 50
180.0
 51
242.4676334307
  0
ARC
  5
2DD
100
AcDbEntity
  8
0
100
AcDbCircle
 62
7
  6
CONTINUOUS
 10
11.1694685806
 20
6.7281086475
 40
0.03
100
AcDbArc
 50
151.0244449213
 51
219.8927370699
  0
ARC
  5
2DE
100
AcDbEntity
  8
0
100
AcDbCircle
 62
9
  6
CONTINUOUS
 10
10.9376923427
 20
7.3744485715
 40
1.3779489462
100
AcDbArc
 50
9.0450158881
 51
64.1721556312
  0
ARC
  5
2DF
100
AcDbEntity
  8
0
100
AcDbCircle
 62
9
  6
CONTINUOUS
 10
10.9376923427
 20
7.3744485715
 40
1.3779489462
100
AcDbArc
 50
189.0450158881
 51
260.9549841119
  0
ARC
  5
2E0
100
AcDbEntity
  8
0
100
AcDbCircle
 62
9
  6
CONTINUOUS
 10
10.9376923427
 20
7.3744485715
 40
1.3779489462
100
AcDbArc
 50
115.8728918155
 51
170.9549841119
  0
ARC
  5
2E1
100
AcDbEntity
  8
0
100
AcDbCircle
 62
9
  6
CONTINUOUS
 10
10.9376923427
 20
7.3744485715
 40
1.3779489462
100
AcDbArc
 50
279.0450158881
 51
350.9549841119
  0
ARC
  5
2E2
100
AcDbEntity
  8
0
100
AcDbCircle
 62
7
  6
CONTINUOUS
 10
10.9376923427
 20
7.3744485715
 40
1.3754110979
100
AcDbArc
 50
278.5553019149
 51
64.0943568461
  0
ARC
  5
2E3
100
AcDbEntity
  8
0
100
AcDbCircle
 62
7
  6
CONTINUOUS
 10
10.9376923427
 20
7.3744485715
 40
1.3754110979
100
AcDbArc
 50
115.9056431539
 51
261.4446980851
  0
ARC
  5
2E4
100
AcDbEntity
  8
0
100
AcDbCircle
 62
9
  6
CONTINUOUS
 10
10.9376923427
 20
7.3744485715
 40
1.3616944509
100
AcDbArc
 50
116.205470453
 51
261.3723770026
  0
ARC
  5
2E5
100
AcDbEntity
  8
0
100
AcDbCircle
 62
9
  6
CONTINUOUS
 10
10.9376923427
 20
7.3744485715
 40
1.3616944509
100
AcDbArc
 50
278.6304850697
 51
63.7978514604
  0
ARC
  5
2E6
100
AcDbEntity
  8
0
100
AcDbCircle
 62
7
  6
CONTINUOUS
 10
10.9376923427
 20
7.3744485715
 40
1.3554110979
100
AcDbArc
 50
116.3262086878
 51
261.3389658065
  0
ARC
  5
2E7
100
AcDbEntity
  8
0
100
AcDbCircle
 62
7
  6
CONTINUOUS
 10
10.9376923427
 20
7.3744485715
 40
1.3554110979
100
AcDbArc
 50
278.6610341935
 51
63.6737913123
  0
ARC
  5
2E8
100
AcDbEntity
  8
0
100
AcDbCircle
 62
9
  6
CONTINUOUS
 10
10.9376923427
 20
7.3744485715
 40
1.3154110979
100
AcDbArc
 50
278.8820675018
 51
62.7937837818
  0
ARC
  5
2E9
100
AcDbEntity
  8
0
100
AcDbCircle
 62
9
  6
CONTINUOUS
 10
10.9376923427
 20
7.3744485715
 40
1.3154110979
100
AcDbArc
 50
117.20749528
 51
261.1177529948
  0
ARC
  5
2EA
100
AcDbEntity
  8
0
100
AcDbCircle
 62
7
  6
CONTINUOUS
 10
10.9376923427
 20
7.3744485715
 40
0.86
100
AcDbArc
 50
134.2925803611
 51
257.1396224946
  0
ARC
  5
2EB
100
AcDbEntity
  8
0
100
AcDbCircle
 62
7
  6
CONTINUOUS
 10
10.9376923427
 20
7.3744485715
 40
0.86
100
AcDbArc
 50
282.8557986148
 51
45.7104291734
  0
ARC
  5
2EC
100
AcDbEntity
  8
0
100
AcDbCircle
 62
7
  6
CONTINUOUS
 10
10.9376923427
 20
7.3744485715
 40
0.85
100
AcDbArc
 50
135.020142119
 51
257.0409683603
  0
ARC
  5
2ED
100
AcDbEntity
  8
0
100
AcDbCircle
 62
7
  6
CONTINUOUS
 10
10.9376923427
 20
7.3744485715
 40
0.85
100
AcDbArc
 50
282.9582466997
 51
44.9828600945
  0
ARC
  5
2EE
100
AcDbEntity
  8
0
100
AcDbCircle
 62
7
  6
CONTINUOUS
 10
10.9376923427
 20
7.3744485715
 40
0.6625
100
AcDbArc
 50
288.2525914144
 51
251.7535756079
  0
ARC
  5
2EF
100
AcDbEntity
  8
0
100
AcDbCircle
 62
7
  6
CONTINUOUS
 10
10.9376923427
 20
7.3744485715
 40
0.595
100
AcDbArc
 50
287.3132981828
 51
252.6867018172
  0
ARC
  5
2F0
100
AcDbEntity
  8
0
100
AcDbCircle
 62
9
  6
CONTINUOUS
 10
10.9376923427
 20
7.3744485715
 40
0.5901399629
100
AcDbArc
 50
287.365891316
 51
252.634108684
  0
ARC
  5
2F1
100
AcDbEntity
  8
0
100
AcDbCircle
 62
7
  6
CONTINUOUS
 10
10.9376923427
 20
7.3744485715
 40
0.4835
100
AcDbArc
 50
291.2611743219
 51
248.7388256781
  0
ARC
  5
2F2
100
AcDbEntity
  8
0
100
AcDbCircle
 62
9
  6
CONTINUOUS
 10
10.9376923427
 20
7.3744485715
 40
0.4752811972
100
AcDbArc
 50
291.6528825689
 51
248.3366065771
  0
ARC
  5
2F3
100
AcDbEntity
  8
0
100
AcDbCircle
 62
7
  6
CONTINUOUS
 10
10.9376923427
 20
7.3744485715
 40
0.4715
100
AcDbArc
 50
291.8442694379
 51
248.1557305621
  0
CIRCLE
  5
2F4
100
AcDbEntity
  8
0
100
AcDbCircle
 62
7
  6
CONTINUOUS
 10
10.9376923427
 20
7.3744485715
 40
0.45
  0
CIRCLE
  5
2F5
100
AcDbEntity
  8
0
100
AcDbCircle
 62
9
  6
CONTINUOUS
 10
10.9376923427
 20
7.3744485715
 40
0.4
  0
ARC
  5
2F6
100
AcDbEntity
  8
0
100
AcDbCircle
 62
9
  6
CONTINUOUS
 10
11.5039645306
 20
6.840551342
 40
0.7833974507
100
AcDbArc
 50
196.0557288927
 51
199.5130136859
  0
ARC
  5
2F7
100
AcDbEntity
  8
0
100
AcDbCircle
 62
9
  6
CONTINUOUS
 10
12.1808453955
 20
7.1611537153
 40
1.5171384337
100
AcDbArc
 50
201.1465853171
 51
202.0414798277
  0
ARC
  5
2F8
100
AcDbEntity
  8
0
100
AcDbCircle
 62
9
  6
CONTINUOUS
 10
12.1464370902
 20
8.5831977863
 40
0.0699324947
100
AcDbArc
 50
44.9980036068
 51
50.7202185413
  0
ARC
  5
2F9
100
AcDbEntity
  8
0
100
AcDbCircle
 62
9
  6
CONTINUOUS
 10
12.1470064655
 20
8.5836996882
 40
0.069175002
100
AcDbArc
 50
39.252358218
 51
45.0374994184
  0
ARC
  5
2FA
100
AcDbEntity
  8
0
100
AcDbCircle
 62
7
  6
CONTINUOUS
 10
12.134828267
 20
8.5715844957
 40
0.03
100
AcDbArc
 50
15.1182550294
 51
74.8816368445
  0
ARC
  5
2FB
100
AcDbEntity
  8
0
100
AcDbCircle
 62
7
  6
CONTINUOUS
 10
12.1869039539
 20
8.6236601826
 40
0.03
100
AcDbArc
 50
15.5700766768
 51
74.4299233238
  0
ARC
  5
2FC
100
AcDbEntity
  8
0
100
AcDbCircle
 62
7
  6
CONTINUOUS
 10
14.1717230538
 20
7.3744421776
 40
4.6840337461
100
AcDbArc
 50
164.4299488169
 51
180.0001513699
  0
ARC
  5
2FD
100
AcDbEntity
  8
0
100
AcDbCircle
 62
7
  6
CONTINUOUS
 10
14.1716923427
 20
7.3744485715
 40
4.684
100
AcDbArc
 50
180.0002295825
 51
195.5700766762
  0
ARC
  5
2FE
100
AcDbEntity
  8
0
100
AcDbCircle
 62
9
  6
CONTINUOUS
 10
14.1716923427
 20
7.3744485715
 40
4.6681902246
100
AcDbArc
 50
180.0004530777
 51
195.5700885418
  0
ARC
  5
2FF
100
AcDbEntity
  8
0
100
AcDbCircle
 62
7
  6
CONTINUOUS
 10
14.1716438287
 20
7.3744567898
 40
4.6681474622
100
AcDbArc
 50
164.4298753023
 51
180.0005597382
  0
ARC
  5
300
100
AcDbEntity
  8
0
100
AcDbCircle
 62
7
  6
CONTINUOUS
 10
14.1716923427
 20
7.3744485715
 40
4.62
100
AcDbArc
 50
164.8816363002
 51
195.1183624541
  0
ARC
  5
301
100
AcDbEntity
  8
0
100
AcDbCircle
 62
7
  6
CONTINUOUS
 10
14.1716805841
 20
7.3744494374
 40
4.6199886016
100
AcDbArc
 50
164.8816086336
 51
168.3983463386
  0
ARC
  5
302
100
AcDbEntity
  8
0
100
AcDbCircle
 62
7
  6
CONTINUOUS
 10
14.1716805841
 20
7.3744494374
 40
4.6199886016
100
AcDbArc
 50
168.7885156117
 51
180.0002342115
  0
ARC
  5
303
100
AcDbEntity
  8
0
100
AcDbCircle
 62
7
  6
CONTINUOUS
 10
10.9376961359
 20
10.6084667341
 40
4.6840211488
100
AcDbArc
 50
254.4299382616
 51
267.4689258853
  0
ARC
  5
304
100
AcDbEntity
  8
0
100
AcDbCircle
 62
7
  6
CONTINUOUS
 10
10.9376923427
 20
10.6084485715
 40
4.684
100
AcDbArc
 50
272.5310124887
 51
285.5700766762
  0
ARC
  5
305
100
AcDbEntity
  8
0
100
AcDbCircle
 62
9
  6
CONTINUOUS
 10
10.9376923427
 20
10.6084485715
 40
4.6681902246
100
AcDbArc
 50
272.5338596459
 51
285.5700885407
  0
ARC
  5
306
100
AcDbEntity
  8
0
100
AcDbCircle
 62
7
  6
CONTINUOUS
 10
10.9376923427
 20
10.6084485715
 40
4.62
100
AcDbArc
 50
254.8816363002
 51
267.4534935678
  0
ARC
  5
307
100
AcDbEntity
  8
0
100
AcDbCircle
 62
7
  6
CONTINUOUS
 10
10.9376923427
 20
10.6084485715
 40
4.62
100
AcDbArc
 50
272.5447582674
 51
285.1183624534
  0
ARC
  5
308
100
AcDbEntity
  8
0
100
AcDbCircle
 62
7
  6
CONTINUOUS
 10
11.3940147611
 20
10.6268604188
 40
0.2264
100
AcDbArc
 50
181.5
 51
217.1779001707
  0
ARC
  5
309
100
AcDbEntity
  8
0
100
AcDbCircle
 62
7
  6
CONTINUOUS
 10
11.1120415468
 20
10.4816485715
 40
0.1072
100
AcDbArc
 50
270.0
 51
317.2262966616
  0
ARC
  5
30A
100
AcDbEntity
  8
0
100
AcDbCircle
 62
9
  6
CONTINUOUS
 10
11.0941021291
 20
10.453946249
 40
0.0794977138
100
AcDbArc
 50
270.0547353781
 51
282.0796315193
  0
ARC
  5
30B
100
AcDbEntity
  8
0
100
AcDbCircle
 62
9
  6
CONTINUOUS
 10
11.0942013898
 20
10.4533468203
 40
0.0788907956
100
AcDbArc
 50
282.8773405666
 51
284.489912683
  0
ARC
  5
30C
100
AcDbEntity
  8
0
100
AcDbCircle
 62
9
  6
CONTINUOUS
 10
11.0942075781
 20
10.4533206158
 40
0.078863871
100
AcDbArc
 50
282.0998379066
 51
282.8772006797
  0
ARC
  5
30D
100
AcDbEntity
  8
0
100
AcDbCircle
 62
9
  6
CONTINUOUS
 10
11.0935355077
 20
10.4332493432
 40
0.0588711203
100
AcDbArc
 50
286.8296802148
 51
287.2705113914
  0
ARC
  5
30E
100
AcDbEntity
  8
0
100
AcDbCircle
 62
7
  6
CONTINUOUS
 10
11.2223239606
 20
10.3796199148
 40
0.04304
100
AcDbArc
 50
112.9999284613
 51
137.2262966617
  0
ARC
  5
30F
100
AcDbEntity
  8
0
100
AcDbCircle
 62
7
  6
CONTINUOUS
 10
11.5176923427
 20
9.3244485715
 40
0.02
100
AcDbArc
 50
270.0
 51
360.0
  0
ARC
  5
310
100
AcDbEntity
  8
0
100
AcDbCircle
 62
7
  6
CONTINUOUS
 10
11.1976923427
 20
10.4779629103
 40
0.02
100
AcDbArc
 50
0.0
 51
37.1779001707
  0
ARC
  5
311
100
AcDbEntity
  8
0
100
AcDbCircle
 62
7
  6
CONTINUOUS
 10
11.1976923427
 20
10.4376485715
 40
0.02
100
AcDbArc
 50
292.9999284616
 51
360.0
  0
ARC
  5
312
100
AcDbEntity
  8
0
100
AcDbCircle
 62
9
  6
CONTINUOUS
 10
11.5039645306
 20
12.420551342
 40
0.7833974507
100
AcDbArc
 50
196.0557288927
 51
199.5130136859
  0
ARC
  5
313
100
AcDbEntity
  8
0
100
AcDbCircle
 62
7
  6
CONTINUOUS
 10
10.9376923427
 20
12.9544485715
 40
0.595
100
AcDbArc
 50
287.3132981828
 51
252.6867018172
  0
ARC
  5
314
100
AcDbEntity
  8
0
100
AcDbCircle
 62
9
  6
CONTINUOUS
 10
10.9376923427
 20
12.9544485715
 40
0.5901399629
100
AcDbArc
 50
287.365891316
 51
252.634108684
  0
ARC
  5
315
100
AcDbEntity
  8
0
100
AcDbCircle
 62
7
  6
CONTINUOUS
 10
10.9376923427
 20
12.9544485715
 40
0.4835
100
AcDbArc
 50
291.2611743219
 51
248.7388256781
  0
ARC
  5
316
100
AcDbEntity
  8
0
100
AcDbCircle
 62
9
  6
CONTINUOUS
 10
10.9376923427
 20
12.9544485715
 40
0.4752811972
100
AcDbArc
 50
291.6528825689
 51
248.3366065771
  0
ARC
  5
317
100
AcDbEntity
  8
0
100
AcDbCircle
 62
7
  6
CONTINUOUS
 10
10.9376923427
 20
12.9544485715
 40
0.4715
100
AcDbArc
 50
291.8442694379
 51
248.1557305621
  0
CIRCLE
  5
318
100
AcDbEntity
  8
0
100
AcDbCircle
 62
7
  6
CONTINUOUS
 10
10.9376923427
 20
12.9544485715
 40
0.45
  0
ARC
  5
319
100
AcDbEntity
  8
0
100
AcDbCircle
 62
7
  6
CONTINUOUS
 10
11.0001923427
 20
11.9194485715
 40
0.4
100
AcDbArc
 50
335.7790569402
 51
360.0
  0
CIRCLE
  5
31A
100
AcDbEntity
  8
0
100
AcDbCircle
 62
9
  6
CONTINUOUS
 10
10.9376923427
 20
12.9544485715
 40
0.4
  0
ARC
  5
31B
100
AcDbEntity
  8
0
100
AcDbCircle
 62
7
  6
CONTINUOUS
 10
11.1126923427
 20
12.2606485715
 40
0.044
100
AcDbArc
 50
306.0966105433
 51
39.89273707
  0
ARC
  5
31C
100
AcDbEntity
  8
0
100
AcDbCircle
 62
7
  6
CONTINUOUS
 10
11.1126923427
 20
12.3395485715
 40
0.0349
100
AcDbArc
 50
331.0244449213
 51
62.4676334307
  0
ARC
  5
31D
100
AcDbEntity
  8
0
100
AcDbCircle
 62
7
  6
CONTINUOUS
 10
11.1426923427
 20
12.3970986366
 40
0.03
100
AcDbArc
 50
180.0
 51
242.4676334307
  0
ARC
  5
31E
100
AcDbEntity
  8
0
100
AcDbCircle
 62
7
  6
CONTINUOUS
 10
11.1694685806
 20
12.3081086475
 40
0.03
100
AcDbArc
 50
151.0244449213
 51
219.8927370699
  0
ARC
  5
31F
100
AcDbEntity
  8
0
100
AcDbCircle
 62
7
  6
CONTINUOUS
 10
11.5176923427
 20
13.7208904327
 40
0.02
100
AcDbArc
 50
0.0
 51
90.0
  0
ARC
  5
320
100
AcDbEntity
  8
0
100
AcDbCircle
 62
7
  6
CONTINUOUS
 10
11.3558607276
 20
11.7594485715
 40
0.01
100
AcDbArc
 50
270.0
 51
335.7790588573
  0
ARC
  5
321
100
AcDbEntity
  8
0
100
AcDbCircle
 62
9
  6
CONTINUOUS
 10
12.1808453954
 20
12.7411537154
 40
1.5171384337
100
AcDbArc
 50
201.1465853211
 51
202.0414798317
  0
SPLINE
  5
322
100
AcDbEntity
  8
0
100
AcDbSpline
 62
9
  6
CONTINUOUS
 70
0
 71
3
 72
35
 73
31
 74
0
 42
0.0000001
 43
0.0000001
 44
0.0000000001
 40
0.0
 40
0.0
 40
0.0
 40
0.0
 40
0.0001860684
 40
0.0007381558
 40
0.0016472907
 40
0.002904507
 40
0.006427342
 40
0.0112350404
 40
0.0172490868
 40
0.0243631862
 40
0.0324643648
 40
0.0414400329
 40
0.0616205783
 40
0.0842836112
 40
0.1089063004
 40
0.1351214911
 40
0.1626367299
 40
0.1912871718
 40
0.2514766289
 40
0.314846854
 40
0.3810555574
 40
0.4499567972
 40
0.5214839683
 40
0.5956427991
 40
0.6723664597
 40
0.7515907939
 40
0.8329564971
 40
0.8743431103
 40
0.9160656347
 40
1.0
 40
1.0
 40
1.0
 40
1.0
 10
11.5376897623
 20
7.6684095607
 30
0.0
 10
11.5376726352
 20
7.668454969
 30
0.0
 10
11.5375989998
 20
7.6686328987
 30
0.0
 10
11.5374405777
 20
7.669032254
 30
0.0
 10
11.5371734643
 20
7.6696890661
 30
0.0
 10
11.536614515
 20
7.6710636265
 30
0.0
 10
11.5356626712
 20
7.6733761187
 30
0.0
 10
11.534223975
 20
7.676829848
 30
0.0
 10
11.5324035827
 20
7.681139241
 30
0.0
 10
11.5302157033
 20
7.6862258038
 30
0.0
 10
11.5276778539
 20
7.6920025475
 30
0.0
 10
11.5236905051
 20
7.7008645351
 30
0.0
 10
11.5179543457
 20
7.7131037368
 30
0.0
 10
11.5101381545
 20
7.7288710863
 30
0.0
 10
11.5011951732
 20
7.7458305476
 30
0.0
 10
11.4911825083
 20
7.7636489462
 30
0.0
 10
11.4801151336
 20
7.7820701501
 30
0.0
 10
11.4637119613
 20
7.8076076622
 30
0.0
 10
11.440683484
 20
7.8399837186
 30
0.0
 10
11.4092747845
 20
7.8782901082
 30
0.0
 10
11.3735911813
 20
7.9158624066
 30
0.0
 10
11.3335221401
 20
7.9519927893
 30
0.0
 10
11.2889552168
 20
7.985961928
 30
0.0
 10
11.2398585446
 20
8.017005277
 30
0.0
 10
11.1862986411
 20
8.0442900861
 30
0.0
 10
11.1285670088
 20
8.0668890305
 30
0.0
 10
11.077710575
 20
8.081029622
 30
0.0
 10
11.0355690127
 20
8.0891573559
 30
0.0
 10
10.992393753
 20
8.0951045275
 30
0.0
 10
10.9595843534
 20
8.0969454899
 30
0.0
 10
10.9376923426
 20
8.0969481008
 30
0.0
  0
SPLINE
  5
323
100
AcDbEntity
  8
0
100
AcDbSpline
 62
9
  6
CONTINUOUS
 70
0
 71
3
 72
46
 73
42
 74
0
 42
0.0000001
 43
0.0000001
 44
0.0000000001
 40
0.0
 40
0.0
 40
0.0
 40
0.0
 40
0.0839312214
 40
0.125652484
 40
0.1670379406
 40
0.2484014173
 40
0.3276235916
 40
0.404345182
 40
0.4785020041
 40
0.5500271881
 40
0.6189264725
 40
0.6523796325
 40
0.6851449509
 40
0.717201896
 40
0.7485232277
 40
0.7790630378
 40
0.8087188855
 40
0.8373684574
 40
0.8648828724
 40
0.8910972886
 40
0.9157192328
 40
0.9273257222
 40
0.9383819251
 40
0.9488175995
 40
0.9585620403
 40
0.9675373721
 40
0.9756382279
 40
0.9827520221
 40
0.9859034849
 40
0.9887657912
 40
0.9913256457
 40
0.9935732372
 40
0.9954996219
 40
0.9970958498
 40
0.9983529653
 40
0.9988515558
 40
0.9992620073
 40
0.9995831989
 40
0.9998140093
 40
0.999953317
 40
1.0
 40
1.0
 40
1.0
 40
1.0
 10
10.9376923428
 20
8.0969481748
 30
0.0
 10
10.9158004876
 20
8.096945674
 30
0.0
 10
10.8829912336
 20
8.0951047068
 30
0.0
 10
10.8398161142
 20
8.0891574687
 30
0.0
 10
10.7976744765
 20
8.0810296451
 30
0.0
 10
10.746817898
 20
8.066889044
 30
0.0
 10
10.6890860303
 20
8.0442900854
 30
0.0
 10
10.6355260249
 20
8.0170052707
 30
0.0
 10
10.5864289495
 20
7.9859615178
 30
0.0
 10
10.5418628973
 20
7.9519932318
 30
0.0
 10
10.5081424291
 20
7.9215869438
 30
0.0
 10
10.4833925168
 20
7.8964874549
 30
0.0
 10
10.466088543
 20
7.8775677907
 30
0.0
 10
10.4498459989
 20
7.8584546468
 30
0.0
 10
10.4346497505
 20
7.8392346117
 30
0.0
 10
10.4204944306
 20
7.8200086105
 30
0.0
 10
10.4073680954
 20
7.8009063763
 30
0.0
 10
10.3952691111
 20
7.7820693528
 30
0.0
 10
10.384201787
 20
7.7636483198
 30
0.0
 10
10.3741891677
 20
7.7458298817
 30
0.0
 10
10.3665913141
 20
7.7314214141
 30
0.0
 10
10.3610489643
 20
7.7204033068
 30
0.0
 10
10.3572604831
 20
7.7126456766
 30
0.0
 10
10.3537663444
 20
7.7052854065
 30
0.0
 10
10.3505770134
 20
7.6983817274
 30
0.0
 10
10.3477065946
 20
7.6920019733
 30
0.0
 10
10.3451687606
 20
7.6862252936
 30
0.0
 10
10.3432759235
 20
7.6818246145
 30
0.0
 10
10.3419390085
 20
7.6786723147
 30
0.0
 10
10.3410718353
 20
7.6766110361
 30
0.0
 10
10.340300585
 20
7.6747651421
 30
0.0
 10
10.3396273229
 20
7.6731430034
 30
0.0
 10
10.3390535087
 20
7.671751361
 30
0.0
 10
10.3385810735
 20
7.670598408
 30
0.0
 10
10.3382508287
 20
7.6697871083
 30
0.0
 10
10.3380394705
 20
7.6692658778
 30
0.0
 10
10.3379175424
 20
7.668963227
 30
0.0
 10
10.3378282812
 20
7.6687437126
 30
0.0
 10
10.3377507633
 20
7.6685459549
 30
0.0
 10
10.337728574
 20
7.6684987714
 30
0.0
 10
10.3376916167
 20
7.6683978171
 30
0.0
 10
10.3376949179
 20
7.6684095375
 30
0.0
  0
SPLINE
  5
324
100
AcDbEntity
  8
0
100
AcDbSpline
 62
9
  6
CONTINUOUS
 70
0
 71
3
 72
15
 73
11
 74
0
 42
0.0000001
 43
0.0000001
 44
0.0000000001
 40
0.0
 40
0.0
 40
0.0
 40
0.0
 40
0.1326036981
 40
0.2628011327
 40
0.3906654302
 40
0.5163325544
 40
0.639914382
 40
0.7616075122
 40
0.8815794005
 40
1.0
 40
1.0
 40
1.0
 40
1.0
 10
11.1449501761
 20
12.352358341
 30
0.0
 10
11.1559556012
 20
12.3576488779
 30
0.0
 10
11.1773920115
 20
12.3689335326
 30
0.0
 10
11.2079973604
 20
12.3878918273
 30
0.0
 10
11.2367513231
 20
12.4084748069
 30
0.0
 10
11.2636638803
 20
12.4304571646
 30
0.0
 10
11.28877759
 20
12.4536411231
 30
0.0
 10
11.3121315604
 20
12.4778713329
 30
0.0
 10
11.3337858644
 20
12.5030042461
 30
0.0
 10
11.3472094178
 20
12.5203896937
 30
0.0
 10
11.3536483142
 20
12.5291907508
 30
0.0
  0
SPLINE
  5
325
100
AcDbEntity
  8
0
100
AcDbSpline
 62
9
  6
CONTINUOUS
 70
0
 71
3
 72
15
 73
11
 74
0
 42
0.0000001
 43
0.0000001
 44
0.0000000001
 40
0.0
 40
0.0
 40
0.0
 40
0.0
 40
0.1326179569
 40
0.2628241917
 40
0.3906923265
 40
0.5163578948
 40
0.6399362441
 40
0.7616247186
 40
0.8815889544
 40
1.0
 40
1.0
 40
1.0
 40
1.0
 10
10.7304209222
 20
12.3523650087
 30
0.0
 10
10.719391256
 20
12.3576674338
 30
0.0
 10
10.6979089322
 20
12.3689790513
 30
0.0
 10
10.6672415947
 20
12.3879859807
 30
0.0
 10
10.6384340597
 20
12.4086238225
 30
0.0
 10
10.611476029
 20
12.4306660186
 30
0.0
 10
10.5863253488
 20
12.4539147164
 30
0.0
 10
10.5629417442
 20
12.4782126965
 30
0.0
 10
10.5412639211
 20
12.5034148162
 30
0.0
 10
10.5278286483
 20
12.5208475983
 30
0.0
 10
10.5213848364
 20
12.5296723795
 30
0.0
  0
SPLINE
  5
326
100
AcDbEntity
  8
0
100
AcDbSpline
 62
9
  6
CONTINUOUS
 70
0
 71
3
 72
9
 73
5
 74
0
 42
0.0000001
 43
0.0000001
 44
0.0000000001
 40
0.0
 40
0.0
 40
0.0
 40
0.0
 40
0.496835455
 40
1.0
 40
1.0
 40
1.0
 40
1.0
 10
10.9880399377
 20
6.6473644553
 30
0.0
 10
10.9797305148
 20
6.6465531843
 30
0.0
 10
10.9629539857
 20
6.6454310695
 30
0.0
 10
10.9461476305
 20
6.6451131954
 30
0.0
 10
10.9376923427
 20
6.6451131964
 30
0.0
  0
SPLINE
  5
327
100
AcDbEntity
  8
0
100
AcDbSpline
 62
9
  6
CONTINUOUS
 70
0
 71
3
 72
17
 73
13
 74
0
 42
0.0000001
 43
0.0000001
 44
0.0000000001
 40
0.0
 40
0.0
 40
0.0
 40
0.0
 40
0.0301524786
 40
0.0642348486
 40
0.1447097792
 40
0.1912343447
 40
0.241936813
 40
0.3560970022
 40
0.4882968646
 40
0.6399811162
 40
0.8110603224
 40
1.0
 40
1.0
 40
1.0
 40
1.0
 10
11.1351526295
 20
6.6473644208
 30
0.0
 10
11.1349407861
 20
6.6475440357
 30
0.0
 10
11.1344643546
 20
6.6478972762
 30
0.0
 10
11.1333231086
 20
6.6485883306
 30
0.0
 10
11.1319732372
 20
6.6492141411
 30
0.0
 10
11.1304486911
 20
6.6498096973
 30
0.0
 10
11.1286101713
 20
6.6504523241
 30
0.0
 10
11.1259812724
 20
6.6512197786
 30
0.0
 10
11.1223916809
 20
6.6519846563
 30
0.0
 10
11.1182337582
 20
6.6525362163
 30
0.0
 10
11.1135308103
 20
6.6528755622
 30
0.0
 10
11.1102154506
 20
6.652978349
 30
0.0
 10
11.1084753342
 20
6.6530070828
 30
0.0
  0
SPLINE
  5
328
100
AcDbEntity
  8
0
100
AcDbSpline
 62
9
  6
CONTINUOUS
 70
0
 71
3
 72
12
 73
8
 74
0
 42
0.0000001
 43
0.0000001
 44
0.0000000001
 40
0.0
 40
0.0
 40
0.0
 40
0.0
 40
0.112695368
 40
0.2301501957
 40
0.4767394683
 40
0.7348863261
 40
1.0
 40
1.0
 40
1.0
 40
1.0
 10
11.0585722421
 20
6.6530070828
 30
0.0
 10
11.0559131025
 20
6.6530070439
 30
0.0
 10
11.050482284
 20
6.6529075124
 30
0.0
 10
11.0392445974
 20
6.6523776924
 30
0.0
 10
11.0246086511
 20
6.6511825914
 30
0.0
 10
11.006542866
 20
6.6492857138
 30
0.0
 10
10.9942659048
 20
6.6479723602
 30
0.0
 10
10.9880399377
 20
6.6473644551
 30
0.0
  0
SPLINE
  5
329
100
AcDbEntity
  8
0
100
AcDbSpline
 62
9
  6
CONTINUOUS
 70
0
 71
3
 72
11
 73
7
 74
0
 42
0.0000001
 43
0.0000001
 44
0.0000000001
 40
0.0
 40
0.0
 40
0.0
 40
0.0
 40
0.2496636152
 40
0.4996196284
 40
0.749764283
 40
1.0
 40
1.0
 40
1.0
 40
1.0
 10
10.990646487
 20
6.6238854295
 30
0.0
 10
10.9862758196
 20
6.6232131156
 30
0.0
 10
10.9774960744
 20
6.6220778256
 30
0.0
 10
10.9642637662
 20
6.6209186147
 30
0.0
 10
10.950988072
 20
6.6202456536
 30
0.0
 10
10.94212455
 20
6.6200992239
 30
0.0
 10
10.9376923427
 20
6.6200992229
 30
0.0
  0
SPLINE
  5
32A
100
AcDbEntity
  8
0
100
AcDbSpline
 62
9
  6
CONTINUOUS
 70
0
 71
3
 72
11
 73
7
 74
0
 42
0.0000001
 43
0.0000001
 44
0.0000000001
 40
0.0
 40
0.0
 40
0.0
 40
0.0
 40
0.2008474927
 40
0.4455719473
 40
0.7189618658
 40
1.0
 40
1.0
 40
1.0
 40
1.0
 10
10.9880399395
 20
6.6473644554
 30
0.0
 10
10.9881228033
 20
6.6457845964
 30
0.0
 10
10.9883858255
 20
6.642284007
 30
0.0
 10
10.9889518085
 20
6.6366488939
 30
0.0
 10
10.9897165629
 20
6.630400348
 30
0.0
 10
10.9903207311
 20
6.6260750042
 30
0.0
 10
10.9906464852
 20
6.6238854292
 30
0.0
  0
SPLINE
  5
32B
100
AcDbEntity
  8
0
100
AcDbSpline
 62
9
  6
CONTINUOUS
 70
0
 71
3
 72
10
 73
6
 74
0
 42
0.0000001
 43
0.0000001
 44
0.0000000001
 40
0.0
 40
0.0
 40
0.0
 40
0.0
 40
0.2503414061
 40
0.5007296851
 40
1.0
 40
1.0
 40
1.0
 40
1.0
 10
10.9906464872
 20
6.6238854324
 30
0.0
 10
10.9998825225
 20
6.6216791029
 30
0.0
 10
11.0181197309
 20
6.6162286482
 30
0.0
 10
11.0533438759
 20
6.6020629763
 30
0.0
 10
11.0784917219
 20
6.5885913784
 30
0.0
 10
11.0947505739
 20
6.5788802283
 30
0.0
  0
LINE
  5
32C
100
AcDbEntity
  8
0
100
AcDbLine
 62
7
  6
CONTINUOUS
 10
10.746708494
 20
5.0409295912
 11
10.7805952242
 21
6.5788845877
  0
SPLINE
  5
32D
100
AcDbEntity
  8
0
100
AcDbSpline
 62
9
  6
CONTINUOUS
 70
0
 71
3
 72
10
 73
6
 74
0
 42
0.0000001
 43
0.0000001
 44
0.0000000001
 40
0.0
 40
0.0
 40
0.0
 40
0.0
 40
0.4992598439
 40
0.7496472413
 40
1.0
 40
1.0
 40
1.0
 40
1.0
 10
10.780634023
 20
6.5788803852
 30
0.0
 10
10.7968925444
 20
6.588591307
 30
0.0
 10
10.8220399589
 20
6.6020627555
 30
0.0
 10
10.8572640086
 20
6.6162286608
 30
0.0
 10
10.8755016109
 20
6.6216791812
 30
0.0
 10
10.8847380572
 20
6.6238856352
 30
0.0
  0
SPLINE
  5
32E
100
AcDbEntity
  8
0
100
AcDbSpline
 62
9
  6
CONTINUOUS
 70
0
 71
3
 72
11
 73
7
 74
0
 42
0.0000001
 43
0.0000001
 44
0.0000000001
 40
0.0
 40
0.0
 40
0.0
 40
0.0
 40
0.2502366287
 40
0.50038314
 40
0.7503374317
 40
1.0
 40
1.0
 40
1.0
 40
1.0
 10
10.9376923427
 20
6.6200992229
 30
0.0
 10
10.9332601122
 20
6.620099228
 30
0.0
 10
10.9243965294
 20
6.6202458834
 30
0.0
 10
10.9111208011
 20
6.6209188585
 30
0.0
 10
10.8978884695
 20
6.6220778639
 30
0.0
 10
10.8891087535
 20
6.6232131279
 30
0.0
 10
10.8847380998
 20
6.6238854554
 30
0.0
  0
SPLINE
  5
32F
100
AcDbEntity
  8
0
100
AcDbSpline
 62
9
  6
CONTINUOUS
 70
0
 71
3
 72
11
 73
7
 74
0
 42
0.0000001
 43
0.0000001
 44
0.0000000001
 40
0.0
 40
0.0
 40
0.0
 40
0.0
 40
0.2172090171
 40
0.4607051049
 40
0.724988751
 40
1.0
 40
1.0
 40
1.0
 40
1.0
 10
10.8160762929
 20
6.613838235
 30
0.0
 10
10.8167910785
 20
6.615181744
 30
0.0
 10
10.8180905017
 20
6.6181490099
 30
0.0
 10
10.8195328065
 20
6.6230320302
 30
0.0
 10
10.8204423375
 20
6.6284525292
 30
0.0
 10
10.8206588383
 20
6.632233817
 30
0.0
 10
10.8206588466
 20
6.6341606132
 30
0.0
  0
SPLINE
  5
330
100
AcDbEntity
  8
0
100
AcDbSpline
 62
9
  6
CONTINUOUS
 70
0
 71
3
 72
11
 73
7
 74
0
 42
0.0000001
 43
0.0000001
 44
0.0000000001
 40
0.0
 40
0.0
 40
0.0
 40
0.0
 40
0.2125561386
 40
0.4635799346
 40
0.7329199142
 40
1.0
 40
1.0
 40
1.0
 40
1.0
 10
10.8873447124
 20
6.6473644587
 30
0.0
 10
10.8872570193
 20
6.6456925094
 30
0.0
 10
10.8869785682
 20
6.64205075
 30
0.0
 10
10.8863942816
 20
6.6363070476
 30
0.0
 10
10.8856346609
 20
6.6301508358
 30
0.0
 10
10.8850477624
 20
6.6259663609
 30
0.0
 10
10.8847381898
 20
6.6238855453
 30
0.0
  0
SPLINE
  5
331
100
AcDbEntity
  8
0
100
AcDbSpline
 62
9
  6
CONTINUOUS
 70
0
 71
3
 72
11
 73
7
 74
0
 42
0.0000001
 43
0.0000001
 44
0.0000000001
 40
0.0
 40
0.0
 40
0.0
 40
0.0
 40
0.2340145835
 40
0.4794806255
 40
0.734963294
 40
1.0
 40
1.0
 40
1.0
 40
1.0
 10
10.8160762242
 20
6.6138381734
 30
0.0
 10
10.8213157226
 20
6.6152252359
 30
0.0
 10
10.8321667622
 20
6.6176369281
 30
0.0
 10
10.848977456
 20
6.6203518506
 30
0.0
 10
10.8666013658
 20
6.622422752
 30
0.0
 10
10.8786159232
 20
6.62343823
 30
0.0
 10
10.8847380938
 20
6.6238855383
 30
0.0
  0
SPLINE
  5
332
100
AcDbEntity
  8
0
100
AcDbSpline
 62
9
  6
CONTINUOUS
 70
0
 71
3
 72
12
 73
8
 74
0
 42
0.0000001
 43
0.0000001
 44
0.0000000001
 40
0.0
 40
0.0
 40
0.0
 40
0.0
 40
0.2492850006
 40
0.4990475345
 40
0.6241096636
 40
0.7492771412
 40
1.0
 40
1.0
 40
1.0
 40
1.0
 10
10.7745911702
 20
6.5918055231
 30
0.0
 10
10.7779499778
 20
6.5937967378
 30
0.0
 10
10.7847204559
 20
6.597705081
 30
0.0
 10
10.7932921483
 20
6.6024070349
 30
0.0
 10
10.8002257153
 20
6.6060489365
 30
0.0
 10
10.8072209256
 20
6.609604255
 30
0.0
 10
10.8125217376
 20
6.6121687145
 30
0.0
 10
10.816076406
 20
6.6138382191
 30
0.0
  0
SPLINE
  5
333
100
AcDbEntity
  8
0
100
AcDbSpline
 62
9
  6
CONTINUOUS
 70
0
 71
3
 72
11
 73
7
 74
0
 42
0.0000001
 43
0.0000001
 44
0.0000000001
 40
0.0
 40
0.0
 40
0.0
 40
0.0
 40
0.2340983171
 40
0.4825365758
 40
0.7404204433
 40
1.0
 40
1.0
 40
1.0
 40
1.0
 10
10.76556101
 20
6.5788802251
 30
0.0
 10
10.7657592909
 20
6.5801294505
 30
0.0
 10
10.7664965228
 20
6.5826585957
 30
0.0
 10
10.7684379043
 20
6.5861918237
 30
0.0
 10
10.7711885471
 20
6.5893217638
 30
0.0
 10
10.7734084028
 20
6.5910517847
 30
0.0
 10
10.7745911878
 20
6.5918055374
 30
0.0
  0
SPLINE
  5
334
100
AcDbEntity
  8
0
100
AcDbSpline
 62
9
  6
CONTINUOUS
 70
0
 71
3
 72
12
 73
8
 74
0
 42
0.0000001
 43
0.0000001
 44
0.0000000001
 40
0.0
 40
0.0
 40
0.0
 40
0.0
 40
0.0888361944
 40
0.1913805467
 40
0.4318335898
 40
0.7080627169
 40
1.0
 40
1.0
 40
1.0
 40
1.0
 10
10.7745911883
 20
6.591805536
 30
0.0
 10
10.7747069806
 20
6.5913983165
 30
0.0
 10
10.7749860152
 20
6.5905294214
 30
0.0
 10
10.7757036864
 20
6.5886001812
 30
0.0
 10
10.7768874908
 20
6.5858944439
 30
0.0
 10
10.7786201377
 20
6.5824510557
 30
0.0
 10
10.7799350825
 20
6.5800831346
 30
0.0
 10
10.7806341317
 20
6.5788802359
 30
0.0
  0
LINE
  5
335
100
AcDbEntity
  8
0
100
AcDbLine
 62
7
  6
CONTINUOUS
 10
10.7657258075
 20
6.5788758755
 11
10.7805952242
 21
6.5788845877
  0
LINE
  5
336
100
AcDbEntity
  8
0
100
AcDbLine
 62
7
  6
CONTINUOUS
 10
10.7322770121
 20
5.0409381243
 11
10.7657258075
 21
6.5788758755
  0
SPLINE
  5
337
100
AcDbEntity
  8
0
100
AcDbSpline
 62
9
  6
CONTINUOUS
 70
0
 71
3
 72
13
 73
9
 74
0
 42
0.0000001
 43
0.0000001
 44
0.0000000001
 40
0.0
 40
0.0
 40
0.0
 40
0.0
 40
0.2354283783
 40
0.357546181
 40
0.4822578489
 40
0.7382199785
 40
0.8687407223
 40
1.0
 40
1.0
 40
1.0
 40
1.0
 10
10.6960277636
 20
4.910048747
 30
0.0
 10
10.7015373915
 20
4.9193074641
 30
0.0
 10
10.7089539391
 20
4.9339616764
 30
0.0
 10
10.7169911568
 20
4.9545272222
 30
0.0
 10
10.7239778515
 20
4.9764644788
 30
0.0
 10
10.7289096596
 20
4.9994109207
 30
0.0
 10
10.7316650765
 20
5.0229549665
 30
0.0
 10
10.7323009179
 20
5.034928391
 30
0.0
 10
10.7324269471
 20
5.0409339577
 30
0.0
  0
LINE
  5
338
100
AcDbEntity
  8
0
100
AcDbLine
 62
9
  6
CONTINUOUS
 10
10.732427348
 20
5.0409339808
 11
10.7466656285
 21
5.0409340022
  0
SPLINE
  5
339
100
AcDbEntity
  8
0
100
AcDbSpline
 62
9
  6
CONTINUOUS
 70
0
 71
3
 72
9
 73
5
 74
0
 42
0.0000001
 43
0.0000001
 44
0.0000000001
 40
0.0
 40
0.0
 40
0.0
 40
0.0
 40
0.5020501085
 40
1.0
 40
1.0
 40
1.0
 40
1.0
 10
10.6921380238
 20
4.8979631582
 30
0.0
 10
10.6921380238
 20
4.9001141795
 30
0.0
 10
10.6928056616
 20
4.9044253059
 30
0.0
 10
10.6947743853
 20
4.9083220361
 30
0.0
 10
10.6960275165
 20
4.9100486769
 30
0.0
  0
SPLINE
  5
33A
100
AcDbEntity
  8
0
100
AcDbSpline
 62
9
  6
CONTINUOUS
 70
0
 71
3
 72
9
 73
5
 74
0
 42
0.0000001
 43
0.0000001
 44
0.0000000001
 40
0.0
 40
0.0
 40
0.0
 40
0.0
 40
0.4586555633
 40
1.0
 40
1.0
 40
1.0
 40
1.0
 10
10.6960275152
 20
4.9100486622
 30
0.0
 10
10.6966545588
 20
4.9103869414
 30
0.0
 10
10.698155493
 20
4.9108754956
 30
0.0
 10
10.6997133453
 20
4.9110034954
 30
0.0
 10
10.7005542657
 20
4.9110034965
 30
0.0
  0
SPLINE
  5
33B
100
AcDbEntity
  8
0
100
AcDbSpline
 62
9
  6
CONTINUOUS
 70
0
 71
3
 72
9
 73
5
 74
0
 42
0.0000001
 43
0.0000001
 44
0.0000000001
 40
0.0
 40
0.0
 40
0.0
 40
0.0
 40
0.479312886
 40
1.0
 40
1.0
 40
1.0
 40
1.0
 10
10.7005542595
 20
4.9110034863
 30
0.0
 10
10.701542517
 20
4.9110034875
 30
0.0
 10
10.7036047937
 20
4.9108049967
 30
0.0
 10
10.7056189707
 20
4.9103437444
 30
0.0
 10
10.7066511859
 20
4.9100486667
 30
0.0
  0
SPLINE
  5
33C
100
AcDbEntity
  8
0
100
AcDbSpline
 62
9
  6
CONTINUOUS
 70
0
 71
3
 72
10
 73
6
 74
0
 42
0.0000001
 43
0.0000001
 44
0.0000000001
 40
0.0
 40
0.0
 40
0.0
 40
0.0
 40
0.2284339378
 40
0.4752118182
 40
1.0
 40
1.0
 40
1.0
 40
1.0
 10
10.7066511842
 20
4.9100486805
 30
0.0
 10
10.706452074
 20
4.9091442539
 30
0.0
 10
10.7061067394
 20
4.9072472391
 30
0.0
 10
10.7056119671
 20
4.9032221744
 30
0.0
 10
10.7054713581
 20
4.9000906799
 30
0.0
 10
10.7054713581
 20
4.8979631582
 30
0.0
  0
SPLINE
  5
33D
100
AcDbEntity
  8
0
100
AcDbSpline
 62
9
  6
CONTINUOUS
 70
0
 71
3
 72
12
 73
8
 74
0
 42
0.0000001
 43
0.0000001
 44
0.0000000001
 40
0.0
 40
0.0
 40
0.0
 40
0.0
 40
0.2386033374
 40
0.4860365103
 40
0.6127864883
 40
0.7410405246
 40
1.0
 40
1.0
 40
1.0
 40
1.0
 10
10.7066510924
 20
4.9100488342
 30
0.0
 10
10.7126618892
 20
4.919282301
 30
0.0
 10
10.723602212
 20
4.9389698391
 30
0.0
 10
10.7338924187
 20
4.9654273588
 30
0.0
 10
10.7400168267
 20
4.9878227567
 30
0.0
 10
10.7446913871
 20
5.0111030184
 30
0.0
 10
10.7463910776
 20
5.0289796691
 30
0.0
 10
10.7466684293
 20
5.0409339591
 30
0.0
  0
SPLINE
  5
33E
100
AcDbEntity
  8
0
100
AcDbSpline
 62
9
  6
CONTINUOUS
 70
0
 71
3
 72
13
 73
9
 74
0
 42
0.0000001
 43
0.0000001
 44
0.0000000001
 40
0.0
 40
0.0
 40
0.0
 40
0.0
 40
0.2380591351
 40
0.4853623245
 40
0.6120620393
 40
0.7403682702
 40
0.8698942577
 40
1.0
 40
1.0
 40
1.0
 40
1.0
 10
11.168733484
 20
4.910048747
 30
0.0
 10
11.1627352287
 20
4.9192627632
 30
0.0
 10
11.1518062081
 20
4.9389255272
 30
0.0
 10
11.1415259167
 20
4.9653559185
 30
0.0
 10
11.1353714493
 20
4.987739196
 30
0.0
 10
11.1318579025
 20
5.0051628058
 30
0.0
 10
11.1295588367
 20
5.0229450071
 30
0.0
 10
11.1288555092
 20
5.0349268288
 30
0.0
 10
11.1287161787
 20
5.0409339577
 30
0.0
  0
LINE
  5
33F
100
AcDbEntity
  8
0
100
AcDbLine
 62
9
  6
CONTINUOUS
 10
11.1287176983
 20
5.0409339808
 11
11.1429569788
 21
5.0409340022
  0
SPLINE
  5
340
100
AcDbEntity
  8
0
100
AcDbSpline
 62
9
  6
CONTINUOUS
 70
0
 71
3
 72
10
 73
6
 74
0
 42
0.0000001
 43
0.0000001
 44
0.0000000001
 40
0.0
 40
0.0
 40
0.0
 40
0.0
 40
0.5247880664
 40
0.7715660052
 40
1.0
 40
1.0
 40
1.0
 40
1.0
 10
11.1699133253
 20
4.8979631582
 30
0.0
 10
11.1699133253
 20
4.9000906788
 30
0.0
 10
11.1697727199
 20
4.9032221723
 30
0.0
 10
11.1692779462
 20
4.9072472358
 30
0.0
 10
11.1689326107
 20
4.9091442503
 30
0.0
 10
11.1687335006
 20
4.9100486769
 30
0.0
  0
SPLINE
  5
341
100
AcDbEntity
  8
0
100
AcDbSpline
 62
9
  6
CONTINUOUS
 70
0
 71
3
 72
9
 73
5
 74
0
 42
0.0000001
 43
0.0000001
 44
0.0000000001
 40
0.0
 40
0.0
 40
0.0
 40
0.0
 40
0.5274765341
 40
1.0
 40
1.0
 40
1.0
 40
1.0
 10
11.1687335055
 20
4.9100486622
 30
0.0
 10
11.1697791784
 20
4.91034759
 30
0.0
 10
11.1717939538
 20
4.9108073105
 30
0.0
 10
11.1738561618
 20
4.9110034953
 30
0.0
 10
11.1748304198
 20
4.9110034965
 30
0.0
  0
SPLINE
  5
342
100
AcDbEntity
  8
0
100
AcDbSpline
 62
9
  6
CONTINUOUS
 70
0
 71
3
 72
9
 73
5
 74
0
 42
0.0000001
 43
0.0000001
 44
0.0000000001
 40
0.0
 40
0.0
 40
0.0
 40
0.0
 40
0.5480999433
 40
1.0
 40
1.0
 40
1.0
 40
1.0
 10
11.174830426
 20
4.9110034863
 30
0.0
 10
11.1756818577
 20
4.9110034873
 30
0.0
 10
11.177240338
 20
4.9108744271
 30
0.0
 10
11.1787393343
 20
4.9103819695
 30
0.0
 10
11.1793571551
 20
4.9100486667
 30
0.0
  0
SPLINE
  5
343
100
AcDbEntity
  8
0
100
AcDbSpline
 62
9
  6
CONTINUOUS
 70
0
 71
3
 72
9
 73
5
 74
0
 42
0.0000001
 43
0.0000001
 44
0.0000000001
 40
0.0
 40
0.0
 40
0.0
 40
0.0
 40
0.4979498271
 40
1.0
 40
1.0
 40
1.0
 40
1.0
 10
11.1793571659
 20
4.9100486805
 30
0.0
 10
11.1806102976
 20
4.9083220395
 30
0.0
 10
11.1825790242
 20
4.9044253089
 30
0.0
 10
11.1832466611
 20
4.9001141806
 30
0.0
 10
11.1832466611
 20
4.8979631582
 30
0.0
  0
SPLINE
  5
344
100
AcDbEntity
  8
0
100
AcDbSpline
 62
9
  6
CONTINUOUS
 70
0
 71
3
 72
11
 73
7
 74
0
 42
0.0000001
 43
0.0000001
 44
0.0000000001
 40
0.0
 40
0.0
 40
0.0
 40
0.0
 40
0.482258561
 40
0.609505384
 40
0.7386142011
 40
1.0
 40
1.0
 40
1.0
 40
1.0
 10
11.179356994
 20
4.9100488342
 30
0.0
 10
11.1680841439
 20
4.928992588
 30
0.0
 10
11.1571006174
 20
4.955074336
 30
0.0
 10
11.1489766359
 20
4.9878437675
 30
0.0
 10
11.1447393654
 20
5.0111421981
 30
0.0
 10
11.1432085155
 20
5.028988606
 30
0.0
 10
11.1429577179
 20
5.0409339591
 30
0.0
  0
LINE
  5
345
100
AcDbEntity
  8
0
100
AcDbLine
 62
7
  6
CONTINUOUS
 10
11.142794336
 20
5.0409295912
 11
11.1099880431
 21
6.5788845877
  0
SPLINE
  5
346
100
AcDbEntity
  8
0
100
AcDbSpline
 62
9
  6
CONTINUOUS
 70
0
 71
3
 72
12
 73
8
 74
0
 42
0.0000001
 43
0.0000001
 44
0.0000000001
 40
0.0
 40
0.0
 40
0.0
 40
0.0
 40
0.259310424
 40
0.38886404
 40
0.516866976
 40
0.7650555608
 40
1.0
 40
1.0
 40
1.0
 40
1.0
 10
11.1351526261
 20
6.6473644266
 30
0.0
 10
11.1333744397
 20
6.6458911565
 30
0.0
 10
11.1309627884
 20
6.6433506958
 30
0.0
 10
11.1283839264
 20
6.6395309052
 30
0.0
 10
11.1262930663
 20
6.6355307285
 30
0.0
 10
11.1246363403
 20
6.6302968099
 30
0.0
 10
11.1242281333
 20
6.6259774684
 30
0.0
 10
11.124259734
 20
6.6238854767
 30
0.0
  0
SPLINE
  5
347
100
AcDbEntity
  8
0
100
AcDbSpline
 62
9
  6
CONTINUOUS
 70
0
 71
3
 72
14
 73
10
 74
0
 42
0.0000001
 43
0.0000001
 44
0.0000000001
 40
0.0
 40
0.0
 40
0.0
 40
0.0
 40
0.372527859
 40
0.5259060216
 40
0.6581265814
 40
0.7699810084
 40
0.8630315841
 40
0.9390748366
 40
1.0
 40
1.0
 40
1.0
 40
1.0
 10
11.1095139248
 20
6.6138382112
 30
0.0
 10
11.1113763101
 20
6.6150432219
 30
0.0
 10
11.1140183045
 20
6.6167244687
 30
0.0
 10
11.1173221243
 20
6.618832053
 30
0.0
 10
11.1193062868
 20
6.6201222206
 30
0.0
 10
11.1209664985
 20
6.6212510189
 30
0.0
 10
11.1223217009
 20
6.6222325444
 30
0.0
 10
11.1233959853
 20
6.6230828588
 30
0.0
 10
11.1240033005
 20
6.623628848
 30
0.0
 10
11.1242597274
 20
6.6238854701
 30
0.0
  0
LINE
  5
348
100
AcDbEntity
  8
0
100
AcDbLine
 62
9
  6
CONTINUOUS
 10
11.1007935153
 20
6.5918055231
 11
11.1095139038
 21
6.6138382191
  0
SPLINE
  5
349
100
AcDbEntity
  8
0
100
AcDbSpline
 62
9
  6
CONTINUOUS
 70
0
 71
3
 72
12
 73
8
 74
0
 42
0.0000001
 43
0.0000001
 44
0.0000000001
 40
0.0
 40
0.0
 40
0.0
 40
0.0
 40
0.2919374362
 40
0.5681666305
 40
0.8086196316
 40
0.9111639171
 40
1.0
 40
1.0
 40
1.0
 40
1.0
 10
11.0947505712
 20
6.5788802251
 30
0.0
 10
11.0954496215
 20
6.5800831257
 30
0.0
 10
11.0967645681
 20
6.58245105
 30
0.0
 10
11.0984972169
 20
6.5858944424
 30
0.0
 10
11.0996810217
 20
6.5886001824
 30
0.0
 10
11.1003986927
 20
6.5905294237
 30
0.0
 10
11.1006777268
 20
6.591398319
 30
0.0
 10
11.1007935188
 20
6.5918055385
 30
0.0
  0
SPLINE
  5
34A
100
AcDbEntity
  8
0
100
AcDbSpline
 62
9
  6
CONTINUOUS
 70
0
 71
3
 72
11
 73
7
 74
0
 42
0.0000001
 43
0.0000001
 44
0.0000000001
 40
0.0
 40
0.0
 40
0.0
 40
0.0
 40
0.2595795709
 40
0.5174634233
 40
0.7659016814
 40
1.0
 40
1.0
 40
1.0
 40
1.0
 10
11.1007935188
 20
6.5918055385
 30
0.0
 10
11.1019763015
 20
6.5910517857
 30
0.0
 10
11.1041961528
 20
6.5893217657
 30
0.0
 10
11.1069467899
 20
6.5861918283
 30
0.0
 10
11.1088881675
 20
6.5826586049
 30
0.0
 10
11.1096253984
 20
6.5801294633
 30
0.0
 10
11.1098236791
 20
6.5788802396
 30
0.0
  0
LINE
  5
34B
100
AcDbEntity
  8
0
100
AcDbLine
 62
7
  6
CONTINUOUS
 10
11.094716205
 20
6.5788758756
 11
11.1099880431
 21
6.5788845877
  0
LINE
  5
34C
100
AcDbEntity
  8
0
100
AcDbLine
 62
7
  6
CONTINUOUS
 10
11.1287573072
 20
5.0409381243
 11
11.094716205
 21
6.5788758756
  0
SPLINE
  5
34D
100
AcDbEntity
  8
0
100
AcDbSpline
 62
9
  6
CONTINUOUS
 70
0
 71
3
 72
11
 73
7
 74
0
 42
0.0000001
 43
0.0000001
 44
0.0000000001
 40
0.0
 40
0.0
 40
0.0
 40
0.0
 40
0.2650889541
 40
0.5205869561
 40
0.7660162976
 40
1.0
 40
1.0
 40
1.0
 40
1.0
 10
10.9906460444
 20
6.6238854522
 30
0.0
 10
10.9967694536
 20
6.6234380016
 30
0.0
 10
11.0087856308
 20
6.6224222731
 30
0.0
 10
11.0264103518
 20
6.6203512832
 30
0.0
 10
11.043219951
 20
6.6176365197
 30
0.0
 10
11.0540694861
 20
6.615225011
 30
0.0
 10
11.0593083465
 20
6.6138382103
 30
0.0
  0
SPLINE
  5
34E
100
AcDbEntity
  8
0
100
AcDbSpline
 62
9
  6
CONTINUOUS
 70
0
 71
3
 72
13
 73
9
 74
0
 42
0.0000001
 43
0.0000001
 44
0.0000000001
 40
0.0
 40
0.0
 40
0.0
 40
0.0
 40
0.2507225113
 40
0.3758896961
 40
0.5009527009
 40
0.6258993843
 40
0.7507123183
 40
1.0
 40
1.0
 40
1.0
 40
1.0
 10
11.0593082635
 20
6.6138382191
 30
0.0
 10
11.0628628145
 20
6.6121684375
 30
0.0
 10
11.0681637279
 20
6.609604159
 30
0.0
 10
11.0751589625
 20
6.6060488124
 30
0.0
 10
11.0803616664
 20
6.603315956
 30
0.0
 10
11.0855257166
 20
6.6005224598
 30
0.0
 10
11.0923598599
 20
6.5967278188
 30
0.0
 10
11.0974357616
 20
6.5937986297
 30
0.0
 10
11.1007935153
 20
6.5918055231
 30
0.0
  0
SPLINE
  5
34F
100
AcDbEntity
  8
0
100
AcDbSpline
 62
9
  6
CONTINUOUS
 70
0
 71
3
 72
11
 73
7
 74
0
 42
0.0000001
 43
0.0000001
 44
0.0000000001
 40
0.0
 40
0.0
 40
0.0
 40
0.0
 40
0.2205533156
 40
0.4645128509
 40
0.7270948598
 40
1.0
 40
1.0
 40
1.0
 40
1.0
 10
11.0585727331
 20
6.6530070674
 30
0.0
 10
11.0579706328
 20
6.6517163228
 30
0.0
 10
11.056879332
 20
6.6489134694
 30
0.0
 10
11.0556691929
 20
6.6443674697
 30
0.0
 10
11.0549059983
 20
6.6393832562
 30
0.0
 10
11.0547257808
 20
6.6359229569
 30
0.0
 10
11.0547257839
 20
6.6341606132
 30
0.0
  0
SPLINE
  5
350
100
AcDbEntity
  8
0
100
AcDbSpline
 62
9
  6
CONTINUOUS
 70
0
 71
3
 72
11
 73
7
 74
0
 42
0.0000001
 43
0.0000001
 44
0.0000000001
 40
0.0
 40
0.0
 40
0.0
 40
0.0
 40
0.2750114454
 40
0.5392951206
 40
0.7827911221
 40
1.0
 40
1.0
 40
1.0
 40
1.0
 10
11.0547257558
 20
6.6341606132
 30
0.0
 10
11.0547257594
 20
6.6322338178
 30
0.0
 10
11.0549422517
 20
6.6284525323
 30
0.0
 10
11.0558517724
 20
6.6230320368
 30
0.0
 10
11.0572940689
 20
6.6181490215
 30
0.0
 10
11.0585934875
 20
6.6151817593
 30
0.0
 10
11.0593082711
 20
6.6138382523
 30
0.0
  0
SPLINE
  5
351
100
AcDbEntity
  8
0
100
AcDbSpline
 62
9
  6
CONTINUOUS
 70
0
 71
3
 72
11
 73
7
 74
0
 42
0.0000001
 43
0.0000001
 44
0.0000000001
 40
0.0
 40
0.0
 40
0.0
 40
0.0
 40
0.2289566166
 40
0.4746198427
 40
0.7335985445
 40
1.0
 40
1.0
 40
1.0
 40
1.0
 10
11.1084748791
 20
6.6530070442
 30
0.0
 10
11.1076402829
 20
6.6517406902
 30
0.0
 10
11.1061115492
 20
6.6489784816
 30
0.0
 10
11.1043866293
 20
6.6444175451
 30
0.0
 10
11.1032972521
 20
6.6394100359
 30
0.0
 10
11.1030397125
 20
6.6359252954
 30
0.0
 10
11.1030397079
 20
6.6341606132
 30
0.0
  0
SPLINE
  5
352
100
AcDbEntity
  8
0
100
AcDbSpline
 62
9
  6
CONTINUOUS
 70
0
 71
3
 72
11
 73
7
 74
0
 42
0.0000001
 43
0.0000001
 44
0.0000000001
 40
0.0
 40
0.0
 40
0.0
 40
0.0
 40
0.2671538257
 40
0.5270803899
 40
0.7726721838
 40
1.0
 40
1.0
 40
1.0
 40
1.0
 10
11.1030397079
 20
6.6341606132
 30
0.0
 10
11.1030397029
 20
6.6322307475
 30
0.0
 10
11.1033496791
 20
6.6284174944
 30
0.0
 10
11.1046507644
 20
6.622966237
 30
0.0
 10
11.1067103139
 20
6.6180649367
 30
0.0
 10
11.1085272039
 20
6.6151509921
 30
0.0
 10
11.1095139004
 20
6.6138383024
 30
0.0
  0
SPLINE
  5
353
100
AcDbEntity
  8
0
100
AcDbSpline
 62
9
  6
CONTINUOUS
 70
0
 71
3
 72
9
 73
5
 74
0
 42
0.0000001
 43
0.0000001
 44
0.0000000001
 40
0.0
 40
0.0
 40
0.0
 40
0.0
 40
0.5031657787
 40
1.0
 40
1.0
 40
1.0
 40
1.0
 10
10.9376923427
 20
6.6451132291
 30
0.0
 10
10.9292370151
 20
6.645113234
 30
0.0
 10
10.9124306219
 20
6.6454310959
 30
0.0
 10
10.8956540543
 20
6.6465532171
 30
0.0
 10
10.8873446347
 20
6.6473645039
 30
0.0
  0
SPLINE
  5
354
100
AcDbEntity
  8
0
100
AcDbSpline
 62
9
  6
CONTINUOUS
 70
0
 71
3
 72
16
 73
12
 74
0
 42
0.0000001
 43
0.0000001
 44
0.0000000001
 40
0.0
 40
0.0
 40
0.0
 40
0.0
 40
0.1331870725
 40
0.2650754069
 40
0.3952507311
 40
0.5232056279
 40
0.6482447055
 40
0.7094560227
 40
0.7696980179
 40
0.8870785597
 40
1.0
 40
1.0
 40
1.0
 40
1.0
 10
10.887344637
 20
6.647364468
 30
0.0
 10
10.8842199972
 20
6.6477004653
 30
0.0
 10
10.878000093
 20
6.6483590409
 30
0.0
 10
10.8687231736
 20
6.6493170583
 30
0.0
 10
10.8595677979
 20
6.6502500681
 30
0.0
 10
10.8505712907
 20
6.6511479031
 30
0.0
 10
10.8431858421
 20
6.651801238
 30
0.0
 10
10.8373848884
 20
6.6522236796
 30
0.0
 10
10.8317595943
 20
6.6525641901
 30
0.0
 10
10.824909796
 20
6.6528608094
 30
0.0
 10
10.8194764372
 20
6.6529775828
 30
0.0
 10
10.8168121309
 20
6.6530070828
 30
0.0
  0
SPLINE
  5
355
100
AcDbEntity
  8
0
100
AcDbSpline
 62
9
  6
CONTINUOUS
 70
0
 71
3
 72
16
 73
12
 74
0
 42
0.0000001
 43
0.0000001
 44
0.0000000001
 40
0.0
 40
0.0
 40
0.0
 40
0.0
 40
0.1890406475
 40
0.3600894536
 40
0.4383877674
 40
0.5117021596
 40
0.6439605363
 40
0.7582118838
 40
0.8553516135
 40
0.9357334982
 40
1.0
 40
1.0
 40
1.0
 40
1.0
 10
10.7669096886
 20
6.6530070828
 30
0.0
 10
10.7651687006
 20
6.6529805588
 30
0.0
 10
10.761852824
 20
6.6528812079
 30
0.0
 10
10.7578235496
 20
6.6525894482
 30
0.0
 10
10.7548719424
 20
6.6522373615
 30
0.0
 10
10.7522884543
 20
6.6518319455
 30
0.0
 10
10.7494041026
 20
6.65121877
 30
0.0
 10
10.7463619611
 20
6.6503367495
 30
0.0
 10
10.7438342769
 20
6.6494152782
 30
0.0
 10
10.7418169077
 20
6.6484652506
 30
0.0
 10
10.7406890553
 20
6.64774073
 30
0.0
 10
10.7402320945
 20
6.6473644634
 30
0.0
  0
LINE
  5
356
100
AcDbEntity
  8
0
100
AcDbLine
 62
9
  6
CONTINUOUS
 10
10.7402320696
 20
6.6473644846
 11
10.7367455529
 21
6.6451131383
  0
LINE
  5
357
100
AcDbEntity
  8
0
100
AcDbLine
 62
9
  6
CONTINUOUS
 10
10.7511249553
 20
6.6238854404
 11
10.7490439275
 21
6.6200962014
  0
SPLINE
  5
358
100
AcDbEntity
  8
0
100
AcDbSpline
 62
9
  6
CONTINUOUS
 70
0
 71
3
 72
11
 73
7
 74
0
 42
0.0000001
 43
0.0000001
 44
0.0000000001
 40
0.0
 40
0.0
 40
0.0
 40
0.0
 40
0.2466054474
 40
0.4993950185
 40
0.7524996646
 40
1.0
 40
1.0
 40
1.0
 40
1.0
 10
10.7402320143
 20
6.6473644455
 30
0.0
 10
10.7419223871
 20
6.6459639343
 30
0.0
 10
10.745032958
 20
6.6427325981
 30
0.0
 10
10.7485811044
 20
6.6369855317
 30
0.0
 10
10.7507011958
 20
6.6305636517
 30
0.0
 10
10.7511582054
 20
6.626088274
 30
0.0
 10
10.7511249211
 20
6.6238853848
 30
0.0
  0
SPLINE
  5
359
100
AcDbEntity
  8
0
100
AcDbSpline
 62
9
  6
CONTINUOUS
 70
0
 71
3
 72
14
 73
10
 74
0
 42
0.0000001
 43
0.0000001
 44
0.0000000001
 40
0.0
 40
0.0
 40
0.0
 40
0.0
 40
0.060953028
 40
0.1370451065
 40
0.2301377362
 40
0.3420000798
 40
0.4741786799
 40
0.6274945704
 40
1.0
 40
1.0
 40
1.0
 40
1.0
 10
10.7511249336
 20
6.6238854556
 30
0.0
 10
10.7513815118
 20
6.6236287529
 30
0.0
 10
10.7519892321
 20
6.6230825397
 30
0.0
 10
10.7530640872
 20
6.622231822
 30
0.0
 10
10.7544197467
 20
6.62124994
 30
0.0
 10
10.7560799876
 20
6.6201211185
 30
0.0
 10
10.7580637189
 20
6.6188313631
 30
0.0
 10
10.7613669752
 20
6.6167243387
 30
0.0
 10
10.7640084729
 20
6.6150432806
 30
0.0
 10
10.7658706043
 20
6.6138381458
 30
0.0
  0
SPLINE
  5
35A
100
AcDbEntity
  8
0
100
AcDbSpline
 62
9
  6
CONTINUOUS
 70
0
 71
3
 72
11
 73
7
 74
0
 42
0.0000001
 43
0.0000001
 44
0.0000000001
 40
0.0
 40
0.0
 40
0.0
 40
0.0
 40
0.2289565837
 40
0.4746197991
 40
0.7335985118
 40
1.0
 40
1.0
 40
1.0
 40
1.0
 10
10.7669097177
 20
6.6530070793
 30
0.0
 10
10.7677443162
 20
6.6517407236
 30
0.0
 10
10.7692730537
 20
6.6489785105
 30
0.0
 10
10.7709979775
 20
6.6444175656
 30
0.0
 10
10.7720873565
 20
6.6394100465
 30
0.0
 10
10.7723448961
 20
6.635925299
 30
0.0
 10
10.7723449005
 20
6.6341606132
 30
0.0
  0
SPLINE
  5
35B
100
AcDbEntity
  8
0
100
AcDbSpline
 62
9
  6
CONTINUOUS
 70
0
 71
3
 72
11
 73
7
 74
0
 42
0.0000001
 43
0.0000001
 44
0.0000000001
 40
0.0
 40
0.0
 40
0.0
 40
0.0
 40
0.2671539385
 40
0.527080554
 40
0.7726723106
 40
1.0
 40
1.0
 40
1.0
 40
1.0
 10
10.7723448461
 20
6.6341606132
 30
0.0
 10
10.7723448515
 20
6.6322307393
 30
0.0
 10
10.772034874
 20
6.6284174704
 30
0.0
 10
10.7707337822
 20
6.6229661916
 30
0.0
 10
10.7686742231
 20
6.6180648741
 30
0.0
 10
10.7668573255
 20
6.6151509202
 30
0.0
 10
10.7658706251
 20
6.6138382267
 30
0.0
  0
SPLINE
  5
35C
100
AcDbEntity
  8
0
100
AcDbSpline
 62
9
  6
CONTINUOUS
 70
0
 71
3
 72
11
 73
7
 74
0
 42
0.0000001
 43
0.0000001
 44
0.0000000001
 40
0.0
 40
0.0
 40
0.0
 40
0.0
 40
0.2205530287
 40
0.464512455
 40
0.7270945612
 40
1.0
 40
1.0
 40
1.0
 40
1.0
 10
10.8168119571
 20
6.6530070754
 30
0.0
 10
10.8174140522
 20
6.6517163308
 30
0.0
 10
10.8185053424
 20
6.6489134768
 30
0.0
 10
10.819715466
 20
6.6443674762
 30
0.0
 10
10.8204786459
 20
6.6393832598
 30
0.0
 10
10.8206588541
 20
6.6359229584
 30
0.0
 10
10.8206588466
 20
6.6341606132
 30
0.0
  0
SPLINE
  5
35D
100
AcDbEntity
  8
0
100
AcDbSpline
 62
9
  6
CONTINUOUS
 70
0
 71
3
 72
9
 73
5
 74
0
 42
0.0000001
 43
0.0000001
 44
0.0000000001
 40
0.0
 40
0.0
 40
0.0
 40
0.0
 40
0.5266774762
 40
1.0
 40
1.0
 40
1.0
 40
1.0
 10
10.714588367
 20
4.8288485715
 30
0.0
 10
10.7131029186
 20
4.8310383368
 30
0.0
 10
10.7098744678
 20
4.8349414057
 30
0.0
 10
10.705852661
 20
4.8380399802
 30
0.0
 10
10.7037987569
 20
4.8392384647
 30
0.0
  0
SPLINE
  5
35E
100
AcDbEntity
  8
0
100
AcDbSpline
 62
9
  6
CONTINUOUS
 70
0
 71
3
 72
9
 73
5
 74
0
 42
0.0000001
 43
0.0000001
 44
0.0000000001
 40
0.0
 40
0.0
 40
0.0
 40
0.0
 40
0.5064573367
 40
1.0
 40
1.0
 40
1.0
 40
1.0
 10
10.7246549342
 20
4.8288485802
 30
0.0
 10
10.7224115056
 20
4.8311121734
 30
0.0
 10
10.717498733
 20
4.8351259775
 30
0.0
 10
10.7118866863
 20
4.8380716178
 30
0.0
 10
10.7090085132
 20
4.8392384733
 30
0.0
  0
SPLINE
  5
35F
100
AcDbEntity
  8
0
100
AcDbSpline
 62
9
  6
CONTINUOUS
 70
0
 71
3
 72
12
 73
8
 74
0
 42
0.0000001
 43
0.0000001
 44
0.0000000001
 40
0.0
 40
0.0
 40
0.0
 40
0.0
 40
0.1123615487
 40
0.2274013351
 40
0.4678874661
 40
0.724894992
 40
1.0
 40
1.0
 40
1.0
 40
1.0
 10
10.7647978273
 20
4.7969008138
 30
0.0
 10
10.7629231689
 20
4.7974667837
 30
0.0
 10
10.7591839464
 20
4.7988032734
 30
0.0
 10
10.7517979247
 20
4.8022832
 30
0.0
 10
10.7428383459
 20
4.8082061696
 30
0.0
 10
10.7329992441
 20
4.817479305
 30
0.0
 10
10.72730636
 20
4.82485396
 30
0.0
 10
10.7246548291
 20
4.8288485495
 30
0.0
  0
SPLINE
  5
360
100
AcDbEntity
  8
0
100
AcDbSpline
 62
9
  6
CONTINUOUS
 70
0
 71
3
 72
11
 73
7
 74
0
 42
0.0000001
 43
0.0000001
 44
0.0000000001
 40
0.0
 40
0.0
 40
0.0
 40
0.0
 40
0.2371919739
 40
0.4816122203
 40
0.73545974
 40
1.0
 40
1.0
 40
1.0
 40
1.0
 10
11.1139406204
 20
4.7969654063
 30
0.0
 10
11.1183540261
 20
4.798105957
 30
0.0
 10
11.1271317874
 20
4.8012089289
 30
0.0
 10
11.1395081614
 20
4.8081686621
 30
0.0
 10
11.1509829341
 20
4.8173914336
 30
0.0
 10
11.1576891539
 20
4.8248245416
 30
0.0
 10
11.1607962792
 20
4.8288485527
 30
0.0
  0
SPLINE
  5
361
100
AcDbEntity
  8
0
100
AcDbSpline
 62
9
  6
CONTINUOUS
 70
0
 71
3
 72
9
 73
5
 74
0
 42
0.0000001
 43
0.0000001
 44
0.0000000001
 40
0.0
 40
0.0
 40
0.0
 40
0.0
 40
0.4960521104
 40
1.0
 40
1.0
 40
1.0
 40
1.0
 10
11.0941781338
 20
4.7944485715
 30
0.0
 10
11.0969277985
 20
4.7944485715
 30
0.0
 10
11.1024783782
 20
4.7948634276
 30
0.0
 10
11.1079065362
 20
4.7960909228
 30
0.0
 10
11.1105803257
 20
4.7968996939
 30
0.0
  0
SPLINE
  5
362
100
AcDbEntity
  8
0
100
AcDbSpline
 62
9
  6
CONTINUOUS
 70
0
 71
3
 72
15
 73
11
 74
0
 42
0.0000001
 43
0.0000001
 44
0.0000000001
 40
0.0
 40
0.0
 40
0.0
 40
0.0
 40
0.1127926901
 40
0.2281943599
 40
0.3467634343
 40
0.4689621815
 40
0.5951331245
 40
0.7255960263
 40
0.8605391996
 40
1.0
 40
1.0
 40
1.0
 40
1.0
 10
11.1110133687
 20
4.7970325025
 30
0.0
 10
11.1128757742
 20
4.7976115224
 30
0.0
 10
11.1165877688
 20
4.7989710778
 30
0.0
 10
11.1220029486
 20
4.8015649595
 30
0.0
 10
11.1272957377
 20
4.8047305319
 30
0.0
 10
11.1324366599
 20
4.8084628242
 30
0.0
 10
11.1373940483
 20
4.8127566038
 30
0.0
 10
11.14213023
 20
4.817605861
 30
0.0
 10
11.1466194948
 20
4.8229859251
 30
0.0
 10
11.1493897521
 20
4.8268437075
 30
0.0
 10
11.1507297845
 20
4.8288485715
 30
0.0
  0
SPLINE
  5
363
100
AcDbEntity
  8
0
100
AcDbSpline
 62
9
  6
CONTINUOUS
 70
0
 71
3
 72
11
 73
7
 74
0
 42
0.0000001
 43
0.0000001
 44
0.0000000001
 40
0.0
 40
0.0
 40
0.0
 40
0.0
 40
0.2924158998
 40
0.5598687737
 40
0.7955620378
 40
1.0
 40
1.0
 40
1.0
 40
1.0
 10
11.1507297854
 20
4.8288485729
 30
0.0
 10
11.1516882777
 20
4.8285512248
 30
0.0
 10
11.1535596609
 20
4.8280901836
 30
0.0
 10
11.1562887419
 20
4.8278153346
 30
0.0
 10
11.1587234636
 20
4.8280316061
 30
0.0
 10
11.1601764048
 20
4.8285199757
 30
0.0
 10
11.1607963196
 20
4.8288485729
 30
0.0
  0
SPLINE
  5
364
100
AcDbEntity
  8
0
100
AcDbSpline
 62
9
  6
CONTINUOUS
 70
0
 71
3
 72
9
 73
5
 74
0
 42
0.0000001
 43
0.0000001
 44
0.0000000001
 40
0.0
 40
0.0
 40
0.0
 40
0.0
 40
0.5086439649
 40
1.0
 40
1.0
 40
1.0
 40
1.0
 10
11.1507297845
 20
4.8288485715
 30
0.0
 10
11.1529826763
 20
4.8311221436
 30
0.0
 10
11.1578982136
 20
4.8351335065
 30
0.0
 10
11.1635108228
 20
4.8380766862
 30
0.0
 10
11.1663761955
 20
4.8392384647
 30
0.0
  0
SPLINE
  5
365
100
AcDbEntity
  8
0
100
AcDbSpline
 62
9
  6
CONTINUOUS
 70
0
 71
3
 72
9
 73
5
 74
0
 42
0.0000001
 43
0.0000001
 44
0.0000000001
 40
0.0
 40
0.0
 40
0.0
 40
0.0
 40
0.5245077869
 40
1.0
 40
1.0
 40
1.0
 40
1.0
 10
11.1607963395
 20
4.8288485849
 30
0.0
 10
11.1622756026
 20
4.8310293753
 30
0.0
 10
11.1655021377
 20
4.8349333456
 30
0.0
 10
11.1695226468
 20
4.8380344771
 30
0.0
 10
11.1715859567
 20
4.8392384732
 30
0.0
  0
SPLINE
  5
366
100
AcDbEntity
  8
0
100
AcDbSpline
 62
9
  6
CONTINUOUS
 70
0
 71
3
 72
13
 73
9
 74
0
 42
0.0000001
 43
0.0000001
 44
0.0000000001
 40
0.0
 40
0.0
 40
0.0
 40
0.0
 40
0.2453012745
 40
0.369676797
 40
0.4946793598
 40
0.6204248173
 40
0.7469769581
 40
1.0
 40
1.0
 40
1.0
 40
1.0
 10
11.1715859286
 20
4.8392384647
 30
0.0
 10
11.1733044132
 20
4.8400007368
 30
0.0
 10
11.1757349197
 20
4.8415603526
 30
0.0
 10
11.1784145042
 20
4.8442548587
 30
0.0
 10
11.1801287545
 20
4.8465762079
 30
0.0
 10
11.181501916
 20
4.8491328592
 30
0.0
 10
11.1828306483
 20
4.8527799656
 30
0.0
 10
11.183246661
 20
4.8557094332
 30
0.0
 10
11.183246661
 20
4.8576485715
 30
0.0
  0
SPLINE
  5
367
100
AcDbEntity
  8
0
100
AcDbSpline
 62
9
  6
CONTINUOUS
 70
0
 71
3
 72
9
 73
5
 74
0
 42
0.0000001
 43
0.0000001
 44
0.0000000001
 40
0.0
 40
0.0
 40
0.0
 40
0.0
 40
0.4800278591
 40
1.0
 40
1.0
 40
1.0
 40
1.0
 10
11.1715859284
 20
4.8392384646
 30
0.0
 10
11.1707728571
 20
4.8390224695
 30
0.0
 10
11.1690101638
 20
4.8388135973
 30
0.0
 10
11.1672545245
 20
4.8390332316
 30
0.0
 10
11.1663671499
 20
4.8392405747
 30
0.0
  0
SPLINE
  5
368
100
AcDbEntity
  8
0
100
AcDbSpline
 62
9
  6
CONTINUOUS
 70
0
 71
3
 72
15
 73
11
 74
0
 42
0.0000001
 43
0.0000001
 44
0.0000000001
 40
0.0
 40
0.0
 40
0.0
 40
0.0
 40
0.0819328106
 40
0.1783617671
 40
0.2897288773
 40
0.4146770768
 40
0.5508411746
 40
0.6958396094
 40
0.8467353607
 40
1.0
 40
1.0
 40
1.0
 40
1.0
 10
11.1663672836
 20
4.8392406453
 30
0.0
 10
11.1666837497
 20
4.8396503051
 30
0.0
 10
11.1672455146
 20
4.8406391004
 30
0.0
 10
11.1678927114
 20
4.8423539376
 30
0.0
 10
11.1684665243
 20
4.8443782933
 30
0.0
 10
11.1689811536
 20
4.8466757298
 30
0.0
 10
11.1693989257
 20
4.8492089465
 30
0.0
 10
11.1696828028
 20
4.8519253081
 30
0.0
 10
11.169845837
 20
4.8547591207
 30
0.0
 10
11.1698971488
 20
4.8566803647
 30
0.0
 10
11.1699133276
 20
4.8576485715
 30
0.0
  0
SPLINE
  5
369
100
AcDbEntity
  8
0
100
AcDbSpline
 62
9
  6
CONTINUOUS
 70
0
 71
3
 72
15
 73
11
 74
0
 42
0.0000001
 43
0.0000001
 44
0.0000000001
 40
0.0
 40
0.0
 40
0.0
 40
0.0
 40
0.1532646087
 40
0.3041602729
 40
0.4491585867
 40
0.5853225924
 40
0.7102707887
 40
0.8216381751
 40
0.9180676409
 40
1.0
 40
1.0
 40
1.0
 40
1.0
 10
10.7054713578
 20
4.8576485715
 30
0.0
 10
10.705487528
 20
4.8566803648
 30
0.0
 10
10.7055388333
 20
4.8547591214
 30
0.0
 10
10.7057018745
 20
4.8519253109
 30
0.0
 10
10.7059857612
 20
4.8492089527
 30
0.0
 10
10.7064035276
 20
4.846675737
 30
0.0
 10
10.70691815
 20
4.8443782979
 30
0.0
 10
10.7074919736
 20
4.8423539398
 30
0.0
 10
10.7081391955
 20
4.8406391097
 30
0.0
 10
10.7087009513
 20
4.8396503129
 30
0.0
 10
10.7090174029
 20
4.8392406456
 30
0.0
  0
SPLINE
  5
36A
100
AcDbEntity
  8
0
100
AcDbSpline
 62
9
  6
CONTINUOUS
 70
0
 71
3
 72
9
 73
5
 74
0
 42
0.0000001
 43
0.0000001
 44
0.0000000001
 40
0.0
 40
0.0
 40
0.0
 40
0.0
 40
0.5119015272
 40
1.0
 40
1.0
 40
1.0
 40
1.0
 10
10.7090175366
 20
4.8392405749
 30
0.0
 10
10.7081439423
 20
4.8390364495
 30
0.0
 10
10.7063895087
 20
4.8388140486
 30
0.0
 10
10.7046254922
 20
4.8390188396
 30
0.0
 10
10.7037987571
 20
4.8392384646
 30
0.0
  0
SPLINE
  5
36B
100
AcDbEntity
  8
0
100
AcDbSpline
 62
9
  6
CONTINUOUS
 70
0
 71
3
 72
13
 73
9
 74
0
 42
0.0000001
 43
0.0000001
 44
0.0000000001
 40
0.0
 40
0.0
 40
0.0
 40
0.0
 40
0.2453012745
 40
0.3696767969
 40
0.4946793597
 40
0.6204248172
 40
0.7469769581
 40
1.0
 40
1.0
 40
1.0
 40
1.0
 10
10.7037987571
 20
4.8392384646
 30
0.0
 10
10.7020802725
 20
4.8400007367
 30
0.0
 10
10.699649766
 20
4.8415603525
 30
0.0
 10
10.6969701814
 20
4.8442548585
 30
0.0
 10
10.695255931
 20
4.8465762078
 30
0.0
 10
10.6938827695
 20
4.8491328591
 30
0.0
 10
10.6925540372
 20
4.8527799655
 30
0.0
 10
10.6921380245
 20
4.8557094332
 30
0.0
 10
10.6921380245
 20
4.8576485715
 30
0.0
  0
SPLINE
  5
36C
100
AcDbEntity
  8
0
100
AcDbSpline
 62
9
  6
CONTINUOUS
 70
0
 71
3
 72
11
 73
7
 74
0
 42
0.0000001
 43
0.0000001
 44
0.0000000001
 40
0.0
 40
0.0
 40
0.0
 40
0.0
 40
0.2380709313
 40
0.4825339309
 40
0.7361253221
 40
1.0
 40
1.0
 40
1.0
 40
1.0
 10
10.7611894199
 20
4.7970325025
 30
0.0
 10
10.7567839765
 20
4.7981889673
 30
0.0
 10
10.7480412662
 20
4.8013150364
 30
0.0
 10
10.7357180566
 20
4.8082634231
 30
0.0
 10
10.7243250494
 20
4.8174560479
 30
0.0
 10
10.7176703763
 20
4.8248501576
 30
0.0
 10
10.714588367
 20
4.8288485715
 30
0.0
  0
SPLINE
  5
36D
100
AcDbEntity
  8
0
100
AcDbSpline
 62
9
  6
CONTINUOUS
 70
0
 71
3
 72
11
 73
7
 74
0
 42
0.0000001
 43
0.0000001
 44
0.0000000001
 40
0.0
 40
0.0
 40
0.0
 40
0.0
 40
0.2044376288
 40
0.4401307273
 40
0.7075837
 40
1.0
 40
1.0
 40
1.0
 40
1.0
 10
10.7145883659
 20
4.8288485729
 30
0.0
 10
10.7152082804
 20
4.8285199758
 30
0.0
 10
10.7166612217
 20
4.8280316061
 30
0.0
 10
10.719095945
 20
4.8278153344
 30
0.0
 10
10.7218250304
 20
4.8280901844
 30
0.0
 10
10.7236964175
 20
4.8285512273
 30
0.0
 10
10.724654912
 20
4.8288485766
 30
0.0
  0
LINE
  5
36E
100
AcDbEntity
  8
0
100
AcDbLine
 62
9
  6
CONTINUOUS
 10
11.1386391326
 20
6.6451131383
 11
11.1351526543
 21
6.647364442
  0
LINE
  5
36F
100
AcDbEntity
  8
0
100
AcDbLine
 62
9
  6
CONTINUOUS
 10
11.1263407579
 20
6.6200962007
 11
11.124259764
 21
6.6238853836
  0
SPLINE
  5
370
100
AcDbEntity
  8
0
100
AcDbSpline
 62
9
  6
CONTINUOUS
 70
0
 71
3
 72
18
 73
14
 74
0
 42
0.0000001
 43
0.0000001
 44
0.0000000001
 40
0.0
 40
0.0
 40
0.0
 40
0.0
 40
0.0217942362
 40
0.0463555389
 40
0.0755196359
 40
0.1106012906
 40
0.1524495046
 40
0.2013119396
 40
0.3198741831
 40
0.4646468928
 40
0.6305369584
 40
0.8112963742
 40
1.0
 40
1.0
 40
1.0
 40
1.0
 10
12.142652684
 20
8.6005461686
 30
0.0
 10
12.1428019402
 20
8.6005058448
 30
0.0
 10
12.1431053744
 20
8.6003610175
 30
0.0
 10
12.1434973562
 20
8.5999863934
 30
0.0
 10
12.1438400714
 20
8.5994526863
 30
0.0
 10
12.1441326267
 20
8.5987563616
 30
0.0
 10
12.1443721784
 20
8.5978949838
 30
0.0
 10
12.1446373208
 20
8.5964327601
 30
0.0
 10
12.144793083
 20
8.594217799
 30
0.0
 10
12.144736155
 20
8.5911713892
 30
0.0
 10
12.1444550659
 20
8.5876946765
 30
0.0
 10
12.1439616839
 20
8.5839279496
 30
0.0
 10
12.1435200578
 20
8.5813437888
 30
0.0
 10
12.1432720747
 20
8.5800283031
 30
0.0
  0
SPLINE
  5
371
100
AcDbEntity
  8
0
100
AcDbSpline
 62
9
  6
CONTINUOUS
 70
0
 71
3
 72
18
 73
14
 74
0
 42
0.0000001
 43
0.0000001
 44
0.0000000001
 40
0.0
 40
0.0
 40
0.0
 40
0.0
 40
0.0217942339
 40
0.0463555388
 40
0.075519639
 40
0.1106012887
 40
0.152449497
 40
0.2013119359
 40
0.3198741847
 40
0.4646468906
 40
0.6305369609
 40
0.8112963763
 40
1.0
 40
1.0
 40
1.0
 40
1.0
 10
12.1637899399
 20
8.5794089126
 30
0.0
 10
12.1637496162
 20
8.5795581689
 30
0.0
 10
12.1636047889
 20
8.579861603
 30
0.0
 10
12.1632301646
 20
8.5802535848
 30
0.0
 10
12.1626964575
 20
8.5805963
 30
0.0
 10
12.1620001329
 20
8.5808888554
 30
0.0
 10
12.1611387551
 20
8.5811284072
 30
0.0
 10
12.1596765313
 20
8.5813935494
 30
0.0
 10
12.1574615701
 20
8.5815493116
 30
0.0
 10
12.1544151601
 20
8.5814923837
 30
0.0
 10
12.1509384473
 20
8.5812112945
 30
0.0
 10
12.1471717203
 20
8.5807179125
 30
0.0
 10
12.1445875594
 20
8.5802762863
 30
0.0
 10
12.1432720736
 20
8.5800283032
 30
0.0
  0
LINE
  5
372
100
AcDbEntity
  8
0
100
AcDbLine
 62
9
  6
CONTINUOUS
 10
12.2005731787
 20
8.627470008
 11
12.1637899692
 21
8.5794088042
  0
LINE
  5
373
100
AcDbEntity
  8
0
100
AcDbLine
 62
9
  6
CONTINUOUS
 10
12.1907113737
 20
8.637329936
 11
12.1426526257
 21
8.6005460417
  0
SPLINE
  5
374
100
AcDbEntity
  8
0
100
AcDbSpline
 62
9
  6
CONTINUOUS
 70
0
 71
3
 72
22
 73
18
 74
0
 42
0.0000001
 43
0.0000001
 44
0.0000000001
 40
0.0
 40
0.0
 40
0.0
 40
0.0
 40
0.0023350062
 40
0.0060310792
 40
0.0115474958
 40
0.019048054
 40
0.0286214423
 40
0.0403313132
 40
0.070366465
 40
0.1094263638
 40
0.1573181172
 40
0.213727925
 40
0.2783361293
 40
0.4300692673
 40
0.605991401
 40
0.7986384004
 40
1.0
 40
1.0
 40
1.0
 40
1.0
 10
12.3186184569
 20
7.5909132595
 30
0.0
 10
12.3186177208
 20
7.5909289445
 30
0.0
 10
12.3185921557
 20
7.5909659379
 30
0.0
 10
12.3185232158
 20
7.5910019305
 30
0.0
 10
12.3184168989
 20
7.5910395694
 30
0.0
 10
12.3182689549
 20
7.5910746136
 30
0.0
 10
12.3180783603
 20
7.5911087512
 30
0.0
 10
12.3177363748
 20
7.5911555374
 30
0.0
 10
12.3171950525
 20
7.5912051969
 30
0.0
 10
12.3164097146
 20
7.591252348
 30
0.0
 10
12.3154463251
 20
7.5912899539
 30
0.0
 10
12.3143107576
 20
7.5913173035
 30
0.0
 10
12.3124766943
 20
7.5913401494
 30
0.0
 10
12.3098387263
 20
7.5913353726
 30
0.0
 10
12.3063401129
 20
7.5912883369
 30
0.0
 10
12.3025084437
 20
7.591201
 30
0.0
 10
12.2998600236
 20
7.5911214452
 30
0.0
 10
12.2985066716
 20
7.5910765029
 30
0.0
  0
SPLINE
  5
375
100
AcDbEntity
  8
0
100
AcDbSpline
 62
9
  6
CONTINUOUS
 70
0
 71
3
 72
30
 73
26
 74
0
 42
0.0000001
 43
0.0000001
 44
0.0000000001
 40
0.0
 40
0.0
 40
0.0
 40
0.0
 40
0.0308559628
 40
0.0617384937
 40
0.0926521615
 40
0.1235994897
 40
0.1545795377
 40
0.1855904518
 40
0.2477002019
 40
0.3099238082
 40
0.372255072
 40
0.4346871639
 40
0.4972131145
 40
0.5598270873
 40
0.6225239946
 40
0.6852938057
 40
0.71670255
 40
0.7481261869
 40
0.7795654596
 40
0.8110208373
 40
0.8424924239
 40
0.87397912
 40
0.9054765782
 40
0.936980745
 40
1.0
 40
1.0
 40
1.0
 40
1.0
 10
12.1432720758
 20
8.5800283046
 30
0.0
 10
12.1460198094
 20
8.5700844222
 30
0.0
 10
12.1513932706
 20
8.550153592
 30
0.0
 10
12.1591533173
 20
8.5201631323
 30
0.0
 10
12.1666838745
 20
8.4900829022
 30
0.0
 10
12.1740626205
 20
8.4599316029
 30
0.0
 10
12.181280768
 20
8.4297079476
 30
0.0
 10
12.1906567409
 20
8.3892884388
 30
0.0
 10
12.2018468866
 20
8.3385677597
 30
0.0
 10
12.2144684664
 20
8.2774451771
 30
0.0
 10
12.2262944865
 20
8.2160538229
 30
0.0
 10
12.2373057925
 20
8.1544083929
 30
0.0
 10
12.2474884157
 20
8.092524832
 30
0.0
 10
12.2568356264
 20
8.0304201258
 30
0.0
 10
12.2653726284
 20
7.9681166967
 30
0.0
 10
12.27178222
 20
7.9160573442
 30
0.0
 10
12.2764531426
 20
7.8743231386
 30
0.0
 10
12.2797288857
 20
7.8429743084
 30
0.0
 10
12.2827993811
 20
7.8115891135
 30
0.0
 10
12.2856840721
 20
7.780170228
 30
0.0
 10
12.2884034404
 20
7.7487207345
 30
0.0
 10
12.2909773513
 20
7.7172448833
 30
0.0
 10
12.2933440028
 20
7.685741572
 30
0.0
 10
12.2961410071
 20
7.6436999269
 30
0.0
 10
12.2977422557
 20
7.6121327951
 30
0.0
 10
12.2985066716
 20
7.5910765029
 30
0.0
  0
LINE
  5
376
100
AcDbEntity
  8
0
100
AcDbLine
 62
9
  6
CONTINUOUS
 10
9.6846709062
 20
8.6373294074
 11
9.7327321099
 21
8.6005461979
  0
LINE
  5
377
100
AcDbEntity
  8
0
100
AcDbLine
 62
9
  6
CONTINUOUS
 10
9.6748109782
 20
8.6274676024
 11
9.7115948724
 21
8.5794088544
  0
SPLINE
  5
378
100
AcDbEntity
  8
0
100
AcDbSpline
 62
9
  6
CONTINUOUS
 70
0
 71
3
 72
20
 73
16
 74
0
 42
0.0000001
 43
0.0000001
 44
0.0000000001
 40
0.0
 40
0.0
 40
0.0
 40
0.0
 40
0.1258638099
 40
0.2515199119
 40
0.3769495568
 40
0.502132826
 40
0.564625749
 40
0.6270490177
 40
0.6893998773
 40
0.7516760579
 40
0.8138771737
 40
0.844949866
 40
0.876003829
 40
0.9380496864
 40
1.0
 40
1.0
 40
1.0
 40
1.0
 10
11.5377527685
 20
8.7011476106
 30
0.0
 10
11.5634591378
 20
8.6977748682
 30
0.0
 10
11.6147728604
 20
8.6905957958
 30
0.0
 10
11.691484532
 20
8.6785524654
 30
0.0
 10
11.7678447764
 20
8.6652441495
 30
0.0
 10
11.8311912274
 20
8.6531002751
 30
0.0
 10
11.8816620649
 20
8.6427635921
 30
0.0
 10
11.9193880293
 20
8.6347120537
 30
0.0
 10
11.9570039481
 20
8.626365045
 30
0.0
 10
11.9945065488
 20
8.6177242964
 30
0.0
 10
12.0256665261
 20
8.6102570564
 30
0.0
 10
12.0505292445
 20
8.6041141182
 30
0.0
 10
12.0753311676
 20
8.597859674
 30
0.0
 10
12.106251585
 20
8.5898576819
 30
0.0
 10
12.1309417792
 20
8.5833162447
 30
0.0
 10
12.1432720758
 20
8.5800283046
 30
0.0
  0
SPLINE
  5
379
100
AcDbEntity
  8
0
100
AcDbSpline
 62
9
  6
CONTINUOUS
 70
0
 71
3
 72
22
 73
18
 74
0
 42
0.0000001
 43
0.0000001
 44
0.0000000001
 40
0.0
 40
0.0
 40
0.0
 40
0.0
 40
0.0023350062
 40
0.0060310792
 40
0.0115474958
 40
0.019048054
 40
0.0286214423
 40
0.0403313132
 40
0.070366465
 40
0.1094263638
 40
0.1573181172
 40
0.213727925
 40
0.2783361293
 40
0.4300692673
 40
0.605991401
 40
0.7986384004
 40
1.0
 40
1.0
 40
1.0
 40
1.0
 10
9.5567662286
 20
7.1579838835
 30
0.0
 10
9.5567669647
 20
7.1579681985
 30
0.0
 10
9.5567925298
 20
7.1579312051
 30
0.0
 10
9.5568614697
 20
7.1578952124
 30
0.0
 10
9.5569677866
 20
7.1578575736
 30
0.0
 10
9.5571157306
 20
7.1578225294
 30
0.0
 10
9.5573063252
 20
7.1577883917
 30
0.0
 10
9.5576483107
 20
7.1577416055
 30
0.0
 10
9.558189633
 20
7.157691946
 30
0.0
 10
9.5589749708
 20
7.1576447949
 30
0.0
 10
9.5599383604
 20
7.1576071891
 30
0.0
 10
9.5610739279
 20
7.1575798394
 30
0.0
 10
9.5629079912
 20
7.1575569935
 30
0.0
 10
9.5655459592
 20
7.1575617703
 30
0.0
 10
9.5690445725
 20
7.1576088061
 30
0.0
 10
9.5728762418
 20
7.157696143
 30
0.0
 10
9.5755246618
 20
7.1577756978
 30
0.0
 10
9.5768780139
 20
7.1578206401
 30
0.0
  0
SPLINE
  5
37A
100
AcDbEntity
  8
0
100
AcDbSpline
 62
9
  6
CONTINUOUS
 70
0
 71
3
 72
30
 73
26
 74
0
 42
0.0000001
 43
0.0000001
 44
0.0000000001
 40
0.0
 40
0.0
 40
0.0
 40
0.0
 40
0.0315186389
 40
0.0630277313
 40
0.0945265183
 40
0.1102721662
 40
0.12601548
 40
0.1574947543
 40
0.188963348
 40
0.2204196868
 40
0.251861842
 40
0.3146985566
 40
0.3774679436
 40
0.4401642591
 40
0.5027794438
 40
0.6277374755
 40
0.6900706379
 40
0.7522961949
 40
0.8144072555
 40
0.8454180322
 40
0.8763985826
 40
0.9073491058
 40
0.9382689944
 40
0.9691543709
 40
1.0
 40
1.0
 40
1.0
 40
1.0
 10
10.7210644113
 20
6.0136342426
 30
0.0
 10
10.7105420618
 20
6.0142081351
 30
0.0
 10
10.6895001689
 20
6.0153487741
 30
0.0
 10
10.6579459517
 20
6.0171251596
 30
0.0
 10
10.6316642491
 20
6.0187318135
 30
0.0
 10
10.6106516732
 20
6.0201365545
 30
0.0
 10
10.5896520103
 20
6.0216335179
 30
0.0
 10
10.5634208806
 20
6.0236697264
 30
0.0
 10
10.5319719971
 20
6.0263574358
 30
0.0
 10
10.5005555746
 20
6.0292693828
 30
0.0
 10
10.4587221852
 20
6.0334191581
 30
0.0
 10
10.406521218
 20
6.0391021446
 30
0.0
 10
10.3440303114
 20
6.0467673468
 30
0.0
 10
10.2817254535
 20
6.055292269
 30
0.0
 10
10.1989818891
 20
6.0677583368
 30
0.0
 10
10.1166181349
 20
6.081884925
 30
0.0
 10
10.0346987789
 20
6.0976670928
 30
0.0
 10
9.9735785572
 20
6.1103063619
 30
0.0
 10
9.9228569677
 20
6.1214934955
 30
0.0
 10
9.8824279571
 20
6.1308289662
 30
0.0
 10
9.852200194
 20
6.1380340302
 30
0.0
 10
9.8220566252
 20
6.1454576447
 30
0.0
 10
9.792001862
 20
6.1531047104
 30
0.0
 10
9.7620266985
 20
6.1609196933
 30
0.0
 10
9.7420773924
 20
6.1662116753
 30
0.0
 10
9.7321126097
 20
6.1688688384
 30
0.0
  0
LINE
  5
37B
100
AcDbEntity
  8
0
100
AcDbLine
 62
9
  6
CONTINUOUS
 10
9.6846733706
 20
6.111567252
 11
9.7327320598
 21
6.1483511011
  0
SPLINE
  5
37C
100
AcDbEntity
  8
0
100
AcDbSpline
 62
9
  6
CONTINUOUS
 70
0
 71
3
 72
30
 73
26
 74
0
 42
0.0000001
 43
0.0000001
 44
0.0000000001
 40
0.0
 40
0.0
 40
0.0
 40
0.0
 40
0.0308559628
 40
0.0617384937
 40
0.0926521615
 40
0.1235994897
 40
0.1545795377
 40
0.1855904518
 40
0.2477002019
 40
0.3099238082
 40
0.372255072
 40
0.4346871639
 40
0.4972131145
 40
0.5598270873
 40
0.6225239946
 40
0.6852938057
 40
0.71670255
 40
0.7481261869
 40
0.7795654596
 40
0.8110208373
 40
0.8424924239
 40
0.87397912
 40
0.9054765782
 40
0.936980745
 40
1.0
 40
1.0
 40
1.0
 40
1.0
 10
9.7321126097
 20
6.1688688384
 30
0.0
 10
9.7293648761
 20
6.1788127207
 30
0.0
 10
9.7239914149
 20
6.198743551
 30
0.0
 10
9.7162313681
 20
6.2287340106
 30
0.0
 10
9.7087008109
 20
6.2588142407
 30
0.0
 10
9.701322065
 20
6.28896554
 30
0.0
 10
9.6941039175
 20
6.3191891954
 30
0.0
 10
9.6847279446
 20
6.3596087042
 30
0.0
 10
9.6735377989
 20
6.4103293832
 30
0.0
 10
9.6609162191
 20
6.4714519659
 30
0.0
 10
9.649090199
 20
6.5328433201
 30
0.0
 10
9.638078893
 20
6.5944887501
 30
0.0
 10
9.6278962697
 20
6.656372311
 30
0.0
 10
9.6185490591
 20
6.7184770172
 30
0.0
 10
9.6100120571
 20
6.7807804463
 30
0.0
 10
9.6036024654
 20
6.8328397987
 30
0.0
 10
9.5989315428
 20
6.8745740043
 30
0.0
 10
9.5956557997
 20
6.9059228345
 30
0.0
 10
9.5925853044
 20
6.9373080294
 30
0.0
 10
9.5897006134
 20
6.968726915
 30
0.0
 10
9.5869812451
 20
7.0001764085
 30
0.0
 10
9.5844073342
 20
7.0316522597
 30
0.0
 10
9.5820406827
 20
7.0631555709
 30
0.0
 10
9.5792436784
 20
7.105197216
 30
0.0
 10
9.5776424298
 20
7.1367643478
 30
0.0
 10
9.5768780139
 20
7.15782064
 30
0.0
  0
SPLINE
  5
37D
100
AcDbEntity
  8
0
100
AcDbSpline
 62
9
  6
CONTINUOUS
 70
0
 71
3
 72
18
 73
14
 74
0
 42
0.0000001
 43
0.0000001
 44
0.0000000001
 40
0.0
 40
0.0
 40
0.0
 40
0.0
 40
0.0217942362
 40
0.0463555389
 40
0.0755196359
 40
0.1106012906
 40
0.1524495046
 40
0.2013119396
 40
0.3198741832
 40
0.4646468928
 40
0.6305369584
 40
0.8112963742
 40
1.0
 40
1.0
 40
1.0
 40
1.0
 10
9.7327320015
 20
6.1483509743
 30
0.0
 10
9.7325827452
 20
6.1483912982
 30
0.0
 10
9.7322793111
 20
6.1485361254
 30
0.0
 10
9.7318873293
 20
6.1489107496
 30
0.0
 10
9.7315446141
 20
6.1494444567
 30
0.0
 10
9.7312520588
 20
6.1501407813
 30
0.0
 10
9.7310125071
 20
6.1510021592
 30
0.0
 10
9.7307473647
 20
6.1524643829
 30
0.0
 10
9.7305916025
 20
6.1546793439
 30
0.0
 10
9.7306485305
 20
6.1577257538
 30
0.0
 10
9.7309296195
 20
6.1612024665
 30
0.0
 10
9.7314230016
 20
6.1649691933
 30
0.0
 10
9.7318646277
 20
6.1675533541
 30
0.0
 10
9.7321126108
 20
6.1688688399
 30
0.0
  0
SPLINE
  5
37E
100
AcDbEntity
  8
0
100
AcDbSpline
 62
9
  6
CONTINUOUS
 70
0
 71
3
 72
22
 73
18
 74
0
 42
0.0000001
 43
0.0000001
 44
0.0000000001
 40
0.0
 40
0.0
 40
0.0
 40
0.0
 40
0.002334988
 40
0.0060310248
 40
0.0115474012
 40
0.0190479187
 40
0.028621267
 40
0.0403310994
 40
0.0703661802
 40
0.109426018
 40
0.1573177225
 40
0.2137274953
 40
0.2783356802
 40
0.4300688309
 40
0.6059910467
 40
0.7986381952
 40
1.0
 40
1.0
 40
1.0
 40
1.0
 10
10.7212276562
 20
5.9935224573
 30
0.0
 10
10.7212119713
 20
5.993523193
 30
0.0
 10
10.7211749777
 20
5.9935487572
 30
0.0
 10
10.7211389851
 20
5.9936176964
 30
0.0
 10
10.7211013462
 20
5.9937240123
 30
0.0
 10
10.7210663019
 20
5.9938719552
 30
0.0
 10
10.7210321642
 20
5.9940625488
 30
0.0
 10
10.720985378
 20
5.9944045329
 30
0.0
 10
10.7209357184
 20
5.9949458534
 30
0.0
 10
10.7208885671
 20
5.9957311892
 30
0.0
 10
10.7208509612
 20
5.9966945767
 30
0.0
 10
10.7208236114
 20
5.9978301422
 30
0.0
 10
10.7208007653
 20
5.9996642032
 30
0.0
 10
10.7208055419
 20
6.0023021688
 30
0.0
 10
10.7208525774
 20
6.0058007799
 30
0.0
 10
10.7209399141
 20
6.0096324478
 30
0.0
 10
10.7210194688
 20
6.0122808673
 30
0.0
 10
10.721064411
 20
6.0136342192
 30
0.0
  0
LINE
  5
37F
100
AcDbEntity
  8
0
100
AcDbLine
 62
9
  6
CONTINUOUS
 10
12.2005737072
 20
6.1214295405
 11
12.163789813
 21
6.1694882885
  0
SPLINE
  5
380
100
AcDbEntity
  8
0
100
AcDbSpline
 62
9
  6
CONTINUOUS
 70
0
 71
3
 72
22
 73
18
 74
0
 42
0.0000001
 43
0.0000001
 44
0.0000000001
 40
0.0
 40
0.0
 40
0.0
 40
0.0
 40
0.0023349589
 40
0.006030942
 40
0.0115472606
 40
0.0190477215
 40
0.0286210162
 40
0.0403307991
 40
0.070365795
 40
0.1094255699
 40
0.1573172342
 40
0.2137269895
 40
0.2783351794
 40
0.430068402
 40
0.6059907471
 40
0.7986380497
 40
1.0
 40
1.0
 40
1.0
 40
1.0
 10
9.5567662285
 20
7.5909132568
 30
0.0
 10
9.5567669637
 20
7.5909289415
 30
0.0
 10
9.5567925266
 20
7.5909659355
 30
0.0
 10
9.5568614649
 20
7.5910019282
 30
0.0
 10
9.5569677797
 20
7.5910395673
 30
0.0
 10
9.5571157217
 20
7.5910746116
 30
0.0
 10
9.5573063144
 20
7.5911087494
 30
0.0
 10
9.5576482976
 20
7.5911555358
 30
0.0
 10
9.5581896175
 20
7.5912051956
 30
0.0
 10
9.5589749529
 20
7.591252347
 30
0.0
 10
9.5599383408
 20
7.5912899531
 30
0.0
 10
9.5610739074
 20
7.591317303
 30
0.0
 10
9.562907971
 20
7.5913401492
 30
0.0
 10
9.5655459412
 20
7.5913353726
 30
0.0
 10
9.569044559
 20
7.591288337
 30
0.0
 10
9.5728762346
 20
7.591201
 30
0.0
 10
9.5755246593
 20
7.5911214451
 30
0.0
 10
9.5768780139
 20
7.5910765027
 30
0.0
  0
SPLINE
  5
381
100
AcDbEntity
  8
0
100
AcDbSpline
 62
9
  6
CONTINUOUS
 70
0
 71
3
 72
18
 73
14
 74
0
 42
0.0000001
 43
0.0000001
 44
0.0000000001
 40
0.0
 40
0.0
 40
0.0
 40
0.0
 40
0.0217942289
 40
0.046355532
 40
0.0755196331
 40
0.110601283
 40
0.1524494933
 40
0.2013119394
 40
0.3198742046
 40
0.4646469221
 40
0.6305369987
 40
0.8112964049
 40
1.0
 40
1.0
 40
1.0
 40
1.0
 10
9.7115947457
 20
8.5794089131
 30
0.0
 10
9.7116350694
 20
8.5795581694
 30
0.0
 10
9.7117798968
 20
8.5798616037
 30
0.0
 10
9.7121545214
 20
8.5802535856
 30
0.0
 10
9.712688229
 20
8.5805963008
 30
0.0
 10
9.713384554
 20
8.5808888563
 30
0.0
 10
9.7142459325
 20
8.5811284081
 30
0.0
 10
9.7157081575
 20
8.5813935502
 30
0.0
 10
9.7179231203
 20
8.5815493122
 30
0.0
 10
9.7209695325
 20
8.5814923838
 30
0.0
 10
9.7244462475
 20
8.581211294
 30
0.0
 10
9.7282129766
 20
8.5807179112
 30
0.0
 10
9.7307971388
 20
8.5802762845
 30
0.0
 10
9.7321126252
 20
8.5800283012
 30
0.0
  0
SPLINE
  5
382
100
AcDbEntity
  8
0
100
AcDbSpline
 62
9
  6
CONTINUOUS
 70
0
 71
3
 72
16
 73
12
 74
0
 42
0.0000001
 43
0.0000001
 44
0.0000000001
 40
0.0
 40
0.0
 40
0.0
 40
0.0
 40
0.1240132844
 40
0.2483310075
 40
0.3106074849
 40
0.3729588192
 40
0.4978726634
 40
0.6230536044
 40
0.7484827149
 40
0.8741386208
 40
1.0
 40
1.0
 40
1.0
 40
1.0
 10
9.7321126097
 20
8.5800283046
 30
0.0
 10
9.7567340268
 20
8.5868281267
 30
0.0
 10
9.8062100481
 20
8.5998236417
 30
0.0
 10
9.8684024118
 20
8.6148376593
 30
0.0
 10
9.9183750342
 20
8.6263248325
 30
0.0
 10
9.9685514232
 20
8.6374675577
 30
0.0
 10
10.0315396774
 20
8.6506750374
 30
0.0
 10
10.1075069355
 20
8.6652393127
 30
0.0
 10
10.183859496
 20
8.6785464635
 30
0.0
 10
10.2605624834
 20
8.6905952273
 30
0.0
 10
10.3118731262
 20
8.6977582449
 30
0.0
 10
10.3375770952
 20
8.7011270463
 30
0.0
  0
LINE
  5
383
100
AcDbEntity
  8
0
100
AcDbLine
 62
9
  6
CONTINUOUS
 10
9.6748115068
 20
6.1214271349
 11
9.7115947163
 21
6.1694883387
  0
SPLINE
  5
384
100
AcDbEntity
  8
0
100
AcDbSpline
 62
9
  6
CONTINUOUS
 70
0
 71
3
 72
28
 73
24
 74
0
 42
0.0000001
 43
0.0000001
 44
0.0000000001
 40
0.0
 40
0.0
 40
0.0
 40
0.0
 40
0.0630224128
 40
0.1260170683
 40
0.1574984047
 40
0.1889662459
 40
0.2518590579
 40
0.3146932257
 40
0.3774631727
 40
0.4401599423
 40
0.5027752361
 40
0.5653027021
 40
0.6277366608
 40
0.6589166171
 40
0.6900703309
 40
0.7211965336
 40
0.7522941431
 40
0.8144032179
 40
0.8454168367
 40
0.8764052951
 40
0.9073683658
 40
0.9382969015
 40
1.0
 40
1.0
 40
1.0
 40
1.0
 10
9.5768780139
 20
7.5910765029
 30
0.0
 10
9.5777737999
 20
7.6121285313
 30
0.0
 10
9.5800039585
 20
7.6542053699
 30
0.0
 10
9.5836707679
 20
7.7067376723
 30
0.0
 10
9.5869920078
 20
7.7487150718
 30
0.0
 10
9.5905589856
 20
7.7906381467
 30
0.0
 10
9.5955111673
 20
7.8429629465
 30
0.0
 10
9.602328925
 20
7.9056177554
 30
0.0
 10
9.6100183052
 20
7.9681054281
 30
0.0
 10
9.6185388213
 20
8.030411214
 30
0.0
 10
9.6278845057
 20
8.0925166954
 30
0.0
 10
9.638079039
 20
8.154399545
 30
0.0
 10
9.6472891003
 20
8.2057871777
 30
0.0
 10
9.6550470518
 20
8.2467747933
 30
0.0
 10
9.6610502402
 20
8.2774405386
 30
0.0
 10
9.6672304745
 20
8.3080430029
 30
0.0
 10
9.6756990212
 20
8.3487411807
 30
0.0
 10
9.6845790652
 20
8.3893149482
 30
0.0
 10
9.6939754745
 20
8.4297332297
 30
0.0
 10
9.701306537
 20
8.4599391056
 30
0.0
 10
9.7089334571
 20
8.4900420698
 30
0.0
 10
9.7192897855
 20
8.5300461483
 30
0.0
 10
9.7270863427
 20
8.5600199935
 30
0.0
 10
9.7321126097
 20
8.5800283046
 30
0.0
  0
SPLINE
  5
385
100
AcDbEntity
  8
0
100
AcDbSpline
 62
9
  6
CONTINUOUS
 70
0
 71
3
 72
18
 73
14
 74
0
 42
0.0000001
 43
0.0000001
 44
0.0000000001
 40
0.0
 40
0.0
 40
0.0
 40
0.0
 40
0.0217942339
 40
0.0463555388
 40
0.075519639
 40
0.1106012887
 40
0.152449497
 40
0.2013119359
 40
0.3198741847
 40
0.4646468906
 40
0.6305369609
 40
0.8112963763
 40
1.0
 40
1.0
 40
1.0
 40
1.0
 10
9.7115947456
 20
6.1694882303
 30
0.0
 10
9.7116350693
 20
6.1693389741
 30
0.0
 10
9.7117798966
 20
6.1690355399
 30
0.0
 10
9.7121545208
 20
6.1686435582
 30
0.0
 10
9.712688228
 20
6.168300843
 30
0.0
 10
9.7133845525
 20
6.1680082875
 30
0.0
 10
9.7142459304
 20
6.1677687358
 30
0.0
 10
9.7157081542
 20
6.1675035935
 30
0.0
 10
9.7179231153
 20
6.1673478313
 30
0.0
 10
9.7209695254
 20
6.1674047593
 30
0.0
 10
9.7244462382
 20
6.1676858484
 30
0.0
 10
9.7282129652
 20
6.1681792305
 30
0.0
 10
9.7307971261
 20
6.1686208566
 30
0.0
 10
9.7321126119
 20
6.1688688397
 30
0.0
  0
SPLINE
  5
386
100
AcDbEntity
  8
0
100
AcDbSpline
 62
9
  6
CONTINUOUS
 70
0
 71
3
 72
18
 73
14
 74
0
 42
0.0000001
 43
0.0000001
 44
0.0000000001
 40
0.0
 40
0.0
 40
0.0
 40
0.0
 40
0.0217942292
 40
0.0463555316
 40
0.0755196295
 40
0.1106012708
 40
0.1524494712
 40
0.2013119119
 40
0.3198741664
 40
0.464646875
 40
0.6305369566
 40
0.8112963774
 40
1.0
 40
1.0
 40
1.0
 40
1.0
 10
9.7327320158
 20
8.6005461725
 30
0.0
 10
9.7325827595
 20
8.6005058489
 30
0.0
 10
9.7322793252
 20
8.6003610217
 30
0.0
 10
9.7318873433
 20
8.5999863974
 30
0.0
 10
9.731544628
 20
8.5994526902
 30
0.0
 10
9.7312520724
 20
8.5987563657
 30
0.0
 10
9.7310125206
 20
8.5978949877
 30
0.0
 10
9.7307473784
 20
8.5964327634
 30
0.0
 10
9.7305916161
 20
8.5942178016
 30
0.0
 10
9.7306485442
 20
8.5911713906
 30
0.0
 10
9.7309296336
 20
8.5876946766
 30
0.0
 10
9.7314230159
 20
8.5839279484
 30
0.0
 10
9.7318646423
 20
8.5813437868
 30
0.0
 10
9.7321126255
 20
8.5800283007
 30
0.0
  0
SPLINE
  5
387
100
AcDbEntity
  8
0
100
AcDbSpline
 62
9
  6
CONTINUOUS
 70
0
 71
3
 72
22
 73
18
 74
0
 42
0.0000001
 43
0.0000001
 44
0.0000000001
 40
0.0
 40
0.0
 40
0.0
 40
0.0
 40
0.0023351271
 40
0.0060314299
 40
0.0115480968
 40
0.0190489034
 40
0.0286225304
 40
0.0403326264
 40
0.0703681765
 40
0.1094283915
 40
0.1573203725
 40
0.2137303146
 40
0.2783385556
 40
0.4300714773
 40
0.6059930711
 40
0.7986392961
 40
1.0
 40
1.0
 40
1.0
 40
1.0
 10
11.1541570367
 20
5.9935224576
 30
0.0
 10
11.1541727224
 20
5.993523196
 30
0.0
 10
11.1542097143
 20
5.9935487666
 30
0.0
 10
11.1542457066
 20
5.9936177105
 30
0.0
 10
11.154283345
 20
5.993724033
 30
0.0
 10
11.1543183889
 20
5.993871982
 30
0.0
 10
11.1543525261
 20
5.9940625815
 30
0.0
 10
11.1543993117
 20
5.9944045728
 30
0.0
 10
11.1544489705
 20
5.9949459013
 30
0.0
 10
11.1544961209
 20
5.9957312453
 30
0.0
 10
11.1545337261
 20
5.9966946392
 30
0.0
 10
11.1545610751
 20
5.997830209
 30
0.0
 10
11.1545839203
 20
5.9996642715
 30
0.0
 10
11.1545791429
 20
6.0023022338
 30
0.0
 10
11.1545321069
 20
6.0058008358
 30
0.0
 10
11.1544447701
 20
6.009632489
 30
0.0
 10
11.1543652156
 20
6.012280897
 30
0.0
 10
11.1543202736
 20
6.0136342426
 30
0.0
  0
SPLINE
  5
388
100
AcDbEntity
  8
0
100
AcDbSpline
 62
9
  6
CONTINUOUS
 70
0
 71
3
 72
27
 73
23
 74
0
 42
0.0000001
 43
0.0000001
 44
0.0000000001
 40
0.0
 40
0.0
 40
0.0
 40
0.0
 40
0.0617432365
 40
0.123607178
 40
0.1545865888
 40
0.1855973487
 40
0.2477085001
 40
0.3099329677
 40
0.3722646858
 40
0.4346975324
 40
0.4972247202
 40
0.5598390636
 40
0.6225339486
 40
0.6853039843
 40
0.7167155427
 40
0.7481433541
 40
0.8110406302
 40
0.8425076346
 40
0.8739853294
 40
0.9054735838
 40
0.9369726583
 40
1.0
 40
1.0
 40
1.0
 40
1.0
 10
12.1432720758
 20
6.1688688384
 30
0.0
 10
12.1233735829
 20
6.1633733703
 30
0.0
 10
12.0834248592
 20
6.1527774964
 30
0.0
 10
12.0332484137
 20
6.1403738625
 30
0.0
 10
11.9929497174
 20
6.1308450476
 30
0.0
 10
11.9525154698
 20
6.1215334745
 30
0.0
 10
11.9017974662
 20
6.1103313564
 30
0.0
 10
11.8406830123
 20
6.0976672572
 30
0.0
 10
11.7792919111
 20
6.0858375693
 30
0.0
 10
11.7176451404
 20
6.074831445
 30
0.0
 10
11.655761975
 20
6.0646443181
 30
0.0
 10
11.5936586893
 20
6.0552905055
 30
0.0
 10
11.5313514998
 20
6.046786273
 30
0.0
 10
11.4792904706
 20
6.0403926299
 30
0.0
 10
11.4375588638
 20
6.0356800171
 30
0.0
 10
11.3957555633
 20
6.0312312836
 30
0.0
 10
11.3538886023
 20
6.0272119526
 30
0.0
 10
11.3119629895
 20
6.0236728845
 30
0.0
 10
11.2804807699
 20
6.0212755792
 30
0.0
 10
11.2489697303
 20
6.019130529
 30
0.0
 10
11.2069181079
 20
6.0165246884
 30
0.0
 10
11.1753619157
 20
6.0147786012
 30
0.0
 10
11.1543202742
 20
6.0136342426
 30
0.0
  0
SPLINE
  5
389
100
AcDbEntity
  8
0
100
AcDbSpline
 62
9
  6
CONTINUOUS
 70
0
 71
3
 72
28
 73
24
 74
0
 42
0.0000001
 43
0.0000001
 44
0.0000000001
 40
0.0
 40
0.0
 40
0.0
 40
0.0
 40
0.0630224128
 40
0.1260170683
 40
0.1574984047
 40
0.1889662459
 40
0.2518590579
 40
0.3146932257
 40
0.3774631727
 40
0.4401599423
 40
0.5027752361
 40
0.5653027021
 40
0.6277366608
 40
0.6589166171
 40
0.6900703309
 40
0.7211965336
 40
0.7522941431
 40
0.8144032179
 40
0.8454168367
 40
0.8764052951
 40
0.9073683658
 40
0.9382969015
 40
1.0
 40
1.0
 40
1.0
 40
1.0
 10
12.2985066716
 20
7.15782064
 30
0.0
 10
12.2976108856
 20
7.1367686117
 30
0.0
 10
12.295380727
 20
7.0946917731
 30
0.0
 10
12.2917139176
 20
7.0421594707
 30
0.0
 10
12.2883926777
 20
7.0001820712
 30
0.0
 10
12.2848256999
 20
6.9582589962
 30
0.0
 10
12.2798735182
 20
6.9059341965
 30
0.0
 10
12.2730557605
 20
6.8432793876
 30
0.0
 10
12.2653663803
 20
6.7807917149
 30
0.0
 10
12.2568458642
 20
6.718485929
 30
0.0
 10
12.2475001798
 20
6.6563804475
 30
0.0
 10
12.2373056465
 20
6.594497598
 30
0.0
 10
12.2280955852
 20
6.5431099653
 30
0.0
 10
12.2203376337
 20
6.5021223496
 30
0.0
 10
12.2143344453
 20
6.4714566043
 30
0.0
 10
12.2081542109
 20
6.4408541401
 30
0.0
 10
12.1996856642
 20
6.4001559622
 30
0.0
 10
12.1908056203
 20
6.3595821947
 30
0.0
 10
12.181409211
 20
6.3191639133
 30
0.0
 10
12.1740781484
 20
6.2889580374
 30
0.0
 10
12.1664512284
 20
6.2588550732
 30
0.0
 10
12.1560949
 20
6.2188509946
 30
0.0
 10
12.1482983428
 20
6.1888771494
 30
0.0
 10
12.1432720758
 20
6.1688688384
 30
0.0
  0
SPLINE
  5
38A
100
AcDbEntity
  8
0
100
AcDbSpline
 62
9
  6
CONTINUOUS
 70
0
 71
3
 72
18
 73
14
 74
0
 42
0.0000001
 43
0.0000001
 44
0.0000000001
 40
0.0
 40
0.0
 40
0.0
 40
0.0
 40
0.0217942289
 40
0.046355532
 40
0.0755196331
 40
0.110601283
 40
0.1524494933
 40
0.2013119394
 40
0.3198742046
 40
0.4646469221
 40
0.6305369987
 40
0.8112964049
 40
1.0
 40
1.0
 40
1.0
 40
1.0
 10
12.1637899398
 20
6.1694882299
 30
0.0
 10
12.1637496161
 20
6.1693389736
 30
0.0
 10
12.1636047887
 20
6.1690355392
 30
0.0
 10
12.1632301641
 20
6.1686435574
 30
0.0
 10
12.1626964565
 20
6.1683008421
 30
0.0
 10
12.1620001315
 20
6.1680082866
 30
0.0
 10
12.161138753
 20
6.1677687349
 30
0.0
 10
12.159676528
 20
6.1675035927
 30
0.0
 10
12.1574615652
 20
6.1673478308
 30
0.0
 10
12.154415153
 20
6.1674047592
 30
0.0
 10
12.150938438
 20
6.167685849
 30
0.0
 10
12.1471717089
 20
6.1681792317
 30
0.0
 10
12.1445875467
 20
6.1686208584
 30
0.0
 10
12.1432720603
 20
6.1688688418
 30
0.0
  0
SPLINE
  5
38B
100
AcDbEntity
  8
0
100
AcDbSpline
 62
9
  6
CONTINUOUS
 70
0
 71
3
 72
22
 73
18
 74
0
 42
0.0000001
 43
0.0000001
 44
0.0000000001
 40
0.0
 40
0.0
 40
0.0
 40
0.0
 40
0.0023349589
 40
0.006030942
 40
0.0115472606
 40
0.0190477215
 40
0.0286210162
 40
0.0403307991
 40
0.070365795
 40
0.1094255699
 40
0.1573172342
 40
0.2137269895
 40
0.2783351794
 40
0.430068402
 40
0.6059907471
 40
0.7986380497
 40
1.0
 40
1.0
 40
1.0
 40
1.0
 10
12.318618457
 20
7.1579838862
 30
0.0
 10
12.3186177218
 20
7.1579682015
 30
0.0
 10
12.3185921589
 20
7.1579312074
 30
0.0
 10
12.3185232205
 20
7.1578952147
 30
0.0
 10
12.3184169058
 20
7.1578575757
 30
0.0
 10
12.3182689638
 20
7.1578225314
 30
0.0
 10
12.3180783711
 20
7.1577883936
 30
0.0
 10
12.3177363878
 20
7.1577416071
 30
0.0
 10
12.317195068
 20
7.1576919473
 30
0.0
 10
12.3164097326
 20
7.1576447959
 30
0.0
 10
12.3154463447
 20
7.1576071898
 30
0.0
 10
12.3143107781
 20
7.1575798399
 30
0.0
 10
12.3124767145
 20
7.1575569937
 30
0.0
 10
12.3098387443
 20
7.1575617703
 30
0.0
 10
12.3063401265
 20
7.157608806
 30
0.0
 10
12.3025084509
 20
7.1576961429
 30
0.0
 10
12.2998600262
 20
7.1577756979
 30
0.0
 10
12.2985066716
 20
7.1578206402
 30
0.0
  0
SPLINE
  5
38C
100
AcDbEntity
  8
0
100
AcDbSpline
 62
9
  6
CONTINUOUS
 70
0
 71
3
 72
18
 73
14
 74
0
 42
0.0000001
 43
0.0000001
 44
0.0000000001
 40
0.0
 40
0.0
 40
0.0
 40
0.0
 40
0.0217942292
 40
0.0463555316
 40
0.0755196295
 40
0.1106012708
 40
0.1524494712
 40
0.2013119119
 40
0.3198741664
 40
0.464646875
 40
0.6305369566
 40
0.8112963774
 40
1.0
 40
1.0
 40
1.0
 40
1.0
 10
12.1426526697
 20
6.1483509705
 30
0.0
 10
12.142801926
 20
6.1483912941
 30
0.0
 10
12.1431053603
 20
6.1485361212
 30
0.0
 10
12.1434973422
 20
6.1489107455
 30
0.0
 10
12.1438400574
 20
6.1494444527
 30
0.0
 10
12.144132613
 20
6.1501407773
 30
0.0
 10
12.1443721649
 20
6.1510021552
 30
0.0
 10
12.1446373071
 20
6.1524643795
 30
0.0
 10
12.1447930694
 20
6.1546793414
 30
0.0
 10
12.1447361413
 20
6.1577257524
 30
0.0
 10
12.1444550519
 20
6.1612024663
 30
0.0
 10
12.1439616696
 20
6.1649691945
 30
0.0
 10
12.1435200431
 20
6.1675533562
 30
0.0
 10
12.1432720599
 20
6.1688688423
 30
0.0
  0
LINE
  5
38D
100
AcDbEntity
  8
0
100
AcDbLine
 62
9
  6
CONTINUOUS
 10
12.1907137792
 20
6.1115677356
 11
12.1426525754
 21
6.148350945
  0
SPLINE
  5
38E
100
AcDbEntity
  8
0
100
AcDbSpline
 62
9
  6
CONTINUOUS
 70
0
 71
3
 72
9
 73
5
 74
0
 42
0.0000001
 43
0.0000001
 44
0.0000000001
 40
0.0
 40
0.0
 40
0.0
 40
0.0
 40
0.496835455
 40
1.0
 40
1.0
 40
1.0
 40
1.0
 10
10.9880399377
 20
12.2273644553
 30
0.0
 10
10.9797305148
 20
12.2265531843
 30
0.0
 10
10.9629539857
 20
12.2254310695
 30
0.0
 10
10.9461476305
 20
12.2251131954
 30
0.0
 10
10.9376923427
 20
12.2251131964
 30
0.0
  0
SPLINE
  5
38F
100
AcDbEntity
  8
0
100
AcDbSpline
 62
9
  6
CONTINUOUS
 70
0
 71
3
 72
17
 73
13
 74
0
 42
0.0000001
 43
0.0000001
 44
0.0000000001
 40
0.0
 40
0.0
 40
0.0
 40
0.0
 40
0.0301524786
 40
0.0642348486
 40
0.1447097792
 40
0.1912343447
 40
0.241936813
 40
0.3560970022
 40
0.4882968646
 40
0.6399811162
 40
0.8110603224
 40
1.0
 40
1.0
 40
1.0
 40
1.0
 10
11.1351526295
 20
12.2273644208
 30
0.0
 10
11.1349407861
 20
12.2275440357
 30
0.0
 10
11.1344643546
 20
12.2278972762
 30
0.0
 10
11.1333231086
 20
12.2285883306
 30
0.0
 10
11.1319732372
 20
12.2292141411
 30
0.0
 10
11.1304486911
 20
12.2298096973
 30
0.0
 10
11.1286101713
 20
12.2304523241
 30
0.0
 10
11.1259812724
 20
12.2312197786
 30
0.0
 10
11.1223916809
 20
12.2319846563
 30
0.0
 10
11.1182337582
 20
12.2325362163
 30
0.0
 10
11.1135308103
 20
12.2328755622
 30
0.0
 10
11.1102154506
 20
12.232978349
 30
0.0
 10
11.1084753342
 20
12.2330070828
 30
0.0
  0
SPLINE
  5
390
100
AcDbEntity
  8
0
100
AcDbSpline
 62
9
  6
CONTINUOUS
 70
0
 71
3
 72
12
 73
8
 74
0
 42
0.0000001
 43
0.0000001
 44
0.0000000001
 40
0.0
 40
0.0
 40
0.0
 40
0.0
 40
0.112695368
 40
0.2301501957
 40
0.4767394683
 40
0.7348863261
 40
1.0
 40
1.0
 40
1.0
 40
1.0
 10
11.0585722421
 20
12.2330070828
 30
0.0
 10
11.0559131025
 20
12.2330070439
 30
0.0
 10
11.050482284
 20
12.2329075124
 30
0.0
 10
11.0392445974
 20
12.2323776924
 30
0.0
 10
11.0246086511
 20
12.2311825914
 30
0.0
 10
11.006542866
 20
12.2292857138
 30
0.0
 10
10.9942659048
 20
12.2279723602
 30
0.0
 10
10.9880399377
 20
12.2273644551
 30
0.0
  0
SPLINE
  5
391
100
AcDbEntity
  8
0
100
AcDbSpline
 62
9
  6
CONTINUOUS
 70
0
 71
3
 72
11
 73
7
 74
0
 42
0.0000001
 43
0.0000001
 44
0.0000000001
 40
0.0
 40
0.0
 40
0.0
 40
0.0
 40
0.2496636152
 40
0.4996196284
 40
0.749764283
 40
1.0
 40
1.0
 40
1.0
 40
1.0
 10
10.990646487
 20
12.2038854295
 30
0.0
 10
10.9862758196
 20
12.2032131156
 30
0.0
 10
10.9774960744
 20
12.2020778256
 30
0.0
 10
10.9642637662
 20
12.2009186147
 30
0.0
 10
10.950988072
 20
12.2002456536
 30
0.0
 10
10.94212455
 20
12.2000992239
 30
0.0
 10
10.9376923427
 20
12.2000992229
 30
0.0
  0
SPLINE
  5
392
100
AcDbEntity
  8
0
100
AcDbSpline
 62
9
  6
CONTINUOUS
 70
0
 71
3
 72
11
 73
7
 74
0
 42
0.0000001
 43
0.0000001
 44
0.0000000001
 40
0.0
 40
0.0
 40
0.0
 40
0.0
 40
0.2008474927
 40
0.4455719473
 40
0.7189618658
 40
1.0
 40
1.0
 40
1.0
 40
1.0
 10
10.9880399395
 20
12.2273644554
 30
0.0
 10
10.9881228033
 20
12.2257845964
 30
0.0
 10
10.9883858255
 20
12.222284007
 30
0.0
 10
10.9889518085
 20
12.2166488939
 30
0.0
 10
10.9897165629
 20
12.210400348
 30
0.0
 10
10.9903207311
 20
12.2060750042
 30
0.0
 10
10.9906464852
 20
12.2038854292
 30
0.0
  0
SPLINE
  5
393
100
AcDbEntity
  8
0
100
AcDbSpline
 62
9
  6
CONTINUOUS
 70
0
 71
3
 72
10
 73
6
 74
0
 42
0.0000001
 43
0.0000001
 44
0.0000000001
 40
0.0
 40
0.0
 40
0.0
 40
0.0
 40
0.2503414061
 40
0.5007296851
 40
1.0
 40
1.0
 40
1.0
 40
1.0
 10
10.9906464872
 20
12.2038854324
 30
0.0
 10
10.9998825225
 20
12.2016791029
 30
0.0
 10
11.0181197309
 20
12.1962286482
 30
0.0
 10
11.0533438759
 20
12.1820629763
 30
0.0
 10
11.0784917219
 20
12.1685913784
 30
0.0
 10
11.0947505739
 20
12.1588802283
 30
0.0
  0
LINE
  5
394
100
AcDbEntity
  8
0
100
AcDbLine
 62
7
  6
CONTINUOUS
 10
10.746708494
 20
10.6209295912
 11
10.7805952242
 21
12.1588845877
  0
SPLINE
  5
395
100
AcDbEntity
  8
0
100
AcDbSpline
 62
9
  6
CONTINUOUS
 70
0
 71
3
 72
10
 73
6
 74
0
 42
0.0000001
 43
0.0000001
 44
0.0000000001
 40
0.0
 40
0.0
 40
0.0
 40
0.0
 40
0.4992598439
 40
0.7496472413
 40
1.0
 40
1.0
 40
1.0
 40
1.0
 10
10.780634023
 20
12.1588803852
 30
0.0
 10
10.7968925444
 20
12.168591307
 30
0.0
 10
10.8220399589
 20
12.1820627555
 30
0.0
 10
10.8572640086
 20
12.1962286608
 30
0.0
 10
10.8755016109
 20
12.2016791812
 30
0.0
 10
10.8847380572
 20
12.2038856352
 30
0.0
  0
SPLINE
  5
396
100
AcDbEntity
  8
0
100
AcDbSpline
 62
9
  6
CONTINUOUS
 70
0
 71
3
 72
11
 73
7
 74
0
 42
0.0000001
 43
0.0000001
 44
0.0000000001
 40
0.0
 40
0.0
 40
0.0
 40
0.0
 40
0.2502366287
 40
0.50038314
 40
0.7503374317
 40
1.0
 40
1.0
 40
1.0
 40
1.0
 10
10.9376923427
 20
12.2000992229
 30
0.0
 10
10.9332601122
 20
12.200099228
 30
0.0
 10
10.9243965294
 20
12.2002458834
 30
0.0
 10
10.9111208011
 20
12.2009188585
 30
0.0
 10
10.8978884695
 20
12.2020778639
 30
0.0
 10
10.8891087535
 20
12.2032131279
 30
0.0
 10
10.8847380998
 20
12.2038854554
 30
0.0
  0
SPLINE
  5
397
100
AcDbEntity
  8
0
100
AcDbSpline
 62
9
  6
CONTINUOUS
 70
0
 71
3
 72
11
 73
7
 74
0
 42
0.0000001
 43
0.0000001
 44
0.0000000001
 40
0.0
 40
0.0
 40
0.0
 40
0.0
 40
0.2172090171
 40
0.4607051049
 40
0.724988751
 40
1.0
 40
1.0
 40
1.0
 40
1.0
 10
10.8160762929
 20
12.193838235
 30
0.0
 10
10.8167910785
 20
12.195181744
 30
0.0
 10
10.8180905017
 20
12.1981490099
 30
0.0
 10
10.8195328065
 20
12.2030320302
 30
0.0
 10
10.8204423375
 20
12.2084525292
 30
0.0
 10
10.8206588383
 20
12.212233817
 30
0.0
 10
10.8206588466
 20
12.2141606132
 30
0.0
  0
SPLINE
  5
398
100
AcDbEntity
  8
0
100
AcDbSpline
 62
9
  6
CONTINUOUS
 70
0
 71
3
 72
11
 73
7
 74
0
 42
0.0000001
 43
0.0000001
 44
0.0000000001
 40
0.0
 40
0.0
 40
0.0
 40
0.0
 40
0.2125561386
 40
0.4635799346
 40
0.7329199142
 40
1.0
 40
1.0
 40
1.0
 40
1.0
 10
10.8873447124
 20
12.2273644587
 30
0.0
 10
10.8872570193
 20
12.2256925094
 30
0.0
 10
10.8869785682
 20
12.22205075
 30
0.0
 10
10.8863942816
 20
12.2163070476
 30
0.0
 10
10.8856346609
 20
12.2101508358
 30
0.0
 10
10.8850477624
 20
12.2059663609
 30
0.0
 10
10.8847381898
 20
12.2038855453
 30
0.0
  0
SPLINE
  5
399
100
AcDbEntity
  8
0
100
AcDbSpline
 62
9
  6
CONTINUOUS
 70
0
 71
3
 72
11
 73
7
 74
0
 42
0.0000001
 43
0.0000001
 44
0.0000000001
 40
0.0
 40
0.0
 40
0.0
 40
0.0
 40
0.2340145835
 40
0.4794806255
 40
0.734963294
 40
1.0
 40
1.0
 40
1.0
 40
1.0
 10
10.8160762242
 20
12.1938381734
 30
0.0
 10
10.8213157226
 20
12.1952252359
 30
0.0
 10
10.8321667622
 20
12.1976369281
 30
0.0
 10
10.848977456
 20
12.2003518506
 30
0.0
 10
10.8666013658
 20
12.202422752
 30
0.0
 10
10.8786159232
 20
12.20343823
 30
0.0
 10
10.8847380938
 20
12.2038855383
 30
0.0
  0
SPLINE
  5
39A
100
AcDbEntity
  8
0
100
AcDbSpline
 62
9
  6
CONTINUOUS
 70
0
 71
3
 72
12
 73
8
 74
0
 42
0.0000001
 43
0.0000001
 44
0.0000000001
 40
0.0
 40
0.0
 40
0.0
 40
0.0
 40
0.2492850006
 40
0.4990475345
 40
0.6241096636
 40
0.7492771412
 40
1.0
 40
1.0
 40
1.0
 40
1.0
 10
10.7745911702
 20
12.1718055231
 30
0.0
 10
10.7779499778
 20
12.1737967378
 30
0.0
 10
10.7847204559
 20
12.177705081
 30
0.0
 10
10.7932921483
 20
12.1824070349
 30
0.0
 10
10.8002257153
 20
12.1860489365
 30
0.0
 10
10.8072209256
 20
12.189604255
 30
0.0
 10
10.8125217376
 20
12.1921687145
 30
0.0
 10
10.816076406
 20
12.1938382191
 30
0.0
  0
SPLINE
  5
39B
100
AcDbEntity
  8
0
100
AcDbSpline
 62
9
  6
CONTINUOUS
 70
0
 71
3
 72
11
 73
7
 74
0
 42
0.0000001
 43
0.0000001
 44
0.0000000001
 40
0.0
 40
0.0
 40
0.0
 40
0.0
 40
0.2340983171
 40
0.4825365758
 40
0.7404204433
 40
1.0
 40
1.0
 40
1.0
 40
1.0
 10
10.76556101
 20
12.1588802251
 30
0.0
 10
10.7657592909
 20
12.1601294505
 30
0.0
 10
10.7664965228
 20
12.1626585957
 30
0.0
 10
10.7684379043
 20
12.1661918237
 30
0.0
 10
10.7711885471
 20
12.1693217638
 30
0.0
 10
10.7734084028
 20
12.1710517847
 30
0.0
 10
10.7745911878
 20
12.1718055374
 30
0.0
  0
SPLINE
  5
39C
100
AcDbEntity
  8
0
100
AcDbSpline
 62
9
  6
CONTINUOUS
 70
0
 71
3
 72
12
 73
8
 74
0
 42
0.0000001
 43
0.0000001
 44
0.0000000001
 40
0.0
 40
0.0
 40
0.0
 40
0.0
 40
0.0888361944
 40
0.1913805467
 40
0.4318335898
 40
0.7080627169
 40
1.0
 40
1.0
 40
1.0
 40
1.0
 10
10.7745911883
 20
12.171805536
 30
0.0
 10
10.7747069806
 20
12.1713983165
 30
0.0
 10
10.7749860152
 20
12.1705294214
 30
0.0
 10
10.7757036864
 20
12.1686001812
 30
0.0
 10
10.7768874908
 20
12.1658944439
 30
0.0
 10
10.7786201377
 20
12.1624510557
 30
0.0
 10
10.7799350825
 20
12.1600831346
 30
0.0
 10
10.7806341317
 20
12.1588802359
 30
0.0
  0
LINE
  5
39D
100
AcDbEntity
  8
0
100
AcDbLine
 62
7
  6
CONTINUOUS
 10
10.7657258075
 20
12.1588758755
 11
10.7805952242
 21
12.1588845877
  0
LINE
  5
39E
100
AcDbEntity
  8
0
100
AcDbLine
 62
7
  6
CONTINUOUS
 10
10.7322770121
 20
10.6209381243
 11
10.7657258075
 21
12.1588758755
  0
SPLINE
  5
39F
100
AcDbEntity
  8
0
100
AcDbSpline
 62
9
  6
CONTINUOUS
 70
0
 71
3
 72
13
 73
9
 74
0
 42
0.0000001
 43
0.0000001
 44
0.0000000001
 40
0.0
 40
0.0
 40
0.0
 40
0.0
 40
0.2354283783
 40
0.357546181
 40
0.4822578489
 40
0.7382199785
 40
0.8687407223
 40
1.0
 40
1.0
 40
1.0
 40
1.0
 10
10.6960277636
 20
10.490048747
 30
0.0
 10
10.7015373915
 20
10.4993074641
 30
0.0
 10
10.7089539391
 20
10.5139616764
 30
0.0
 10
10.7169911568
 20
10.5345272222
 30
0.0
 10
10.7239778515
 20
10.5564644788
 30
0.0
 10
10.7289096596
 20
10.5794109207
 30
0.0
 10
10.7316650765
 20
10.6029549665
 30
0.0
 10
10.7323009179
 20
10.614928391
 30
0.0
 10
10.7324269471
 20
10.6209339577
 30
0.0
  0
LINE
  5
3A0
100
AcDbEntity
  8
0
100
AcDbLine
 62
9
  6
CONTINUOUS
 10
10.732427348
 20
10.6209339808
 11
10.7466656285
 21
10.6209340022
  0
SPLINE
  5
3A1
100
AcDbEntity
  8
0
100
AcDbSpline
 62
9
  6
CONTINUOUS
 70
0
 71
3
 72
9
 73
5
 74
0
 42
0.0000001
 43
0.0000001
 44
0.0000000001
 40
0.0
 40
0.0
 40
0.0
 40
0.0
 40
0.5020501085
 40
1.0
 40
1.0
 40
1.0
 40
1.0
 10
10.6921380238
 20
10.4779631582
 30
0.0
 10
10.6921380238
 20
10.4801141795
 30
0.0
 10
10.6928056616
 20
10.4844253059
 30
0.0
 10
10.6947743853
 20
10.4883220361
 30
0.0
 10
10.6960275165
 20
10.4900486769
 30
0.0
  0
SPLINE
  5
3A2
100
AcDbEntity
  8
0
100
AcDbSpline
 62
9
  6
CONTINUOUS
 70
0
 71
3
 72
9
 73
5
 74
0
 42
0.0000001
 43
0.0000001
 44
0.0000000001
 40
0.0
 40
0.0
 40
0.0
 40
0.0
 40
0.4586555633
 40
1.0
 40
1.0
 40
1.0
 40
1.0
 10
10.6960275152
 20
10.4900486622
 30
0.0
 10
10.6966545588
 20
10.4903869414
 30
0.0
 10
10.698155493
 20
10.4908754956
 30
0.0
 10
10.6997133453
 20
10.4910034954
 30
0.0
 10
10.7005542657
 20
10.4910034965
 30
0.0
  0
SPLINE
  5
3A3
100
AcDbEntity
  8
0
100
AcDbSpline
 62
9
  6
CONTINUOUS
 70
0
 71
3
 72
9
 73
5
 74
0
 42
0.0000001
 43
0.0000001
 44
0.0000000001
 40
0.0
 40
0.0
 40
0.0
 40
0.0
 40
0.479312886
 40
1.0
 40
1.0
 40
1.0
 40
1.0
 10
10.7005542595
 20
10.4910034863
 30
0.0
 10
10.701542517
 20
10.4910034875
 30
0.0
 10
10.7036047937
 20
10.4908049967
 30
0.0
 10
10.7056189707
 20
10.4903437444
 30
0.0
 10
10.7066511859
 20
10.4900486667
 30
0.0
  0
SPLINE
  5
3A4
100
AcDbEntity
  8
0
100
AcDbSpline
 62
9
  6
CONTINUOUS
 70
0
 71
3
 72
10
 73
6
 74
0
 42
0.0000001
 43
0.0000001
 44
0.0000000001
 40
0.0
 40
0.0
 40
0.0
 40
0.0
 40
0.2284339378
 40
0.4752118182
 40
1.0
 40
1.0
 40
1.0
 40
1.0
 10
10.7066511842
 20
10.4900486805
 30
0.0
 10
10.706452074
 20
10.4891442539
 30
0.0
 10
10.7061067394
 20
10.4872472391
 30
0.0
 10
10.7056119671
 20
10.4832221744
 30
0.0
 10
10.7054713581
 20
10.4800906799
 30
0.0
 10
10.7054713581
 20
10.4779631582
 30
0.0
  0
SPLINE
  5
3A5
100
AcDbEntity
  8
0
100
AcDbSpline
 62
9
  6
CONTINUOUS
 70
0
 71
3
 72
12
 73
8
 74
0
 42
0.0000001
 43
0.0000001
 44
0.0000000001
 40
0.0
 40
0.0
 40
0.0
 40
0.0
 40
0.2386033374
 40
0.4860365103
 40
0.6127864883
 40
0.7410405246
 40
1.0
 40
1.0
 40
1.0
 40
1.0
 10
10.7066510924
 20
10.4900488342
 30
0.0
 10
10.7126618892
 20
10.499282301
 30
0.0
 10
10.723602212
 20
10.5189698391
 30
0.0
 10
10.7338924187
 20
10.5454273588
 30
0.0
 10
10.7400168267
 20
10.5678227567
 30
0.0
 10
10.7446913871
 20
10.5911030184
 30
0.0
 10
10.7463910776
 20
10.6089796691
 30
0.0
 10
10.7466684293
 20
10.6209339591
 30
0.0
  0
SPLINE
  5
3A6
100
AcDbEntity
  8
0
100
AcDbSpline
 62
9
  6
CONTINUOUS
 70
0
 71
3
 72
13
 73
9
 74
0
 42
0.0000001
 43
0.0000001
 44
0.0000000001
 40
0.0
 40
0.0
 40
0.0
 40
0.0
 40
0.2380591351
 40
0.4853623245
 40
0.6120620393
 40
0.7403682702
 40
0.8698942577
 40
1.0
 40
1.0
 40
1.0
 40
1.0
 10
11.168733484
 20
10.490048747
 30
0.0
 10
11.1627352287
 20
10.4992627632
 30
0.0
 10
11.1518062081
 20
10.5189255272
 30
0.0
 10
11.1415259167
 20
10.5453559185
 30
0.0
 10
11.1353714493
 20
10.567739196
 30
0.0
 10
11.1318579025
 20
10.5851628058
 30
0.0
 10
11.1295588367
 20
10.6029450071
 30
0.0
 10
11.1288555092
 20
10.6149268288
 30
0.0
 10
11.1287161787
 20
10.6209339577
 30
0.0
  0
LINE
  5
3A7
100
AcDbEntity
  8
0
100
AcDbLine
 62
9
  6
CONTINUOUS
 10
11.1287176983
 20
10.6209339808
 11
11.1429569788
 21
10.6209340022
  0
SPLINE
  5
3A8
100
AcDbEntity
  8
0
100
AcDbSpline
 62
9
  6
CONTINUOUS
 70
0
 71
3
 72
10
 73
6
 74
0
 42
0.0000001
 43
0.0000001
 44
0.0000000001
 40
0.0
 40
0.0
 40
0.0
 40
0.0
 40
0.5247880664
 40
0.7715660052
 40
1.0
 40
1.0
 40
1.0
 40
1.0
 10
11.1699133253
 20
10.4779631582
 30
0.0
 10
11.1699133253
 20
10.4800906788
 30
0.0
 10
11.1697727199
 20
10.4832221723
 30
0.0
 10
11.1692779462
 20
10.4872472358
 30
0.0
 10
11.1689326107
 20
10.4891442503
 30
0.0
 10
11.1687335006
 20
10.4900486769
 30
0.0
  0
SPLINE
  5
3A9
100
AcDbEntity
  8
0
100
AcDbSpline
 62
9
  6
CONTINUOUS
 70
0
 71
3
 72
9
 73
5
 74
0
 42
0.0000001
 43
0.0000001
 44
0.0000000001
 40
0.0
 40
0.0
 40
0.0
 40
0.0
 40
0.5274765341
 40
1.0
 40
1.0
 40
1.0
 40
1.0
 10
11.1687335055
 20
10.4900486622
 30
0.0
 10
11.1697791784
 20
10.49034759
 30
0.0
 10
11.1717939538
 20
10.4908073105
 30
0.0
 10
11.1738561618
 20
10.4910034953
 30
0.0
 10
11.1748304198
 20
10.4910034965
 30
0.0
  0
SPLINE
  5
3AA
100
AcDbEntity
  8
0
100
AcDbSpline
 62
9
  6
CONTINUOUS
 70
0
 71
3
 72
9
 73
5
 74
0
 42
0.0000001
 43
0.0000001
 44
0.0000000001
 40
0.0
 40
0.0
 40
0.0
 40
0.0
 40
0.5480999433
 40
1.0
 40
1.0
 40
1.0
 40
1.0
 10
11.174830426
 20
10.4910034863
 30
0.0
 10
11.1756818577
 20
10.4910034873
 30
0.0
 10
11.177240338
 20
10.4908744271
 30
0.0
 10
11.1787393343
 20
10.4903819695
 30
0.0
 10
11.1793571551
 20
10.4900486667
 30
0.0
  0
SPLINE
  5
3AB
100
AcDbEntity
  8
0
100
AcDbSpline
 62
9
  6
CONTINUOUS
 70
0
 71
3
 72
9
 73
5
 74
0
 42
0.0000001
 43
0.0000001
 44
0.0000000001
 40
0.0
 40
0.0
 40
0.0
 40
0.0
 40
0.4979498271
 40
1.0
 40
1.0
 40
1.0
 40
1.0
 10
11.1793571659
 20
10.4900486805
 30
0.0
 10
11.1806102976
 20
10.4883220395
 30
0.0
 10
11.1825790242
 20
10.4844253089
 30
0.0
 10
11.1832466611
 20
10.4801141806
 30
0.0
 10
11.1832466611
 20
10.4779631582
 30
0.0
  0
SPLINE
  5
3AC
100
AcDbEntity
  8
0
100
AcDbSpline
 62
9
  6
CONTINUOUS
 70
0
 71
3
 72
11
 73
7
 74
0
 42
0.0000001
 43
0.0000001
 44
0.0000000001
 40
0.0
 40
0.0
 40
0.0
 40
0.0
 40
0.482258561
 40
0.609505384
 40
0.7386142011
 40
1.0
 40
1.0
 40
1.0
 40
1.0
 10
11.179356994
 20
10.4900488342
 30
0.0
 10
11.1680841439
 20
10.508992588
 30
0.0
 10
11.1571006174
 20
10.535074336
 30
0.0
 10
11.1489766359
 20
10.5678437675
 30
0.0
 10
11.1447393654
 20
10.5911421981
 30
0.0
 10
11.1432085155
 20
10.608988606
 30
0.0
 10
11.1429577179
 20
10.6209339591
 30
0.0
  0
LINE
  5
3AD
100
AcDbEntity
  8
0
100
AcDbLine
 62
7
  6
CONTINUOUS
 10
11.142794336
 20
10.6209295912
 11
11.1099880431
 21
12.1588845877
  0
SPLINE
  5
3AE
100
AcDbEntity
  8
0
100
AcDbSpline
 62
9
  6
CONTINUOUS
 70
0
 71
3
 72
12
 73
8
 74
0
 42
0.0000001
 43
0.0000001
 44
0.0000000001
 40
0.0
 40
0.0
 40
0.0
 40
0.0
 40
0.259310424
 40
0.38886404
 40
0.516866976
 40
0.7650555608
 40
1.0
 40
1.0
 40
1.0
 40
1.0
 10
11.1351526261
 20
12.2273644266
 30
0.0
 10
11.1333744397
 20
12.2258911565
 30
0.0
 10
11.1309627884
 20
12.2233506958
 30
0.0
 10
11.1283839264
 20
12.2195309052
 30
0.0
 10
11.1262930663
 20
12.2155307285
 30
0.0
 10
11.1246363403
 20
12.2102968099
 30
0.0
 10
11.1242281333
 20
12.2059774684
 30
0.0
 10
11.124259734
 20
12.2038854767
 30
0.0
  0
SPLINE
  5
3AF
100
AcDbEntity
  8
0
100
AcDbSpline
 62
9
  6
CONTINUOUS
 70
0
 71
3
 72
14
 73
10
 74
0
 42
0.0000001
 43
0.0000001
 44
0.0000000001
 40
0.0
 40
0.0
 40
0.0
 40
0.0
 40
0.372527859
 40
0.5259060216
 40
0.6581265814
 40
0.7699810084
 40
0.8630315841
 40
0.9390748366
 40
1.0
 40
1.0
 40
1.0
 40
1.0
 10
11.1095139248
 20
12.1938382112
 30
0.0
 10
11.1113763101
 20
12.1950432219
 30
0.0
 10
11.1140183045
 20
12.1967244687
 30
0.0
 10
11.1173221243
 20
12.198832053
 30
0.0
 10
11.1193062868
 20
12.2001222206
 30
0.0
 10
11.1209664985
 20
12.2012510189
 30
0.0
 10
11.1223217009
 20
12.2022325444
 30
0.0
 10
11.1233959853
 20
12.2030828588
 30
0.0
 10
11.1240033005
 20
12.203628848
 30
0.0
 10
11.1242597274
 20
12.2038854701
 30
0.0
  0
LINE
  5
3B0
100
AcDbEntity
  8
0
100
AcDbLine
 62
9
  6
CONTINUOUS
 10
11.1007935153
 20
12.1718055231
 11
11.1095139038
 21
12.1938382191
  0
SPLINE
  5
3B1
100
AcDbEntity
  8
0
100
AcDbSpline
 62
9
  6
CONTINUOUS
 70
0
 71
3
 72
12
 73
8
 74
0
 42
0.0000001
 43
0.0000001
 44
0.0000000001
 40
0.0
 40
0.0
 40
0.0
 40
0.0
 40
0.2919374362
 40
0.5681666305
 40
0.8086196316
 40
0.9111639171
 40
1.0
 40
1.0
 40
1.0
 40
1.0
 10
11.0947505712
 20
12.1588802251
 30
0.0
 10
11.0954496215
 20
12.1600831257
 30
0.0
 10
11.0967645681
 20
12.16245105
 30
0.0
 10
11.0984972169
 20
12.1658944424
 30
0.0
 10
11.0996810217
 20
12.1686001824
 30
0.0
 10
11.1003986927
 20
12.1705294237
 30
0.0
 10
11.1006777268
 20
12.171398319
 30
0.0
 10
11.1007935188
 20
12.1718055385
 30
0.0
  0
SPLINE
  5
3B2
100
AcDbEntity
  8
0
100
AcDbSpline
 62
9
  6
CONTINUOUS
 70
0
 71
3
 72
11
 73
7
 74
0
 42
0.0000001
 43
0.0000001
 44
0.0000000001
 40
0.0
 40
0.0
 40
0.0
 40
0.0
 40
0.2595795709
 40
0.5174634233
 40
0.7659016814
 40
1.0
 40
1.0
 40
1.0
 40
1.0
 10
11.1007935188
 20
12.1718055385
 30
0.0
 10
11.1019763015
 20
12.1710517857
 30
0.0
 10
11.1041961528
 20
12.1693217657
 30
0.0
 10
11.1069467899
 20
12.1661918283
 30
0.0
 10
11.1088881675
 20
12.1626586049
 30
0.0
 10
11.1096253984
 20
12.1601294633
 30
0.0
 10
11.1098236791
 20
12.1588802396
 30
0.0
  0
LINE
  5
3B3
100
AcDbEntity
  8
0
100
AcDbLine
 62
7
  6
CONTINUOUS
 10
11.094716205
 20
12.1588758756
 11
11.1099880431
 21
12.1588845877
  0
LINE
  5
3B4
100
AcDbEntity
  8
0
100
AcDbLine
 62
7
  6
CONTINUOUS
 10
11.1287573072
 20
10.6209381243
 11
11.094716205
 21
12.1588758756
  0
SPLINE
  5
3B5
100
AcDbEntity
  8
0
100
AcDbSpline
 62
9
  6
CONTINUOUS
 70
0
 71
3
 72
11
 73
7
 74
0
 42
0.0000001
 43
0.0000001
 44
0.0000000001
 40
0.0
 40
0.0
 40
0.0
 40
0.0
 40
0.2650889541
 40
0.5205869561
 40
0.7660162976
 40
1.0
 40
1.0
 40
1.0
 40
1.0
 10
10.9906460444
 20
12.2038854522
 30
0.0
 10
10.9967694536
 20
12.2034380016
 30
0.0
 10
11.0087856308
 20
12.2024222731
 30
0.0
 10
11.0264103518
 20
12.2003512832
 30
0.0
 10
11.043219951
 20
12.1976365197
 30
0.0
 10
11.0540694861
 20
12.195225011
 30
0.0
 10
11.0593083465
 20
12.1938382103
 30
0.0
  0
SPLINE
  5
3B6
100
AcDbEntity
  8
0
100
AcDbSpline
 62
9
  6
CONTINUOUS
 70
0
 71
3
 72
13
 73
9
 74
0
 42
0.0000001
 43
0.0000001
 44
0.0000000001
 40
0.0
 40
0.0
 40
0.0
 40
0.0
 40
0.2507225113
 40
0.3758896961
 40
0.5009527009
 40
0.6258993843
 40
0.7507123183
 40
1.0
 40
1.0
 40
1.0
 40
1.0
 10
11.0593082635
 20
12.1938382191
 30
0.0
 10
11.0628628145
 20
12.1921684375
 30
0.0
 10
11.0681637279
 20
12.189604159
 30
0.0
 10
11.0751589625
 20
12.1860488124
 30
0.0
 10
11.0803616664
 20
12.183315956
 30
0.0
 10
11.0855257166
 20
12.1805224598
 30
0.0
 10
11.0923598599
 20
12.1767278188
 30
0.0
 10
11.0974357616
 20
12.1737986297
 30
0.0
 10
11.1007935153
 20
12.1718055231
 30
0.0
  0
SPLINE
  5
3B7
100
AcDbEntity
  8
0
100
AcDbSpline
 62
9
  6
CONTINUOUS
 70
0
 71
3
 72
11
 73
7
 74
0
 42
0.0000001
 43
0.0000001
 44
0.0000000001
 40
0.0
 40
0.0
 40
0.0
 40
0.0
 40
0.2205533156
 40
0.4645128509
 40
0.7270948598
 40
1.0
 40
1.0
 40
1.0
 40
1.0
 10
11.0585727331
 20
12.2330070674
 30
0.0
 10
11.0579706328
 20
12.2317163228
 30
0.0
 10
11.056879332
 20
12.2289134694
 30
0.0
 10
11.0556691929
 20
12.2243674697
 30
0.0
 10
11.0549059983
 20
12.2193832562
 30
0.0
 10
11.0547257808
 20
12.2159229569
 30
0.0
 10
11.0547257839
 20
12.2141606132
 30
0.0
  0
SPLINE
  5
3B8
100
AcDbEntity
  8
0
100
AcDbSpline
 62
9
  6
CONTINUOUS
 70
0
 71
3
 72
11
 73
7
 74
0
 42
0.0000001
 43
0.0000001
 44
0.0000000001
 40
0.0
 40
0.0
 40
0.0
 40
0.0
 40
0.2750114454
 40
0.5392951206
 40
0.7827911221
 40
1.0
 40
1.0
 40
1.0
 40
1.0
 10
11.0547257558
 20
12.2141606132
 30
0.0
 10
11.0547257594
 20
12.2122338178
 30
0.0
 10
11.0549422517
 20
12.2084525323
 30
0.0
 10
11.0558517724
 20
12.2030320368
 30
0.0
 10
11.0572940689
 20
12.1981490215
 30
0.0
 10
11.0585934875
 20
12.1951817593
 30
0.0
 10
11.0593082711
 20
12.1938382523
 30
0.0
  0
SPLINE
  5
3B9
100
AcDbEntity
  8
0
100
AcDbSpline
 62
9
  6
CONTINUOUS
 70
0
 71
3
 72
11
 73
7
 74
0
 42
0.0000001
 43
0.0000001
 44
0.0000000001
 40
0.0
 40
0.0
 40
0.0
 40
0.0
 40
0.2289566166
 40
0.4746198427
 40
0.7335985445
 40
1.0
 40
1.0
 40
1.0
 40
1.0
 10
11.1084748791
 20
12.2330070442
 30
0.0
 10
11.1076402829
 20
12.2317406902
 30
0.0
 10
11.1061115492
 20
12.2289784816
 30
0.0
 10
11.1043866293
 20
12.2244175451
 30
0.0
 10
11.1032972521
 20
12.2194100359
 30
0.0
 10
11.1030397125
 20
12.2159252954
 30
0.0
 10
11.1030397079
 20
12.2141606132
 30
0.0
  0
SPLINE
  5
3BA
100
AcDbEntity
  8
0
100
AcDbSpline
 62
9
  6
CONTINUOUS
 70
0
 71
3
 72
11
 73
7
 74
0
 42
0.0000001
 43
0.0000001
 44
0.0000000001
 40
0.0
 40
0.0
 40
0.0
 40
0.0
 40
0.2671538257
 40
0.5270803899
 40
0.7726721838
 40
1.0
 40
1.0
 40
1.0
 40
1.0
 10
11.1030397079
 20
12.2141606132
 30
0.0
 10
11.1030397029
 20
12.2122307475
 30
0.0
 10
11.1033496791
 20
12.2084174944
 30
0.0
 10
11.1046507644
 20
12.202966237
 30
0.0
 10
11.1067103139
 20
12.1980649367
 30
0.0
 10
11.1085272039
 20
12.1951509921
 30
0.0
 10
11.1095139004
 20
12.1938383024
 30
0.0
  0
SPLINE
  5
3BB
100
AcDbEntity
  8
0
100
AcDbSpline
 62
9
  6
CONTINUOUS
 70
0
 71
3
 72
9
 73
5
 74
0
 42
0.0000001
 43
0.0000001
 44
0.0000000001
 40
0.0
 40
0.0
 40
0.0
 40
0.0
 40
0.5031657787
 40
1.0
 40
1.0
 40
1.0
 40
1.0
 10
10.9376923427
 20
12.2251132291
 30
0.0
 10
10.9292370151
 20
12.225113234
 30
0.0
 10
10.9124306219
 20
12.2254310959
 30
0.0
 10
10.8956540543
 20
12.2265532171
 30
0.0
 10
10.8873446347
 20
12.2273645039
 30
0.0
  0
SPLINE
  5
3BC
100
AcDbEntity
  8
0
100
AcDbSpline
 62
9
  6
CONTINUOUS
 70
0
 71
3
 72
16
 73
12
 74
0
 42
0.0000001
 43
0.0000001
 44
0.0000000001
 40
0.0
 40
0.0
 40
0.0
 40
0.0
 40
0.1331870725
 40
0.2650754069
 40
0.3952507311
 40
0.5232056279
 40
0.6482447055
 40
0.7094560227
 40
0.7696980179
 40
0.8870785597
 40
1.0
 40
1.0
 40
1.0
 40
1.0
 10
10.887344637
 20
12.227364468
 30
0.0
 10
10.8842199972
 20
12.2277004653
 30
0.0
 10
10.878000093
 20
12.2283590409
 30
0.0
 10
10.8687231736
 20
12.2293170583
 30
0.0
 10
10.8595677979
 20
12.2302500681
 30
0.0
 10
10.8505712907
 20
12.2311479031
 30
0.0
 10
10.8431858421
 20
12.231801238
 30
0.0
 10
10.8373848884
 20
12.2322236796
 30
0.0
 10
10.8317595943
 20
12.2325641901
 30
0.0
 10
10.824909796
 20
12.2328608094
 30
0.0
 10
10.8194764372
 20
12.2329775828
 30
0.0
 10
10.8168121309
 20
12.2330070828
 30
0.0
  0
SPLINE
  5
3BD
100
AcDbEntity
  8
0
100
AcDbSpline
 62
9
  6
CONTINUOUS
 70
0
 71
3
 72
16
 73
12
 74
0
 42
0.0000001
 43
0.0000001
 44
0.0000000001
 40
0.0
 40
0.0
 40
0.0
 40
0.0
 40
0.1890406475
 40
0.3600894536
 40
0.4383877674
 40
0.5117021596
 40
0.6439605363
 40
0.7582118838
 40
0.8553516135
 40
0.9357334982
 40
1.0
 40
1.0
 40
1.0
 40
1.0
 10
10.7669096886
 20
12.2330070828
 30
0.0
 10
10.7651687006
 20
12.2329805588
 30
0.0
 10
10.761852824
 20
12.2328812079
 30
0.0
 10
10.7578235496
 20
12.2325894482
 30
0.0
 10
10.7548719424
 20
12.2322373615
 30
0.0
 10
10.7522884543
 20
12.2318319455
 30
0.0
 10
10.7494041026
 20
12.23121877
 30
0.0
 10
10.7463619611
 20
12.2303367495
 30
0.0
 10
10.7438342769
 20
12.2294152782
 30
0.0
 10
10.7418169077
 20
12.2284652506
 30
0.0
 10
10.7406890553
 20
12.22774073
 30
0.0
 10
10.7402320945
 20
12.2273644634
 30
0.0
  0
LINE
  5
3BE
100
AcDbEntity
  8
0
100
AcDbLine
 62
9
  6
CONTINUOUS
 10
10.7402320696
 20
12.2273644846
 11
10.7367455529
 21
12.2251131383
  0
LINE
  5
3BF
100
AcDbEntity
  8
0
100
AcDbLine
 62
9
  6
CONTINUOUS
 10
10.7511249553
 20
12.2038854404
 11
10.7490439275
 21
12.2000962014
  0
SPLINE
  5
3C0
100
AcDbEntity
  8
0
100
AcDbSpline
 62
9
  6
CONTINUOUS
 70
0
 71
3
 72
11
 73
7
 74
0
 42
0.0000001
 43
0.0000001
 44
0.0000000001
 40
0.0
 40
0.0
 40
0.0
 40
0.0
 40
0.2466054474
 40
0.4993950185
 40
0.7524996646
 40
1.0
 40
1.0
 40
1.0
 40
1.0
 10
10.7402320143
 20
12.2273644455
 30
0.0
 10
10.7419223871
 20
12.2259639343
 30
0.0
 10
10.745032958
 20
12.2227325981
 30
0.0
 10
10.7485811044
 20
12.2169855317
 30
0.0
 10
10.7507011958
 20
12.2105636517
 30
0.0
 10
10.7511582054
 20
12.206088274
 30
0.0
 10
10.7511249211
 20
12.2038853848
 30
0.0
  0
SPLINE
  5
3C1
100
AcDbEntity
  8
0
100
AcDbSpline
 62
9
  6
CONTINUOUS
 70
0
 71
3
 72
14
 73
10
 74
0
 42
0.0000001
 43
0.0000001
 44
0.0000000001
 40
0.0
 40
0.0
 40
0.0
 40
0.0
 40
0.060953028
 40
0.1370451065
 40
0.2301377362
 40
0.3420000798
 40
0.4741786799
 40
0.6274945704
 40
1.0
 40
1.0
 40
1.0
 40
1.0
 10
10.7511249336
 20
12.2038854556
 30
0.0
 10
10.7513815118
 20
12.2036287529
 30
0.0
 10
10.7519892321
 20
12.2030825397
 30
0.0
 10
10.7530640872
 20
12.202231822
 30
0.0
 10
10.7544197467
 20
12.20124994
 30
0.0
 10
10.7560799876
 20
12.2001211185
 30
0.0
 10
10.7580637189
 20
12.1988313631
 30
0.0
 10
10.7613669752
 20
12.1967243387
 30
0.0
 10
10.7640084729
 20
12.1950432806
 30
0.0
 10
10.7658706043
 20
12.1938381458
 30
0.0
  0
SPLINE
  5
3C2
100
AcDbEntity
  8
0
100
AcDbSpline
 62
9
  6
CONTINUOUS
 70
0
 71
3
 72
11
 73
7
 74
0
 42
0.0000001
 43
0.0000001
 44
0.0000000001
 40
0.0
 40
0.0
 40
0.0
 40
0.0
 40
0.2289565837
 40
0.4746197991
 40
0.7335985118
 40
1.0
 40
1.0
 40
1.0
 40
1.0
 10
10.7669097177
 20
12.2330070793
 30
0.0
 10
10.7677443162
 20
12.2317407236
 30
0.0
 10
10.7692730537
 20
12.2289785105
 30
0.0
 10
10.7709979775
 20
12.2244175656
 30
0.0
 10
10.7720873565
 20
12.2194100465
 30
0.0
 10
10.7723448961
 20
12.215925299
 30
0.0
 10
10.7723449005
 20
12.2141606132
 30
0.0
  0
SPLINE
  5
3C3
100
AcDbEntity
  8
0
100
AcDbSpline
 62
9
  6
CONTINUOUS
 70
0
 71
3
 72
11
 73
7
 74
0
 42
0.0000001
 43
0.0000001
 44
0.0000000001
 40
0.0
 40
0.0
 40
0.0
 40
0.0
 40
0.2671539385
 40
0.527080554
 40
0.7726723106
 40
1.0
 40
1.0
 40
1.0
 40
1.0
 10
10.7723448461
 20
12.2141606132
 30
0.0
 10
10.7723448515
 20
12.2122307393
 30
0.0
 10
10.772034874
 20
12.2084174704
 30
0.0
 10
10.7707337822
 20
12.2029661916
 30
0.0
 10
10.7686742231
 20
12.1980648741
 30
0.0
 10
10.7668573255
 20
12.1951509202
 30
0.0
 10
10.7658706251
 20
12.1938382267
 30
0.0
  0
SPLINE
  5
3C4
100
AcDbEntity
  8
0
100
AcDbSpline
 62
9
  6
CONTINUOUS
 70
0
 71
3
 72
11
 73
7
 74
0
 42
0.0000001
 43
0.0000001
 44
0.0000000001
 40
0.0
 40
0.0
 40
0.0
 40
0.0
 40
0.2205530287
 40
0.464512455
 40
0.7270945612
 40
1.0
 40
1.0
 40
1.0
 40
1.0
 10
10.8168119571
 20
12.2330070754
 30
0.0
 10
10.8174140522
 20
12.2317163308
 30
0.0
 10
10.8185053424
 20
12.2289134768
 30
0.0
 10
10.819715466
 20
12.2243674762
 30
0.0
 10
10.8204786459
 20
12.2193832598
 30
0.0
 10
10.8206588541
 20
12.2159229584
 30
0.0
 10
10.8206588466
 20
12.2141606132
 30
0.0
  0
SPLINE
  5
3C5
100
AcDbEntity
  8
0
100
AcDbSpline
 62
9
  6
CONTINUOUS
 70
0
 71
3
 72
9
 73
5
 74
0
 42
0.0000001
 43
0.0000001
 44
0.0000000001
 40
0.0
 40
0.0
 40
0.0
 40
0.0
 40
0.5266774762
 40
1.0
 40
1.0
 40
1.0
 40
1.0
 10
10.714588367
 20
10.4088485715
 30
0.0
 10
10.7131029186
 20
10.4110383368
 30
0.0
 10
10.7098744678
 20
10.4149414057
 30
0.0
 10
10.705852661
 20
10.4180399802
 30
0.0
 10
10.7037987569
 20
10.4192384647
 30
0.0
  0
SPLINE
  5
3C6
100
AcDbEntity
  8
0
100
AcDbSpline
 62
9
  6
CONTINUOUS
 70
0
 71
3
 72
9
 73
5
 74
0
 42
0.0000001
 43
0.0000001
 44
0.0000000001
 40
0.0
 40
0.0
 40
0.0
 40
0.0
 40
0.5064573367
 40
1.0
 40
1.0
 40
1.0
 40
1.0
 10
10.7246549342
 20
10.4088485802
 30
0.0
 10
10.7224115056
 20
10.4111121734
 30
0.0
 10
10.717498733
 20
10.4151259775
 30
0.0
 10
10.7118866863
 20
10.4180716178
 30
0.0
 10
10.7090085132
 20
10.4192384733
 30
0.0
  0
SPLINE
  5
3C7
100
AcDbEntity
  8
0
100
AcDbSpline
 62
9
  6
CONTINUOUS
 70
0
 71
3
 72
12
 73
8
 74
0
 42
0.0000001
 43
0.0000001
 44
0.0000000001
 40
0.0
 40
0.0
 40
0.0
 40
0.0
 40
0.1123615487
 40
0.2274013351
 40
0.4678874661
 40
0.724894992
 40
1.0
 40
1.0
 40
1.0
 40
1.0
 10
10.7647978273
 20
10.3769008138
 30
0.0
 10
10.7629231689
 20
10.3774667837
 30
0.0
 10
10.7591839464
 20
10.3788032734
 30
0.0
 10
10.7517979247
 20
10.3822832
 30
0.0
 10
10.7428383459
 20
10.3882061696
 30
0.0
 10
10.7329992441
 20
10.397479305
 30
0.0
 10
10.72730636
 20
10.40485396
 30
0.0
 10
10.7246548291
 20
10.4088485495
 30
0.0
  0
SPLINE
  5
3C8
100
AcDbEntity
  8
0
100
AcDbSpline
 62
9
  6
CONTINUOUS
 70
0
 71
3
 72
11
 73
7
 74
0
 42
0.0000001
 43
0.0000001
 44
0.0000000001
 40
0.0
 40
0.0
 40
0.0
 40
0.0
 40
0.2371919739
 40
0.4816122203
 40
0.73545974
 40
1.0
 40
1.0
 40
1.0
 40
1.0
 10
11.1139406204
 20
10.3769654063
 30
0.0
 10
11.1183540261
 20
10.378105957
 30
0.0
 10
11.1271317874
 20
10.3812089289
 30
0.0
 10
11.1395081614
 20
10.3881686621
 30
0.0
 10
11.1509829341
 20
10.3973914336
 30
0.0
 10
11.1576891539
 20
10.4048245416
 30
0.0
 10
11.1607962792
 20
10.4088485527
 30
0.0
  0
SPLINE
  5
3C9
100
AcDbEntity
  8
0
100
AcDbSpline
 62
9
  6
CONTINUOUS
 70
0
 71
3
 72
9
 73
5
 74
0
 42
0.0000001
 43
0.0000001
 44
0.0000000001
 40
0.0
 40
0.0
 40
0.0
 40
0.0
 40
0.4960521104
 40
1.0
 40
1.0
 40
1.0
 40
1.0
 10
11.0941781338
 20
10.3744485715
 30
0.0
 10
11.0969277985
 20
10.3744485715
 30
0.0
 10
11.1024783782
 20
10.3748634276
 30
0.0
 10
11.1079065362
 20
10.3760909228
 30
0.0
 10
11.1105803257
 20
10.3768996939
 30
0.0
  0
SPLINE
  5
3CA
100
AcDbEntity
  8
0
100
AcDbSpline
 62
9
  6
CONTINUOUS
 70
0
 71
3
 72
15
 73
11
 74
0
 42
0.0000001
 43
0.0000001
 44
0.0000000001
 40
0.0
 40
0.0
 40
0.0
 40
0.0
 40
0.1127926901
 40
0.2281943599
 40
0.3467634343
 40
0.4689621815
 40
0.5951331245
 40
0.7255960263
 40
0.8605391996
 40
1.0
 40
1.0
 40
1.0
 40
1.0
 10
11.1110133687
 20
10.3770325025
 30
0.0
 10
11.1128757742
 20
10.3776115224
 30
0.0
 10
11.1165877688
 20
10.3789710778
 30
0.0
 10
11.1220029486
 20
10.3815649595
 30
0.0
 10
11.1272957377
 20
10.3847305319
 30
0.0
 10
11.1324366599
 20
10.3884628242
 30
0.0
 10
11.1373940483
 20
10.3927566038
 30
0.0
 10
11.14213023
 20
10.397605861
 30
0.0
 10
11.1466194948
 20
10.4029859251
 30
0.0
 10
11.1493897521
 20
10.4068437075
 30
0.0
 10
11.1507297845
 20
10.4088485715
 30
0.0
  0
SPLINE
  5
3CB
100
AcDbEntity
  8
0
100
AcDbSpline
 62
9
  6
CONTINUOUS
 70
0
 71
3
 72
11
 73
7
 74
0
 42
0.0000001
 43
0.0000001
 44
0.0000000001
 40
0.0
 40
0.0
 40
0.0
 40
0.0
 40
0.2924158998
 40
0.5598687737
 40
0.7955620378
 40
1.0
 40
1.0
 40
1.0
 40
1.0
 10
11.1507297854
 20
10.4088485729
 30
0.0
 10
11.1516882777
 20
10.4085512248
 30
0.0
 10
11.1535596609
 20
10.4080901836
 30
0.0
 10
11.1562887419
 20
10.4078153346
 30
0.0
 10
11.1587234636
 20
10.4080316061
 30
0.0
 10
11.1601764048
 20
10.4085199757
 30
0.0
 10
11.1607963196
 20
10.4088485729
 30
0.0
  0
SPLINE
  5
3CC
100
AcDbEntity
  8
0
100
AcDbSpline
 62
9
  6
CONTINUOUS
 70
0
 71
3
 72
9
 73
5
 74
0
 42
0.0000001
 43
0.0000001
 44
0.0000000001
 40
0.0
 40
0.0
 40
0.0
 40
0.0
 40
0.5086439649
 40
1.0
 40
1.0
 40
1.0
 40
1.0
 10
11.1507297845
 20
10.4088485715
 30
0.0
 10
11.1529826763
 20
10.4111221436
 30
0.0
 10
11.1578982136
 20
10.4151335065
 30
0.0
 10
11.1635108228
 20
10.4180766862
 30
0.0
 10
11.1663761955
 20
10.4192384647
 30
0.0
  0
SPLINE
  5
3CD
100
AcDbEntity
  8
0
100
AcDbSpline
 62
9
  6
CONTINUOUS
 70
0
 71
3
 72
9
 73
5
 74
0
 42
0.0000001
 43
0.0000001
 44
0.0000000001
 40
0.0
 40
0.0
 40
0.0
 40
0.0
 40
0.5245077869
 40
1.0
 40
1.0
 40
1.0
 40
1.0
 10
11.1607963395
 20
10.4088485849
 30
0.0
 10
11.1622756026
 20
10.4110293753
 30
0.0
 10
11.1655021377
 20
10.4149333456
 30
0.0
 10
11.1695226468
 20
10.4180344771
 30
0.0
 10
11.1715859567
 20
10.4192384732
 30
0.0
  0
SPLINE
  5
3CE
100
AcDbEntity
  8
0
100
AcDbSpline
 62
9
  6
CONTINUOUS
 70
0
 71
3
 72
13
 73
9
 74
0
 42
0.0000001
 43
0.0000001
 44
0.0000000001
 40
0.0
 40
0.0
 40
0.0
 40
0.0
 40
0.2453012745
 40
0.369676797
 40
0.4946793598
 40
0.6204248173
 40
0.7469769581
 40
1.0
 40
1.0
 40
1.0
 40
1.0
 10
11.1715859286
 20
10.4192384647
 30
0.0
 10
11.1733044132
 20
10.4200007368
 30
0.0
 10
11.1757349197
 20
10.4215603526
 30
0.0
 10
11.1784145042
 20
10.4242548587
 30
0.0
 10
11.1801287545
 20
10.4265762079
 30
0.0
 10
11.181501916
 20
10.4291328592
 30
0.0
 10
11.1828306483
 20
10.4327799656
 30
0.0
 10
11.183246661
 20
10.4357094332
 30
0.0
 10
11.183246661
 20
10.4376485715
 30
0.0
  0
SPLINE
  5
3CF
100
AcDbEntity
  8
0
100
AcDbSpline
 62
9
  6
CONTINUOUS
 70
0
 71
3
 72
9
 73
5
 74
0
 42
0.0000001
 43
0.0000001
 44
0.0000000001
 40
0.0
 40
0.0
 40
0.0
 40
0.0
 40
0.4800278591
 40
1.0
 40
1.0
 40
1.0
 40
1.0
 10
11.1715859284
 20
10.4192384646
 30
0.0
 10
11.1707728571
 20
10.4190224695
 30
0.0
 10
11.1690101638
 20
10.4188135973
 30
0.0
 10
11.1672545245
 20
10.4190332316
 30
0.0
 10
11.1663671499
 20
10.4192405747
 30
0.0
  0
SPLINE
  5
3D0
100
AcDbEntity
  8
0
100
AcDbSpline
 62
9
  6
CONTINUOUS
 70
0
 71
3
 72
15
 73
11
 74
0
 42
0.0000001
 43
0.0000001
 44
0.0000000001
 40
0.0
 40
0.0
 40
0.0
 40
0.0
 40
0.0819328106
 40
0.1783617671
 40
0.2897288773
 40
0.4146770768
 40
0.5508411746
 40
0.6958396094
 40
0.8467353607
 40
1.0
 40
1.0
 40
1.0
 40
1.0
 10
11.1663672836
 20
10.4192406453
 30
0.0
 10
11.1666837497
 20
10.4196503051
 30
0.0
 10
11.1672455146
 20
10.4206391004
 30
0.0
 10
11.1678927114
 20
10.4223539376
 30
0.0
 10
11.1684665243
 20
10.4243782933
 30
0.0
 10
11.1689811536
 20
10.4266757298
 30
0.0
 10
11.1693989257
 20
10.4292089465
 30
0.0
 10
11.1696828028
 20
10.4319253081
 30
0.0
 10
11.169845837
 20
10.4347591207
 30
0.0
 10
11.1698971488
 20
10.4366803647
 30
0.0
 10
11.1699133276
 20
10.4376485715
 30
0.0
  0
SPLINE
  5
3D1
100
AcDbEntity
  8
0
100
AcDbSpline
 62
9
  6
CONTINUOUS
 70
0
 71
3
 72
15
 73
11
 74
0
 42
0.0000001
 43
0.0000001
 44
0.0000000001
 40
0.0
 40
0.0
 40
0.0
 40
0.0
 40
0.1532646087
 40
0.3041602729
 40
0.4491585867
 40
0.5853225924
 40
0.7102707887
 40
0.8216381751
 40
0.9180676409
 40
1.0
 40
1.0
 40
1.0
 40
1.0
 10
10.7054713578
 20
10.4376485715
 30
0.0
 10
10.705487528
 20
10.4366803648
 30
0.0
 10
10.7055388333
 20
10.4347591214
 30
0.0
 10
10.7057018745
 20
10.4319253109
 30
0.0
 10
10.7059857612
 20
10.4292089527
 30
0.0
 10
10.7064035276
 20
10.426675737
 30
0.0
 10
10.70691815
 20
10.4243782979
 30
0.0
 10
10.7074919736
 20
10.4223539398
 30
0.0
 10
10.7081391955
 20
10.4206391097
 30
0.0
 10
10.7087009513
 20
10.4196503129
 30
0.0
 10
10.7090174029
 20
10.4192406456
 30
0.0
  0
SPLINE
  5
3D2
100
AcDbEntity
  8
0
100
AcDbSpline
 62
9
  6
CONTINUOUS
 70
0
 71
3
 72
9
 73
5
 74
0
 42
0.0000001
 43
0.0000001
 44
0.0000000001
 40
0.0
 40
0.0
 40
0.0
 40
0.0
 40
0.5119015272
 40
1.0
 40
1.0
 40
1.0
 40
1.0
 10
10.7090175366
 20
10.4192405749
 30
0.0
 10
10.7081439423
 20
10.4190364495
 30
0.0
 10
10.7063895087
 20
10.4188140486
 30
0.0
 10
10.7046254922
 20
10.4190188396
 30
0.0
 10
10.7037987571
 20
10.4192384646
 30
0.0
  0
SPLINE
  5
3D3
100
AcDbEntity
  8
0
100
AcDbSpline
 62
9
  6
CONTINUOUS
 70
0
 71
3
 72
13
 73
9
 74
0
 42
0.0000001
 43
0.0000001
 44
0.0000000001
 40
0.0
 40
0.0
 40
0.0
 40
0.0
 40
0.2453012745
 40
0.3696767969
 40
0.4946793597
 40
0.6204248172
 40
0.7469769581
 40
1.0
 40
1.0
 40
1.0
 40
1.0
 10
10.7037987571
 20
10.4192384646
 30
0.0
 10
10.7020802725
 20
10.4200007367
 30
0.0
 10
10.699649766
 20
10.4215603525
 30
0.0
 10
10.6969701814
 20
10.4242548585
 30
0.0
 10
10.695255931
 20
10.4265762078
 30
0.0
 10
10.6938827695
 20
10.4291328591
 30
0.0
 10
10.6925540372
 20
10.4327799655
 30
0.0
 10
10.6921380245
 20
10.4357094332
 30
0.0
 10
10.6921380245
 20
10.4376485715
 30
0.0
  0
SPLINE
  5
3D4
100
AcDbEntity
  8
0
100
AcDbSpline
 62
9
  6
CONTINUOUS
 70
0
 71
3
 72
11
 73
7
 74
0
 42
0.0000001
 43
0.0000001
 44
0.0000000001
 40
0.0
 40
0.0
 40
0.0
 40
0.0
 40
0.2380709313
 40
0.4825339309
 40
0.7361253221
 40
1.0
 40
1.0
 40
1.0
 40
1.0
 10
10.7611894199
 20
10.3770325025
 30
0.0
 10
10.7567839765
 20
10.3781889673
 30
0.0
 10
10.7480412662
 20
10.3813150364
 30
0.0
 10
10.7357180566
 20
10.3882634231
 30
0.0
 10
10.7243250494
 20
10.3974560479
 30
0.0
 10
10.7176703763
 20
10.4048501576
 30
0.0
 10
10.714588367
 20
10.4088485715
 30
0.0
  0
SPLINE
  5
3D5
100
AcDbEntity
  8
0
100
AcDbSpline
 62
9
  6
CONTINUOUS
 70
0
 71
3
 72
11
 73
7
 74
0
 42
0.0000001
 43
0.0000001
 44
0.0000000001
 40
0.0
 40
0.0
 40
0.0
 40
0.0
 40
0.2044376288
 40
0.4401307273
 40
0.7075837
 40
1.0
 40
1.0
 40
1.0
 40
1.0
 10
10.7145883659
 20
10.4088485729
 30
0.0
 10
10.7152082804
 20
10.4085199758
 30
0.0
 10
10.7166612217
 20
10.4080316061
 30
0.0
 10
10.719095945
 20
10.4078153344
 30
0.0
 10
10.7218250304
 20
10.4080901844
 30
0.0
 10
10.7236964175
 20
10.4085512273
 30
0.0
 10
10.724654912
 20
10.4088485766
 30
0.0
  0
LINE
  5
3D6
100
AcDbEntity
  8
0
100
AcDbLine
 62
9
  6
CONTINUOUS
 10
11.1386391326
 20
12.2251131383
 11
11.1351526543
 21
12.227364442
  0
LINE
  5
3D7
100
AcDbEntity
  8
0
100
AcDbLine
 62
9
  6
CONTINUOUS
 10
11.1263407579
 20
12.2000962007
 11
11.124259764
 21
12.2038853836
  0
ENDSEC
  0
SECTION
  2
OBJECTS
  0
DICTIONARY
  5
C
100
AcDbDictionary
280
0
281
1
  3
ACAD_GROUP
350
D
  3
ACAD_MLINESTYLE
350
17
  3
ACAD_LAYOUT
350
1A
  3
ACAD_PLOTSETTINGS
350
19
  3
ACAD_PLOTSTYLENAME
350
E
  0
DICTIONARY
  5
D
102
{ACAD_REACTORS
330
C
102
}
100
AcDbDictionary
280
0
281
1
  0
ACDBDICTIONARYWDFLT
  5
E
102
{ACAD_REACTORS
330
C
102
}
100
AcDbDictionary
281
1
  3
Normal
350
F
100
AcDbDictionaryWithDefault
340
F
  0
DICTIONARY
  5
17
102
{ACAD_REACTORS
330
C
102
}
100
AcDbDictionary
280
0
281
1
  3
Standard
350
18
  0
DICTIONARY
  5
19
102
{ACAD_REACTORS
330
C
102
}
100
AcDbDictionary
281
1
  0
DICTIONARY
  5
1A
102
{ACAD_REACTORS
330
C
102
}
100
AcDbDictionary
281
1
  3
Model
350
3D8
  3
Layout1
350
3D9
  0
ACDBPLACEHOLDER
  5
F
102
{ACAD_REACTORS
330
E
102
}
  0
MLINESTYLE
  5
18
102
{ACAD_REACTORS
330
17
102
}
100
AcDbMlineStyle
  2
STANDARD
 70
0
  3

 62
256
 51
90.0
 52
90.0
 71
2
 49
0.5
 62
256
  6
BYLAYER
 49
-0.5
 62
256
  6
BYLAYER
  0
LAYOUT
  5
3D8
102
{ACAD_REACTORS
330
1A
102
}
100
AcDbPlotSettings
  1

  2
none_device
  4
ANSI_C_(22.00_x_17.00_Inches)
  6

 40
0.0
 41
0.0
 42
0.0
 43
0.0
 44
558.8
 45
431.8
 46
0.0
 47
0.0
 48
0.0
 49
0.0
140
0.0
141
0.0
142
1.0
143
1.0
 70
1024
 72
0
 73
0
 74
0
  7

 75
0
147
1.0
148
0.0
149
0.0
100
AcDbLayout
  1
Model
 70
0
 71
0
 10
0.0
 20
0.0
 11
22.0
 21
17.0
 12
0.0
 22
0.0
 32
0.0
 14
0.0
 24
0.0
 34
0.0
 15
0.0
 25
0.0
 35
0.0
146
0.0
 13
0.0
 23
0.0
 33
0.0
 16
1.0
 26
0.0
 36
0.0
 17
0.0
 27
1.0
 37
0.0
 76
0
330
202
345
0
346
0
  0
LAYOUT
  5
3D9
102
{ACAD_REACTORS
330
1A
102
}
100
AcDbPlotSettings
  1

  2
none_device
  4
ANSI_C_(22.00_x_17.00_Inches)
  6

 40
0.0
 41
0.0
 42
0.0
 43
0.0
 44
558.8
 45
431.8
 46
0.0
 47
0.0
 48
0.0
 49
0.0
140
0.0
141
0.0
142
1.0
143
1.0
 70
0
 72
0
 73
0
 74
0
  7

 75
0
147
1.0
148
0.0
149
0.0
100
AcDbLayout
  1
Layout1
 70
0
 71
1
 10
0.0
 20
0.0
 11
22.0
 21
17.0
 12
0.0
 22
0.0
 32
0.0
 14
0.0
 24
0.0
 34
0.0
 15
0.0
 25
0.0
 35
0.0
146
0.0
 13
0.0
 23
0.0
 33
0.0
 16
1.0
 26
0.0
 36
0.0
 17
0.0
 27
1.0
 37
0.0
 76
0
330
203
345
0
346
0
  0
ENDSEC
  0
EOF
