999
DXF file: E:\BT Custom\CADOUTPUT\_RIGHT.dxf
999
Pro/ENGINEER 2018400 by Parametric Technology Corporation
  0
SECTION
  2
HEADER
  9
$ACADVER
  1
AC1018
  9
$DWGCODEPAGE
  3
ANSI_1252
  9
$EXTMAX
 10
22.0
 20
17.0
 30
0.0
  9
$EXTMIN
 10
0.0
 20
0.0
 30
0.0
  9
$LIMMIN
 10
0.0
 20
0.0
  9
$LIMMAX
 10
22.0
 20
17.0
  9
$VIEWCTR
 10
11.0
 20
8.5
  9
$VIEWSIZE
 40
17.0
  9
$CLAYER
  8
0
  9
$LTSCALE
 40
1.21
  9
$CELTYPE
  6
BYLAYER
  9
$DIMSCALE
 40
1.0
  9
$DIMASZ
 40
0.1
  9
$DIMEXO
 40
0.0625
  9
$DIMDLI
 40
0.836
  9
$DIMEXE
 40
0.125
  9
$DIMCEN
 40
0.198
  9
$DIMLFAC
 40
1.0
  9
$DIMBLK
  1
_FILLED
  9
$DIMALT
 70
1
  9
$DIMALTD
 70
2
  9
$DIMALTTD
 70
2
  9
$DIMALTF
 40
25.4
  9
$DIMTXT
 40
0.08
  9
$DIMTOL
 70
1
  9
$DIMLIM
 70
0
  9
$DIMTFAC
 40
1.0
  9
$DIMTP
 40
0.001
  9
$DIMTM
 40
0.001
  9
$DIMGAP
 40
0.09
  9
$DIMDSEP
 70
46
  9
$AUNITS
 70
0
  9
$PDMODE
 70
3
  9
$PDSIZE
 40
0.06
  9
$HANDSEED
  5
446
  9
$TILEMODE
 70
1
  9
$MEASUREMENT
 70
0
  9
$INSUNITS
 70
1
  0
ENDSEC
  0
SECTION
  2
CLASSES
  0
CLASS
  1
ACDBDICTIONARYWDFLT
  2
AcDbDictionaryWithDefault
  3
AutoCAD 2000
 90
0
 91
1
280
0
281
0
  0
CLASS
  1
ACDBPLACEHOLDER
  2
AcDbPlaceHolder
  3
AutoCAD 2000
 90
0
 91
1
280
0
281
0
  0
CLASS
  1
LAYOUT
  2
AcDbLayout
  3
AutoCAD 2000
 90
0
 91
0
280
0
281
0
  0
ENDSEC
  0
SECTION
  2
TABLES
  0
TABLE
  2
VPORT
  5
8
100
AcDbSymbolTable
 70
2
  0
VPORT
  5
1F4
100
AcDbSymbolTableRecord
100
AcDbViewportTableRecord
  2
*ACTIVE
 70
0
 10
0.0
 20
0.0
 11
1.0
 21
1.0
 12
11.0
 22
8.5
 13
0.0
 23
0.0
 14
1.0
 24
1.0
 15
0.0
 25
0.0
 16
0.0
 26
0.0
 36
1.0
 17
0.0
 27
0.0
 37
0.0
 40
17.0
 41
1.2941176471
 42
50.0
 43
0.0
 44
0.0
 50
0.0
 51
0.0
 71
0
 72
100
 73
1
 74
1
 75
0
 76
0
 77
0
 78
0
  0
ENDTAB
  0
TABLE
  2
LTYPE
  5
5
100
AcDbSymbolTable
 70
6
  0
LTYPE
  5
14
100
AcDbSymbolTableRecord
100
AcDbLinetypeTableRecord
  2
BYBLOCK
 70
0
  3

 72
65
 73
0
 40
0.0
  0
LTYPE
  5
15
100
AcDbSymbolTableRecord
100
AcDbLinetypeTableRecord
  2
BYLAYER
 70
0
  3

 72
65
 73
0
 40
0.0
  0
LTYPE
  5
16
100
AcDbSymbolTableRecord
100
AcDbLinetypeTableRecord
  2
CONTINUOUS
 70
64
  3
Solid line
 72
65
 73
0
 40
0.0
  0
LTYPE
  5
1F5
100
AcDbSymbolTableRecord
100
AcDbLinetypeTableRecord
  2
CENTER
 70
64
  3
____ _ ____ _ ____ _ ____ _ ____ _ ____ _ ____
 72
65
 73
4
 40
0.6
 49
0.375
 74
0
 49
-0.075
 74
0
 49
0.075
 74
0
 49
-0.075
 74
0
  0
LTYPE
  5
1F6
100
AcDbSymbolTableRecord
100
AcDbLinetypeTableRecord
  2
HIDDEN
 70
64
  3
- - - - - - - - - - - - - - - - - - - -
 72
65
 73
2
 40
0.2
 49
0.1
 74
0
 49
-0.1
 74
0
  0
LTYPE
  5
1F7
100
AcDbSymbolTableRecord
100
AcDbLinetypeTableRecord
  2
PHANTOM
 70
64
  3
_____ _ _ _____ _ _ _____ _ _ _____
 72
65
 73
6
 40
0.8
 49
0.45
 74
0
 49
-0.05
 74
0
 49
0.1
 74
0
 49
-0.05
 74
0
 49
0.1
 74
0
 49
-0.05
 74
0
  0
LTYPE
  5
1F8
100
AcDbSymbolTableRecord
100
AcDbLinetypeTableRecord
  2
DOT
 70
64
  3
. . . . . . . . . . . . . . . . . . . .
 72
65
 73
2
 40
0.2
 49
0.1
 74
0
 49
-0.1
 74
0
  0
LTYPE
  5
1F9
100
AcDbSymbolTableRecord
100
AcDbLinetypeTableRecord
  2
DASHED
 70
64
  3
- - - - - - - - - - - - - - - - - - - -
 72
65
 73
2
 40
0.2
 49
0.1
 74
0
 49
-0.1
 74
0
  0
ENDTAB
  0
TABLE
  2
LAYER
  5
2
100
AcDbSymbolTable
 70
36
  0
LAYER
  5
10
100
AcDbSymbolTableRecord
100
AcDbLayerTableRecord
  2
0
 70
0
 62
7
  6
CONTINUOUS
370
-3
390
F
  0
LAYER
  5
1FA
100
AcDbSymbolTableRecord
100
AcDbLayerTableRecord
  2
DEFAULT_1
 70
0
 62
7
  6
CENTER
370
-3
390
F
  0
LAYER
  5
1FB
100
AcDbSymbolTableRecord
100
AcDbLayerTableRecord
  2
DEFAULT_2
 70
0
 62
8
  6
HIDDEN
370
-3
390
F
  0
LAYER
  5
1FC
100
AcDbSymbolTableRecord
100
AcDbLayerTableRecord
  2
DEFAULT_3
 70
0
 62
7
  6
PHANTOM
370
-3
390
F
  0
LAYER
  5
1FD
100
AcDbSymbolTableRecord
100
AcDbLayerTableRecord
  2
ALL_FEATURES
 70
0
 62
7
  6
CONTINUOUS
370
-3
390
F
  0
LAYER
  5
1FE
100
AcDbSymbolTableRecord
100
AcDbLayerTableRecord
  2
AXES_FEATURES
 70
0
 62
7
  6
CONTINUOUS
370
-3
390
F
  0
LAYER
  5
1FF
100
AcDbSymbolTableRecord
100
AcDbLayerTableRecord
  2
DIMENSIONS
 70
0
 62
7
  6
CONTINUOUS
370
-3
390
F
  0
ENDTAB
  0
TABLE
  2
STYLE
  5
3
100
AcDbSymbolTable
 70
1
  0
STYLE
  5
11
100
AcDbSymbolTableRecord
100
AcDbTextStyleTableRecord
  2
STANDARD
 70
0
 40
0.0
 41
0.8
 50
0.0
 71
0
 42
0.2
  3
txt
  4

  0
STYLE
  5
200
100
AcDbSymbolTableRecord
100
AcDbTextStyleTableRecord
  2
TEXTSTYLE_1
 70
0
 40
0.0
 41
0.8
 50
0.0
 71
0
 42
0.2
  3
gdt
  4

  0
ENDTAB
  0
TABLE
  2
VIEW
  5
6
100
AcDbSymbolTable
 70
0
  0
ENDTAB
  0
TABLE
  2
UCS
  5
7
100
AcDbSymbolTable
 70
0
  0
ENDTAB
  0
TABLE
  2
APPID
  5
9
100
AcDbSymbolTable
 70
1
  0
APPID
  5
201
100
AcDbSymbolTableRecord
100
AcDbRegAppTableRecord
  2
ACAD
 70
0
  0
ENDTAB
  0
TABLE
  2
BLOCK_RECORD
  5
1
100
AcDbSymbolTable
 70
0
  0
BLOCK_RECORD
  5
202
100
AcDbSymbolTableRecord
100
AcDbBlockTableRecord
  2
*Model_Space
  0
BLOCK_RECORD
  5
203
100
AcDbSymbolTableRecord
100
AcDbBlockTableRecord
  2
*Paper_Space
  0
BLOCK_RECORD
  5
204
100
AcDbSymbolTableRecord
100
AcDbBlockTableRecord
  2
_FILLED
  0
ENDTAB
  0
TABLE
  2
DIMSTYLE
  5
A
100
AcDbSymbolTable
 70
1
100
AcDbDimStyleTable
 71
0
  0
DIMSTYLE
105
205
100
AcDbSymbolTableRecord
100
AcDbDimStyleTableRecord
  2
STANDARD
 70
0
  3

  4

 40
1.0
 41
0.1
 42
0.0625
 43
0.38
 44
0.125
 45
0.0
 46
0.0
 47
0.001
 48
0.001
140
0.08
141
0.09
142
0.0
143
25.4
144
1.0
145
0.0
146
1.0
147
0.09
 71
1.0
 72
0.0
 73
1
 74
1
 75
0
 76
0
 77
0
 78
4
 79
1
170
1
171
2
172
0
173
0
174
0
175
0
176
0
177
0
178
0
270
2
179
3
271
3
272
3
273
2
274
2
275
0
280
0
281
0
282
0
283
1
284
4
285
0
286
0
287
3
288
0
340
11
278
46
341
204
342
204
343
204
344
204
  0
ENDTAB
  0
ENDSEC
  0
SECTION
  2
BLOCKS
  0
BLOCK
  5
20
100
AcDbEntity
  8
0
100
AcDbBlockBegin
  2
*Model_Space
 70
0
 10
0.0
 20
0.0
 30
0.0
  3
*Model_Space
  1

  0
ENDBLK
  5
21
100
AcDbEntity
  8
0
100
AcDbBlockEnd
  0
BLOCK
  5
1C
100
AcDbEntity
  8
0
100
AcDbBlockBegin
  2
*Paper_Space
 70
0
 10
0.0
 20
0.0
 30
0.0
  3
*Paper_Space
  1

  0
ENDBLK
  5
1D
100
AcDbEntity
  8
0
100
AcDbBlockEnd
  0
BLOCK
  5
206
100
AcDbEntity
  8
0
100
AcDbBlockBegin
  2
_FILLED
 70
64
 10
0.0
 20
0.0
  3
_FILLED
  1

  0
SOLID
  5
207
100
AcDbEntity
  8
0
  6
BYBLOCK
 62
0
100
AcDbTrace
 10
0.0
 20
0.0
 11
-1.0
 21
0.2
 12
-1.0
 22
-0.2
 13
-1.0
 23
-0.2
  0
ENDBLK
  5
208
100
AcDbEntity
  8
0
  6
BYBLOCK
 62
0
100
AcDbBlockEnd
  0
ENDSEC
  0
SECTION
  2
ENTITIES
  0
LINE
  5
209
100
AcDbEntity
  8
0
100
AcDbLine
 62
7
  6
CONTINUOUS
 10
-3.0120165109
 20
13.0966708734
 11
-3.0120165109
 21
12.2966742522
  0
LINE
  5
20A
100
AcDbEntity
  8
0
100
AcDbLine
 62
7
  6
CONTINUOUS
 10
-2.9120165109
 20
13.0966708734
 11
-2.9120165109
 21
12.2966708734
  0
LINE
  5
20B
100
AcDbEntity
  8
0
100
AcDbLine
 62
7
  6
CONTINUOUS
 10
-2.7270165109
 20
10.1798708734
 11
-2.7270165109
 21
10.2201852122
  0
LINE
  5
20C
100
AcDbEntity
  8
0
100
AcDbLine
 62
9
  6
CONTINUOUS
 10
-2.6925708291
 20
10.1798708734
 11
-2.6925708291
 21
10.2201854602
  0
LINE
  5
20D
100
AcDbEntity
  8
0
100
AcDbLine
 62
9
  6
CONTINUOUS
 10
-2.6792374958
 20
10.1798708734
 11
-2.6792374958
 21
10.2201852122
  0
LINE
  5
20E
100
AcDbEntity
  8
0
100
AcDbLine
 62
7
  6
CONTINUOUS
 10
-2.6356646131
 20
11.9423215248
 11
-2.6770165109
 21
10.3631562596
  0
LINE
  5
20F
100
AcDbEntity
  8
0
100
AcDbLine
 62
7
  6
CONTINUOUS
 10
-2.2583684086
 20
11.9423215248
 11
-2.2170165109
 21
10.3631562596
  0
LINE
  5
210
100
AcDbEntity
  8
0
100
AcDbLine
 62
7
  6
CONTINUOUS
 10
-2.6220165109
 20
12.2466708734
 11
-2.6220165109
 21
12.1393209385
  0
LINE
  5
211
100
AcDbEntity
  8
0
100
AcDbLine
 62
7
  6
CONTINUOUS
 10
-2.2720165109
 20
12.2466708734
 11
-2.2720165109
 21
12.1393209385
  0
LINE
  5
212
100
AcDbEntity
  8
0
100
AcDbLine
 62
9
  6
CONTINUOUS
 10
-2.214795526
 20
10.1798708734
 11
-2.214795526
 21
10.2201854602
  0
LINE
  5
213
100
AcDbEntity
  8
0
100
AcDbLine
 62
9
  6
CONTINUOUS
 10
-2.2014621926
 20
10.1798708734
 11
-2.2014621926
 21
10.2201852122
  0
LINE
  5
214
100
AcDbEntity
  8
0
100
AcDbLine
 62
7
  6
CONTINUOUS
 10
-2.1670165109
 20
10.1798708734
 11
-2.1670165109
 21
10.2201852122
  0
LINE
  5
215
100
AcDbEntity
  8
0
100
AcDbLine
 62
9
  6
CONTINUOUS
 10
-1.8520165109
 20
12.3166708734
 11
-1.8520165109
 21
13.0766708734
  0
LINE
  5
216
100
AcDbEntity
  8
0
100
AcDbLine
 62
7
  6
CONTINUOUS
 10
-1.7920165109
 20
13.1442708734
 11
-1.7920165109
 21
12.2490714765
  0
LINE
  5
217
100
AcDbEntity
  8
0
100
AcDbLine
 62
9
  6
CONTINUOUS
 10
-1.7601684144
 20
12.2265311803
 11
-1.7601684144
 21
13.1668105664
  0
LINE
  5
218
100
AcDbEntity
  8
0
100
AcDbLine
 62
9
  6
CONTINUOUS
 10
-1.7311121198
 20
12.2213896762
 11
-1.7311121198
 21
13.1719520705
  0
LINE
  5
219
100
AcDbEntity
  8
0
100
AcDbLine
 62
9
  6
CONTINUOUS
 10
-1.6860467019
 20
12.220807237
 11
-1.6860467019
 21
13.1725345097
  0
LINE
  5
21A
100
AcDbEntity
  8
0
100
AcDbLine
 62
9
  6
CONTINUOUS
 10
-1.6564371791
 20
12.2250280162
 11
-1.6564371791
 21
13.1683137305
  0
LINE
  5
21B
100
AcDbEntity
  8
0
100
AcDbLine
 62
9
  6
CONTINUOUS
 10
-1.6515303741
 20
12.2241794253
 11
-1.6515303741
 21
13.1691623215
  0
LINE
  5
21C
100
AcDbEntity
  8
0
100
AcDbLine
 62
9
  6
CONTINUOUS
 10
-1.4066612467
 20
12.1065309104
 11
-1.4066612467
 21
13.2868108363
  0
LINE
  5
21D
100
AcDbEntity
  8
0
100
AcDbLine
 62
9
  6
CONTINUOUS
 10
-1.3970165109
 20
13.2916708734
 11
-1.3970165109
 21
12.1016708734
  0
LINE
  5
21E
100
AcDbEntity
  8
0
100
AcDbLine
 62
7
  6
CONTINUOUS
 10
-1.2370165109
 20
12.1016806372
 11
-1.2370165109
 21
13.2916611096
  0
LINE
  5
21F
100
AcDbEntity
  8
0
100
AcDbLine
 62
7
  6
CONTINUOUS
 10
-1.2286665112
 20
12.6966708734
 11
-1.2286665112
 21
13.0810402921
  0
LINE
  5
220
100
AcDbEntity
  8
0
100
AcDbLine
 62
7
  6
CONTINUOUS
 10
-1.228601776
 20
12.6966709454
 11
-1.2286665112
 21
13.084520873
  0
LINE
  5
221
100
AcDbEntity
  8
0
100
AcDbLine
 62
7
  6
CONTINUOUS
 10
-1.2180165109
 20
13.2466618921
 11
-1.2180165109
 21
12.1466798546
  0
LINE
  5
222
100
AcDbEntity
  8
0
100
AcDbLine
 62
7
  6
CONTINUOUS
 10
-1.0180165109
 20
12.0466708734
 11
-1.0180165109
 21
11.8466708734
  0
LINE
  5
223
100
AcDbEntity
  8
0
100
AcDbLine
 62
7
  6
CONTINUOUS
 10
-0.9305165109
 20
11.8466708734
 11
-0.9305165109
 21
11.6616708734
  0
LINE
  5
224
100
AcDbEntity
  8
0
100
AcDbLine
 62
7
  6
CONTINUOUS
 10
-0.8342665109
 20
11.4916708734
 11
-0.8342665109
 21
11.4836708734
  0
LINE
  5
225
100
AcDbEntity
  8
0
100
AcDbLine
 62
7
  6
CONTINUOUS
 10
-1.2221231927
 20
12.3024266576
 11
-1.2184796155
 21
12.3087349702
  0
LINE
  5
226
100
AcDbEntity
  8
0
100
AcDbLine
 62
7
  6
CONTINUOUS
 10
-0.1017665109
 20
11.4916708734
 11
-0.1017665109
 21
11.4836708734
  0
LINE
  5
227
100
AcDbEntity
  8
0
100
AcDbLine
 62
7
  6
CONTINUOUS
 10
-0.0055165109
 20
11.8466708734
 11
-0.0055165109
 21
11.6616708734
  0
LINE
  5
228
100
AcDbEntity
  8
0
100
AcDbLine
 62
7
  6
CONTINUOUS
 10
0.0819834891
 20
12.0466708734
 11
0.0819834891
 21
11.8466708734
  0
LINE
  5
229
100
AcDbEntity
  8
0
100
AcDbLine
 62
7
  6
CONTINUOUS
 10
-1.2283091511
 20
13.0848782332
 11
-1.2180165109
 21
13.0951708734
  0
LINE
  5
22A
100
AcDbEntity
  8
0
100
AcDbLine
 62
7
  6
CONTINUOUS
 10
-1.2370165109
 20
13.0761708734
 11
-1.2286680333
 21
13.0845193509
  0
LINE
  5
22B
100
AcDbEntity
  8
0
100
AcDbLine
 62
7
  6
CONTINUOUS
 10
0.8819834891
 20
12.1466798546
 11
0.8819834891
 21
13.2466618921
  0
LINE
  5
22C
100
AcDbEntity
  8
0
100
AcDbLine
 62
7
  6
CONTINUOUS
 10
-1.2370165109
 20
12.3171708734
 11
-1.2222325472
 21
12.3023869097
  0
LINE
  5
22D
100
AcDbEntity
  8
0
100
AcDbLine
 62
7
  6
CONTINUOUS
 10
18.6266342851
 20
4.5366708734
 11
18.9753326932
 21
4.5366708734
  0
LINE
  5
22E
100
AcDbEntity
  8
0
100
AcDbLine
 62
9
  6
CONTINUOUS
 10
19.0540219554
 20
4.5710708734
 11
19.0240874649
 21
4.5710708734
  0
LINE
  5
22F
100
AcDbEntity
  8
0
100
AcDbLine
 62
9
  6
CONTINUOUS
 10
19.0140209309
 20
4.5710708734
 11
18.5879460474
 21
4.5710708734
  0
LINE
  5
230
100
AcDbEntity
  8
0
100
AcDbLine
 62
9
  6
CONTINUOUS
 10
18.5778795134
 20
4.5710708734
 11
18.5479450228
 21
4.5710708734
  0
LINE
  5
231
100
AcDbEntity
  8
0
100
AcDbLine
 62
9
  6
CONTINUOUS
 10
19.0687980887
 20
4.5814607666
 11
19.034877075
 21
4.5814607666
  0
LINE
  5
232
100
AcDbEntity
  8
0
100
AcDbLine
 62
9
  6
CONTINUOUS
 10
19.0296673419
 20
4.5814607666
 11
18.5722996363
 21
4.5814607666
  0
LINE
  5
233
100
AcDbEntity
  8
0
100
AcDbLine
 62
9
  6
CONTINUOUS
 10
18.5670899033
 20
4.5814607666
 11
18.5331688896
 21
4.5814607666
  0
LINE
  5
234
100
AcDbEntity
  8
0
100
AcDbLine
 62
9
  6
CONTINUOUS
 10
18.5209834891
 20
4.5998708734
 11
19.0809834891
 21
4.5998708734
  0
LINE
  5
235
100
AcDbEntity
  8
0
100
AcDbLine
 62
9
  6
CONTINUOUS
 10
19.0809834891
 20
4.6401852122
 11
18.5209834891
 21
4.6401852122
  0
LINE
  5
236
100
AcDbEntity
  8
0
100
AcDbLine
 62
9
  6
CONTINUOUS
 10
18.5250482279
 20
4.6522710489
 11
18.5593188937
 21
4.6522710489
  0
LINE
  5
237
100
AcDbEntity
  8
0
100
AcDbLine
 62
9
  6
CONTINUOUS
 10
18.5699424016
 20
4.6522710489
 11
19.0320245767
 21
4.6522710489
  0
LINE
  5
238
100
AcDbEntity
  8
0
100
AcDbLine
 62
9
  6
CONTINUOUS
 10
19.0426480846
 20
4.6522710489
 11
19.0769187504
 21
4.6522710489
  0
LINE
  5
239
100
AcDbEntity
  8
0
100
AcDbLine
 62
9
  6
CONTINUOUS
 10
18.5709834891
 20
4.7831562596
 11
18.5957180935
 21
4.7831562596
  0
LINE
  5
23A
100
AcDbEntity
  8
0
100
AcDbLine
 62
9
  6
CONTINUOUS
 10
18.6099596532
 20
4.7831562596
 11
18.9920073251
 21
4.7831562596
  0
LINE
  5
23B
100
AcDbEntity
  8
0
100
AcDbLine
 62
9
  6
CONTINUOUS
 10
19.0062488848
 20
4.7831562596
 11
19.0309834891
 21
4.7831562596
  0
LINE
  5
23C
100
AcDbEntity
  8
0
100
AcDbLine
 62
7
  6
CONTINUOUS
 10
19.5915628209
 20
7.5883137305
 11
19.5964696259
 21
7.5891623215
  0
LINE
  5
23D
100
AcDbEntity
  8
0
100
AcDbLine
 62
7
  6
CONTINUOUS
 10
24.4319834891
 20
5.6666708734
 11
24.4269834891
 21
5.6666708734
  0
LINE
  5
23E
100
AcDbEntity
  8
0
100
AcDbLine
 62
7
  6
CONTINUOUS
 10
24.2447558859
 20
5.7306708734
 11
24.1060863511
 21
5.7306708734
  0
LINE
  5
23F
100
AcDbEntity
  8
0
100
AcDbLine
 62
9
  6
CONTINUOUS
 10
24.4319834891
 20
5.8385601758
 11
24.3517548944
 21
5.8385601758
  0
LINE
  5
240
100
AcDbEntity
  8
0
100
AcDbLine
 62
9
  6
CONTINUOUS
 10
24.4319834891
 20
5.8594067593
 11
24.3517548251
 21
5.8594067593
  0
LINE
  5
241
100
AcDbEntity
  8
0
100
AcDbLine
 62
9
  6
CONTINUOUS
 10
24.2447560497
 20
5.8905732617
 11
24.2395299733
 21
5.8905732617
  0
LINE
  5
242
100
AcDbEntity
  8
0
100
AcDbLine
 62
9
  6
CONTINUOUS
 10
24.244755513
 20
5.911710489
 11
24.2395299821
 21
5.911710489
  0
LINE
  5
243
100
AcDbEntity
  8
0
100
AcDbLine
 62
9
  6
CONTINUOUS
 10
18.6291618083
 20
6.356060521
 11
18.6793673991
 21
6.356060521
  0
LINE
  5
244
100
AcDbEntity
  8
0
100
AcDbLine
 62
9
  6
CONTINUOUS
 10
18.9225993936
 20
6.356060521
 11
18.9728051588
 21
6.356060521
  0
LINE
  5
245
100
AcDbEntity
  8
0
100
AcDbLine
 62
9
  6
CONTINUOUS
 10
18.9717661789
 20
6.3952293847
 11
18.9218637514
 21
6.3952293847
  0
LINE
  5
246
100
AcDbEntity
  8
0
100
AcDbLine
 62
9
  6
CONTINUOUS
 10
18.6801037035
 20
6.3952293847
 11
18.6302005782
 21
6.3952293847
  0
LINE
  5
247
100
AcDbEntity
  8
0
100
AcDbLine
 62
9
  6
CONTINUOUS
 10
19.0097423332
 20
6.4510903781
 11
18.592224645
 21
6.4510903781
  0
LINE
  5
248
100
AcDbEntity
  8
0
100
AcDbLine
 62
7
  6
CONTINUOUS
 10
20.0219834891
 20
6.4541708734
 11
23.8619834891
 21
6.4541708734
  0
LINE
  5
249
100
AcDbEntity
  8
0
100
AcDbLine
 62
9
  6
CONTINUOUS
 10
19.0065149329
 20
6.4848640422
 11
18.5954520454
 21
6.4848640422
  0
LINE
  5
24A
100
AcDbEntity
  8
0
100
AcDbLine
 62
7
  6
CONTINUOUS
 10
19.8509834891
 20
6.5216708734
 11
20.0109834891
 21
6.5216708734
  0
LINE
  5
24B
100
AcDbEntity
  8
0
100
AcDbLine
 62
9
  6
CONTINUOUS
 10
18.6098509776
 20
6.5327184431
 11
18.9921160007
 21
6.5327184431
  0
LINE
  5
24C
100
AcDbEntity
  8
0
100
AcDbLine
 62
9
  6
CONTINUOUS
 10
18.6259834891
 20
6.5593209385
 11
18.9759834891
 21
6.5593209385
  0
LINE
  5
24D
100
AcDbEntity
  8
0
100
AcDbLine
 62
7
  6
CONTINUOUS
 10
20.0109834891
 20
6.6441708734
 11
20.0124131529
 21
6.6441708734
  0
LINE
  5
24E
100
AcDbEntity
  8
0
100
AcDbLine
 62
7
  6
CONTINUOUS
 10
18.3359834891
 20
6.7366708734
 11
18.5559834891
 21
6.7366708734
  0
LINE
  5
24F
100
AcDbEntity
  8
0
100
AcDbLine
 62
7
  6
CONTINUOUS
 10
19.0459834891
 20
6.7366708734
 11
19.3959834891
 21
6.7366708734
  0
LINE
  5
250
100
AcDbEntity
  8
0
100
AcDbLine
 62
7
  6
CONTINUOUS
 10
24.2447553328
 20
7.1167068017
 11
24.3253388757
 21
7.1167082593
  0
LINE
  5
251
100
AcDbEntity
  8
0
100
AcDbLine
 62
7
  6
CONTINUOUS
 10
24.3252842337
 20
7.1167082753
 11
24.3517544969
 21
7.1167084101
  0
LINE
  5
252
100
AcDbEntity
  8
0
100
AcDbLine
 62
7
  6
CONTINUOUS
 10
9.2919834891
 20
13.1666708734
 11
9.2919834891
 21
12.2266708734
  0
LINE
  5
253
100
AcDbEntity
  8
0
100
AcDbLine
 62
7
  6
CONTINUOUS
 10
9.7519834891
 20
13.4631127346
 11
9.7519834891
 21
13.2266708734
  0
LINE
  5
254
100
AcDbEntity
  8
0
100
AcDbLine
 62
7
  6
CONTINUOUS
 10
9.7519834891
 20
12.1666708734
 11
9.7519834891
 21
11.8066708734
  0
LINE
  5
255
100
AcDbEntity
  8
0
100
AcDbLine
 62
7
  6
CONTINUOUS
 10
9.7519834891
 20
9.0666708734
 11
9.7519834891
 21
11.7866708734
  0
LINE
  5
256
100
AcDbEntity
  8
0
100
AcDbLine
 62
7
  6
CONTINUOUS
 10
18.3359834891
 20
7.4966708734
 11
19.3959834891
 21
7.4966708734
  0
LINE
  5
257
100
AcDbEntity
  8
0
100
AcDbLine
 62
7
  6
CONTINUOUS
 10
20.0150734173
 20
7.5678608728
 11
20.0109834891
 21
7.5678608728
  0
LINE
  5
258
100
AcDbEntity
  8
0
100
AcDbLine
 62
7
  6
CONTINUOUS
 10
19.8509834891
 20
7.7116708734
 11
20.0109834891
 21
7.7116708734
  0
LINE
  5
259
100
AcDbEntity
  8
0
100
AcDbLine
 62
7
  6
CONTINUOUS
 10
20.0219834891
 20
7.7791708734
 11
20.2619841195
 21
7.7791708734
  0
LINE
  5
25A
100
AcDbEntity
  8
0
100
AcDbLine
 62
7
  6
CONTINUOUS
 10
21.5819828771
 20
7.7791708734
 11
23.8619834891
 21
7.7791708734
  0
LINE
  5
25B
100
AcDbEntity
  8
0
100
AcDbLine
 62
7
  6
CONTINUOUS
 10
21.5219834891
 20
7.8666708734
 11
20.3219834891
 21
7.8666708734
  0
LINE
  5
25C
100
AcDbEntity
  8
0
100
AcDbLine
 62
7
  6
CONTINUOUS
 10
9.8819834891
 20
11.7866708734
 11
9.8819834891
 21
11.8066708734
  0
LINE
  5
25D
100
AcDbEntity
  8
0
100
AcDbLine
 62
7
  6
CONTINUOUS
 10
10.1365768968
 20
11.7866708734
 11
10.1365768968
 21
11.4866708734
  0
LINE
  5
25E
100
AcDbEntity
  8
0
100
AcDbLine
 62
7
  6
CONTINUOUS
 10
10.5673900814
 20
11.4866708734
 11
10.5673900814
 21
11.7866708734
  0
LINE
  5
25F
100
AcDbEntity
  8
0
100
AcDbLine
 62
7
  6
CONTINUOUS
 10
10.8219834891
 20
11.7866708734
 11
10.8219834891
 21
11.8066708734
  0
LINE
  5
260
100
AcDbEntity
  8
0
100
AcDbLine
 62
9
  6
CONTINUOUS
 10
24.2447560497
 20
8.3216311608
 11
24.2395299733
 21
8.3216311608
  0
LINE
  5
261
100
AcDbEntity
  8
0
100
AcDbLine
 62
9
  6
CONTINUOUS
 10
24.244755513
 20
8.3427684589
 11
24.2395299821
 21
8.3427684589
  0
LINE
  5
262
100
AcDbEntity
  8
0
100
AcDbLine
 62
9
  6
CONTINUOUS
 10
24.4319834891
 20
8.3739349874
 11
24.3517548944
 21
8.3739349874
  0
LINE
  5
263
100
AcDbEntity
  8
0
100
AcDbLine
 62
9
  6
CONTINUOUS
 10
24.4319834891
 20
8.394781571
 11
24.3517548251
 21
8.394781571
  0
LINE
  5
264
100
AcDbEntity
  8
0
100
AcDbLine
 62
7
  6
CONTINUOUS
 10
24.2447558859
 20
8.5026708734
 11
24.1060863511
 21
8.5026708734
  0
LINE
  5
265
100
AcDbEntity
  8
0
100
AcDbLine
 62
7
  6
CONTINUOUS
 10
24.4319834891
 20
8.5666708734
 11
24.3517550113
 21
8.5666708734
  0
LINE
  5
266
100
AcDbEntity
  8
0
100
AcDbLine
 62
7
  6
CONTINUOUS
 10
21.1373900814
 20
8.6266708734
 11
20.7065768968
 21
8.6266708734
  0
LINE
  5
267
100
AcDbEntity
  8
0
100
AcDbLine
 62
7
  6
CONTINUOUS
 10
21.5219780245
 20
8.9266708734
 11
20.3219889538
 21
8.9266708734
  0
LINE
  5
268
100
AcDbEntity
  8
0
100
AcDbLine
 62
7
  6
CONTINUOUS
 10
20.3219834891
 20
8.9466708734
 11
21.5219834891
 21
8.9466708734
  0
LINE
  5
269
100
AcDbEntity
  8
0
100
AcDbLine
 62
7
  6
CONTINUOUS
 10
9.7719835089
 20
9.0466708734
 11
10.9319834694
 21
9.0466708734
  0
LINE
  5
26A
100
AcDbEntity
  8
0
100
AcDbLine
 62
9
  6
CONTINUOUS
 10
9.7519834891
 20
9.0666708734
 11
10.9519834891
 21
9.0666708734
  0
LINE
  5
26B
100
AcDbEntity
  8
0
100
AcDbLine
 62
7
  6
CONTINUOUS
 10
19.5915628209
 20
6.6450280162
 11
19.5964696259
 21
6.6441794253
  0
LINE
  5
26C
100
AcDbEntity
  8
0
100
AcDbLine
 62
7
  6
CONTINUOUS
 10
10.9519834891
 20
13.4631127346
 11
10.9519834891
 21
11.8066708734
  0
LINE
  5
26D
100
AcDbEntity
  8
0
100
AcDbLine
 62
7
  6
CONTINUOUS
 10
10.9519834891
 20
9.0666708734
 11
10.9519834891
 21
9.3066708734
  0
LINE
  5
26E
100
AcDbEntity
  8
0
100
AcDbLine
 62
7
  6
CONTINUOUS
 10
10.9519834891
 20
10.3666708734
 11
10.9519834891
 21
11.7866708734
  0
LINE
  5
26F
100
AcDbEntity
  8
0
100
AcDbLine
 62
7
  6
CONTINUOUS
 10
11.4119834891
 20
9.3666708734
 11
11.4119834891
 21
10.3066708734
  0
LINE
  5
270
100
AcDbEntity
  8
0
100
AcDbLine
 62
7
  6
CONTINUOUS
 10
20.2619834891
 20
9.3666708734
 11
19.8619834891
 21
9.3666708734
  0
LINE
  5
271
100
AcDbEntity
  8
0
100
AcDbLine
 62
7
  6
CONTINUOUS
 10
11.0119834891
 20
9.3666708734
 11
11.4119834891
 21
9.3666708734
  0
LINE
  5
272
100
AcDbEntity
  8
0
100
AcDbLine
 62
7
  6
CONTINUOUS
 10
19.8619834891
 20
9.4616708734
 11
11.4119834891
 21
9.4616708734
  0
LINE
  5
273
100
AcDbEntity
  8
0
100
AcDbLine
 62
7
  6
CONTINUOUS
 10
-1.6564371791
 20
12.2250280162
 11
-1.6515303741
 21
12.2241794253
  0
LINE
  5
274
100
AcDbEntity
  8
0
100
AcDbLine
 62
7
  6
CONTINUOUS
 10
-2.6213657149
 20
10.1166708734
 11
-2.2726673068
 21
10.1166708734
  0
LINE
  5
275
100
AcDbEntity
  8
0
100
AcDbLine
 62
9
  6
CONTINUOUS
 10
-2.1939780446
 20
10.1510708734
 11
-2.2239125351
 21
10.1510708734
  0
LINE
  5
276
100
AcDbEntity
  8
0
100
AcDbLine
 62
9
  6
CONTINUOUS
 10
-2.2339790691
 20
10.1510708734
 11
-2.6600539526
 21
10.1510708734
  0
LINE
  5
277
100
AcDbEntity
  8
0
100
AcDbLine
 62
9
  6
CONTINUOUS
 10
-2.6701204866
 20
10.1510708734
 11
-2.7000549772
 21
10.1510708734
  0
LINE
  5
278
100
AcDbEntity
  8
0
100
AcDbLine
 62
9
  6
CONTINUOUS
 10
-2.1792019113
 20
10.1614607666
 11
-2.213122925
 21
10.1614607666
  0
LINE
  5
279
100
AcDbEntity
  8
0
100
AcDbLine
 62
9
  6
CONTINUOUS
 10
-2.2183326581
 20
10.1614607666
 11
-2.6757003637
 21
10.1614607666
  0
LINE
  5
27A
100
AcDbEntity
  8
0
100
AcDbLine
 62
9
  6
CONTINUOUS
 10
-2.6809100967
 20
10.1614607666
 11
-2.7148311104
 21
10.1614607666
  0
LINE
  5
27B
100
AcDbEntity
  8
0
100
AcDbLine
 62
9
  6
CONTINUOUS
 10
-2.7270165109
 20
10.1798708734
 11
-2.1670165109
 21
10.1798708734
  0
LINE
  5
27C
100
AcDbEntity
  8
0
100
AcDbLine
 62
7
  6
CONTINUOUS
 10
19.8619834891
 20
10.2116708734
 11
11.4119834891
 21
10.2116708734
  0
LINE
  5
27D
100
AcDbEntity
  8
0
100
AcDbLine
 62
9
  6
CONTINUOUS
 10
-2.1670165109
 20
10.2201852122
 11
-2.7270165109
 21
10.2201852122
  0
LINE
  5
27E
100
AcDbEntity
  8
0
100
AcDbLine
 62
9
  6
CONTINUOUS
 10
-2.7229517721
 20
10.2322710489
 11
-2.6886811063
 21
10.2322710489
  0
LINE
  5
27F
100
AcDbEntity
  8
0
100
AcDbLine
 62
9
  6
CONTINUOUS
 10
-2.6780575984
 20
10.2322710489
 11
-2.2159754233
 21
10.2322710489
  0
LINE
  5
280
100
AcDbEntity
  8
0
100
AcDbLine
 62
9
  6
CONTINUOUS
 10
-2.2053519154
 20
10.2322710489
 11
-2.1710812496
 21
10.2322710489
  0
LINE
  5
281
100
AcDbEntity
  8
0
100
AcDbLine
 62
7
  6
CONTINUOUS
 10
20.2619834891
 20
10.3066708734
 11
19.8619834891
 21
10.3066708734
  0
LINE
  5
282
100
AcDbEntity
  8
0
100
AcDbLine
 62
7
  6
CONTINUOUS
 10
11.0119834891
 20
10.3066708734
 11
11.4119834891
 21
10.3066708734
  0
LINE
  5
283
100
AcDbEntity
  8
0
100
AcDbLine
 62
9
  6
CONTINUOUS
 10
-2.6770165109
 20
10.3631562596
 11
-2.6522819065
 21
10.3631562596
  0
LINE
  5
284
100
AcDbEntity
  8
0
100
AcDbLine
 62
9
  6
CONTINUOUS
 10
-2.6380403468
 20
10.3631562596
 11
-2.2559926749
 21
10.3631562596
  0
LINE
  5
285
100
AcDbEntity
  8
0
100
AcDbLine
 62
9
  6
CONTINUOUS
 10
-2.2417511152
 20
10.3631562596
 11
-2.2170165109
 21
10.3631562596
  0
LINE
  5
286
100
AcDbEntity
  8
0
100
AcDbLine
 62
9
  6
CONTINUOUS
 10
21.5219834891
 20
10.6031127346
 11
20.3219834891
 21
10.6031127346
  0
LINE
  5
287
100
AcDbEntity
  8
0
100
AcDbLine
 62
7
  6
CONTINUOUS
 10
21.5019834694
 20
10.6231127346
 11
20.3419835089
 21
10.6231127346
  0
LINE
  5
288
100
AcDbEntity
  8
0
100
AcDbLine
 62
7
  6
CONTINUOUS
 10
10.9519834891
 20
10.7266708734
 11
9.7519834891
 21
10.7266708734
  0
LINE
  5
289
100
AcDbEntity
  8
0
100
AcDbLine
 62
7
  6
CONTINUOUS
 10
-0.8342663085
 20
11.4836708734
 11
-0.1017667132
 21
11.4836708734
  0
LINE
  5
28A
100
AcDbEntity
  8
0
100
AcDbLine
 62
7
  6
CONTINUOUS
 10
10.5673900814
 20
11.4866708734
 11
10.1365768968
 21
11.4866708734
  0
LINE
  5
28B
100
AcDbEntity
  8
0
100
AcDbLine
 62
7
  6
CONTINUOUS
 10
-0.0498483439
 20
11.4916708734
 11
-0.8861846778
 21
11.4916708734
  0
LINE
  5
28C
100
AcDbEntity
  8
0
100
AcDbLine
 62
9
  6
CONTINUOUS
 10
-0.0407284238
 20
11.4975683093
 11
-0.8953045979
 21
11.4975683093
  0
LINE
  5
28D
100
AcDbEntity
  8
0
100
AcDbLine
 62
9
  6
CONTINUOUS
 10
-0.9305165109
 20
11.6616708734
 11
-0.0055165109
 21
11.6616708734
  0
LINE
  5
28E
100
AcDbEntity
  8
0
100
AcDbLine
 62
7
  6
CONTINUOUS
 10
10.9519780245
 20
11.7866708734
 11
9.7519889538
 21
11.7866708734
  0
LINE
  5
28F
100
AcDbEntity
  8
0
100
AcDbLine
 62
7
  6
CONTINUOUS
 10
9.7519834891
 20
11.8066708734
 11
10.9519834891
 21
11.8066708734
  0
LINE
  5
290
100
AcDbEntity
  8
0
100
AcDbLine
 62
7
  6
CONTINUOUS
 10
-1.0180165109
 20
11.8466708734
 11
0.0819834891
 21
11.8466708734
  0
LINE
  5
291
100
AcDbEntity
  8
0
100
AcDbLine
 62
9
  6
CONTINUOUS
 10
-2.6188381917
 20
11.936060521
 11
-2.5686326009
 21
11.936060521
  0
LINE
  5
292
100
AcDbEntity
  8
0
100
AcDbLine
 62
9
  6
CONTINUOUS
 10
-2.3254006064
 20
11.936060521
 11
-2.2751948412
 21
11.936060521
  0
LINE
  5
293
100
AcDbEntity
  8
0
100
AcDbLine
 62
9
  6
CONTINUOUS
 10
-2.2762338211
 20
11.9752293847
 11
-2.3261362486
 21
11.9752293847
  0
LINE
  5
294
100
AcDbEntity
  8
0
100
AcDbLine
 62
9
  6
CONTINUOUS
 10
-2.5678962965
 20
11.9752293847
 11
-2.6177994218
 21
11.9752293847
  0
LINE
  5
295
100
AcDbEntity
  8
0
100
AcDbLine
 62
9
  6
CONTINUOUS
 10
-2.2382576668
 20
12.0310903781
 11
-2.655775355
 21
12.0310903781
  0
LINE
  5
296
100
AcDbEntity
  8
0
100
AcDbLine
 62
9
  6
CONTINUOUS
 10
-2.2414850671
 20
12.0648640422
 11
-2.6525479546
 21
12.0648640422
  0
LINE
  5
297
100
AcDbEntity
  8
0
100
AcDbLine
 62
7
  6
CONTINUOUS
 10
-1.3970165109
 20
12.1016708734
 11
-1.2370165109
 21
12.1016708734
  0
LINE
  5
298
100
AcDbEntity
  8
0
100
AcDbLine
 62
9
  6
CONTINUOUS
 10
-2.6381490224
 20
12.1127184431
 11
-2.2558839993
 21
12.1127184431
  0
LINE
  5
299
100
AcDbEntity
  8
0
100
AcDbLine
 62
9
  6
CONTINUOUS
 10
-2.6220165109
 20
12.1393209385
 11
-2.2720165109
 21
12.1393209385
  0
LINE
  5
29A
100
AcDbEntity
  8
0
100
AcDbLine
 62
7
  6
CONTINUOUS
 10
0.8819834891
 20
12.1466708734
 11
0.1819832856
 21
12.1466708734
  0
LINE
  5
29B
100
AcDbEntity
  8
0
100
AcDbLine
 62
7
  6
CONTINUOUS
 10
-1.1180163073
 20
12.1466708734
 11
-1.2180165109
 21
12.1466708734
  0
LINE
  5
29C
100
AcDbEntity
  8
0
100
AcDbLine
 62
7
  6
CONTINUOUS
 10
9.6919834891
 20
12.2266708734
 11
9.2919834891
 21
12.2266708734
  0
LINE
  5
29D
100
AcDbEntity
  8
0
100
AcDbLine
 62
7
  6
CONTINUOUS
 10
-1.2186283454
 20
12.3088208741
 11
-1.2180165109
 21
12.3088208741
  0
LINE
  5
29E
100
AcDbEntity
  8
0
100
AcDbLine
 62
7
  6
CONTINUOUS
 10
-2.9120165109
 20
12.3166708734
 11
-2.6920165109
 21
12.3166708734
  0
LINE
  5
29F
100
AcDbEntity
  8
0
100
AcDbLine
 62
7
  6
CONTINUOUS
 10
-2.2020165109
 20
12.3166708734
 11
-1.8520165109
 21
12.3166708734
  0
LINE
  5
2A0
100
AcDbEntity
  8
0
100
AcDbLine
 62
7
  6
CONTINUOUS
 10
9.2919834891
 20
12.3216708734
 11
0.8819834891
 21
12.3216708734
  0
LINE
  5
2A1
100
AcDbEntity
  8
0
100
AcDbLine
 62
7
  6
CONTINUOUS
 10
9.2919834891
 20
13.0716708734
 11
0.8819834891
 21
13.0716708734
  0
LINE
  5
2A2
100
AcDbEntity
  8
0
100
AcDbLine
 62
7
  6
CONTINUOUS
 10
-2.9120165109
 20
13.0766708734
 11
-1.8520165109
 21
13.0766708734
  0
LINE
  5
2A3
100
AcDbEntity
  8
0
100
AcDbLine
 62
7
  6
CONTINUOUS
 10
9.6919834891
 20
13.1666708734
 11
9.2919834891
 21
13.1666708734
  0
LINE
  5
2A4
100
AcDbEntity
  8
0
100
AcDbLine
 62
7
  6
CONTINUOUS
 10
0.8819834891
 20
13.2466708734
 11
-1.2180165109
 21
13.2466708734
  0
LINE
  5
2A5
100
AcDbEntity
  8
0
100
AcDbLine
 62
7
  6
CONTINUOUS
 10
-1.3970165109
 20
13.2916708734
 11
-1.2370165109
 21
13.2916708734
  0
LINE
  5
2A6
100
AcDbEntity
  8
0
100
AcDbLine
 62
9
  6
CONTINUOUS
 10
10.9519834891
 20
13.4631127346
 11
9.7519834891
 21
13.4631127346
  0
LINE
  5
2A7
100
AcDbEntity
  8
0
100
AcDbLine
 62
7
  6
CONTINUOUS
 10
10.9319834694
 20
13.4831127346
 11
9.7719835089
 21
13.4831127346
  0
LINE
  5
2A8
100
AcDbEntity
  8
0
100
AcDbLine
 62
7
  6
CONTINUOUS
 10
-1.6564371791
 20
13.1683137305
 11
-1.6515303741
 21
13.1691623215
  0
LINE
  5
2A9
100
AcDbEntity
  8
0
100
AcDbLine
 62
7
  6
CONTINUOUS
 10
18.2359834891
 20
7.5166708734
 11
18.2359834891
 21
6.7166742522
  0
LINE
  5
2AA
100
AcDbEntity
  8
0
100
AcDbLine
 62
7
  6
CONTINUOUS
 10
18.3359834891
 20
7.5166708734
 11
18.3359834891
 21
6.7166708734
  0
LINE
  5
2AB
100
AcDbEntity
  8
0
100
AcDbLine
 62
7
  6
CONTINUOUS
 10
18.5209834891
 20
4.5998708734
 11
18.5209834891
 21
4.6401852122
  0
LINE
  5
2AC
100
AcDbEntity
  8
0
100
AcDbLine
 62
7
  6
CONTINUOUS
 10
18.9896315914
 20
6.3623215248
 11
19.0309834891
 21
4.7831562596
  0
LINE
  5
2AD
100
AcDbEntity
  8
0
100
AcDbLine
 62
9
  6
CONTINUOUS
 10
18.5554291709
 20
4.5998708734
 11
18.5554291709
 21
4.6401854602
  0
LINE
  5
2AE
100
AcDbEntity
  8
0
100
AcDbLine
 62
9
  6
CONTINUOUS
 10
18.5687625042
 20
4.5998708734
 11
18.5687625042
 21
4.6401852122
  0
LINE
  5
2AF
100
AcDbEntity
  8
0
100
AcDbLine
 62
7
  6
CONTINUOUS
 10
18.6259834891
 20
6.6666708734
 11
18.6259834891
 21
6.5593209385
  0
LINE
  5
2B0
100
AcDbEntity
  8
0
100
AcDbLine
 62
7
  6
CONTINUOUS
 10
18.9759834891
 20
6.6666708734
 11
18.9759834891
 21
6.5593209385
  0
LINE
  5
2B1
100
AcDbEntity
  8
0
100
AcDbLine
 62
9
  6
CONTINUOUS
 10
19.033204474
 20
4.5998708734
 11
19.033204474
 21
4.6401854602
  0
LINE
  5
2B2
100
AcDbEntity
  8
0
100
AcDbLine
 62
9
  6
CONTINUOUS
 10
19.0465378074
 20
4.5998708734
 11
19.0465378074
 21
4.6401852122
  0
LINE
  5
2B3
100
AcDbEntity
  8
0
100
AcDbLine
 62
7
  6
CONTINUOUS
 10
19.0809834891
 20
4.5998708734
 11
19.0809834891
 21
4.6401852122
  0
LINE
  5
2B4
100
AcDbEntity
  8
0
100
AcDbLine
 62
9
  6
CONTINUOUS
 10
19.3959834891
 20
6.7366708734
 11
19.3959834891
 21
7.4966708734
  0
LINE
  5
2B5
100
AcDbEntity
  8
0
100
AcDbLine
 62
7
  6
CONTINUOUS
 10
19.4559834891
 20
7.5642708734
 11
19.4559834891
 21
6.6690714765
  0
LINE
  5
2B6
100
AcDbEntity
  8
0
100
AcDbLine
 62
9
  6
CONTINUOUS
 10
19.4878315856
 20
6.6465311803
 11
19.4878315856
 21
7.5868105664
  0
LINE
  5
2B7
100
AcDbEntity
  8
0
100
AcDbLine
 62
7
  6
CONTINUOUS
 10
18.6123353869
 20
6.3623215248
 11
18.5709834891
 21
4.7831562596
  0
LINE
  5
2B8
100
AcDbEntity
  8
0
100
AcDbLine
 62
7
  6
CONTINUOUS
 10
20.0219834891
 20
7.5802564021
 11
20.014742949
 21
7.5677192468
  0
LINE
  5
2B9
100
AcDbEntity
  8
0
100
AcDbLine
 62
9
  6
CONTINUOUS
 10
19.5168878802
 20
6.6413896762
 11
19.5168878802
 21
7.5919520705
  0
LINE
  5
2BA
100
AcDbEntity
  8
0
100
AcDbLine
 62
9
  6
CONTINUOUS
 10
19.5619532981
 20
6.640807237
 11
19.5619532981
 21
7.5925345097
  0
LINE
  5
2BB
100
AcDbEntity
  8
0
100
AcDbLine
 62
9
  6
CONTINUOUS
 10
19.5915628209
 20
6.6450280162
 11
19.5915628209
 21
7.5883137305
  0
LINE
  5
2BC
100
AcDbEntity
  8
0
100
AcDbLine
 62
9
  6
CONTINUOUS
 10
19.5964696259
 20
6.6441794253
 11
19.5964696259
 21
7.5891623215
  0
LINE
  5
2BD
100
AcDbEntity
  8
0
100
AcDbLine
 62
9
  6
CONTINUOUS
 10
19.8413387533
 20
6.5265309104
 11
19.8413387533
 21
7.7068108363
  0
LINE
  5
2BE
100
AcDbEntity
  8
0
100
AcDbLine
 62
9
  6
CONTINUOUS
 10
19.8509834891
 20
7.7116708734
 11
19.8509834891
 21
6.5216708734
  0
LINE
  5
2BF
100
AcDbEntity
  8
0
100
AcDbLine
 62
7
  6
CONTINUOUS
 10
19.8619834891
 20
10.3066708734
 11
19.8619834891
 21
9.3666708734
  0
LINE
  5
2C0
100
AcDbEntity
  8
0
100
AcDbLine
 62
7
  6
CONTINUOUS
 10
20.0109834891
 20
6.5216806372
 11
20.0109834891
 21
7.7116611096
  0
LINE
  5
2C1
100
AcDbEntity
  8
0
100
AcDbLine
 62
7
  6
CONTINUOUS
 10
20.0219834891
 20
7.7791708734
 11
20.0219834891
 21
6.4541708734
  0
LINE
  5
2C2
100
AcDbEntity
  8
0
100
AcDbLine
 62
7
  6
CONTINUOUS
 10
20.3219834891
 20
10.6031127346
 11
20.3219834891
 21
10.3666708734
  0
LINE
  5
2C3
100
AcDbEntity
  8
0
100
AcDbLine
 62
7
  6
CONTINUOUS
 10
20.3219834891
 20
9.3066708734
 11
20.3219834891
 21
8.9466708734
  0
LINE
  5
2C4
100
AcDbEntity
  8
0
100
AcDbLine
 62
7
  6
CONTINUOUS
 10
20.3219834891
 20
7.8391708734
 11
20.3219834891
 21
8.9266708734
  0
LINE
  5
2C5
100
AcDbEntity
  8
0
100
AcDbLine
 62
7
  6
CONTINUOUS
 10
20.4519834891
 20
8.9266708734
 11
20.4519834891
 21
8.9466708734
  0
LINE
  5
2C6
100
AcDbEntity
  8
0
100
AcDbLine
 62
7
  6
CONTINUOUS
 10
20.0125726128
 20
6.6443049932
 11
20.0219834891
 21
6.6605996784
  0
LINE
  5
2C7
100
AcDbEntity
  8
0
100
AcDbLine
 62
7
  6
CONTINUOUS
 10
20.7065768968
 20
8.9266708734
 11
20.7065768968
 21
8.6266708734
  0
LINE
  5
2C8
100
AcDbEntity
  8
0
100
AcDbLine
 62
7
  6
CONTINUOUS
 10
21.1373900814
 20
8.6266708734
 11
21.1373900814
 21
8.9266708734
  0
LINE
  5
2C9
100
AcDbEntity
  8
0
100
AcDbLine
 62
7
  6
CONTINUOUS
 10
21.3919834891
 20
8.9266708734
 11
21.3919834891
 21
8.9466708734
  0
LINE
  5
2CA
100
AcDbEntity
  8
0
100
AcDbLine
 62
7
  6
CONTINUOUS
 10
21.5219834891
 20
10.6031127346
 11
21.5219834891
 21
8.9466708734
  0
LINE
  5
2CB
100
AcDbEntity
  8
0
100
AcDbLine
 62
7
  6
CONTINUOUS
 10
21.5219834891
 20
7.8391708734
 11
21.5219834891
 21
8.9266708734
  0
LINE
  5
2CC
100
AcDbEntity
  8
0
100
AcDbLine
 62
7
  6
CONTINUOUS
 10
23.8619834891
 20
8.4320819713
 11
23.8619834891
 21
5.8012597754
  0
LINE
  5
2CD
100
AcDbEntity
  8
0
100
AcDbLine
 62
9
  6
CONTINUOUS
 10
23.9153168225
 20
8.469794333
 11
23.9153168225
 21
5.7635474138
  0
LINE
  5
2CE
100
AcDbEntity
  8
0
100
AcDbLine
 62
9
  6
CONTINUOUS
 10
23.963801671
 20
8.4783653243
 11
23.963801671
 21
5.7549764225
  0
LINE
  5
2CF
100
AcDbEntity
  8
0
100
AcDbLine
 62
9
  6
CONTINUOUS
 10
24.0375191025
 20
5.7529149703
 11
24.0375191025
 21
8.4804267764
  0
LINE
  5
2D0
100
AcDbEntity
  8
0
100
AcDbLine
 62
9
  6
CONTINUOUS
 10
24.0806879227
 20
5.7447046638
 11
24.0806879227
 21
5.7447217154
  0
LINE
  5
2D1
100
AcDbEntity
  8
0
100
AcDbLine
 62
9
  6
CONTINUOUS
 10
24.0835784695
 20
5.7558565445
 11
24.0835784695
 21
6.9000429419
  0
LINE
  5
2D2
100
AcDbEntity
  8
0
100
AcDbLine
 62
9
  6
CONTINUOUS
 10
24.0835784695
 20
7.3332988048
 11
24.0835784695
 21
8.4774852023
  0
LINE
  5
2D3
100
AcDbEntity
  8
0
100
AcDbLine
 62
9
  6
CONTINUOUS
 10
24.2395299733
 20
8.3427684703
 11
24.2395299733
 21
8.3216311608
  0
LINE
  5
2D4
100
AcDbEntity
  8
0
100
AcDbLine
 62
9
  6
CONTINUOUS
 10
24.2395299733
 20
5.9117105314
 11
24.2395299733
 21
5.8905732617
  0
LINE
  5
2D5
100
AcDbEntity
  8
0
100
AcDbLine
 62
9
  6
CONTINUOUS
 10
24.2447556994
 20
5.7306708735
 11
24.2447556995
 21
8.5026708732
  0
LINE
  5
2D6
100
AcDbEntity
  8
0
100
AcDbLine
 62
9
  6
CONTINUOUS
 10
24.3253232591
 20
8.3696923099
 11
24.3253232591
 21
7.116707788
  0
LINE
  5
2D7
100
AcDbEntity
  8
0
100
AcDbLine
 62
9
  6
CONTINUOUS
 10
24.3253232591
 20
5.8537900375
 11
24.3253232591
 21
5.6831365467
  0
LINE
  5
2D8
100
AcDbEntity
  8
0
100
AcDbLine
 62
7
  6
CONTINUOUS
 10
24.3253388757
 20
7.1167082593
 11
24.3253106049
 21
5.863649835
  0
LINE
  5
2D9
100
AcDbEntity
  8
0
100
AcDbLine
 62
9
  6
CONTINUOUS
 10
24.3517549182
 20
8.5666708732
 11
24.3517550113
 21
5.6675743803
  0
LINE
  5
2DA
100
AcDbEntity
  8
0
100
AcDbLine
 62
7
  6
CONTINUOUS
 10
24.4319834891
 20
5.666675059
 11
24.4319834891
 21
8.5666666878
  0
LINE
  5
2DB
100
AcDbEntity
  8
0
100
AcDbLine
 62
7
  6
CONTINUOUS
 10
24.3253388757
 20
8.5508521976
 11
24.3253106049
 21
8.3795583255
  0
ARC
  5
2DC
100
AcDbEntity
  8
0
100
AcDbCircle
 62
7
  6
CONTINUOUS
 10
-2.9033389292
 20
10.3690827207
 40
0.2264
100
AcDbArc
 50
322.8220998293
 51
358.5
  0
ARC
  5
2DD
100
AcDbEntity
  8
0
100
AcDbCircle
 62
7
  6
CONTINUOUS
 10
-1.9906940925
 20
10.3690827207
 40
0.2264
100
AcDbArc
 50
181.5
 51
217.1779001707
  0
ARC
  5
2DE
100
AcDbEntity
  8
0
100
AcDbCircle
 62
7
  6
CONTINUOUS
 10
-2.6213657149
 20
10.2238708734
 40
0.1072
100
AcDbArc
 50
222.7737033384
 51
270.0
  0
ARC
  5
2DF
100
AcDbEntity
  8
0
100
AcDbCircle
 62
7
  6
CONTINUOUS
 10
-2.2726673068
 20
10.2238708734
 40
0.1072
100
AcDbArc
 50
270.0
 51
317.2262966616
  0
ARC
  5
2E0
100
AcDbEntity
  8
0
100
AcDbCircle
 62
9
  6
CONTINUOUS
 10
-2.2906067245
 20
10.196168551
 40
0.0794977138
100
AcDbArc
 50
270.0547350266
 51
282.0796313939
  0
ARC
  5
2E1
100
AcDbEntity
  8
0
100
AcDbCircle
 62
9
  6
CONTINUOUS
 10
-2.2905074638
 20
10.1955691222
 40
0.0788907957
100
AcDbArc
 50
282.8773404424
 51
284.4899128136
  0
ARC
  5
2E2
100
AcDbEntity
  8
0
100
AcDbCircle
 62
9
  6
CONTINUOUS
 10
-2.2905012755
 20
10.1955429177
 40
0.078863871
100
AcDbArc
 50
282.0998377826
 51
282.8772005552
  0
ARC
  5
2E3
100
AcDbEntity
  8
0
100
AcDbCircle
 62
9
  6
CONTINUOUS
 10
-2.2911733472
 20
10.1754716475
 40
0.0588711229
100
AcDbArc
 50
286.8296807153
 51
287.2705118117
  0
ARC
  5
2E4
100
AcDbEntity
  8
0
100
AcDbCircle
 62
9
  6
CONTINUOUS
 10
-2.6033724119
 20
10.1736705107
 40
0.0569997855
100
AcDbArc
 50
252.9095942935
 51
269.8693742623
  0
ARC
  5
2E5
100
AcDbEntity
  8
0
100
AcDbCircle
 62
7
  6
CONTINUOUS
 10
-2.7316481288
 20
10.1218422167
 40
0.04304
100
AcDbArc
 50
42.7737033383
 51
67.0000715387
  0
ARC
  5
2E6
100
AcDbEntity
  8
0
100
AcDbCircle
 62
7
  6
CONTINUOUS
 10
-2.162384893
 20
10.1218422167
 40
0.04304
100
AcDbArc
 50
112.9999284613
 51
137.2262966617
  0
ARC
  5
2E7
100
AcDbEntity
  8
0
100
AcDbCircle
 62
7
  6
CONTINUOUS
 10
-2.7070165109
 20
10.2201852122
 40
0.02
100
AcDbArc
 50
142.8220998293
 51
180.0
  0
ARC
  5
2E8
100
AcDbEntity
  8
0
100
AcDbCircle
 62
7
  6
CONTINUOUS
 10
-2.7070165109
 20
10.1798708734
 40
0.02
100
AcDbArc
 50
180.0
 51
247.0000715384
  0
ARC
  5
2E9
100
AcDbEntity
  8
0
100
AcDbCircle
 62
7
  6
CONTINUOUS
 10
-2.1870165109
 20
10.1798708734
 40
0.02
100
AcDbArc
 50
292.9999284616
 51
360.0
  0
ARC
  5
2EA
100
AcDbEntity
  8
0
100
AcDbCircle
 62
7
  6
CONTINUOUS
 10
-2.1870165109
 20
10.2201852122
 40
0.02
100
AcDbArc
 50
0.0
 51
37.1779001707
  0
ARC
  5
2EB
100
AcDbEntity
  8
0
100
AcDbCircle
 62
9
  6
CONTINUOUS
 10
-3.0344093551
 20
12.1695487723
 40
0.805568269
100
AcDbArc
 50
340.5345632599
 51
343.8966724073
  0
ARC
  5
2EC
100
AcDbEntity
  8
0
100
AcDbCircle
 62
9
  6
CONTINUOUS
 10
-1.8808085356
 20
12.1627532171
 40
0.783330079
100
AcDbArc
 50
196.0555888691
 51
199.5131709352
  0
ARC
  5
2ED
100
AcDbEntity
  8
0
100
AcDbCircle
 62
7
  6
CONTINUOUS
 10
-0.5305165109
 20
11.6616708734
 40
0.4
100
AcDbArc
 50
180.0
 51
204.220943109
  0
ARC
  5
2EE
100
AcDbEntity
  8
0
100
AcDbCircle
 62
7
  6
CONTINUOUS
 10
-0.4055165109
 20
11.6616708734
 40
0.4
100
AcDbArc
 50
335.779056891
 51
360.0
  0
ARC
  5
2EF
100
AcDbEntity
  8
0
100
AcDbCircle
 62
7
  6
CONTINUOUS
 10
-1.6405460907
 20
13.4599549375
 40
0.291
100
AcDbArc
 50
267.8367607318
 51
323.4875880974
  0
ARC
  5
2F0
100
AcDbEntity
  8
0
100
AcDbCircle
 62
7
  6
CONTINUOUS
 10
-1.6405460907
 20
11.9333868093
 40
0.291
100
AcDbArc
 50
36.5124119026
 51
92.1632392682
  0
ARC
  5
2F1
100
AcDbEntity
  8
0
100
AcDbCircle
 62
7
  6
CONTINUOUS
 10
-1.8520165109
 20
12.2566708734
 40
0.06
100
AcDbArc
 50
0.0
 51
90.0
  0
ARC
  5
2F2
100
AcDbEntity
  8
0
100
AcDbCircle
 62
7
  6
CONTINUOUS
 10
-1.8520165109
 20
13.1366708734
 40
0.06
100
AcDbArc
 50
270.0
 51
360.0
  0
ARC
  5
2F3
100
AcDbEntity
  8
0
100
AcDbCircle
 62
7
  6
CONTINUOUS
 10
-2.9620165109
 20
12.2966708734
 40
0.05
100
AcDbArc
 50
180.0
 51
360.0
  0
ARC
  5
2F4
100
AcDbEntity
  8
0
100
AcDbCircle
 62
7
  6
CONTINUOUS
 10
-2.9620165109
 20
13.0966708734
 40
0.05
100
AcDbArc
 50
0.0
 51
180.0
  0
ARC
  5
2F5
100
AcDbEntity
  8
0
100
AcDbCircle
 62
7
  6
CONTINUOUS
 10
-2.2720165109
 20
12.0028708734
 40
0.044
100
AcDbArc
 50
306.1357432437
 51
39.8927370701
  0
ARC
  5
2F6
100
AcDbEntity
  8
0
100
AcDbCircle
 62
7
  6
CONTINUOUS
 10
-2.6220165109
 20
12.0028708734
 40
0.044
100
AcDbArc
 50
140.1072629299
 51
233.8642567576
  0
ARC
  5
2F7
100
AcDbEntity
  8
0
100
AcDbCircle
 62
7
  6
CONTINUOUS
 10
-1.7082165943
 20
12.2491708734
 40
0.036
100
AcDbArc
 50
230.5067866396
 51
308.0122795443
  0
ARC
  5
2F8
100
AcDbEntity
  8
0
100
AcDbCircle
 62
7
  6
CONTINUOUS
 10
-1.7082165943
 20
13.1441708734
 40
0.036
100
AcDbArc
 50
51.9877204557
 51
129.4932133604
  0
ARC
  5
2F9
100
AcDbEntity
  8
0
100
AcDbCircle
 62
7
  6
CONTINUOUS
 10
-2.2720165109
 20
12.0817708734
 40
0.0349
100
AcDbArc
 50
331.0244449213
 51
62.4676334308
  0
ARC
  5
2FA
100
AcDbEntity
  8
0
100
AcDbCircle
 62
7
  6
CONTINUOUS
 10
-2.6220165109
 20
12.0817708734
 40
0.0349
100
AcDbArc
 50
117.5323665692
 51
208.9755550787
  0
ARC
  5
2FB
100
AcDbEntity
  8
0
100
AcDbCircle
 62
7
  6
CONTINUOUS
 10
-2.6520165109
 20
12.1393209385
 40
0.03
100
AcDbArc
 50
297.5323665693
 51
360.0
  0
ARC
  5
2FC
100
AcDbEntity
  8
0
100
AcDbCircle
 62
7
  6
CONTINUOUS
 10
-2.2420165109
 20
12.1393209385
 40
0.03
100
AcDbArc
 50
180.0
 51
242.4676334307
  0
ARC
  5
2FD
100
AcDbEntity
  8
0
100
AcDbCircle
 62
7
  6
CONTINUOUS
 10
-2.215240273
 20
12.0503309494
 40
0.03
100
AcDbArc
 50
151.0244449213
 51
219.8927370699
  0
ARC
  5
2FE
100
AcDbEntity
  8
0
100
AcDbCircle
 62
7
  6
CONTINUOUS
 10
-2.6787927487
 20
12.0503309494
 40
0.03
100
AcDbArc
 50
320.1072629301
 51
28.9755550787
  0
ARC
  5
2FF
100
AcDbEntity
  8
0
100
AcDbCircle
 62
7
  6
CONTINUOUS
 10
-1.6675717915
 20
13.1961708734
 40
0.03
100
AcDbArc
 50
231.9877204557
 51
291.7867892982
  0
ARC
  5
300
100
AcDbEntity
  8
0
100
AcDbCircle
 62
7
  6
CONTINUOUS
 10
-1.6675717915
 20
12.1971708734
 40
0.03
100
AcDbArc
 50
68.2132107018
 51
128.0122795443
  0
ARC
  5
301
100
AcDbEntity
  8
0
100
AcDbCircle
 62
7
  6
CONTINUOUS
 10
-1.7501917243
 20
12.1982386786
 40
0.03
100
AcDbArc
 50
50.5067866397
 51
109.4240083986
  0
ARC
  5
302
100
AcDbEntity
  8
0
100
AcDbCircle
 62
7
  6
CONTINUOUS
 10
-1.7501917243
 20
13.1951030682
 40
0.03
100
AcDbArc
 50
250.5759916014
 51
309.4932133603
  0
ARC
  5
303
100
AcDbEntity
  8
0
100
AcDbCircle
 62
7
  6
CONTINUOUS
 10
-2.6651307574
 20
11.9430595663
 40
0.0294753858
100
AcDbArc
 50
358.5652070442
 51
5.315405186
  0
ARC
  5
304
100
AcDbEntity
  8
0
100
AcDbCircle
 62
7
  6
CONTINUOUS
 10
-1.7681165109
 20
12.2490708734
 40
0.0239
100
AcDbArc
 50
180.0
 51
289.4240083986
  0
ARC
  5
305
100
AcDbEntity
  8
0
100
AcDbCircle
 62
7
  6
CONTINUOUS
 10
-1.7681165109
 20
13.1442708734
 40
0.0239
100
AcDbArc
 50
70.5759916014
 51
180.0
  0
ARC
  5
306
100
AcDbEntity
  8
0
100
AcDbCircle
 62
7
  6
CONTINUOUS
 10
-1.3970165109
 20
12.1136708734
 40
0.012
100
AcDbArc
 50
216.5124119026
 51
270.0
  0
ARC
  5
307
100
AcDbEntity
  8
0
100
AcDbCircle
 62
7
  6
CONTINUOUS
 10
-1.3970165109
 20
13.2796708734
 40
0.012
100
AcDbArc
 50
90.0
 51
143.4875880974
  0
ARC
  5
308
100
AcDbEntity
  8
0
100
AcDbCircle
 62
7
  6
CONTINUOUS
 10
-0.8861848957
 20
11.5016708734
 40
0.01
100
AcDbArc
 50
204.220943109
 51
270.0
  0
ARC
  5
309
100
AcDbEntity
  8
0
100
AcDbCircle
 62
7
  6
CONTINUOUS
 10
-0.049848126
 20
11.5016708734
 40
0.01
100
AcDbArc
 50
270.0
 51
335.779056891
  0
ARC
  5
30A
100
AcDbEntity
  8
0
100
AcDbCircle
 62
7
  6
CONTINUOUS
 10
-1.2272255643
 20
13.0837898133
 40
0.0015355421
100
AcDbArc
 50
132.2459446386
 51
134.9719823095
  0
ARC
  5
30B
100
AcDbEntity
  8
0
100
AcDbCircle
 62
7
  6
CONTINUOUS
 10
9.7719834891
 20
9.0666708734
 40
0.02
100
AcDbArc
 50
180.0
 51
270.0000566486
  0
ARC
  5
30C
100
AcDbEntity
  8
0
100
AcDbCircle
 62
7
  6
CONTINUOUS
 10
9.7719834891
 20
13.4631127346
 40
0.02
100
AcDbArc
 50
89.9999434224
 51
180.0
  0
ARC
  5
30D
100
AcDbEntity
  8
0
100
AcDbCircle
 62
7
  6
CONTINUOUS
 10
18.3446610708
 20
4.7890827207
 40
0.2264
100
AcDbArc
 50
322.8220998293
 51
358.5
  0
ARC
  5
30E
100
AcDbEntity
  8
0
100
AcDbCircle
 62
7
  6
CONTINUOUS
 10
18.6266342851
 20
4.6438708734
 40
0.1072
100
AcDbArc
 50
222.7737033384
 51
270.0
  0
ARC
  5
30F
100
AcDbEntity
  8
0
100
AcDbCircle
 62
7
  6
CONTINUOUS
 10
18.9753326932
 20
4.6438708734
 40
0.1072
100
AcDbArc
 50
270.0
 51
317.2262966616
  0
ARC
  5
310
100
AcDbEntity
  8
0
100
AcDbCircle
 62
9
  6
CONTINUOUS
 10
18.9573932755
 20
4.616168551
 40
0.0794977138
100
AcDbArc
 50
270.0547350265
 51
282.0796313939
  0
ARC
  5
311
100
AcDbEntity
  8
0
100
AcDbCircle
 62
9
  6
CONTINUOUS
 10
18.9574925362
 20
4.6155691222
 40
0.0788907957
100
AcDbArc
 50
282.8773404422
 51
284.4899128138
  0
ARC
  5
312
100
AcDbEntity
  8
0
100
AcDbCircle
 62
9
  6
CONTINUOUS
 10
18.9574987245
 20
4.6155429177
 40
0.078863871
100
AcDbArc
 50
282.0998377829
 51
282.8772005551
  0
ARC
  5
313
100
AcDbEntity
  8
0
100
AcDbCircle
 62
9
  6
CONTINUOUS
 10
18.9568266529
 20
4.5954716472
 40
0.0588711227
100
AcDbArc
 50
286.8296807144
 51
287.2705118127
  0
ARC
  5
314
100
AcDbEntity
  8
0
100
AcDbCircle
 62
9
  6
CONTINUOUS
 10
18.6446275881
 20
4.5936705107
 40
0.0569997855
100
AcDbArc
 50
252.9095942935
 51
269.8693742624
  0
ARC
  5
315
100
AcDbEntity
  8
0
100
AcDbCircle
 62
7
  6
CONTINUOUS
 10
18.5163518712
 20
4.5418422167
 40
0.04304
100
AcDbArc
 50
42.7737033383
 51
67.0000715387
  0
ARC
  5
316
100
AcDbEntity
  8
0
100
AcDbCircle
 62
7
  6
CONTINUOUS
 10
18.5409834891
 20
4.6401852122
 40
0.02
100
AcDbArc
 50
142.8220998293
 51
180.0
  0
ARC
  5
317
100
AcDbEntity
  8
0
100
AcDbCircle
 62
7
  6
CONTINUOUS
 10
18.5409834891
 20
4.5998708734
 40
0.02
100
AcDbArc
 50
180.0
 51
247.0000715384
  0
ARC
  5
318
100
AcDbEntity
  8
0
100
AcDbCircle
 62
9
  6
CONTINUOUS
 10
18.2135906449
 20
6.5895487723
 40
0.805568269
100
AcDbArc
 50
340.5345632599
 51
343.8966724072
  0
ARC
  5
319
100
AcDbEntity
  8
0
100
AcDbCircle
 62
7
  6
CONTINUOUS
 10
18.2859834891
 20
6.7166708734
 40
0.05
100
AcDbArc
 50
180.0
 51
360.0
  0
ARC
  5
31A
100
AcDbEntity
  8
0
100
AcDbCircle
 62
7
  6
CONTINUOUS
 10
18.9759834891
 20
6.4228708734
 40
0.044
100
AcDbArc
 50
306.1357432437
 51
39.8927370701
  0
ARC
  5
31B
100
AcDbEntity
  8
0
100
AcDbCircle
 62
7
  6
CONTINUOUS
 10
18.6259834891
 20
6.4228708734
 40
0.044
100
AcDbArc
 50
140.1072629299
 51
233.8642567576
  0
ARC
  5
31C
100
AcDbEntity
  8
0
100
AcDbCircle
 62
7
  6
CONTINUOUS
 10
18.9759834891
 20
6.5017708734
 40
0.0349
100
AcDbArc
 50
331.0244449213
 51
62.4676334308
  0
ARC
  5
31D
100
AcDbEntity
  8
0
100
AcDbCircle
 62
7
  6
CONTINUOUS
 10
18.6259834891
 20
6.5017708734
 40
0.0349
100
AcDbArc
 50
117.5323665692
 51
208.9755550787
  0
ARC
  5
31E
100
AcDbEntity
  8
0
100
AcDbCircle
 62
7
  6
CONTINUOUS
 10
18.5959834891
 20
6.5593209385
 40
0.03
100
AcDbArc
 50
297.5323665693
 51
360.0
  0
ARC
  5
31F
100
AcDbEntity
  8
0
100
AcDbCircle
 62
7
  6
CONTINUOUS
 10
19.0059834891
 20
6.5593209385
 40
0.03
100
AcDbArc
 50
180.0
 51
242.4676334307
  0
ARC
  5
320
100
AcDbEntity
  8
0
100
AcDbCircle
 62
7
  6
CONTINUOUS
 10
18.5692072513
 20
6.4703309494
 40
0.03
100
AcDbArc
 50
320.1072629301
 51
28.9755550787
  0
ARC
  5
321
100
AcDbEntity
  8
0
100
AcDbCircle
 62
7
  6
CONTINUOUS
 10
18.5828692426
 20
6.3630595663
 40
0.0294753858
100
AcDbArc
 50
358.5652070439
 51
5.3154051863
  0
ARC
  5
322
100
AcDbEntity
  8
0
100
AcDbCircle
 62
7
  6
CONTINUOUS
 10
19.2573059075
 20
4.7890827207
 40
0.2264
100
AcDbArc
 50
181.5
 51
217.1779001707
  0
ARC
  5
323
100
AcDbEntity
  8
0
100
AcDbCircle
 62
7
  6
CONTINUOUS
 10
19.085615107
 20
4.5418422167
 40
0.04304
100
AcDbArc
 50
112.9999284613
 51
137.2262966617
  0
ARC
  5
324
100
AcDbEntity
  8
0
100
AcDbCircle
 62
7
  6
CONTINUOUS
 10
19.0609834891
 20
4.5998708734
 40
0.02
100
AcDbArc
 50
292.9999284616
 51
360.0
  0
ARC
  5
325
100
AcDbEntity
  8
0
100
AcDbCircle
 62
7
  6
CONTINUOUS
 10
19.0609834891
 20
4.6401852122
 40
0.02
100
AcDbArc
 50
0.0
 51
37.1779001707
  0
ARC
  5
326
100
AcDbEntity
  8
0
100
AcDbCircle
 62
9
  6
CONTINUOUS
 10
19.3671914644
 20
6.5827532171
 40
0.783330079
100
AcDbArc
 50
196.0555888691
 51
199.5131709352
  0
ARC
  5
327
100
AcDbEntity
  8
0
100
AcDbCircle
 62
7
  6
CONTINUOUS
 10
19.6074539093
 20
6.3533868093
 40
0.291
100
AcDbArc
 50
36.5124119026
 51
92.1632392682
  0
ARC
  5
328
100
AcDbEntity
  8
0
100
AcDbCircle
 62
7
  6
CONTINUOUS
 10
19.3959834891
 20
6.6766708734
 40
0.06
100
AcDbArc
 50
0.0
 51
90.0
  0
ARC
  5
329
100
AcDbEntity
  8
0
100
AcDbCircle
 62
7
  6
CONTINUOUS
 10
19.5397834057
 20
6.6691708734
 40
0.036
100
AcDbArc
 50
230.5067866396
 51
308.0122795443
  0
ARC
  5
32A
100
AcDbEntity
  8
0
100
AcDbCircle
 62
7
  6
CONTINUOUS
 10
19.032759727
 20
6.4703309494
 40
0.03
100
AcDbArc
 50
151.0244449213
 51
219.8927370699
  0
ARC
  5
32B
100
AcDbEntity
  8
0
100
AcDbCircle
 62
7
  6
CONTINUOUS
 10
19.5804282085
 20
6.6171708734
 40
0.03
100
AcDbArc
 50
68.2132107018
 51
128.0122795444
  0
ARC
  5
32C
100
AcDbEntity
  8
0
100
AcDbCircle
 62
7
  6
CONTINUOUS
 10
19.4978082757
 20
6.6182386786
 40
0.03
100
AcDbArc
 50
50.5067866397
 51
109.4240083986
  0
ARC
  5
32D
100
AcDbEntity
  8
0
100
AcDbCircle
 62
7
  6
CONTINUOUS
 10
19.4798834891
 20
6.6690708734
 40
0.0239
100
AcDbArc
 50
180.0
 51
289.4240083986
  0
ARC
  5
32E
100
AcDbEntity
  8
0
100
AcDbCircle
 62
7
  6
CONTINUOUS
 10
19.8509834891
 20
6.5336708734
 40
0.012
100
AcDbArc
 50
216.5124119026
 51
270.0
  0
ARC
  5
32F
100
AcDbEntity
  8
0
100
AcDbCircle
 62
7
  6
CONTINUOUS
 10
24.3319782712
 20
0.8885392351
 40
4.7790760654
100
AcDbArc
 50
88.8812445111
 51
89.7628983175
  0
ARC
  5
330
100
AcDbEntity
  8
0
100
AcDbCircle
 62
7
  6
CONTINUOUS
 10
24.2414374553
 20
5.6383564469
 40
0.0948573788
100
AcDbArc
 50
37.8085358373
 51
39.4352874359
  0
ARC
  5
331
100
AcDbEntity
  8
0
100
AcDbCircle
 62
7
  6
CONTINUOUS
 10
24.2458204302
 20
5.6384666654
 40
0.0919482122
100
AcDbArc
 50
72.4040311939
 51
72.854741635
  0
ARC
  5
332
100
AcDbEntity
  8
0
100
AcDbCircle
 62
7
  6
CONTINUOUS
 10
24.2447765892
 20
5.6392277693
 40
0.0914432255
100
AcDbArc
 50
77.1681368616
 51
90.013516687
  0
ARC
  5
333
100
AcDbEntity
  8
0
100
AcDbCircle
 62
7
  6
CONTINUOUS
 10
24.2456558432
 20
5.6402877316
 40
0.0903803816
100
AcDbArc
 50
40.1883881165
 51
42.2639776273
  0
ARC
  5
334
100
AcDbEntity
  8
0
100
AcDbCircle
 62
7
  6
CONTINUOUS
 10
24.2457080749
 20
5.6403355639
 40
0.0903095579
100
AcDbArc
 50
42.2638062233
 51
43.3030054088
  0
ARC
  5
335
100
AcDbEntity
  8
0
100
AcDbCircle
 62
7
  6
CONTINUOUS
 10
24.2465953745
 20
5.6394206716
 40
0.0903003147
100
AcDbArc
 50
44.1116175475
 51
51.9387346764
  0
ARC
  5
336
100
AcDbEntity
  8
0
100
AcDbCircle
 62
7
  6
CONTINUOUS
 10
24.2463688913
 20
5.6400032518
 40
0.0899681795
100
AcDbArc
 50
28.6480726146
 51
38.9052572218
  0
ARC
  5
337
100
AcDbEntity
  8
0
100
AcDbCircle
 62
7
  6
CONTINUOUS
 10
24.245305182
 20
5.6407712063
 40
0.0899497439
100
AcDbArc
 50
58.0837676982
 51
67.3449642909
  0
ARC
  5
338
100
AcDbEntity
  8
0
100
AcDbCircle
 62
7
  6
CONTINUOUS
 10
24.2461919878
 20
5.6406495792
 40
0.089587874
100
AcDbArc
 50
51.2510543653
 51
58.6063127545
  0
ARC
  5
339
100
AcDbEntity
  8
0
100
AcDbCircle
 62
7
  6
CONTINUOUS
 10
24.2465057786
 20
5.6414144176
 40
0.0889594357
100
AcDbArc
 50
72.1888489747
 51
77.959643089
  0
ARC
  5
33A
100
AcDbEntity
  8
0
100
AcDbCircle
 62
7
  6
CONTINUOUS
 10
24.2457921799
 20
5.6418543324
 40
0.0887626142
100
AcDbArc
 50
67.3657626556
 51
71.663436706
  0
ARC
  5
33B
100
AcDbEntity
  8
0
100
AcDbCircle
 62
7
  6
CONTINUOUS
 10
24.0019834891
 20
5.8012597754
 40
0.06
100
AcDbArc
 50
230.4788036411
 51
306.3175650353
  0
ARC
  5
33C
100
AcDbEntity
  8
0
100
AcDbCircle
 62
7
  6
CONTINUOUS
 10
23.9319834891
 20
5.7164069617
 40
0.05
100
AcDbArc
 50
50.4788036413
 51
109.4712206346
  0
ARC
  5
33D
100
AcDbEntity
  8
0
100
AcDbCircle
 62
7
  6
CONTINUOUS
 10
23.9019834891
 20
5.8012597754
 40
0.04
100
AcDbArc
 50
180.0
 51
289.4712206346
  0
ARC
  5
33E
100
AcDbEntity
  8
0
100
AcDbCircle
 62
9
  6
CONTINUOUS
 10
24.111938623
 20
5.7657956752
 40
0.0300513958
100
AcDbArc
 50
199.3135790684
 51
269.868849947
  0
ARC
  5
33F
100
AcDbEntity
  8
0
100
AcDbCircle
 62
7
  6
CONTINUOUS
 10
24.0552869092
 20
5.7287425677
 40
0.03
100
AcDbArc
 50
32.1454145102
 51
126.3175650363
  0
ARC
  5
340
100
AcDbEntity
  8
0
100
AcDbCircle
 62
7
  6
CONTINUOUS
 10
19.6074539093
 20
7.8799549375
 40
0.291
100
AcDbArc
 50
267.8367607318
 51
323.4875880974
  0
ARC
  5
341
100
AcDbEntity
  8
0
100
AcDbCircle
 62
7
  6
CONTINUOUS
 10
24.24477659
 20
8.5941139773
 40
0.0914432253
100
AcDbArc
 50
269.9866808041
 51
331.7642941198
  0
ARC
  5
342
100
AcDbEntity
  8
0
100
AcDbCircle
 62
7
  6
CONTINUOUS
 10
24.0019834891
 20
8.4320819713
 40
0.06
100
AcDbArc
 50
53.6824349647
 51
129.5211963589
  0
ARC
  5
343
100
AcDbEntity
  8
0
100
AcDbCircle
 62
7
  6
CONTINUOUS
 10
19.3959834891
 20
7.5566708734
 40
0.06
100
AcDbArc
 50
270.0
 51
360.0
  0
ARC
  5
344
100
AcDbEntity
  8
0
100
AcDbCircle
 62
7
  6
CONTINUOUS
 10
18.2859834891
 20
7.5166708734
 40
0.05
100
AcDbArc
 50
0.0
 51
180.0
  0
ARC
  5
345
100
AcDbEntity
  8
0
100
AcDbCircle
 62
7
  6
CONTINUOUS
 10
23.9319834891
 20
8.5169347851
 40
0.05
100
AcDbArc
 50
250.5287793654
 51
309.5211963587
  0
ARC
  5
346
100
AcDbEntity
  8
0
100
AcDbCircle
 62
7
  6
CONTINUOUS
 10
23.9019834891
 20
8.4320819713
 40
0.04
100
AcDbArc
 50
70.5287793654
 51
180.0
  0
ARC
  5
347
100
AcDbEntity
  8
0
100
AcDbCircle
 62
7
  6
CONTINUOUS
 10
19.5397834057
 20
7.5641708734
 40
0.036
100
AcDbArc
 50
51.9877204557
 51
129.4932133604
  0
ARC
  5
348
100
AcDbEntity
  8
0
100
AcDbCircle
 62
9
  6
CONTINUOUS
 10
24.1119386247
 20
8.4675460767
 40
0.0300513923
100
AcDbArc
 50
90.1307844385
 51
160.6863840964
  0
ARC
  5
349
100
AcDbEntity
  8
0
100
AcDbCircle
 62
7
  6
CONTINUOUS
 10
24.3517055358
 20
8.5366712958
 40
0.0300001085
100
AcDbArc
 50
89.9064915532
 51
151.7277526541
  0
ARC
  5
34A
100
AcDbEntity
  8
0
100
AcDbCircle
 62
7
  6
CONTINUOUS
 10
24.0552869092
 20
8.504599179
 40
0.03
100
AcDbArc
 50
233.6824349637
 51
327.8545854898
  0
ARC
  5
34B
100
AcDbEntity
  8
0
100
AcDbCircle
 62
7
  6
CONTINUOUS
 10
19.5804282085
 20
7.6161708734
 40
0.03
100
AcDbArc
 50
231.9877204556
 51
291.7867892982
  0
ARC
  5
34C
100
AcDbEntity
  8
0
100
AcDbCircle
 62
7
  6
CONTINUOUS
 10
19.4978082757
 20
7.6151030682
 40
0.03
100
AcDbArc
 50
250.5759916014
 51
309.4932133603
  0
ARC
  5
34D
100
AcDbEntity
  8
0
100
AcDbCircle
 62
7
  6
CONTINUOUS
 10
19.4798834891
 20
7.5642708734
 40
0.0239
100
AcDbArc
 50
70.5759916014
 51
180.0
  0
ARC
  5
34E
100
AcDbEntity
  8
0
100
AcDbCircle
 62
7
  6
CONTINUOUS
 10
10.9319834891
 20
9.0666708734
 40
0.02
100
AcDbArc
 50
269.9999433514
 51
360.0
  0
ARC
  5
34F
100
AcDbEntity
  8
0
100
AcDbCircle
 62
7
  6
CONTINUOUS
 10
10.9319834891
 20
13.4631127346
 40
0.02
100
AcDbArc
 50
0.0
 51
90.0000565776
  0
ARC
  5
350
100
AcDbEntity
  8
0
100
AcDbCircle
 62
7
  6
CONTINUOUS
 10
21.5019834891
 20
10.6031127346
 40
0.02
100
AcDbArc
 50
0.0
 51
90.0000565776
  0
ARC
  5
351
100
AcDbEntity
  8
0
100
AcDbCircle
 62
7
  6
CONTINUOUS
 10
20.3419834891
 20
10.6031127346
 40
0.02
100
AcDbArc
 50
89.9999434224
 51
180.0
  0
ARC
  5
352
100
AcDbEntity
  8
0
100
AcDbCircle
 62
7
  6
CONTINUOUS
 10
19.8509834891
 20
7.6996708734
 40
0.012
100
AcDbArc
 50
90.0
 51
143.4875880974
  0
SPLINE
  5
353
100
AcDbEntity
  8
0
100
AcDbSpline
 62
7
  6
CONTINUOUS
 70
0
 71
3
 72
20
 73
16
 74
0
 42
0.0000001
 43
0.0000001
 44
0.0000000001
 40
0.0
 40
0.0
 40
0.0
 40
0.0
 40
0.1985844521
 40
0.3775662216
 40
0.5361259645
 40
0.6734954147
 40
0.734024841
 40
0.7890202729
 40
0.8384123514
 40
0.8821374631
 40
0.920159216
 40
0.9524650809
 40
0.9790615544
 40
0.9902326535
 40
1.0
 40
1.0
 40
1.0
 40
1.0
 10
-1.2180148159
 20
13.0056542239
 30
0.0
 10
-1.2183389181
 20
13.0108198131
 30
0.0
 10
-1.2189819746
 20
13.0206394412
 30
0.0
 10
-1.2199977537
 20
13.0345757984
 30
0.0
 10
-1.2210137426
 20
13.0469119277
 30
0.0
 10
-1.2218902657
 20
13.0561613477
 30
0.0
 10
-1.2226026898
 20
13.0627140739
 30
0.0
 10
-1.2231144271
 20
13.0669818713
 30
0.0
 10
-1.2236264138
 20
13.0708082158
 30
0.0
 10
-1.2241390298
 20
13.0741876642
 30
0.0
 10
-1.2246516451
 20
13.0771161011
 30
0.0
 10
-1.2251635729
 20
13.079590237
 30
0.0
 10
-1.22561009
 20
13.0813623095
 30
0.0
 10
-1.2259762717
 20
13.0825461432
 30
0.0
 10
-1.2261605781
 20
13.0830601182
 30
0.0
 10
-1.2262540248
 20
13.0832969151
 30
0.0
  0
SPLINE
  5
354
100
AcDbEntity
  8
0
100
AcDbSpline
 62
7
  6
CONTINUOUS
 70
0
 71
3
 72
8
 73
4
 74
0
 42
0.0000001
 43
0.0000001
 44
0.0000000001
 40
0.0
 40
0.0
 40
0.0
 40
0.0
 40
1.0
 40
1.0
 40
1.0
 40
1.0
 10
-1.2282580261
 20
13.0849266264
 30
0.0
 10
-1.2282760536
 20
13.0849102138
 30
0.0
 10
-1.228293654
 20
13.0848933564
 30
0.0
 10
-1.2283108629
 20
13.0848761758
 30
0.0
  0
SPLINE
  5
355
100
AcDbEntity
  8
0
100
AcDbSpline
 62
7
  6
CONTINUOUS
 70
0
 71
3
 72
46
 73
42
 74
0
 42
0.0000001
 43
0.0000001
 44
0.0000000001
 40
0.0
 40
0.0
 40
0.0
 40
0.0
 40
0.1977361525
 40
0.2941645539
 40
0.3876823923
 40
0.4773313018
 40
0.5622357518
 40
0.6415931818
 40
0.7146036198
 40
0.7484791408
 40
0.7804831587
 40
0.8105493454
 40
0.8386126635
 40
0.8646081092
 40
0.8884707268
 40
0.9101356302
 40
0.92953804
 40
0.9383706789
 40
0.9466158934
 40
0.9542709874
 40
0.9613334935
 40
0.9678009827
 40
0.9736710798
 40
0.9789414893
 40
0.9836100359
 40
0.9876747387
 40
0.9911339475
 40
0.9939866288
 40
0.9951855856
 40
0.9962332131
 40
0.9971300715
 40
0.9978772619
 40
0.998476962
 40
0.9989337965
 40
0.9991119742
 40
0.9992599427
 40
0.9994861221
 40
0.9995887002
 40
0.9997019476
 40
0.9998368193
 40
1.0
 40
1.0
 40
1.0
 40
1.0
 10
-1.2185159732
 20
12.6966621941
 30
0.0
 10
-1.218936107
 20
12.7222562257
 30
0.0
 10
-1.2195610296
 20
12.7603314959
 30
0.0
 10
-1.2204095378
 20
12.810510858
 30
0.0
 10
-1.2210402738
 20
12.8466997124
 30
0.0
 10
-1.2216708713
 20
12.8813965282
 30
0.0
 10
-1.2223011582
 20
12.9142599305
 30
0.0
 10
-1.2229306751
 20
12.9449690322
 30
0.0
 10
-1.2234667945
 20
12.9690728007
 30
0.0
 10
-1.2238994469
 20
12.9870472823
 30
0.0
 10
-1.22421578
 20
12.9994636918
 30
0.0
 10
-1.2245319637
 20
13.0111274412
 30
0.0
 10
-1.2248479757
 20
13.0220130655
 30
0.0
 10
-1.2251637636
 20
13.0320952651
 30
0.0
 10
-1.2254792439
 20
13.0413487453
 30
0.0
 10
-1.2257943475
 20
13.0497482101
 30
0.0
 10
-1.2260642087
 20
13.056202285
 30
0.0
 10
-1.2262820305
 20
13.0609197345
 30
0.0
 10
-1.2264402119
 20
13.0641175783
 30
0.0
 10
-1.2265983175
 20
13.0670859773
 30
0.0
 10
-1.2267563374
 20
13.0698238987
 30
0.0
 10
-1.2269142437
 20
13.0723303379
 30
0.0
 10
-1.2270720023
 20
13.074604293
 30
0.0
 10
-1.2272295556
 20
13.0766447705
 30
0.0
 10
-1.2273868378
 20
13.0784507801
 30
0.0
 10
-1.2275436749
 20
13.0800213783
 30
0.0
 10
-1.2276999829
 20
13.0813555969
 30
0.0
 10
-1.2278360125
 20
13.0823185158
 30
0.0
 10
-1.2279474979
 20
13.0829691947
 30
0.0
 10
-1.2280260178
 20
13.0833685327
 30
0.0
 10
-1.2281043042
 20
13.0837081377
 30
0.0
 10
-1.2281821516
 20
13.0839881492
 30
0.0
 10
-1.2282596777
 20
13.084208572
 30
0.0
 10
-1.2283279315
 20
13.0843537715
 30
0.0
 10
-1.2283854371
 20
13.0844378142
 30
0.0
 10
-1.2284333801
 20
13.0844904145
 30
0.0
 10
-1.2284911789
 20
13.0845236459
 30
0.0
 10
-1.2285497195
 20
13.0845174897
 30
0.0
 10
-1.2285907845
 20
13.0844964864
 30
0.0
 10
-1.2286306403
 20
13.0844606051
 30
0.0
 10
-1.2286544535
 20
13.0844300528
 30
0.0
 10
-1.2286665097
 20
13.084412707
 30
0.0
  0
SPLINE
  5
356
100
AcDbEntity
  8
0
100
AcDbSpline
 62
7
  6
CONTINUOUS
 70
0
 71
3
 72
14
 73
10
 74
0
 42
0.0000001
 43
0.0000001
 44
0.0000000001
 40
0.0
 40
0.0
 40
0.0
 40
0.0
 40
0.0950148155
 40
0.1766711811
 40
0.2849863785
 40
0.4210228683
 40
0.5853333721
 40
0.7782509417
 40
1.0
 40
1.0
 40
1.0
 40
1.0
 10
-1.2185197461
 20
12.3088471475
 30
0.0
 10
-1.2185872535
 20
12.3088468227
 30
0.0
 10
-1.2186870857
 20
12.3089636055
 30
0.0
 10
-1.2187706943
 20
12.309138425
 30
0.0
 10
-1.2188512878
 20
12.3093592832
 30
0.0
 10
-1.2189295072
 20
12.3096378456
 30
0.0
 10
-1.2190092051
 20
12.3099796375
 30
0.0
 10
-1.2190887845
 20
12.3103831453
 30
0.0
 10
-1.2191385753
 20
12.3106735932
 30
0.0
 10
-1.219163765
 20
12.3108291196
 30
0.0
  0
SPLINE
  5
357
100
AcDbEntity
  8
0
100
AcDbSpline
 62
7
  6
CONTINUOUS
 70
0
 71
3
 72
28
 73
24
 74
0
 42
0.0000001
 43
0.0000001
 44
0.0000000001
 40
0.0
 40
0.0
 40
0.0
 40
0.0
 40
0.0026315124
 40
0.0057894308
 40
0.0136751162
 40
0.0236350528
 40
0.0356437565
 40
0.0496723176
 40
0.0656884823
 40
0.1035518961
 40
0.1489527509
 40
0.2015753379
 40
0.2609463842
 40
0.3264914023
 40
0.4739683715
 40
0.5547059438
 40
0.639196403
 40
0.6826171562
 40
0.7266987014
 40
0.816497742
 40
0.8620426563
 40
0.9078862135
 40
1.0
 40
1.0
 40
1.0
 40
1.0
 10
-1.219163765
 20
12.3108291196
 30
0.0
 10
-1.2192178982
 20
12.3111633506
 30
0.0
 10
-1.2193229782
 20
12.3119009363
 30
0.0
 10
-1.2195308756
 20
12.313648218
 30
0.0
 10
-1.2197811057
 20
12.3163394177
 30
0.0
 10
-1.2200674241
 20
12.3201700449
 30
0.0
 10
-1.2203551707
 20
12.324792821
 30
0.0
 10
-1.2206442742
 20
12.3301959843
 30
0.0
 10
-1.2210538932
 20
12.3389239023
 30
0.0
 10
-1.2215536209
 20
12.351688311
 30
0.0
 10
-1.2221290988
 20
12.3691629276
 30
0.0
 10
-1.2227056097
 20
12.3894061072
 30
0.0
 10
-1.22328377
 20
12.4122420185
 30
0.0
 10
-1.2240907731
 20
12.4472805
 30
0.0
 10
-1.2248508336
 20
12.4850698177
 30
0.0
 10
-1.225607156
 20
12.5252972342
 30
0.0
 10
-1.226093739
 20
12.5521388545
 30
0.0
 10
-1.2264746653
 20
12.5742652141
 30
0.0
 10
-1.2268525525
 20
12.5970747549
 30
0.0
 10
-1.2272309652
 20
12.6201576373
 30
0.0
 10
-1.2276481536
 20
12.6434665997
 30
0.0
 10
-1.2280883851
 20
12.6670730091
 30
0.0
 10
-1.2284111669
 20
12.6848205319
 30
0.0
 10
-1.228601776
 20
12.6966709203
 30
0.0
  0
SPLINE
  5
358
100
AcDbEntity
  8
0
100
AcDbSpline
 62
7
  6
CONTINUOUS
 70
0
 71
3
 72
37
 73
33
 74
0
 42
0.0000001
 43
0.0000001
 44
0.0000000001
 40
0.0
 40
0.0
 40
0.0
 40
0.0
 40
0.1093201469
 40
0.2143840237
 40
0.3146952929
 40
0.4097601505
 40
0.4990848313
 40
0.5821880031
 40
0.6586804285
 40
0.7282144314
 40
0.7904426996
 40
0.8187087322
 40
0.8450183104
 40
0.8693359238
 40
0.8916398236
 40
0.9119097436
 40
0.9301255194
 40
0.9462671425
 40
0.9603148575
 40
0.9722493461
 40
0.982052118
 40
0.9861488613
 40
0.9897067003
 40
0.992724734
 40
0.9952049343
 40
0.9962446618
 40
0.9971518017
 40
0.9979275738
 40
0.9985738973
 40
0.9990940697
 40
0.9994944443
 40
1.0
 40
1.0
 40
1.0
 40
1.0
 10
20.0219807971
 20
7.3086778838
 30
0.0
 10
20.0218357506
 20
7.3181298893
 30
0.0
 10
20.0215466513
 20
7.3366658251
 30
0.0
 10
20.0211051764
 20
7.3638745387
 30
0.0
 10
20.0206638955
 20
7.389850405
 30
0.0
 10
20.0202228527
 20
7.4144650717
 30
0.0
 10
20.0197821347
 20
7.4375914759
 30
0.0
 10
20.0193415466
 20
7.4591115786
 30
0.0
 10
20.0189013525
 20
7.4789199679
 30
0.0
 10
20.0184617865
 20
7.496922793
 30
0.0
 10
20.0180852312
 20
7.5107556453
 30
0.0
 10
20.0177810198
 20
7.5208513204
 30
0.0
 10
20.0175603276
 20
7.5276698017
 30
0.0
 10
20.0173397102
 20
7.5339724386
 30
0.0
 10
20.0171192545
 20
7.5397524751
 30
0.0
 10
20.0168990154
 20
7.5450044648
 30
0.0
 10
20.0166790803
 20
7.5497230909
 30
0.0
 10
20.0164595484
 20
7.5539030391
 30
0.0
 10
20.0162406946
 20
7.5575390389
 30
0.0
 10
20.0160226462
 20
7.5606257955
 30
0.0
 10
20.0158328298
 20
7.562851792
 30
0.0
 10
20.0156769779
 20
7.5643533375
 30
0.0
 10
20.0155675097
 20
7.5652697571
 30
0.0
 10
20.0154583926
 20
7.5660452758
 30
0.0
 10
20.0153633651
 20
7.5666027294
 30
0.0
 10
20.0152854338
 20
7.5669775938
 30
0.0
 10
20.0152306476
 20
7.5672065608
 30
0.0
 10
20.0151758343
 20
7.5674005958
 30
0.0
 10
20.0151217935
 20
7.5675592887
 30
0.0
 10
20.01506649
 20
7.567684547
 30
0.0
 10
20.0150063624
 20
7.5677883671
 30
0.0
 10
20.0149378664
 20
7.5678501812
 30
0.0
 10
20.0148941501
 20
7.5678501812
 30
0.0
  0
LINE
  5
359
100
AcDbEntity
  8
0
100
AcDbLine
 62
7
  6
CONTINUOUS
 10
20.0109831118
 20
6.656786078
 11
20.0117992319
 21
6.6465958311
  0
SPLINE
  5
35A
100
AcDbEntity
  8
0
100
AcDbSpline
 62
7
  6
CONTINUOUS
 70
0
 71
3
 72
16
 73
12
 74
0
 42
0.0000001
 43
0.0000001
 44
0.0000000001
 40
0.0
 40
0.0
 40
0.0
 40
0.0
 40
0.2243552771
 40
0.4194511973
 40
0.5853945301
 40
0.7223665336
 40
0.8307019543
 40
0.9111047917
 40
0.9413620773
 40
0.9655604073
 40
1.0
 40
1.0
 40
1.0
 40
1.0
 10
20.0117992319
 20
6.6465958311
 30
0.0
 10
20.0118240745
 20
6.6464063113
 30
0.0
 10
20.0118731439
 20
6.6460523213
 30
0.0
 10
20.0119516759
 20
6.6455597626
 30
0.0
 10
20.0120299761
 20
6.6451427073
 30
0.0
 10
20.0121076558
 20
6.6448009017
 30
0.0
 10
20.0121850735
 20
6.6445342602
 30
0.0
 10
20.0122528713
 20
6.6443598955
 30
0.0
 10
20.0123111798
 20
6.6442600759
 30
0.0
 10
20.0123573401
 20
6.6442010481
 30
0.0
 10
20.0124049942
 20
6.6441714599
 30
0.0
 10
20.0124343352
 20
6.6441714087
 30
0.0
  0
SPLINE
  5
35B
100
AcDbEntity
  8
0
100
AcDbSpline
 62
7
  6
CONTINUOUS
 70
0
 71
3
 72
15
 73
11
 74
0
 42
0.0000001
 43
0.0000001
 44
0.0000000001
 40
0.0
 40
0.0
 40
0.0
 40
0.0
 40
0.0357442982
 40
0.0762940088
 40
0.1709677455
 40
0.2822334215
 40
0.4077955911
 40
0.5451844134
 40
0.6916585292
 40
1.0
 40
1.0
 40
1.0
 40
1.0
 10
20.0219836269
 20
6.7083663229
 30
0.0
 10
20.0218249583
 20
6.7132300136
 30
0.0
 10
20.0215129167
 20
6.7236121338
 30
0.0
 10
20.0208951297
 20
6.7468797478
 30
0.0
 10
20.0201416684
 20
6.7804287789
 30
0.0
 10
20.0192725739
 20
6.825551527
 30
0.0
 10
20.0183996987
 20
6.8764904523
 30
0.0
 10
20.017524818
 20
6.9322232961
 30
0.0
 10
20.0163362551
 20
7.0128380683
 30
0.0
 10
20.0154773108
 20
7.0747513381
 30
0.0
 10
20.0148944087
 20
7.1167253242
 30
0.0
  0
SPLINE
  5
35C
100
AcDbEntity
  8
0
100
AcDbSpline
 62
7
  6
CONTINUOUS
 70
0
 71
3
 72
10
 73
6
 74
0
 42
0.0000001
 43
0.0000001
 44
0.0000000001
 40
0.0
 40
0.0
 40
0.0
 40
0.0
 40
0.5253753296
 40
0.772091432
 40
1.0
 40
1.0
 40
1.0
 40
1.0
 10
20.0148944087
 20
7.1167253242
 30
0.0
 10
20.0142532352
 20
7.1628953569
 30
0.0
 10
20.0133123309
 20
7.2307468539
 30
0.0
 10
20.0119997635
 20
7.3186256281
 30
0.0
 10
20.0113267108
 20
7.3603343002
 30
0.0
 10
20.0109839258
 20
7.3803619242
 30
0.0
  0
LINE
  5
35D
100
AcDbEntity
  8
0
100
AcDbLine
 62
7
  6
CONTINUOUS
 10
24.4269824186
 20
5.6666709583
 11
24.426321992
 21
5.6666839745
  0
LINE
  5
35E
100
AcDbEntity
  8
0
100
AcDbLine
 62
7
  6
CONTINUOUS
 10
24.426321992
 20
5.6666839745
 11
24.4252489517
 21
5.6667050503
  0
SPLINE
  5
35F
100
AcDbEntity
  8
0
100
AcDbSpline
 62
7
  6
CONTINUOUS
 70
0
 71
3
 72
12
 73
8
 74
0
 42
0.0000001
 43
0.0000001
 44
0.0000000001
 40
0.0
 40
0.0
 40
0.0
 40
0.0
 40
0.2409818273
 40
0.4924152801
 40
0.6202780947
 40
0.7483768317
 40
1.0
 40
1.0
 40
1.0
 40
1.0
 10
24.106086361
 20
8.5026708734
 30
0.0
 10
24.1036588757
 20
8.5026708742
 30
0.0
 10
24.0986846421
 20
8.5020376836
 30
0.0
 10
24.0927823317
 20
8.4997825115
 30
0.0
 10
24.0884571504
 20
8.4970312144
 30
0.0
 10
24.0845183681
 20
8.4937580733
 30
0.0
 10
24.0820339285
 20
8.4907790363
 30
0.0
 10
24.0806853065
 20
8.48863292
 30
0.0
  0
SPLINE
  5
360
100
AcDbEntity
  8
0
100
AcDbSpline
 62
7
  6
CONTINUOUS
 70
0
 71
3
 72
12
 73
8
 74
0
 42
0.0000001
 43
0.0000001
 44
0.0000000001
 40
0.0
 40
0.0
 40
0.0
 40
0.0
 40
0.2409818273
 40
0.4924152801
 40
0.6202780947
 40
0.7483768317
 40
1.0
 40
1.0
 40
1.0
 40
1.0
 10
24.106086361
 20
5.7306708734
 30
0.0
 10
24.1036588757
 20
5.7306708726
 30
0.0
 10
24.0986846421
 20
5.7313040632
 30
0.0
 10
24.0927823317
 20
5.7335592353
 30
0.0
 10
24.0884571504
 20
5.7363105324
 30
0.0
 10
24.0845183681
 20
5.7395836735
 30
0.0
 10
24.0820339285
 20
5.7425627105
 30
0.0
 10
24.0806853065
 20
5.7447088267
 30
0.0
  0
SPLINE
  5
361
100
AcDbEntity
  8
0
100
AcDbSpline
 62
7
  6
CONTINUOUS
 70
0
 71
3
 72
13
 73
9
 74
0
 42
0.0000001
 43
0.0000001
 44
0.0000000001
 40
0.0
 40
0.0
 40
0.0
 40
0.0
 40
0.1405591806
 40
0.2814344113
 40
0.4178936643
 40
0.5473687638
 40
0.784470772
 40
1.0
 40
1.0
 40
1.0
 40
1.0
 10
24.3517550113
 20
5.6675743803
 30
0.0
 10
24.3502500397
 20
5.667580609
 30
0.0
 10
24.3472329575
 20
5.6678147797
 30
0.0
 10
24.3428557657
 20
5.6688140271
 30
0.0
 10
24.3387798468
 20
5.6703941996
 30
0.0
 10
24.3340671281
 20
5.6730314274
 30
0.0
 10
24.3292678018
 20
5.6771200112
 30
0.0
 10
24.3264295272
 20
5.6811112958
 30
0.0
 10
24.3253232591
 20
5.6831365467
 30
0.0
  0
LINE
  5
362
100
AcDbEntity
  8
0
100
AcDbLine
 62
7
  6
CONTINUOUS
 10
24.4252884223
 20
5.6667042861
 11
24.426275483
 21
5.6666848894
  0
LINE
  5
363
100
AcDbEntity
  8
0
100
AcDbLine
 62
7
  6
CONTINUOUS
 10
24.426275483
 20
5.6666848894
 11
24.4269824186
 21
5.6666709583
  0
LINE
  5
364
100
AcDbEntity
  8
0
100
AcDbLine
 62
7
  6
CONTINUOUS
 10
24.2650852847
 20
5.7283872914
 11
24.2729263238
 21
5.7263287406
  0
LINE
  5
365
100
AcDbEntity
  8
0
100
AcDbLine
 62
7
  6
CONTINUOUS
 10
24.265062771
 20
5.728416827
 11
24.2647031692
 21
5.7284762767
  0
SPLINE
  5
366
100
AcDbEntity
  8
0
100
AcDbSpline
 62
9
  6
CONTINUOUS
 70
0
 71
3
 72
13
 73
9
 74
0
 42
0.0000001
 43
0.0000001
 44
0.0000000001
 40
0.0
 40
0.0
 40
0.0
 40
0.0
 40
0.2964274075
 40
0.5734316497
 40
0.6986967644
 40
0.8126199352
 40
0.9135337244
 40
1.0
 40
1.0
 40
1.0
 40
1.0
 10
24.3517548853
 20
8.3739351399
 30
0.0
 10
24.3490919511
 20
8.3739351399
 30
0.0
 10
24.3439389873
 20
8.3737533746
 30
0.0
 10
24.3376918735
 20
8.3730653863
 30
0.0
 10
24.3331295126
 20
8.3722254762
 30
0.0
 10
24.3301583866
 20
8.3715043343
 30
0.0
 10
24.3275757684
 20
8.3706871895
 30
0.0
 10
24.3260179088
 20
8.3700389309
 30
0.0
 10
24.3253231427
 20
8.3696915671
 30
0.0
  0
SPLINE
  5
367
100
AcDbEntity
  8
0
100
AcDbSpline
 62
9
  6
CONTINUOUS
 70
0
 71
3
 72
11
 73
7
 74
0
 42
0.0000001
 43
0.0000001
 44
0.0000000001
 40
0.0
 40
0.0
 40
0.0
 40
0.0
 40
0.2527345018
 40
0.5040999782
 40
0.7533909406
 40
1.0
 40
1.0
 40
1.0
 40
1.0
 10
24.1118700299
 20
7.3331355604
 30
0.0
 10
24.1151346559
 20
7.4171453349
 30
0.0
 10
24.1254488561
 20
7.584586131
 30
0.0
 10
24.1520790969
 20
7.8338673537
 30
0.0
 10
24.1895541625
 20
8.0796884905
 30
0.0
 10
24.2217151011
 20
8.2415533319
 30
0.0
 10
24.2395299613
 20
8.3216311609
 30
0.0
  0
SPLINE
  5
368
100
AcDbEntity
  8
0
100
AcDbSpline
 62
9
  6
CONTINUOUS
 70
0
 71
3
 72
13
 73
9
 74
0
 42
0.0000001
 43
0.0000001
 44
0.0000000001
 40
0.0
 40
0.0
 40
0.0
 40
0.0
 40
0.2463587104
 40
0.3709619967
 40
0.496001449
 40
0.6215806068
 40
0.7477756198
 40
1.0
 40
1.0
 40
1.0
 40
1.0
 10
24.3253231019
 20
8.3795522706
 30
0.0
 10
24.3265986322
 20
8.3818425098
 30
0.0
 10
24.3290198186
 20
8.3850407765
 30
0.0
 10
24.3329844792
 20
8.3885404632
 30
0.0
 10
24.3363157775
 20
8.3907643809
 30
0.0
 10
24.339925964
 20
8.3925373389
 30
0.0
 10
24.3450199624
 20
8.3942480321
 30
0.0
 10
24.3490710079
 20
8.3947802802
 30
0.0
 10
24.3517549067
 20
8.3947817438
 30
0.0
  0
SPLINE
  5
369
100
AcDbEntity
  8
0
100
AcDbSpline
 62
9
  6
CONTINUOUS
 70
0
 71
3
 72
9
 73
5
 74
0
 42
0.0000001
 43
0.0000001
 44
0.0000000001
 40
0.0
 40
0.0
 40
0.0
 40
0.0
 40
0.2627602236
 40
1.0
 40
1.0
 40
1.0
 40
1.0
 10
24.3245788838
 20
8.3748681064
 30
0.0
 10
24.3245788798
 20
8.3752845664
 30
0.0
 10
24.3246389267
 20
8.3768685342
 30
0.0
 10
24.3249463047
 20
8.3784462122
 30
0.0
 10
24.3253230549
 20
8.3795522916
 30
0.0
  0
SPLINE
  5
36A
100
AcDbEntity
  8
0
100
AcDbSpline
 62
9
  6
CONTINUOUS
 70
0
 71
3
 72
9
 73
5
 74
0
 42
0.0000001
 43
0.0000001
 44
0.0000000001
 40
0.0
 40
0.0
 40
0.0
 40
0.0
 40
0.2621007234
 40
1.0
 40
1.0
 40
1.0
 40
1.0
 10
24.3253232057
 20
8.3696915873
 30
0.0
 10
24.3252006102
 20
8.3701325355
 30
0.0
 10
24.3247844472
 20
8.3718283077
 30
0.0
 10
24.3245788959
 20
8.3735796059
 30
0.0
 10
24.3245788838
 20
8.3748681064
 30
0.0
  0
SPLINE
  5
36B
100
AcDbEntity
  8
0
100
AcDbSpline
 62
9
  6
CONTINUOUS
 70
0
 71
3
 72
13
 73
9
 74
0
 42
0.0000001
 43
0.0000001
 44
0.0000000001
 40
0.0
 40
0.0
 40
0.0
 40
0.0
 40
0.1021468578
 40
0.2103377326
 40
0.32536689
 40
0.4477510821
 40
0.7137020101
 40
1.0
 40
1.0
 40
1.0
 40
1.0
 10
24.3253232591
 20
5.8537900375
 30
0.0
 10
24.3235233156
 20
5.8563433184
 30
0.0
 10
24.3194422285
 20
5.8613453221
 30
0.0
 10
24.3121797331
 20
5.8681849019
 30
0.0
 10
24.303618018
 20
5.8744296426
 30
0.0
 10
24.2901519484
 20
5.8819562929
 30
0.0
 10
24.270459637
 20
5.8887208469
 30
0.0
 10
24.2535117062
 20
5.8905730966
 30
0.0
 10
24.2447558859
 20
5.8905732469
 30
0.0
  0
SPLINE
  5
36C
100
AcDbEntity
  8
0
100
AcDbSpline
 62
9
  6
CONTINUOUS
 70
0
 71
3
 72
11
 73
7
 74
0
 42
0.0000001
 43
0.0000001
 44
0.0000000001
 40
0.0
 40
0.0
 40
0.0
 40
0.0
 40
0.2466082613
 40
0.4958988903
 40
0.747265053
 40
1.0
 40
1.0
 40
1.0
 40
1.0
 10
24.2395299828
 20
5.9117104891
 30
0.0
 10
24.221715176
 20
5.9917880663
 30
0.0
 10
24.1895542648
 20
6.1536525456
 30
0.0
 10
24.1520792015
 20
6.3994735588
 30
0.0
 10
24.125448934
 20
6.6487550699
 30
0.0
 10
24.1151346617
 20
6.8161962556
 30
0.0
 10
24.1118700299
 20
6.9002061864
 30
0.0
  0
SPLINE
  5
36D
100
AcDbEntity
  8
0
100
AcDbSpline
 62
9
  6
CONTINUOUS
 70
0
 71
3
 72
13
 73
9
 74
0
 42
0.0000001
 43
0.0000001
 44
0.0000000001
 40
0.0
 40
0.0
 40
0.0
 40
0.0
 40
0.2415364637
 40
0.3690153518
 40
0.498551138
 40
0.6282982152
 40
0.7563754852
 40
1.0
 40
1.0
 40
1.0
 40
1.0
 10
24.2395299732
 20
5.8905732724
 30
0.0
 10
24.2366169661
 20
5.8907375099
 30
0.0
 10
24.2321711126
 20
5.8916516287
 30
0.0
 10
24.2266591786
 20
5.8941134792
 30
0.0
 10
24.2226962791
 20
5.8966220825
 30
0.0
 10
24.2191512325
 20
5.8997039187
 30
0.0
 10
24.2151876419
 20
5.9043035464
 30
0.0
 10
24.2130171675
 20
5.9083263695
 30
0.0
 10
24.2120089901
 20
5.9110911442
 30
0.0
  0
SPLINE
  5
36E
100
AcDbEntity
  8
0
100
AcDbSpline
 62
9
  6
CONTINUOUS
 70
0
 71
3
 72
11
 73
7
 74
0
 42
0.0000001
 43
0.0000001
 44
0.0000000001
 40
0.0
 40
0.0
 40
0.0
 40
0.0
 40
0.2501420861
 40
0.4999994697
 40
0.7498570055
 40
1.0
 40
1.0
 40
1.0
 40
1.0
 10
24.1118700331
 20
6.9002061865
 30
0.0
 10
24.1104677543
 20
6.9362917332
 30
0.0
 10
24.1074300556
 20
7.0084127917
 30
0.0
 10
24.1054152504
 20
7.1166706655
 30
0.0
 10
24.1074298073
 20
7.2249286798
 30
0.0
 10
24.1104677551
 20
7.2970498823
 30
0.0
 10
24.1118700331
 20
7.3331355603
 30
0.0
  0
SPLINE
  5
36F
100
AcDbEntity
  8
0
100
AcDbSpline
 62
9
  6
CONTINUOUS
 70
0
 71
3
 72
14
 73
10
 74
0
 42
0.0000001
 43
0.0000001
 44
0.0000000001
 40
0.0
 40
0.0
 40
0.0
 40
0.0
 40
0.3141178441
 40
0.4684266607
 40
0.6129485474
 40
0.741895801
 40
0.8510789514
 40
0.9373357263
 40
1.0
 40
1.0
 40
1.0
 40
1.0
 10
24.1118700036
 20
7.3331355614
 30
0.0
 10
24.1089087403
 20
7.3332511337
 30
0.0
 10
24.1044915051
 20
7.3333939006
 30
0.0
 10
24.0987098661
 20
7.3335125759
 30
0.0
 10
24.0946742283
 20
7.33355966
 30
0.0
 10
24.0910640652
 20
7.3335613375
 30
0.0
 10
24.088003729
 20
7.3335211735
 30
0.0
 10
24.0855699372
 20
7.3334407196
 30
0.0
 10
24.0841670298
 20
7.3333546176
 30
0.0
 10
24.0835784695
 20
7.3332988048
 30
0.0
  0
SPLINE
  5
370
100
AcDbEntity
  8
0
100
AcDbSpline
 62
9
  6
CONTINUOUS
 70
0
 71
3
 72
14
 73
10
 74
0
 42
0.0000001
 43
0.0000001
 44
0.0000000001
 40
0.0
 40
0.0
 40
0.0
 40
0.0
 40
0.3141176513
 40
0.4684264718
 40
0.6129484041
 40
0.74189572
 40
0.8510789261
 40
0.9373357303
 40
1.0
 40
1.0
 40
1.0
 40
1.0
 10
24.1118700691
 20
6.9002061881
 30
0.0
 10
24.1089088007
 20
6.9000906153
 30
0.0
 10
24.1044915572
 20
6.8999478477
 30
0.0
 10
24.0987099061
 20
6.8998291717
 30
0.0
 10
24.0946742579
 20
6.8997820871
 30
0.0
 10
24.0910640849
 20
6.8997804093
 30
0.0
 10
24.0880037402
 20
6.8998205732
 30
0.0
 10
24.085569942
 20
6.899901027
 30
0.0
 10
24.0841670311
 20
6.8999871292
 30
0.0
 10
24.0835784695
 20
6.9000429421
 30
0.0
  0
SPLINE
  5
371
100
AcDbEntity
  8
0
100
AcDbSpline
 62
9
  6
CONTINUOUS
 70
0
 71
3
 72
25
 73
21
 74
0
 42
0.0000001
 43
0.0000001
 44
0.0000000001
 40
0.0
 40
0.0
 40
0.0
 40
0.0
 40
0.0613495552
 40
0.0921211566
 40
0.1229324041
 40
0.1846736715
 40
0.2465969625
 40
0.3086911037
 40
0.3709427763
 40
0.4333438156
 40
0.4958853857
 40
0.558557261
 40
0.6213478905
 40
0.6842480293
 40
0.7472490707
 40
0.8103357911
 40
0.8419057592
 40
0.8734911549
 40
0.9367107943
 40
1.0
 40
1.0
 40
1.0
 40
1.0
 10
24.2120089961
 20
8.3222506065
 30
0.0
 10
24.2075825558
 20
8.3023147035
 30
0.0
 10
24.2010525753
 20
8.272353131
 30
0.0
 10
24.1926569797
 20
8.2323029821
 30
0.0
 10
24.1844807835
 20
8.1920743687
 30
0.0
 10
24.1746947302
 20
8.141592629
 30
0.0
 10
24.1635953145
 20
8.0807623315
 30
0.0
 10
24.1531549395
 20
8.0196429592
 30
0.0
 10
24.1433834631
 20
7.9582520824
 30
0.0
 10
24.1342832964
 20
7.8966075614
 30
0.0
 10
24.1258576467
 20
7.8347260733
 30
0.0
 10
24.118112296
 20
7.7726250387
 30
0.0
 10
24.1110633617
 20
7.7103209582
 30
0.0
 10
24.1047081381
 20
7.6478322513
 30
0.0
 10
24.0990229086
 20
7.5851801269
 30
0.0
 10
24.0948767531
 20
7.5328633333
 30
0.0
 10
24.091947634
 20
7.49094314
 30
0.0
 10
24.089285588
 20
7.4489608001
 30
0.0
 10
24.0864095693
 20
7.3964136726
 30
0.0
 10
24.0844794633
 20
7.3543465804
 30
0.0
 10
24.0835784695
 20
7.3332988048
 30
0.0
  0
LINE
  5
372
100
AcDbEntity
  8
0
100
AcDbLine
 62
9
  6
CONTINUOUS
 10
24.0835784695
 20
8.4774852023
 11
24.2120089961
 21
8.3222506065
  0
SPLINE
  5
373
100
AcDbEntity
  8
0
100
AcDbSpline
 62
9
  6
CONTINUOUS
 70
0
 71
3
 72
28
 73
24
 74
0
 42
0.0000001
 43
0.0000001
 44
0.0000000001
 40
0.0
 40
0.0
 40
0.0
 40
0.0
 40
0.0002572447
 40
0.0010283066
 40
0.0023117451
 40
0.0041061307
 40
0.0064100454
 40
0.0092220827
 40
0.01636495
 40
0.0255237182
 40
0.0366875566
 40
0.0498458252
 40
0.0649880766
 40
0.1011835691
 40
0.1451944952
 40
0.196944418
 40
0.2563601779
 40
0.3233719556
 40
0.3979133358
 40
0.479921369
 40
0.5693366324
 40
0.770165359
 40
1.0
 40
1.0
 40
1.0
 40
1.0
 10
24.0806866433
 20
8.4886350472
 30
0.0
 10
24.0806856547
 20
8.488635037
 30
0.0
 10
24.0806903759
 20
8.4886291396
 30
0.0
 10
24.0806904293
 20
8.4886229983
 30
0.0
 10
24.0806975614
 20
8.4886079802
 30
0.0
 10
24.0807041668
 20
8.4885892028
 30
0.0
 10
24.0807139122
 20
8.4885641687
 30
0.0
 10
24.0807303894
 20
8.4885201815
 30
0.0
 10
24.0807561053
 20
8.4884512663
 30
0.0
 10
24.080792343
 20
8.4883521618
 30
0.0
 10
24.0808359189
 20
8.4882310663
 30
0.0
 10
24.0808864692
 20
8.4880880628
 30
0.0
 10
24.0809677859
 20
8.4878538894
 30
0.0
 10
24.0810849193
 20
8.4875066377
 30
0.0
 10
24.081241595
 20
8.4870242658
 30
0.0
 10
24.0814193337
 20
8.4864549386
 30
0.0
 10
24.0816158335
 20
8.4857989037
 30
0.0
 10
24.0818287879
 20
8.4850564073
 30
0.0
 10
24.082055891
 20
8.4842276962
 30
0.0
 10
24.0822948397
 20
8.4833130165
 30
0.0
 10
24.082639731
 20
8.4819244445
 30
0.0
 10
24.0830848001
 20
8.4799755115
 30
0.0
 10
24.08341339
 20
8.4783530195
 30
0.0
 10
24.0835784777
 20
8.4774852255
 30
0.0
  0
SPLINE
  5
374
100
AcDbEntity
  8
0
100
AcDbSpline
 62
9
  6
CONTINUOUS
 70
0
 71
3
 72
17
 73
13
 74
0
 42
0.0000001
 43
0.0000001
 44
0.0000000001
 40
0.0
 40
0.0
 40
0.0
 40
0.0
 40
0.1247054246
 40
0.2496636909
 40
0.374784657
 40
0.4373806588
 40
0.499987396
 40
0.6251938201
 40
0.6877735947
 40
0.7503238593
 40
0.8752908596
 40
1.0
 40
1.0
 40
1.0
 40
1.0
 10
24.0835784695
 20
7.3332988048
 30
0.0
 10
24.0832257459
 20
7.3152905428
 30
0.0
 10
24.0824922589
 20
7.2792380571
 30
0.0
 10
24.0815150525
 20
7.2251150632
 30
0.0
 10
24.0809604289
 20
7.1799571033
 30
0.0
 10
24.0807249783
 20
7.1438024881
 30
0.0
 10
24.0806509683
 20
7.1076348363
 30
0.0
 10
24.0808129968
 20
7.0714694432
 30
0.0
 10
24.0811802058
 20
7.0353141331
 30
0.0
 10
24.0816771298
 20
6.9991949328
 30
0.0
 10
24.0824941622
 20
6.9541060521
 30
0.0
 10
24.0832257313
 20
6.9180517405
 30
0.0
 10
24.0835784695
 20
6.900042942
 30
0.0
  0
SPLINE
  5
375
100
AcDbEntity
  8
0
100
AcDbSpline
 62
9
  6
CONTINUOUS
 70
0
 71
3
 72
11
 73
7
 74
0
 42
0.0000001
 43
0.0000001
 44
0.0000000001
 40
0.0
 40
0.0
 40
0.0
 40
0.0
 40
0.4210960349
 40
0.7306115853
 40
0.924508568
 40
1.0
 40
1.0
 40
1.0
 40
1.0
 10
24.0835784695
 20
5.7558565445
 30
0.0
 10
24.0832764818
 20
5.7542691245
 30
0.0
 10
24.0826801789
 20
5.7515280029
 30
0.0
 10
24.0817606881
 20
5.7481004362
 30
0.0
 10
24.0811058491
 20
5.7459774907
 30
0.0
 10
24.0807840872
 20
5.7449949747
 30
0.0
 10
24.0806879227
 20
5.7447217154
 30
0.0
  0
SPLINE
  5
376
100
AcDbEntity
  8
0
100
AcDbSpline
 62
9
  6
CONTINUOUS
 70
0
 71
3
 72
25
 73
21
 74
0
 42
0.0000001
 43
0.0000001
 44
0.0000000001
 40
0.0
 40
0.0
 40
0.0
 40
0.0
 40
0.0011965216
 40
0.0026849028
 40
0.0047601438
 40
0.0106516159
 40
0.0188319041
 40
0.0292621869
 40
0.0419038653
 40
0.0567185705
 40
0.0736681714
 40
0.1138205935
 40
0.1620612909
 40
0.2180946503
 40
0.2816297289
 40
0.3523225847
 40
0.4296078582
 40
0.60155718
 40
0.7929944581
 40
1.0
 40
1.0
 40
1.0
 40
1.0
 10
24.106086361
 20
5.7306708734
 30
0.0
 10
24.1060832858
 20
5.7306710254
 30
0.0
 10
24.1060980602
 20
5.7306770783
 30
0.0
 10
24.1061037779
 20
5.7306824645
 30
0.0
 10
24.1061268501
 20
5.7306963028
 30
0.0
 10
24.106159782
 20
5.7307184135
 30
0.0
 10
24.1062134097
 20
5.7307532527
 30
0.0
 10
24.1062800422
 20
5.7307976568
 30
0.0
 10
24.106361073
 20
5.7308520865
 30
0.0
 10
24.1064554909
 20
5.7309163719
 30
0.0
 10
24.1066078818
 20
5.7310213955
 30
0.0
 10
24.1068296228
 20
5.7311773044
 30
0.0
 10
24.1071310263
 20
5.731394749
 30
0.0
 10
24.1074779943
 20
5.7316518117
 30
0.0
 10
24.1078675347
 20
5.7319483966
 30
0.0
 10
24.1082960382
 20
5.7322840144
 30
0.0
 10
24.108935006
 20
5.7328031535
 30
0.0
 10
24.1097912071
 20
5.7335473795
 30
0.0
 10
24.1108444747
 20
5.7345707869
 30
0.0
 10
24.1115302104
 20
5.7353345734
 30
0.0
 10
24.1118700397
 20
5.7357447592
 30
0.0
  0
SPLINE
  5
377
100
AcDbEntity
  8
0
100
AcDbSpline
 62
9
  6
CONTINUOUS
 70
0
 71
3
 72
16
 73
12
 74
0
 42
0.0000001
 43
0.0000001
 44
0.0000000001
 40
0.0
 40
0.0
 40
0.0
 40
0.0
 40
0.1556457491
 40
0.3122480051
 40
0.4645575147
 40
0.6070311349
 40
0.7345286823
 40
0.8435620264
 40
0.9318626816
 40
0.9683616955
 40
1.0
 40
1.0
 40
1.0
 40
1.0
 10
24.2395299732
 20
5.9117105318
 30
0.0
 10
24.2381150338
 20
5.9114152463
 30
0.0
 10
24.2352651371
 20
5.9108757568
 30
0.0
 10
24.2309973944
 20
5.910236518
 30
0.0
 10
24.2268269411
 20
5.9097989697
 30
0.0
 10
24.2229095075
 20
5.9095813038
 30
0.0
 10
24.2193869828
 20
5.9096043996
 30
0.0
 10
24.2163775504
 20
5.9098528517
 30
0.0
 10
24.2142368716
 20
5.9102595055
 30
0.0
 10
24.2128520613
 20
5.9107039018
 30
0.0
 10
24.2122699898
 20
5.9109562167
 30
0.0
 10
24.2120089903
 20
5.9110911437
 30
0.0
  0
SPLINE
  5
378
100
AcDbEntity
  8
0
100
AcDbSpline
 62
9
  6
CONTINUOUS
 70
0
 71
3
 72
23
 73
19
 74
0
 42
0.0000001
 43
0.0000001
 44
0.0000000001
 40
0.0
 40
0.0
 40
0.0
 40
0.0
 40
0.0632796623
 40
0.1265003839
 40
0.1896583623
 40
0.2527433974
 40
0.3157413132
 40
0.3786409024
 40
0.4414329741
 40
0.5041059933
 40
0.566645667
 40
0.6290420873
 40
0.6912972252
 40
0.7534131117
 40
0.8153566063
 40
0.8770651808
 40
0.9385392717
 40
1.0
 40
1.0
 40
1.0
 40
1.0
 10
24.0835784695
 20
6.9000429419
 30
0.0
 10
24.0844336062
 20
6.8789964009
 30
0.0
 10
24.0863304833
 20
6.8369302203
 30
0.0
 10
24.0898233602
 20
6.7738940344
 30
0.0
 10
24.0940618049
 20
6.7109682614
 30
0.0
 10
24.0990349398
 20
6.6481708626
 30
0.0
 10
24.1047023884
 20
6.5855187511
 30
0.0
 10
24.1110598569
 20
6.523030875
 30
0.0
 10
24.1181140786
 20
6.4607266286
 30
0.0
 10
24.125859876
 20
6.3986253403
 30
0.0
 10
24.134281061
 20
6.3367449795
 30
0.0
 10
24.1433697474
 20
6.2750997099
 30
0.0
 10
24.1531405849
 20
6.2137015842
 30
0.0
 10
24.1636159256
 20
6.1525726747
 30
0.0
 10
24.1747508167
 20
6.091745656
 30
0.0
 10
24.1864516006
 20
6.0312428964
 30
0.0
 10
24.1986777106
 20
5.9710077508
 30
0.0
 10
24.2074282227
 20
5.9310301519
 30
0.0
 10
24.2120089961
 20
5.9110911403
 30
0.0
  0
SPLINE
  5
379
100
AcDbEntity
  8
0
100
AcDbSpline
 62
9
  6
CONTINUOUS
 70
0
 71
3
 72
26
 73
22
 74
0
 42
0.0000001
 43
0.0000001
 44
0.0000000001
 40
0.0
 40
0.0
 40
0.0
 40
0.0
 40
0.000293827
 40
0.0011745522
 40
0.0026385566
 40
0.0046822273
 40
0.0104941497
 40
0.0185815633
 40
0.0289158295
 40
0.041468432
 40
0.0562109797
 40
0.0731152099
 40
0.1132962317
 40
0.1617854803
 40
0.2182344953
 40
0.2821266071
 40
0.3529442744
 40
0.430184653
 40
0.601968049
 40
0.7932852659
 40
1.0
 40
1.0
 40
1.0
 40
1.0
 10
24.1060863511
 20
8.5026708734
 30
0.0
 10
24.1060856098
 20
8.5026707248
 30
0.0
 10
24.1060914825
 20
8.5026684237
 30
0.0
 10
24.1060939412
 20
8.5026653317
 30
0.0
 10
24.1061051993
 20
8.5026587803
 30
0.0
 10
24.1061241191
 20
8.5026457942
 30
0.0
 10
24.1061591118
 20
8.5026229466
 30
0.0
 10
24.1062105369
 20
8.502588331
 30
0.0
 10
24.1062767354
 20
8.5025436924
 30
0.0
 10
24.106356695
 20
8.5024891772
 30
0.0
 10
24.1064504264
 20
8.5024247325
 30
0.0
 10
24.1066022615
 20
8.5023193619
 30
0.0
 10
24.106824374
 20
8.5021629388
 30
0.0
 10
24.1071278202
 20
8.5019453183
 30
0.0
 10
24.1074781727
 20
8.5016884388
 30
0.0
 10
24.1078706094
 20
8.5013918649
 30
0.0
 10
24.1083000806
 20
8.5010556715
 30
0.0
 10
24.1089381552
 20
8.500535818
 30
0.0
 10
24.1097928252
 20
8.4997912176
 30
0.0
 10
24.1108453615
 20
8.4987692975
 30
0.0
 10
24.111530691
 20
8.498006587
 30
0.0
 10
24.1118700298
 20
8.4975969876
 30
0.0
  0
LINE
  5
37A
100
AcDbEntity
  8
0
100
AcDbLine
 62
9
  6
CONTINUOUS
 10
24.2395299828
 20
8.3427684589
 11
24.1118700299
 21
8.4975969876
  0
SPLINE
  5
37B
100
AcDbEntity
  8
0
100
AcDbSpline
 62
9
  6
CONTINUOUS
 70
0
 71
3
 72
27
 73
23
 74
0
 42
0.0000001
 43
0.0000001
 44
0.0000000001
 40
0.0
 40
0.0
 40
0.0
 40
0.0
 40
0.1019534806
 40
0.1983505124
 40
0.2446226164
 40
0.2896844283
 40
0.3761405792
 40
0.4575308778
 40
0.5336892143
 40
0.6045820511
 40
0.6701889834
 40
0.7304533905
 40
0.7853237196
 40
0.8348164863
 40
0.8575585281
 40
0.8789614127
 40
0.9176102073
 40
0.9504612886
 40
0.9646867507
 40
0.9775847071
 40
0.9892996426
 40
1.0
 40
1.0
 40
1.0
 40
1.0
 10
24.2120089961
 20
5.9110911403
 30
0.0
 10
24.2077181351
 20
5.9057550779
 30
0.0
 10
24.1992809311
 20
5.89544554
 30
0.0
 10
24.1887490851
 20
5.8828362821
 30
0.0
 10
24.1806610677
 20
5.8731641972
 30
0.0
 10
24.1730250124
 20
5.8639845094
 30
0.0
 10
24.1639191859
 20
5.8529596294
 30
0.0
 10
24.1535038609
 20
5.8403076714
 30
0.0
 10
24.1437344554
 20
5.8284778509
 30
0.0
 10
24.1346321617
 20
5.8174718833
 30
0.0
 10
24.1262105975
 20
5.8072881396
 30
0.0
 10
24.1184703879
 20
5.7979373035
 30
0.0
 10
24.1114081718
 20
5.7894301789
 30
0.0
 10
24.1059586837
 20
5.782859445
 30
0.0
 10
24.1019581481
 20
5.7780071869
 30
0.0
 10
24.0984321841
 20
5.773707566
 30
0.0
 10
24.0944795905
 20
5.768879922
 30
0.0
 10
24.0907724975
 20
5.7644739533
 30
0.0
 10
24.0881078484
 20
5.7614533343
 30
0.0
 10
24.0863908584
 20
5.7594896039
 30
0.0
 10
24.084876275
 20
5.7576640642
 30
0.0
 10
24.0839790081
 20
5.7564532162
 30
0.0
 10
24.0835784695
 20
5.7558565445
 30
0.0
  0
LINE
  5
37C
100
AcDbEntity
  8
0
100
AcDbLine
 62
9
  6
CONTINUOUS
 10
24.1118698363
 20
5.7357447596
 11
24.2395297718
 21
5.8905732723
  0
SPLINE
  5
37D
100
AcDbEntity
  8
0
100
AcDbSpline
 62
9
  6
CONTINUOUS
 70
0
 71
3
 72
9
 73
5
 74
0
 42
0.0000001
 43
0.0000001
 44
0.0000000001
 40
0.0
 40
0.0
 40
0.0
 40
0.0
 40
0.2446204973
 40
1.0
 40
1.0
 40
1.0
 40
1.0
 10
24.3245788838
 20
5.8584746618
 30
0.0
 10
24.3245788797
 20
5.8589018656
 30
0.0
 10
24.3246471865
 20
5.8606480826
 30
0.0
 10
24.3249697406
 20
5.8623803244
 30
0.0
 10
24.3253230549
 20
5.8636513209
 30
0.0
  0
SPLINE
  5
37E
100
AcDbEntity
  8
0
100
AcDbSpline
 62
9
  6
CONTINUOUS
 70
0
 71
3
 72
13
 73
9
 74
0
 42
0.0000001
 43
0.0000001
 44
0.0000000001
 40
0.0
 40
0.0
 40
0.0
 40
0.0
 40
0.2415364614
 40
0.3690153532
 40
0.49855113
 40
0.628298208
 40
0.7563754762
 40
1.0
 40
1.0
 40
1.0
 40
1.0
 10
24.2395299731
 20
8.3427684705
 30
0.0
 10
24.2366169669
 20
8.3426042321
 30
0.0
 10
24.2321711146
 20
8.3416901139
 30
0.0
 10
24.2266591822
 20
8.3392282639
 30
0.0
 10
24.2226962836
 20
8.3367196617
 30
0.0
 10
24.219151238
 20
8.3336378264
 30
0.0
 10
24.2151876475
 20
8.3290382006
 30
0.0
 10
24.2130171732
 20
8.3250153788
 30
0.0
 10
24.2120089953
 20
8.322250605
 30
0.0
  0
SPLINE
  5
37F
100
AcDbEntity
  8
0
100
AcDbSpline
 62
9
  6
CONTINUOUS
 70
0
 71
3
 72
9
 73
5
 74
0
 42
0.0000001
 43
0.0000001
 44
0.0000000001
 40
0.0
 40
0.0
 40
0.0
 40
0.0
 40
0.2448957082
 40
1.0
 40
1.0
 40
1.0
 40
1.0
 10
24.3253232057
 20
5.8537899393
 30
0.0
 10
24.3251980297
 20
5.8541574282
 30
0.0
 10
24.3247546734
 20
5.855680808
 30
0.0
 10
24.3245788951
 20
5.8572776264
 30
0.0
 10
24.3245788838
 20
5.8584746618
 30
0.0
  0
SPLINE
  5
380
100
AcDbEntity
  8
0
100
AcDbSpline
 62
9
  6
CONTINUOUS
 70
0
 71
3
 72
13
 73
9
 74
0
 42
0.0000001
 43
0.0000001
 44
0.0000000001
 40
0.0
 40
0.0
 40
0.0
 40
0.0
 40
0.2522210128
 40
0.3784237452
 40
0.5040058816
 40
0.6290413791
 40
0.7536385032
 40
1.0
 40
1.0
 40
1.0
 40
1.0
 10
24.3517548852
 20
5.8385603319
 30
0.0
 10
24.3490710208
 20
5.8385603323
 30
0.0
 10
24.345019715
 20
5.8390934305
 30
0.0
 10
24.3399260526
 20
5.8408050747
 30
0.0
 10
24.3363157692
 20
5.8425779671
 30
0.0
 10
24.3329844122
 20
5.8448016732
 30
0.0
 10
24.3290200294
 20
5.8483016496
 30
0.0
 10
24.3265993392
 20
5.8515000394
 30
0.0
 10
24.3253231427
 20
5.8537899426
 30
0.0
  0
SPLINE
  5
381
100
AcDbEntity
  8
0
100
AcDbSpline
 62
9
  6
CONTINUOUS
 70
0
 71
3
 72
13
 73
9
 74
0
 42
0.0000001
 43
0.0000001
 44
0.0000000001
 40
0.0
 40
0.0
 40
0.0
 40
0.0
 40
0.086452323
 40
0.1873739858
 40
0.3013078348
 40
0.4265748141
 40
0.7035724371
 40
1.0
 40
1.0
 40
1.0
 40
1.0
 10
24.3253231019
 20
5.863651325
 30
0.0
 10
24.3260176559
 20
5.8633038041
 30
0.0
 10
24.3275754564
 20
5.8626554583
 30
0.0
 10
24.3301581585
 20
5.8618383879
 30
0.0
 10
24.3331294801
 20
5.8611171885
 30
0.0
 10
24.3376918727
 20
5.860276972
 30
0.0
 10
24.3439390387
 20
5.8595891131
 30
0.0
 10
24.3490919511
 20
5.8594076119
 30
0.0
 10
24.3517549067
 20
5.8594069736
 30
0.0
  0
SPLINE
  5
382
100
AcDbEntity
  8
0
100
AcDbSpline
 62
9
  6
CONTINUOUS
 70
0
 71
3
 72
16
 73
12
 74
0
 42
0.0000001
 43
0.0000001
 44
0.0000000001
 40
0.0
 40
0.0
 40
0.0
 40
0.0
 40
0.1556457148
 40
0.3122479354
 40
0.4645574205
 40
0.6070310266
 40
0.7345285778
 40
0.8435619443
 40
0.9318626357
 40
0.9683616719
 40
1.0
 40
1.0
 40
1.0
 40
1.0
 10
24.2395299733
 20
8.3216312145
 30
0.0
 10
24.2381150345
 20
8.3219264999
 30
0.0
 10
24.2352651389
 20
8.3224659892
 30
0.0
 10
24.2309973979
 20
8.3231052279
 30
0.0
 10
24.2268269461
 20
8.3235427762
 30
0.0
 10
24.2229095136
 20
8.3237604424
 30
0.0
 10
24.2193869894
 20
8.323737347
 30
0.0
 10
24.216377557
 20
8.3234888955
 30
0.0
 10
24.2142368777
 20
8.3230822424
 30
0.0
 10
24.2128520667
 20
8.3226378466
 30
0.0
 10
24.2122699947
 20
8.322385532
 30
0.0
 10
24.212008995
 20
8.3222506051
 30
0.0
  0
SPLINE
  5
383
100
AcDbEntity
  8
0
100
AcDbSpline
 62
9
  6
CONTINUOUS
 70
0
 71
3
 72
15
 73
11
 74
0
 42
0.0000001
 43
0.0000001
 44
0.0000000001
 40
0.0
 40
0.0
 40
0.0
 40
0.0
 40
0.1135650441
 40
0.2299956015
 40
0.3497492177
 40
0.4731769742
 40
0.6004012144
 40
0.7311859598
 40
0.8647960778
 40
1.0
 40
1.0
 40
1.0
 40
1.0
 10
24.3253232591
 20
8.3696923099
 30
0.0
 10
24.3235508768
 20
8.3664159429
 30
0.0
 10
24.3195500968
 20
8.3599939414
 30
0.0
 10
24.3123109879
 20
8.3510575088
 30
0.0
 10
24.3037650901
 20
8.3428796595
 30
0.0
 10
24.2939422077
 20
8.3356695598
 30
0.0
 10
24.2829215909
 20
8.3296649461
 30
0.0
 10
24.2708607389
 20
8.3251209015
 30
0.0
 10
24.2580216111
 20
8.3222765999
 30
0.0
 10
24.2491907009
 20
8.3216311616
 30
0.0
 10
24.2447558859
 20
8.3216311061
 30
0.0
  0
SPLINE
  5
384
100
AcDbEntity
  8
0
100
AcDbSpline
 62
9
  6
CONTINUOUS
 70
0
 71
3
 72
15
 73
11
 74
0
 42
0.0000001
 43
0.0000001
 44
0.0000000001
 40
0.0
 40
0.0
 40
0.0
 40
0.0
 40
0.1036752158
 40
0.2131595748
 40
0.3291646878
 40
0.4519541844
 40
0.5815322293
 40
0.7170653554
 40
0.8573288963
 40
1.0
 40
1.0
 40
1.0
 40
1.0
 10
24.325322952
 20
8.3795522379
 30
0.0
 10
24.3234946015
 20
8.3769583996
 30
0.0
 10
24.3193497864
 20
8.3718883304
 30
0.0
 10
24.3119760214
 20
8.3649831292
 30
0.0
 10
24.3033167845
 20
8.3587178413
 30
0.0
 10
24.2934287035
 20
8.3532437141
 30
0.0
 10
24.2824170998
 20
8.3487337466
 30
0.0
 10
24.2704531808
 20
8.3453433799
 30
0.0
 10
24.257790871
 20
8.3432519217
 30
0.0
 10
24.2491234356
 20
8.3427684333
 30
0.0
 10
24.2447563228
 20
8.3427683436
 30
0.0
  0
LINE
  5
385
100
AcDbEntity
  8
0
100
AcDbLine
 62
7
  6
CONTINUOUS
 10
24.2647031692
 20
5.7284762767
 11
24.2650842403
 21
5.728382706
  0
SPLINE
  5
386
100
AcDbEntity
  8
0
100
AcDbSpline
 62
9
  6
CONTINUOUS
 70
0
 71
3
 72
15
 73
11
 74
0
 42
0.0000001
 43
0.0000001
 44
0.0000000001
 40
0.0
 40
0.0
 40
0.0
 40
0.0
 40
0.1153252146
 40
0.2331640978
 40
0.3539190162
 40
0.4777340729
 40
0.6047415373
 40
0.7345561307
 40
0.8667097694
 40
1.0
 40
1.0
 40
1.0
 40
1.0
 10
24.325322952
 20
5.8636518424
 30
0.0
 10
24.3235230196
 20
5.8669787986
 30
0.0
 10
24.3194607204
 20
5.8734858139
 30
0.0
 10
24.3121103062
 20
5.8825089231
 30
0.0
 10
24.303465053
 20
5.8907158792
 30
0.0
 10
24.2935780544
 20
5.8979036205
 30
0.0
 10
24.2825508271
 20
5.9038388246
 30
0.0
 10
24.2705556916
 20
5.9083087852
 30
0.0
 10
24.257846463
 20
5.9110707298
 30
0.0
 10
24.2491282154
 20
5.9117104659
 30
0.0
 10
24.2447563228
 20
5.9117105904
 30
0.0
  0
SPLINE
  5
387
100
AcDbEntity
  8
0
100
AcDbSpline
 62
7
  6
CONTINUOUS
 70
0
 71
3
 72
17
 73
13
 74
0
 42
0.0000001
 43
0.0000001
 44
0.0000000001
 40
0.0
 40
0.0
 40
0.0
 40
0.0
 40
0.1166045786
 40
0.2399487007
 40
0.3038376149
 40
0.368769934
 40
0.4999998997
 40
0.6312298825
 40
0.6961622215
 40
0.7600511619
 40
0.8833953495
 40
1.0
 40
1.0
 40
1.0
 40
1.0
 10
11.0119834891
 20
9.3666710499
 30
0.0
 10
11.0083253056
 20
9.3666710607
 30
0.0
 10
11.0007829202
 20
9.3659707256
 30
0.0
 10
10.991556578
 20
9.3633335712
 30
0.0
 10
10.9843542071
 20
9.3600303488
 30
0.0
 10
10.9773028339
 20
9.3559058172
 30
0.0
 10
10.9692433383
 20
9.349411056
 30
0.0
 10
10.9627485848
 20
9.3413515535
 30
0.0
 10
10.9586240586
 20
9.3343001748
 30
0.0
 10
10.9553208409
 20
9.327097798
 30
0.0
 10
10.9526836916
 20
9.317871449
 30
0.0
 10
10.9519833598
 20
9.3103290591
 30
0.0
 10
10.9519833719
 20
9.3066708733
 30
0.0
  0
SPLINE
  5
388
100
AcDbEntity
  8
0
100
AcDbSpline
 62
7
  6
CONTINUOUS
 70
0
 71
3
 72
17
 73
13
 74
0
 42
0.0000001
 43
0.0000001
 44
0.0000000001
 40
0.0
 40
0.0
 40
0.0
 40
0.0
 40
0.1166045616
 40
0.2399486744
 40
0.3038375873
 40
0.3687699071
 40
0.4999998781
 40
0.6312298698
 40
0.6961622138
 40
0.7600511586
 40
0.883395351
 40
1.0
 40
1.0
 40
1.0
 40
1.0
 10
11.0119834891
 20
10.3066706727
 30
0.0
 10
11.0083253046
 20
10.3066706604
 30
0.0
 10
11.0007829164
 20
10.307370993
 30
0.0
 10
10.9915565703
 20
10.3100081461
 30
0.0
 10
10.9843541961
 20
10.3133113688
 30
0.0
 10
10.9773028193
 20
10.3174359017
 30
0.0
 10
10.9692433199
 20
10.3239306662
 30
0.0
 10
10.9627485645
 20
10.3319901738
 30
0.0
 10
10.9586240378
 20
10.339041557
 30
0.0
 10
10.9553208205
 20
10.3462439383
 30
0.0
 10
10.9526836733
 20
10.3554702925
 30
0.0
 10
10.9519833443
 20
10.3630126861
 30
0.0
 10
10.9519833581
 20
10.3666708734
 30
0.0
  0
SPLINE
  5
389
100
AcDbEntity
  8
0
100
AcDbSpline
 62
9
  6
CONTINUOUS
 70
0
 71
3
 72
71
 73
67
 74
0
 42
0.0000001
 43
0.0000001
 44
0.0000000001
 40
0.0
 40
0.0
 40
0.0
 40
0.0
 40
0.000051821
 40
0.0001160683
 40
0.0002057677
 40
0.0004612055
 40
0.0008174999
 40
0.0012740164
 40
0.0018301206
 40
0.0024851781
 40
0.0032385546
 40
0.0050377272
 40
0.0072225646
 40
0.0097879936
 40
0.0127289418
 40
0.0160393544
 40
0.0197092458
 40
0.0280836089
 40
0.0377643734
 40
0.0486639707
 40
0.0606954612
 40
0.0737741596
 40
0.0878161405
 40
0.1027377577
 40
0.1349114161
 40
0.1697584418
 40
0.2067973206
 40
0.2456414032
 40
0.2859493252
 40
0.327411432
 40
0.3697883202
 40
0.4128346911
 40
0.4563122847
 40
0.5000004426
 40
0.5436886176
 40
0.58716632
 40
0.6302128526
 40
0.6725896457
 40
0.7140517732
 40
0.754359781
 40
0.7932038174
 40
0.8302425799
 40
0.8650895255
 40
0.8972631248
 40
0.9121847064
 40
0.926226644
 40
0.9393052898
 40
0.9513367173
 40
0.9622362404
 40
0.971916921
 40
0.9802911922
 40
0.9839610353
 40
0.9872713983
 40
0.9902122961
 40
0.9927776748
 40
0.9949624631
 40
0.9967615889
 40
0.9975149431
 40
0.9981699793
 40
0.9987260633
 40
0.9991825609
 40
0.9995388377
 40
0.9997942594
 40
0.9998839513
 40
0.9999481916
 40
1.0
 40
1.0
 40
1.0
 40
1.0
 10
11.0119834793
 20
9.3666710499
 30
0.0
 10
11.011969769
 20
9.3666842898
 30
0.0
 10
11.0119424215
 20
9.3667172074
 30
0.0
 10
11.0118908212
 20
9.3667725336
 30
0.0
 10
11.0117899894
 20
9.366884383
 30
0.0
 10
11.0116163132
 20
9.3670751327
 30
0.0
 10
11.0113525176
 20
9.3673663141
 30
0.0
 10
11.0110143801
 20
9.3677393493
 30
0.0
 10
11.010602704
 20
9.3681940393
 30
0.0
 10
11.0101179188
 20
9.3687298218
 30
0.0
 10
11.00932673
 20
9.3696049364
 30
0.0
 10
11.0081589761
 20
9.3708981092
 30
0.0
 10
11.0065459192
 20
9.3726871514
 30
0.0
 10
11.0046532775
 20
9.3747895422
 30
0.0
 10
11.0024855354
 20
9.3772012991
 30
0.0
 10
11.0000484178
 20
9.3799171243
 30
0.0
 10
10.9962811891
 20
9.3841243939
 30
0.0
 10
10.9909632395
 20
9.3900881195
 30
0.0
 10
10.9839015426
 20
9.3980595608
 30
0.0
 10
10.9759815661
 20
9.4070675387
 30
0.0
 10
10.9672780717
 20
9.4170506051
 30
0.0
 10
10.9578703601
 20
9.4279528223
 30
0.0
 10
10.9478369605
 20
9.4397188556
 30
0.0
 10
10.9333594352
 20
9.4569244055
 30
0.0
 10
10.9142158402
 20
9.4802036556
 30
0.0
 10
10.8904861053
 20
9.5102357143
 30
0.0
 10
10.8660137362
 20
9.5427958626
 30
0.0
 10
10.8414540759
 20
9.5777791979
 30
0.0
 10
10.8174446611
 20
9.6151017918
 30
0.0
 10
10.7949138827
 20
9.6548509469
 30
0.0
 10
10.7748330139
 20
9.6970356415
 30
0.0
 10
10.7586099208
 20
9.7416819844
 30
0.0
 10
10.7478432651
 20
9.7884990136
 30
0.0
 10
10.7440357563
 20
9.836671373
 30
0.0
 10
10.7478434048
 20
9.8848437535
 30
0.0
 10
10.7586101329
 20
9.931660886
 30
0.0
 10
10.7748336108
 20
9.9763071534
 30
0.0
 10
10.7949143528
 20
10.0184919359
 30
0.0
 10
10.8174452925
 20
10.0582410145
 30
0.0
 10
10.8414548959
 20
10.0955635098
 30
0.0
 10
10.8660145661
 20
10.1305468019
 30
0.0
 10
10.8904868529
 20
10.1631069003
 30
0.0
 10
10.9142165217
 20
10.1931388917
 30
0.0
 10
10.9333600761
 20
10.2164180919
 30
0.0
 10
10.9478375679
 20
10.2336236036
 30
0.0
 10
10.9578709357
 20
10.2453896005
 30
0.0
 10
10.9672786095
 20
10.2562917732
 30
0.0
 10
10.9759820595
 20
10.2662747856
 30
0.0
 10
10.9839019859
 20
10.2752826993
 30
0.0
 10
10.9909636262
 20
10.2832540678
 30
0.0
 10
10.9962815249
 20
10.2892177284
 30
0.0
 10
11.0000487096
 20
10.2934249438
 30
0.0
 10
11.0024857922
 20
10.2961407272
 30
0.0
 10
11.0046534982
 20
10.2985524422
 30
0.0
 10
11.0065461034
 20
10.3006547917
 30
0.0
 10
11.0081591242
 20
10.302443794
 30
0.0
 10
11.0093268486
 20
10.3037369348
 30
0.0
 10
11.0101180147
 20
10.3046120251
 30
0.0
 10
11.0106027839
 20
10.3051477904
 30
0.0
 10
11.0110144446
 20
10.3056024644
 30
0.0
 10
11.0113525681
 20
10.3059754841
 30
0.0
 10
11.0116163492
 20
10.3062666526
 30
0.0
 10
11.0117900171
 20
10.3064573891
 30
0.0
 10
11.0118908381
 20
10.3065692337
 30
0.0
 10
11.0119424367
 20
10.3066245473
 30
0.0
 10
11.0119697692
 20
10.30665747
 30
0.0
 10
11.0119834824
 20
10.3066707002
 30
0.0
  0
SPLINE
  5
38A
100
AcDbEntity
  8
0
100
AcDbSpline
 62
9
  6
CONTINUOUS
 70
0
 71
3
 72
101
 73
97
 74
0
 42
0.0000001
 43
0.0000001
 44
0.0000000001
 40
0.0
 40
0.0
 40
0.0
 40
0.0
 40
0.000003308
 40
0.0000130269
 40
0.0000291529
 40
0.0000516821
 40
0.0001159344
 40
0.0002057524
 40
0.0003211046
 40
0.0004619596
 40
0.0006282861
 40
0.0008200525
 40
0.0012797789
 40
0.0018407926
 40
0.0025025575
 40
0.0032645143
 40
0.0041261042
 40
0.0050867634
 40
0.0073020218
 40
0.0099024173
 40
0.0128796561
 40
0.0162244884
 40
0.0199271268
 40
0.0239773387
 40
0.0283638166
 40
0.0330750941
 40
0.038099677
 40
0.0490426806
 40
0.0611003372
 40
0.0741808392
 40
0.0881978731
 40
0.1030700105
 40
0.1187208635
 40
0.1350814333
 40
0.1520880911
 40
0.1696833648
 40
0.2064353715
 40
0.2255043503
 40
0.2449826752
 40
0.2850316385
 40
0.3055453564
 40
0.3263481996
 40
0.3474152899
 40
0.3687228076
 40
0.4119431548
 40
0.4338104768
 40
0.455801895
 40
0.4778790708
 40
0.5000001931
 40
0.5221213171
 40
0.5441985008
 40
0.5661898969
 40
0.588057183
 40
0.6312775587
 40
0.6525851133
 40
0.6736522745
 40
0.6944550592
 40
0.7149687049
 40
0.755017478
 40
0.7744957451
 40
0.7935647269
 40
0.8303166811
 40
0.8479119657
 40
0.8649186555
 40
0.8812791892
 40
0.8969299948
 40
0.9118021217
 40
0.9258191506
 40
0.9388996451
 40
0.9509573135
 40
0.9619003347
 40
0.9669249227
 40
0.9716361994
 40
0.9760226711
 40
0.9800728755
 40
0.9837755075
 40
0.9871203346
 40
0.990097572
 40
0.9926979697
 40
0.9949132404
 40
0.9958739113
 40
0.9967355135
 40
0.9974974814
 40
0.9981592543
 40
0.9987202713
 40
0.9991799943
 40
0.9993717565
 40
0.9995380776
 40
0.9996789265
 40
0.999794272
 40
0.9998840832
 40
0.9999483289
 40
0.999970855
 40
0.9999869781
 40
0.9999966944
 40
1.0
 40
1.0
 40
1.0
 40
1.0
 10
10.9519834891
 20
9.3066708734
 30
0.0
 10
10.951983174
 20
9.3066721407
 30
0.0
 10
10.9519791431
 20
9.3066758515
 30
0.0
 10
10.9519733783
 20
9.3066856188
 30
0.0
 10
10.9519616116
 20
9.3067008263
 30
0.0
 10
10.9519380683
 20
9.3067338438
 30
0.0
 10
10.9518968068
 20
9.3067901075
 30
0.0
 10
10.9518343257
 20
9.3068761469
 30
0.0
 10
10.9517538505
 20
9.3069865376
 30
0.0
 10
10.9516556298
 20
9.307121351
 30
0.0
 10
10.9515395953
 20
9.3072805152
 30
0.0
 10
10.9513493816
 20
9.3075413793
 30
0.0
 10
10.9510672853
 20
9.3079280791
 30
0.0
 10
10.9506757695
 20
9.3084646204
 30
0.0
 10
10.9502139963
 20
9.3090975935
 30
0.0
 10
10.9496824627
 20
9.3098265521
 30
0.0
 10
10.9490816793
 20
9.310651047
 30
0.0
 10
10.9481435353
 20
9.3119395892
 30
0.0
 10
10.9468025705
 20
9.3137839348
 30
0.0
 10
10.9449955024
 20
9.3162736477
 30
0.0
 10
10.9429288078
 20
9.3191259155
 30
0.0
 10
10.9406099888
 20
9.3223328466
 30
0.0
 10
10.9380471881
 20
9.3258860639
 30
0.0
 10
10.9352489622
 20
9.329776482
 30
0.0
 10
10.9322242545
 20
9.3339944721
 30
0.0
 10
10.9289822347
 20
9.3385299496
 30
0.0
 10
10.9242461316
 20
9.3451790001
 30
0.0
 10
10.9178535922
 20
9.3542087726
 30
0.0
 10
10.9096745967
 20
9.3658701862
 30
0.0
 10
10.9008612042
 20
9.3785687072
 30
0.0
 10
10.8914924198
 20
9.3922339175
 30
0.0
 10
10.8816446033
 20
9.4068005609
 30
0.0
 10
10.8713907825
 20
9.4222089282
 30
0.0
 10
10.860804428
 20
9.4384074304
 30
0.0
 10
10.8499565995
 20
9.455351144
 30
0.0
 10
10.8350194556
 20
9.4792331877
 30
0.0
 10
10.8200942409
 20
9.5040819308
 30
0.0
 10
10.8053657159
 20
9.5299038407
 30
0.0
 10
10.7904557687
 20
9.5571149656
 30
0.0
 10
10.7760878744
 20
9.5852710132
 30
0.0
 10
10.7625613561
 20
9.6144082164
 30
0.0
 10
10.7528227143
 20
9.6370318913
 30
0.0
 10
10.7437028576
 20
9.6602511435
 30
0.0
 10
10.732499629
 20
9.6921349134
 30
0.0
 10
10.7231675422
 20
9.7249978737
 30
0.0
 10
10.716269428
 20
9.7586884641
 30
0.0
 10
10.7124345346
 20
9.7844480418
 30
0.0
 10
10.7100787933
 20
9.8104863189
 30
0.0
 10
10.7092835876
 20
9.8366711013
 30
0.0
 10
10.7100787197
 20
9.8628558945
 30
0.0
 10
10.7124346606
 20
9.8888941487
 30
0.0
 10
10.7162695083
 20
9.9146537096
 30
0.0
 10
10.7231676114
 20
9.9483442932
 30
0.0
 10
10.7324998044
 20
9.9812072375
 30
0.0
 10
10.7437030878
 20
10.0130910416
 30
0.0
 10
10.752822801
 20
10.0363103717
 30
0.0
 10
10.7625615216
 20
10.0589339891
 30
0.0
 10
10.7760880492
 20
10.0880710465
 30
0.0
 10
10.7904558864
 20
10.1162269828
 30
0.0
 10
10.8053658738
 20
10.143437974
 30
0.0
 10
10.820094172
 20
10.1692599644
 30
0.0
 10
10.835019516
 20
10.1941086156
 30
0.0
 10
10.849956692
 20
10.2179906333
 30
0.0
 10
10.8608044349
 20
10.234934405
 30
0.0
 10
10.8713908017
 20
10.2511328754
 30
0.0
 10
10.8816446391
 20
10.2665411868
 30
0.0
 10
10.8914924113
 20
10.2811078301
 30
0.0
 10
10.9008611861
 20
10.2947730361
 30
0.0
 10
10.9096746012
 20
10.3074715411
 30
0.0
 10
10.9178535963
 20
10.3191329655
 30
0.0
 10
10.9242461314
 20
10.3281627577
 30
0.0
 10
10.9289822338
 20
10.3348118194
 30
0.0
 10
10.9322242547
 20
10.3393472951
 30
0.0
 10
10.9352489653
 20
10.343565276
 30
0.0
 10
10.9380471941
 20
10.3474556823
 30
0.0
 10
10.9406099959
 20
10.3510088895
 30
0.0
 10
10.9429288151
 20
10.3542158142
 30
0.0
 10
10.9449955108
 20
10.357068079
 30
0.0
 10
10.9468025798
 20
10.3595577977
 30
0.0
 10
10.9481435429
 20
10.3614021572
 30
0.0
 10
10.9490816834
 20
10.3626907197
 30
0.0
 10
10.9496824652
 20
10.3635152328
 30
0.0
 10
10.950213997
 20
10.3642442082
 30
0.0
 10
10.9506757686
 20
10.3648771934
 30
0.0
 10
10.9510672834
 20
10.3654137394
 30
0.0
 10
10.9513493815
 20
10.3658004357
 30
0.0
 10
10.9515395969
 20
10.3660612921
 30
0.0
 10
10.951655632
 20
10.3662204483
 30
0.0
 10
10.9517538529
 20
10.3663552526
 30
0.0
 10
10.9518343284
 20
10.3664656336
 30
0.0
 10
10.9518968087
 20
10.3665516636
 30
0.0
 10
10.9519380711
 20
10.366607919
 30
0.0
 10
10.9519616126
 20
10.3666409312
 30
0.0
 10
10.9519733812
 20
10.366656134
 30
0.0
 10
10.951979141
 20
10.3666658994
 30
0.0
 10
10.9519831756
 20
10.3666696066
 30
0.0
 10
10.9519834891
 20
10.3666708734
 30
0.0
  0
SPLINE
  5
38B
100
AcDbEntity
  8
0
100
AcDbSpline
 62
7
  6
CONTINUOUS
 70
0
 71
3
 72
17
 73
13
 74
0
 42
0.0000001
 43
0.0000001
 44
0.0000000001
 40
0.0
 40
0.0
 40
0.0
 40
0.0
 40
0.1166045788
 40
0.2399487009
 40
0.3038376152
 40
0.3687699342
 40
0.4999998999
 40
0.6312298826
 40
0.6961622216
 40
0.7600511619
 40
0.8833953495
 40
1.0
 40
1.0
 40
1.0
 40
1.0
 10
9.6919834891
 20
13.1666706971
 30
0.0
 10
9.6956416726
 20
13.1666706863
 30
0.0
 10
9.703184058
 20
13.1673710214
 30
0.0
 10
9.7124104002
 20
13.1700081758
 30
0.0
 10
9.7196127711
 20
13.1733113982
 30
0.0
 10
9.7266641443
 20
13.1774359298
 30
0.0
 10
9.7347236398
 20
13.183930691
 30
0.0
 10
9.7412183932
 20
13.1919901934
 30
0.0
 10
9.7453429194
 20
13.1990415721
 30
0.0
 10
9.7486461372
 20
13.2062439489
 30
0.0
 10
9.7512832865
 20
13.2154702978
 30
0.0
 10
9.7519836184
 20
13.2230126877
 30
0.0
 10
9.7519836062
 20
13.2266708734
 30
0.0
  0
SPLINE
  5
38C
100
AcDbEntity
  8
0
100
AcDbSpline
 62
7
  6
CONTINUOUS
 70
0
 71
3
 72
17
 73
13
 74
0
 42
0.0000001
 43
0.0000001
 44
0.0000000001
 40
0.0
 40
0.0
 40
0.0
 40
0.0
 40
0.1166045618
 40
0.2399486747
 40
0.3038375876
 40
0.3687699074
 40
0.4999998783
 40
0.6312298699
 40
0.6961622139
 40
0.7600511586
 40
0.883395351
 40
1.0
 40
1.0
 40
1.0
 40
1.0
 10
9.6919834891
 20
12.2266710738
 30
0.0
 10
9.6956416737
 20
12.2266710861
 30
0.0
 10
9.7031840618
 20
12.2259707534
 30
0.0
 10
9.7124104079
 20
12.2233336004
 30
0.0
 10
9.7196127821
 20
12.2200303777
 30
0.0
 10
9.7266641588
 20
12.2159058447
 30
0.0
 10
9.7347236581
 20
12.2094110803
 30
0.0
 10
9.7412184136
 20
12.2013515727
 30
0.0
 10
9.7453429402
 20
12.1943001896
 30
0.0
 10
9.7486461576
 20
12.1870978083
 30
0.0
 10
9.7512833048
 20
12.1778714542
 30
0.0
 10
9.7519836338
 20
12.1703290606
 30
0.0
 10
9.7519836201
 20
12.1666708733
 30
0.0
  0
SPLINE
  5
38D
100
AcDbEntity
  8
0
100
AcDbSpline
 62
9
  6
CONTINUOUS
 70
0
 71
3
 72
71
 73
67
 74
0
 42
0.0000001
 43
0.0000001
 44
0.0000000001
 40
0.0
 40
0.0
 40
0.0
 40
0.0
 40
0.0000518208
 40
0.0001160679
 40
0.0002057672
 40
0.0004612048
 40
0.000817499
 40
0.0012740154
 40
0.0018301195
 40
0.0024851769
 40
0.0032385532
 40
0.0050377257
 40
0.0072225629
 40
0.0097879917
 40
0.0127289396
 40
0.0160393517
 40
0.0197092426
 40
0.0280836043
 40
0.0377643674
 40
0.0486639632
 40
0.0606954521
 40
0.073774149
 40
0.0878161284
 40
0.1027377439
 40
0.1349113987
 40
0.1697584218
 40
0.2067973006
 40
0.2456413853
 40
0.2859493112
 40
0.3274114226
 40
0.3697883148
 40
0.4128346886
 40
0.4563122836
 40
0.5000004427
 40
0.5436886189
 40
0.5871663227
 40
0.6302128581
 40
0.6725896553
 40
0.7140517872
 40
0.754359799
 40
0.7932038376
 40
0.8302426
 40
0.8650895429
 40
0.8972631387
 40
0.9121847186
 40
0.9262266546
 40
0.939305299
 40
0.9513367249
 40
0.9622362465
 40
0.9719169256
 40
0.9802911955
 40
0.9839610381
 40
0.9872714006
 40
0.9902122981
 40
0.9927776766
 40
0.9949624647
 40
0.9967615902
 40
0.9975149443
 40
0.9981699804
 40
0.9987260643
 40
0.9991825617
 40
0.9995388383
 40
0.9997942599
 40
0.9998839517
 40
0.9999481919
 40
1.0
 40
1.0
 40
1.0
 40
1.0
 10
9.6919835241
 20
13.1666706971
 30
0.0
 10
9.6919972342
 20
13.1666574571
 30
0.0
 10
9.6920245819
 20
13.1666245399
 30
0.0
 10
9.6920761819
 20
13.1665692137
 30
0.0
 10
9.6921770137
 20
13.1664573644
 30
0.0
 10
9.6923506898
 20
13.1662666147
 30
0.0
 10
9.6926144852
 20
13.1659754335
 30
0.0
 10
9.6929526226
 20
13.1656023984
 30
0.0
 10
9.6933642986
 20
13.1651477086
 30
0.0
 10
9.6938490838
 20
13.1646119262
 30
0.0
 10
9.6946402725
 20
13.1637368117
 30
0.0
 10
9.6958080263
 20
13.1624436391
 30
0.0
 10
9.6974210831
 20
13.1606545971
 30
0.0
 10
9.6993137247
 20
13.1585522065
 30
0.0
 10
9.7014814666
 20
13.15614045
 30
0.0
 10
9.703918584
 20
13.1534246252
 30
0.0
 10
9.7076858123
 20
13.1492173563
 30
0.0
 10
9.7130037613
 20
13.1432536317
 30
0.0
 10
9.7200654572
 20
13.1352821917
 30
0.0
 10
9.7279854329
 20
13.1262742152
 30
0.0
 10
9.7366889264
 20
13.1162911503
 30
0.0
 10
9.7460966372
 20
13.1053889345
 30
0.0
 10
9.7561300359
 20
13.0936229027
 30
0.0
 10
9.7706075598
 20
13.0764173549
 30
0.0
 10
9.7897511533
 20
13.0531381072
 30
0.0
 10
9.813480887
 20
13.0231060504
 30
0.0
 10
9.8379532569
 20
12.9905459027
 30
0.0
 10
9.8625129195
 20
12.9555625662
 30
0.0
 10
9.8865223369
 20
12.9182399692
 30
0.0
 10
9.9090531182
 20
12.8784908103
 30
0.0
 10
9.9291339898
 20
12.8363061122
 30
0.0
 10
9.945357082
 20
12.7916597656
 30
0.0
 10
9.9561237391
 20
12.7448427347
 30
0.0
 10
9.9599312479
 20
12.6966703737
 30
0.0
 10
9.9561235994
 20
12.6484979916
 30
0.0
 10
9.9453568699
 20
12.6016808573
 30
0.0
 10
9.9291333928
 20
12.5570345862
 30
0.0
 10
9.909052648
 20
12.5148498003
 30
0.0
 10
9.8865217054
 20
12.475100718
 30
0.0
 10
9.8625120993
 20
12.4377782196
 30
0.0
 10
9.837952427
 20
12.4027949262
 30
0.0
 10
9.8134801394
 20
12.3702348284
 30
0.0
 10
9.7897504718
 20
12.340202839
 30
0.0
 10
9.7706069189
 20
12.3169236411
 30
0.0
 10
9.7561294285
 20
12.2997181315
 30
0.0
 10
9.7460960615
 20
12.2879521362
 30
0.0
 10
9.7366883886
 20
12.2770499649
 30
0.0
 10
9.7279849394
 20
12.2670669539
 30
0.0
 10
9.7200650139
 20
12.2580590416
 30
0.0
 10
9.7130033744
 20
12.2500876744
 30
0.0
 10
9.7076854765
 20
12.2441240148
 30
0.0
 10
9.7039182922
 20
12.2399168001
 30
0.0
 10
9.7014812098
 20
12.2372010172
 30
0.0
 10
9.699313504
 20
12.2347893025
 30
0.0
 10
9.697420899
 20
12.2326869533
 30
0.0
 10
9.6958078782
 20
12.2308979512
 30
0.0
 10
9.6946401539
 20
12.2296048106
 30
0.0
 10
9.6938489879
 20
12.2287297205
 30
0.0
 10
9.6933642187
 20
12.2281939552
 30
0.0
 10
9.6929525581
 20
12.2277392813
 30
0.0
 10
9.6926144347
 20
12.2273662618
 30
0.0
 10
9.6923506537
 20
12.2270750935
 30
0.0
 10
9.692176986
 20
12.226884357
 30
0.0
 10
9.692076165
 20
12.2267725126
 30
0.0
 10
9.6920245667
 20
12.2267171989
 30
0.0
 10
9.691997234
 20
12.2266842767
 30
0.0
 10
9.6919835211
 20
12.2266710463
 30
0.0
  0
SPLINE
  5
38E
100
AcDbEntity
  8
0
100
AcDbSpline
 62
9
  6
CONTINUOUS
 70
0
 71
3
 72
101
 73
97
 74
0
 42
0.0000001
 43
0.0000001
 44
0.0000000001
 40
0.0
 40
0.0
 40
0.0
 40
0.0
 40
0.000003308
 40
0.0000130268
 40
0.0000291528
 40
0.000051682
 40
0.0001159343
 40
0.0002057523
 40
0.0003211046
 40
0.0004619597
 40
0.0006282863
 40
0.0008200528
 40
0.0012797794
 40
0.0018407938
 40
0.0025025595
 40
0.0032645172
 40
0.0041261073
 40
0.0050867661
 40
0.0073020251
 40
0.009902422
 40
0.0128796622
 40
0.0162244965
 40
0.0199271354
 40
0.0239773478
 40
0.0283638274
 40
0.0330751072
 40
0.0380996923
 40
0.0490426987
 40
0.0611003597
 40
0.0741808664
 40
0.0881979071
 40
0.1030700506
 40
0.1187209059
 40
0.1350814742
 40
0.152088135
 40
0.1696834139
 40
0.2064354148
 40
0.2255043948
 40
0.2449827132
 40
0.285031633
 40
0.3055453297
 40
0.3263481488
 40
0.3474152357
 40
0.3687227503
 40
0.4119431006
 40
0.4338104214
 40
0.4558018455
 40
0.4778790291
 40
0.5000001558
 40
0.522121287
 40
0.544198473
 40
0.5661898698
 40
0.5880571602
 40
0.6312775436
 40
0.6525850946
 40
0.6736522407
 40
0.6944550156
 40
0.7149686591
 40
0.7550174091
 40
0.7744956788
 40
0.7935646704
 40
0.8303166188
 40
0.8479119131
 40
0.8649186128
 40
0.8812791505
 40
0.8969299597
 40
0.9118020913
 40
0.9258191244
 40
0.9388996222
 40
0.9509572948
 40
0.9619003192
 40
0.9669249096
 40
0.9716361887
 40
0.9760226621
 40
0.9800728671
 40
0.9837754997
 40
0.9871203289
 40
0.9900975676
 40
0.9926979667
 40
0.9949132379
 40
0.9958739085
 40
0.996735511
 40
0.9974974796
 40
0.9981592533
 40
0.9987202709
 40
0.9991799941
 40
0.9993717564
 40
0.9995380776
 40
0.9996789265
 40
0.9997942721
 40
0.9998840833
 40
0.999948329
 40
0.9999708551
 40
0.9999869782
 40
0.9999966944
 40
1.0
 40
1.0
 40
1.0
 40
1.0
 10
9.7519834891
 20
13.2266708734
 30
0.0
 10
9.7519838043
 20
13.2266696061
 30
0.0
 10
9.7519878351
 20
13.2266658953
 30
0.0
 10
9.7519936
 20
13.2266561281
 30
0.0
 10
9.7520053667
 20
13.2266409207
 30
0.0
 10
9.75202891
 20
13.2266079031
 30
0.0
 10
9.7520701717
 20
13.2265516396
 30
0.0
 10
9.7521326528
 20
13.2264656001
 30
0.0
 10
9.7522131282
 20
13.2263552094
 30
0.0
 10
9.752311349
 20
13.226220396
 30
0.0
 10
9.7524273836
 20
13.2260612317
 30
0.0
 10
9.7526175973
 20
13.2258003675
 30
0.0
 10
9.7528996936
 20
13.2254136671
 30
0.0
 10
9.7532912095
 20
13.224877125
 30
0.0
 10
9.753752983
 20
13.224244151
 30
0.0
 10
9.754284517
 20
13.2235151917
 30
0.0
 10
9.7548853006
 20
13.2226906967
 30
0.0
 10
9.7558234451
 20
13.2214021546
 30
0.0
 10
9.7571644107
 20
13.2195578089
 30
0.0
 10
9.7589714796
 20
13.2170680949
 30
0.0
 10
9.7610381743
 20
13.2142158248
 30
0.0
 10
9.7633569941
 20
13.2110088924
 30
0.0
 10
9.7659197959
 20
13.2074556745
 30
0.0
 10
9.7687180232
 20
13.203565256
 30
0.0
 10
9.7717427321
 20
13.1993472646
 30
0.0
 10
9.774984752
 20
13.1948117843
 30
0.0
 10
9.7797208565
 20
13.1881627312
 30
0.0
 10
9.7861133994
 20
13.1791329566
 30
0.0
 10
9.7942923964
 20
13.1674715383
 30
0.0
 10
9.8031057932
 20
13.1547730127
 30
0.0
 10
9.8124745822
 20
13.1411077971
 30
0.0
 10
9.8223223971
 20
13.1265411454
 30
0.0
 10
9.8325762235
 20
13.1111327787
 30
0.0
 10
9.8431625843
 20
13.0949342787
 30
0.0
 10
9.8540104024
 20
13.0779905553
 30
0.0
 10
9.8689475387
 20
13.0541085059
 30
0.0
 10
9.8838727862
 20
13.029259782
 30
0.0
 10
9.8986012785
 20
13.0034378582
 30
0.0
 10
9.9135112003
 20
12.9762267418
 30
0.0
 10
9.9278791169
 20
12.9480707374
 30
0.0
 10
9.9414056184
 20
12.9189335647
 30
0.0
 10
9.9511442419
 20
12.8963099027
 30
0.0
 10
9.9602640829
 20
12.8730906579
 30
0.0
 10
9.971467348
 20
12.8412069016
 30
0.0
 10
9.9807993956
 20
12.808343932
 30
0.0
 10
9.9876975673
 20
12.7746533496
 30
0.0
 10
9.9915324083
 20
12.7488937592
 30
0.0
 10
9.9938882016
 20
12.7228554807
 30
0.0
 10
9.9946833962
 20
12.6966706885
 30
0.0
 10
9.9938882385
 20
12.6704858919
 30
0.0
 10
9.9915323414
 20
12.6444476295
 30
0.0
 10
9.9876974635
 20
12.6186880697
 30
0.0
 10
9.9807993807
 20
12.5849974775
 30
0.0
 10
9.9714671724
 20
12.5521345339
 30
0.0
 10
9.9602639134
 20
12.5202507258
 30
0.0
 10
9.9511441801
 20
12.4970314152
 30
0.0
 10
9.9414054539
 20
12.4744078128
 30
0.0
 10
9.9278789935
 20
12.445270739
 30
0.0
 10
9.9135111027
 20
12.4171148389
 30
0.0
 10
9.8986011239
 20
12.3899038487
 30
0.0
 10
9.8838728705
 20
12.3640818294
 30
0.0
 10
9.8689474827
 20
12.3392331978
 30
0.0
 10
9.8540103137
 20
12.3153511696
 30
0.0
 10
9.8431625789
 20
12.2984073815
 30
0.0
 10
9.8325762035
 20
12.2822089085
 30
0.0
 10
9.8223223586
 20
12.2668005963
 30
0.0
 10
9.8124745885
 20
12.2522339457
 30
0.0
 10
9.8031058102
 20
12.2385687363
 30
0.0
 10
9.794292392
 20
12.2258702278
 30
0.0
 10
9.7861133955
 20
12.2142087993
 30
0.0
 10
9.7797208568
 20
12.2051790048
 30
0.0
 10
9.774984753
 20
12.1985299404
 30
0.0
 10
9.7717427319
 20
12.1939944616
 30
0.0
 10
9.76871802
 20
12.1897764793
 30
0.0
 10
9.7659197898
 20
12.1858860726
 30
0.0
 10
9.7633569868
 20
12.1823328647
 30
0.0
 10
9.7610381668
 20
12.1791259387
 30
0.0
 10
9.758971471
 20
12.1762736716
 30
0.0
 10
9.7571644012
 20
12.1737839519
 30
0.0
 10
9.7558234372
 20
12.1719395922
 30
0.0
 10
9.7548852962
 20
12.1706510298
 30
0.0
 10
9.7542845143
 20
12.1698265165
 30
0.0
 10
9.7537529822
 20
12.1690975405
 30
0.0
 10
9.7532912103
 20
12.1684645545
 30
0.0
 10
9.7528996954
 20
12.1679280078
 30
0.0
 10
9.7526175973
 20
12.167541311
 30
0.0
 10
9.7524273818
 20
12.1672804544
 30
0.0
 10
9.7523113467
 20
12.1671212982
 30
0.0
 10
9.7522131257
 20
12.1669864939
 30
0.0
 10
9.7521326501
 20
12.1668761129
 30
0.0
 10
9.7520701697
 20
12.1667900829
 30
0.0
 10
9.7520289072
 20
12.1667338276
 30
0.0
 10
9.7520053657
 20
12.1667008154
 30
0.0
 10
9.7519935971
 20
12.1666856126
 30
0.0
 10
9.7519878373
 20
12.1666758472
 30
0.0
 10
9.7519838027
 20
12.1666721401
 30
0.0
 10
9.7519834891
 20
12.1666708734
 30
0.0
  0
SPLINE
  5
38F
100
AcDbEntity
  8
0
100
AcDbSpline
 62
7
  6
CONTINUOUS
 70
0
 71
3
 72
17
 73
13
 74
0
 42
0.0000001
 43
0.0000001
 44
0.0000000001
 40
0.0
 40
0.0
 40
0.0
 40
0.0
 40
0.1166045788
 40
0.2399487009
 40
0.3038376152
 40
0.3687699342
 40
0.4999998999
 40
0.6312298826
 40
0.6961622216
 40
0.7600511619
 40
0.8833953495
 40
1.0
 40
1.0
 40
1.0
 40
1.0
 10
20.2619834891
 20
10.3066706971
 30
0.0
 10
20.2656416726
 20
10.3066706863
 30
0.0
 10
20.273184058
 20
10.3073710214
 30
0.0
 10
20.2824104002
 20
10.3100081758
 30
0.0
 10
20.2896127711
 20
10.3133113982
 30
0.0
 10
20.2966641443
 20
10.3174359298
 30
0.0
 10
20.3047236398
 20
10.323930691
 30
0.0
 10
20.3112183932
 20
10.3319901934
 30
0.0
 10
20.3153429194
 20
10.3390415721
 30
0.0
 10
20.3186461372
 20
10.3462439489
 30
0.0
 10
20.3212832865
 20
10.3554702978
 30
0.0
 10
20.3219836184
 20
10.3630126877
 30
0.0
 10
20.3219836062
 20
10.3666708734
 30
0.0
  0
SPLINE
  5
390
100
AcDbEntity
  8
0
100
AcDbSpline
 62
7
  6
CONTINUOUS
 70
0
 71
3
 72
17
 73
13
 74
0
 42
0.0000001
 43
0.0000001
 44
0.0000000001
 40
0.0
 40
0.0
 40
0.0
 40
0.0
 40
0.1166045618
 40
0.2399486747
 40
0.3038375876
 40
0.3687699074
 40
0.4999998783
 40
0.6312298699
 40
0.6961622139
 40
0.7600511586
 40
0.883395351
 40
1.0
 40
1.0
 40
1.0
 40
1.0
 10
20.2619834891
 20
9.3666710738
 30
0.0
 10
20.2656416737
 20
9.3666710861
 30
0.0
 10
20.2731840618
 20
9.3659707534
 30
0.0
 10
20.2824104079
 20
9.3633336004
 30
0.0
 10
20.2896127821
 20
9.3600303777
 30
0.0
 10
20.2966641588
 20
9.3559058447
 30
0.0
 10
20.3047236581
 20
9.3494110803
 30
0.0
 10
20.3112184136
 20
9.3413515727
 30
0.0
 10
20.3153429402
 20
9.3343001896
 30
0.0
 10
20.3186461576
 20
9.3270978083
 30
0.0
 10
20.3212833048
 20
9.3178714542
 30
0.0
 10
20.3219836338
 20
9.3103290606
 30
0.0
 10
20.3219836201
 20
9.3066708733
 30
0.0
  0
SPLINE
  5
391
100
AcDbEntity
  8
0
100
AcDbSpline
 62
9
  6
CONTINUOUS
 70
0
 71
3
 72
71
 73
67
 74
0
 42
0.0000001
 43
0.0000001
 44
0.0000000001
 40
0.0
 40
0.0
 40
0.0
 40
0.0
 40
0.0000518208
 40
0.0001160679
 40
0.0002057672
 40
0.0004612048
 40
0.000817499
 40
0.0012740154
 40
0.0018301195
 40
0.0024851769
 40
0.0032385532
 40
0.0050377257
 40
0.0072225629
 40
0.0097879917
 40
0.0127289396
 40
0.0160393517
 40
0.0197092426
 40
0.0280836043
 40
0.0377643674
 40
0.0486639632
 40
0.0606954521
 40
0.073774149
 40
0.0878161284
 40
0.1027377439
 40
0.1349113987
 40
0.1697584218
 40
0.2067973006
 40
0.2456413853
 40
0.2859493112
 40
0.3274114226
 40
0.3697883148
 40
0.4128346886
 40
0.4563122836
 40
0.5000004427
 40
0.5436886189
 40
0.5871663227
 40
0.6302128581
 40
0.6725896553
 40
0.7140517872
 40
0.754359799
 40
0.7932038376
 40
0.8302426
 40
0.8650895429
 40
0.8972631387
 40
0.9121847186
 40
0.9262266546
 40
0.939305299
 40
0.9513367249
 40
0.9622362465
 40
0.9719169256
 40
0.9802911955
 40
0.9839610381
 40
0.9872714006
 40
0.9902122981
 40
0.9927776766
 40
0.9949624647
 40
0.9967615902
 40
0.9975149443
 40
0.9981699804
 40
0.9987260643
 40
0.9991825617
 40
0.9995388383
 40
0.9997942599
 40
0.9998839517
 40
0.9999481919
 40
1.0
 40
1.0
 40
1.0
 40
1.0
 10
20.2619835241
 20
10.3066706971
 30
0.0
 10
20.2619972342
 20
10.3066574571
 30
0.0
 10
20.2620245819
 20
10.3066245399
 30
0.0
 10
20.2620761819
 20
10.3065692137
 30
0.0
 10
20.2621770137
 20
10.3064573644
 30
0.0
 10
20.2623506898
 20
10.3062666147
 30
0.0
 10
20.2626144852
 20
10.3059754335
 30
0.0
 10
20.2629526226
 20
10.3056023984
 30
0.0
 10
20.2633642986
 20
10.3051477086
 30
0.0
 10
20.2638490838
 20
10.3046119262
 30
0.0
 10
20.2646402725
 20
10.3037368117
 30
0.0
 10
20.2658080263
 20
10.3024436391
 30
0.0
 10
20.2674210831
 20
10.3006545971
 30
0.0
 10
20.2693137247
 20
10.2985522065
 30
0.0
 10
20.2714814666
 20
10.29614045
 30
0.0
 10
20.273918584
 20
10.2934246252
 30
0.0
 10
20.2776858123
 20
10.2892173563
 30
0.0
 10
20.2830037613
 20
10.2832536317
 30
0.0
 10
20.2900654572
 20
10.2752821917
 30
0.0
 10
20.2979854329
 20
10.2662742152
 30
0.0
 10
20.3066889264
 20
10.2562911503
 30
0.0
 10
20.3160966372
 20
10.2453889345
 30
0.0
 10
20.3261300359
 20
10.2336229027
 30
0.0
 10
20.3406075598
 20
10.2164173549
 30
0.0
 10
20.3597511533
 20
10.1931381072
 30
0.0
 10
20.383480887
 20
10.1631060504
 30
0.0
 10
20.4079532569
 20
10.1305459027
 30
0.0
 10
20.4325129195
 20
10.0955625662
 30
0.0
 10
20.4565223369
 20
10.0582399692
 30
0.0
 10
20.4790531182
 20
10.0184908103
 30
0.0
 10
20.4991339898
 20
9.9763061122
 30
0.0
 10
20.515357082
 20
9.9316597656
 30
0.0
 10
20.5261237391
 20
9.8848427347
 30
0.0
 10
20.5299312479
 20
9.8366703737
 30
0.0
 10
20.5261235994
 20
9.7884979916
 30
0.0
 10
20.5153568699
 20
9.7416808573
 30
0.0
 10
20.4991333928
 20
9.6970345862
 30
0.0
 10
20.479052648
 20
9.6548498003
 30
0.0
 10
20.4565217054
 20
9.615100718
 30
0.0
 10
20.4325120993
 20
9.5777782196
 30
0.0
 10
20.407952427
 20
9.5427949262
 30
0.0
 10
20.3834801394
 20
9.5102348284
 30
0.0
 10
20.3597504718
 20
9.480202839
 30
0.0
 10
20.3406069189
 20
9.4569236411
 30
0.0
 10
20.3261294285
 20
9.4397181315
 30
0.0
 10
20.3160960615
 20
9.4279521362
 30
0.0
 10
20.3066883886
 20
9.4170499649
 30
0.0
 10
20.2979849394
 20
9.4070669539
 30
0.0
 10
20.2900650139
 20
9.3980590416
 30
0.0
 10
20.2830033744
 20
9.3900876744
 30
0.0
 10
20.2776854765
 20
9.3841240148
 30
0.0
 10
20.2739182922
 20
9.3799168001
 30
0.0
 10
20.2714812098
 20
9.3772010172
 30
0.0
 10
20.269313504
 20
9.3747893025
 30
0.0
 10
20.267420899
 20
9.3726869533
 30
0.0
 10
20.2658078782
 20
9.3708979512
 30
0.0
 10
20.2646401539
 20
9.3696048106
 30
0.0
 10
20.2638489879
 20
9.3687297205
 30
0.0
 10
20.2633642187
 20
9.3681939552
 30
0.0
 10
20.2629525581
 20
9.3677392813
 30
0.0
 10
20.2626144347
 20
9.3673662618
 30
0.0
 10
20.2623506537
 20
9.3670750935
 30
0.0
 10
20.262176986
 20
9.366884357
 30
0.0
 10
20.262076165
 20
9.3667725126
 30
0.0
 10
20.2620245667
 20
9.3667171989
 30
0.0
 10
20.261997234
 20
9.3666842767
 30
0.0
 10
20.2619835211
 20
9.3666710463
 30
0.0
  0
SPLINE
  5
392
100
AcDbEntity
  8
0
100
AcDbSpline
 62
9
  6
CONTINUOUS
 70
0
 71
3
 72
101
 73
97
 74
0
 42
0.0000001
 43
0.0000001
 44
0.0000000001
 40
0.0
 40
0.0
 40
0.0
 40
0.0
 40
0.000003308
 40
0.0000130268
 40
0.0000291528
 40
0.000051682
 40
0.0001159343
 40
0.0002057523
 40
0.0003211046
 40
0.0004619597
 40
0.0006282863
 40
0.0008200528
 40
0.0012797794
 40
0.0018407938
 40
0.0025025595
 40
0.0032645172
 40
0.0041261073
 40
0.0050867661
 40
0.0073020251
 40
0.009902422
 40
0.0128796622
 40
0.0162244965
 40
0.0199271354
 40
0.0239773478
 40
0.0283638274
 40
0.0330751072
 40
0.0380996923
 40
0.0490426987
 40
0.0611003597
 40
0.0741808664
 40
0.0881979071
 40
0.1030700506
 40
0.1187209059
 40
0.1350814742
 40
0.152088135
 40
0.1696834139
 40
0.2064354148
 40
0.2255043948
 40
0.2449827132
 40
0.285031633
 40
0.3055453297
 40
0.3263481488
 40
0.3474152357
 40
0.3687227503
 40
0.4119431006
 40
0.4338104214
 40
0.4558018455
 40
0.4778790291
 40
0.5000001558
 40
0.522121287
 40
0.544198473
 40
0.5661898698
 40
0.5880571602
 40
0.6312775436
 40
0.6525850946
 40
0.6736522407
 40
0.6944550156
 40
0.7149686591
 40
0.7550174091
 40
0.7744956788
 40
0.7935646704
 40
0.8303166188
 40
0.8479119131
 40
0.8649186128
 40
0.8812791505
 40
0.8969299597
 40
0.9118020913
 40
0.9258191244
 40
0.9388996222
 40
0.9509572948
 40
0.9619003192
 40
0.9669249096
 40
0.9716361887
 40
0.9760226621
 40
0.9800728671
 40
0.9837754997
 40
0.9871203289
 40
0.9900975676
 40
0.9926979667
 40
0.9949132379
 40
0.9958739085
 40
0.996735511
 40
0.9974974796
 40
0.9981592533
 40
0.9987202709
 40
0.9991799941
 40
0.9993717564
 40
0.9995380776
 40
0.9996789265
 40
0.9997942721
 40
0.9998840833
 40
0.999948329
 40
0.9999708551
 40
0.9999869782
 40
0.9999966944
 40
1.0
 40
1.0
 40
1.0
 40
1.0
 10
20.3219834891
 20
10.3666708734
 30
0.0
 10
20.3219838043
 20
10.3666696061
 30
0.0
 10
20.3219878351
 20
10.3666658953
 30
0.0
 10
20.3219936
 20
10.3666561281
 30
0.0
 10
20.3220053667
 20
10.3666409207
 30
0.0
 10
20.32202891
 20
10.3666079031
 30
0.0
 10
20.3220701717
 20
10.3665516396
 30
0.0
 10
20.3221326528
 20
10.3664656001
 30
0.0
 10
20.3222131282
 20
10.3663552094
 30
0.0
 10
20.322311349
 20
10.366220396
 30
0.0
 10
20.3224273836
 20
10.3660612317
 30
0.0
 10
20.3226175973
 20
10.3658003675
 30
0.0
 10
20.3228996936
 20
10.3654136671
 30
0.0
 10
20.3232912095
 20
10.364877125
 30
0.0
 10
20.323752983
 20
10.364244151
 30
0.0
 10
20.324284517
 20
10.3635151917
 30
0.0
 10
20.3248853006
 20
10.3626906967
 30
0.0
 10
20.3258234451
 20
10.3614021546
 30
0.0
 10
20.3271644107
 20
10.3595578089
 30
0.0
 10
20.3289714796
 20
10.3570680949
 30
0.0
 10
20.3310381743
 20
10.3542158248
 30
0.0
 10
20.3333569941
 20
10.3510088924
 30
0.0
 10
20.3359197959
 20
10.3474556745
 30
0.0
 10
20.3387180232
 20
10.343565256
 30
0.0
 10
20.3417427321
 20
10.3393472646
 30
0.0
 10
20.344984752
 20
10.3348117843
 30
0.0
 10
20.3497208565
 20
10.3281627312
 30
0.0
 10
20.3561133994
 20
10.3191329566
 30
0.0
 10
20.3642923964
 20
10.3074715383
 30
0.0
 10
20.3731057932
 20
10.2947730127
 30
0.0
 10
20.3824745822
 20
10.2811077971
 30
0.0
 10
20.3923223971
 20
10.2665411454
 30
0.0
 10
20.4025762235
 20
10.2511327787
 30
0.0
 10
20.4131625843
 20
10.2349342787
 30
0.0
 10
20.4240104024
 20
10.2179905553
 30
0.0
 10
20.4389475387
 20
10.1941085059
 30
0.0
 10
20.4538727862
 20
10.169259782
 30
0.0
 10
20.4686012785
 20
10.1434378582
 30
0.0
 10
20.4835112003
 20
10.1162267418
 30
0.0
 10
20.4978791169
 20
10.0880707374
 30
0.0
 10
20.5114056184
 20
10.0589335647
 30
0.0
 10
20.5211442419
 20
10.0363099027
 30
0.0
 10
20.5302640829
 20
10.0130906579
 30
0.0
 10
20.541467348
 20
9.9812069016
 30
0.0
 10
20.5507993956
 20
9.948343932
 30
0.0
 10
20.5576975673
 20
9.9146533496
 30
0.0
 10
20.5615324083
 20
9.8888937592
 30
0.0
 10
20.5638882016
 20
9.8628554807
 30
0.0
 10
20.5646833962
 20
9.8366706885
 30
0.0
 10
20.5638882385
 20
9.8104858919
 30
0.0
 10
20.5615323414
 20
9.7844476295
 30
0.0
 10
20.5576974635
 20
9.7586880697
 30
0.0
 10
20.5507993807
 20
9.7249974775
 30
0.0
 10
20.5414671724
 20
9.6921345339
 30
0.0
 10
20.5302639134
 20
9.6602507258
 30
0.0
 10
20.5211441801
 20
9.6370314152
 30
0.0
 10
20.5114054539
 20
9.6144078128
 30
0.0
 10
20.4978789935
 20
9.585270739
 30
0.0
 10
20.4835111027
 20
9.5571148389
 30
0.0
 10
20.4686011239
 20
9.5299038487
 30
0.0
 10
20.4538728705
 20
9.5040818294
 30
0.0
 10
20.4389474827
 20
9.4792331978
 30
0.0
 10
20.4240103137
 20
9.4553511696
 30
0.0
 10
20.4131625789
 20
9.4384073815
 30
0.0
 10
20.4025762035
 20
9.4222089085
 30
0.0
 10
20.3923223586
 20
9.4068005963
 30
0.0
 10
20.3824745885
 20
9.3922339457
 30
0.0
 10
20.3731058102
 20
9.3785687363
 30
0.0
 10
20.364292392
 20
9.3658702278
 30
0.0
 10
20.3561133955
 20
9.3542087993
 30
0.0
 10
20.3497208568
 20
9.3451790048
 30
0.0
 10
20.344984753
 20
9.3385299404
 30
0.0
 10
20.3417427319
 20
9.3339944616
 30
0.0
 10
20.33871802
 20
9.3297764793
 30
0.0
 10
20.3359197898
 20
9.3258860726
 30
0.0
 10
20.3333569868
 20
9.3223328647
 30
0.0
 10
20.3310381668
 20
9.3191259387
 30
0.0
 10
20.328971471
 20
9.3162736716
 30
0.0
 10
20.3271644012
 20
9.3137839519
 30
0.0
 10
20.3258234372
 20
9.3119395922
 30
0.0
 10
20.3248852962
 20
9.3106510298
 30
0.0
 10
20.3242845143
 20
9.3098265165
 30
0.0
 10
20.3237529822
 20
9.3090975405
 30
0.0
 10
20.3232912103
 20
9.3084645545
 30
0.0
 10
20.3228996954
 20
9.3079280078
 30
0.0
 10
20.3226175973
 20
9.307541311
 30
0.0
 10
20.3224273818
 20
9.3072804544
 30
0.0
 10
20.3223113467
 20
9.3071212982
 30
0.0
 10
20.3222131257
 20
9.3069864939
 30
0.0
 10
20.3221326501
 20
9.3068761129
 30
0.0
 10
20.3220701697
 20
9.3067900829
 30
0.0
 10
20.3220289072
 20
9.3067338276
 30
0.0
 10
20.3220053657
 20
9.3067008154
 30
0.0
 10
20.3219935971
 20
9.3066856126
 30
0.0
 10
20.3219878373
 20
9.3066758472
 30
0.0
 10
20.3219838027
 20
9.3066721401
 30
0.0
 10
20.3219834891
 20
9.3066708734
 30
0.0
  0
SPLINE
  5
393
100
AcDbEntity
  8
0
100
AcDbSpline
 62
7
  6
CONTINUOUS
 70
0
 71
3
 72
21
 73
17
 74
0
 42
0.0000001
 43
0.0000001
 44
0.0000000001
 40
0.0
 40
0.0
 40
0.0
 40
0.0
 40
0.057368249
 40
0.1166633082
 40
0.1776238709
 40
0.2400883552
 40
0.3039430246
 40
0.3688405296
 40
0.5000001073
 40
0.6311596668
 40
0.6960571503
 40
0.7599117917
 40
0.8223762426
 40
0.8833367687
 40
0.9426317894
 40
1.0
 40
1.0
 40
1.0
 40
1.0
 10
0.0819833843
 20
12.046670873
 30
0.0
 10
0.0819833782
 20
12.0496721262
 30
0.0
 10
0.0822645266
 20
12.055778791
 30
0.0
 10
0.0835332717
 20
12.0649968018
 30
0.0
 10
0.0857164954
 20
12.0743182669
 30
0.0
 10
0.0888738898
 20
12.0836104414
 30
0.0
 10
0.0930513281
 20
12.0927201109
 30
0.0
 10
0.099925383
 20
12.1044716441
 30
0.0
 10
0.1107499348
 20
12.1179044733
 30
0.0
 10
0.1241827557
 20
12.1287290338
 30
0.0
 10
0.1359342818
 20
12.1356030939
 30
0.0
 10
0.1450439452
 20
12.1397805351
 30
0.0
 10
0.1543361135
 20
12.1429379318
 30
0.0
 10
0.1636575724
 20
12.1451211571
 30
0.0
 10
0.1728755772
 20
12.1463899031
 30
0.0
 10
0.1789822379
 20
12.1466710517
 30
0.0
 10
0.1819834891
 20
12.1466710456
 30
0.0
  0
SPLINE
  5
394
100
AcDbEntity
  8
0
100
AcDbSpline
 62
7
  6
CONTINUOUS
 70
0
 71
3
 72
21
 73
17
 74
0
 42
0.0000001
 43
0.0000001
 44
0.0000000001
 40
0.0
 40
0.0
 40
0.0
 40
0.0
 40
0.057368249
 40
0.1166633082
 40
0.1776238709
 40
0.2400883552
 40
0.3039430246
 40
0.3688405296
 40
0.5000001074
 40
0.6311596668
 40
0.6960571504
 40
0.7599117917
 40
0.8223762426
 40
0.8833367687
 40
0.9426317894
 40
1.0
 40
1.0
 40
1.0
 40
1.0
 10
-1.018016406
 20
12.046670873
 30
0.0
 10
-1.0180163999
 20
12.0496721262
 30
0.0
 10
-1.0182975483
 20
12.055778791
 30
0.0
 10
-1.0195662934
 20
12.0649968018
 30
0.0
 10
-1.0217495171
 20
12.0743182669
 30
0.0
 10
-1.0249069115
 20
12.0836104414
 30
0.0
 10
-1.0290843498
 20
12.0927201109
 30
0.0
 10
-1.0359584046
 20
12.1044716441
 30
0.0
 10
-1.0467829564
 20
12.1179044734
 30
0.0
 10
-1.0602157774
 20
12.1287290339
 30
0.0
 10
-1.0719673035
 20
12.1356030939
 30
0.0
 10
-1.0810769669
 20
12.1397805352
 30
0.0
 10
-1.0903691352
 20
12.1429379319
 30
0.0
 10
-1.0996905942
 20
12.1451211571
 30
0.0
 10
-1.1089085989
 20
12.1463899031
 30
0.0
 10
-1.1150152596
 20
12.1466710517
 30
0.0
 10
-1.1180165109
 20
12.1466710456
 30
0.0
  0
LINE
  5
395
100
AcDbEntity
  8
0
100
AcDbLine
 62
9
  6
CONTINUOUS
 10
-0.4680163845
 20
12.696670724
 11
-1.1180161121
 21
12.1466710446
  0
SPLINE
  5
396
100
AcDbEntity
  8
0
100
AcDbSpline
 62
7
  6
CONTINUOUS
 70
0
 71
3
 72
17
 73
13
 74
0
 42
0.0000001
 43
0.0000001
 44
0.0000000001
 40
0.0
 40
0.0
 40
0.0
 40
0.0
 40
0.194489251
 40
0.3705275282
 40
0.5272594349
 40
0.663934023
 40
0.7799756068
 40
0.8748583236
 40
0.9142504616
 40
0.9482411436
 40
0.9768195951
 40
1.0
 40
1.0
 40
1.0
 40
1.0
 10
-1.2180165109
 20
13.0056718212
 30
0.0
 10
-1.2183246187
 20
13.0106802069
 30
0.0
 10
-1.2189437629
 20
13.0202199082
 30
0.0
 10
-1.2199323211
 20
13.0337874831
 30
0.0
 10
-1.2209225513
 20
13.0458588633
 30
0.0
 10
-1.2219053233
 20
13.0563772441
 30
0.0
 10
-1.222883792
 20
13.0652921872
 30
0.0
 10
-1.2237394931
 20
13.0716947409
 30
0.0
 10
-1.224446355
 20
13.0759784162
 30
0.0
 10
-1.2249423966
 20
13.0785623208
 30
0.0
 10
-1.2254369411
 20
13.0807191282
 30
0.0
 10
-1.2258020949
 20
13.0820049489
 30
0.0
 10
-1.2259919449
 20
13.0825720737
 30
0.0
  0
SPLINE
  5
397
100
AcDbEntity
  8
0
100
AcDbSpline
 62
7
  6
CONTINUOUS
 70
0
 71
3
 72
15
 73
11
 74
0
 42
0.0000001
 43
0.0000001
 44
0.0000000001
 40
0.0
 40
0.0
 40
0.0
 40
0.0
 40
0.2145874203
 40
0.396082945
 40
0.5456435726
 40
0.6653918954
 40
0.7595359669
 40
0.8366551561
 40
0.9114957327
 40
1.0
 40
1.0
 40
1.0
 40
1.0
 10
-1.2259919449
 20
13.0825720737
 30
0.0
 10
-1.2260793267
 20
13.0828331029
 30
0.0
 10
-1.2262512985
 20
13.0833115216
 30
0.0
 10
-1.2265306211
 20
13.0839539945
 30
0.0
 10
-1.2268095264
 20
13.0844619604
 30
0.0
 10
-1.2270897295
 20
13.0848372096
 30
0.0
 10
-1.2273762146
 20
13.0850840137
 30
0.0
 10
-1.2276856229
 20
13.0851912109
 30
0.0
 10
-1.2280006102
 20
13.0851289378
 30
0.0
 10
-1.228173847
 20
13.0850028053
 30
0.0
 10
-1.2282579314
 20
13.0849265225
 30
0.0
  0
SPLINE
  5
398
100
AcDbEntity
  8
0
100
AcDbSpline
 62
7
  6
CONTINUOUS
 70
0
 71
3
 72
42
 73
38
 74
0
 42
0.0000001
 43
0.0000001
 44
0.0000000001
 40
0.0
 40
0.0
 40
0.0
 40
0.0
 40
0.1977621651
 40
0.2941882125
 40
0.3876720087
 40
0.4773060895
 40
0.5622387003
 40
0.6416196636
 40
0.7146018073
 40
0.7484562484
 40
0.7804553593
 40
0.8105286341
 40
0.838605592
 40
0.8646157862
 40
0.888488819
 40
0.910154364
 40
0.929542689
 40
0.9466037665
 40
0.9542539896
 40
0.9613136687
 40
0.9677801044
 40
0.9736506516
 40
0.9789227437
 40
0.9835939349
 40
0.9876619726
 40
0.9911249342
 40
0.9939815119
 40
0.9951823836
 40
0.9962318565
 40
0.997130454
 40
0.9978792383
 40
0.9984803432
 40
0.9989383387
 40
0.9992643913
 40
0.9994909178
 40
0.9997033041
 40
1.0
 40
1.0
 40
1.0
 40
1.0
 10
-1.2185160348
 20
12.6966634212
 30
0.0
 10
-1.218936192
 20
12.7222605449
 30
0.0
 10
-1.2195610246
 20
12.7603384701
 30
0.0
 10
-1.2204094583
 20
12.8105159493
 30
0.0
 10
-1.2210403865
 20
12.8466977789
 30
0.0
 10
-1.2216710904
 20
12.881391538
 30
0.0
 10
-1.2223011992
 20
12.9142593631
 30
0.0
 10
-1.2229304712
 20
12.9449711694
 30
0.0
 10
-1.2234667442
 20
12.9690713295
 30
0.0
 10
-1.22389956
 20
12.9870385849
 30
0.0
 10
-1.2242158683
 20
12.9994524139
 30
0.0
 10
-1.2245320302
 20
13.0111180872
 30
0.0
 10
-1.2248480146
 20
13.0220081894
 30
0.0
 10
-1.2251637638
 20
13.0320953076
 30
0.0
 10
-1.2254792133
 20
13.0413520307
 30
0.0
 10
-1.2257942161
 20
13.04975102
 30
0.0
 10
-1.2261088279
 20
13.0572675214
 30
0.0
 10
-1.2263794883
 20
13.0629699031
 30
0.0
 10
-1.2265983447
 20
13.0670768818
 30
0.0
 10
-1.2267563701
 20
13.0698136386
 30
0.0
 10
-1.226914274
 20
13.0723196058
 30
0.0
 10
-1.2270720322
 20
13.0745936763
 30
0.0
 10
-1.227229585
 20
13.0766347519
 30
0.0
 10
-1.2273868664
 20
13.0784417376
 30
0.0
 10
-1.2275437042
 20
13.0800135843
 30
0.0
 10
-1.2277000097
 20
13.0813492206
 30
0.0
 10
-1.227836038
 20
13.0823133774
 30
0.0
 10
-1.2279475045
 20
13.0829650595
 30
0.0
 10
-1.2280260466
 20
13.0833651103
 30
0.0
 10
-1.2281042672
 20
13.083705423
 30
0.0
 10
-1.2281823023
 20
13.0839859989
 30
0.0
 10
-1.2282593224
 20
13.0842071724
 30
0.0
 10
-1.2283369645
 20
13.0843696879
 30
0.0
 10
-1.2284123022
 20
13.0844769607
 30
0.0
 10
-1.2285046677
 20
13.0845317986
 30
0.0
 10
-1.2286031457
 20
13.0844975083
 30
0.0
 10
-1.2286445907
 20
13.084444243
 30
0.0
 10
-1.2286665111
 20
13.084412705
 30
0.0
  0
SPLINE
  5
399
100
AcDbEntity
  8
0
100
AcDbSpline
 62
7
  6
CONTINUOUS
 70
0
 71
3
 72
38
 73
34
 74
0
 42
0.0000001
 43
0.0000001
 44
0.0000000001
 40
0.0
 40
0.0
 40
0.0
 40
0.0
 40
0.0972291106
 40
0.1936788176
 40
0.2882939838
 40
0.3801917784
 40
0.4685041297
 40
0.5523596998
 40
0.6309532263
 40
0.7035349595
 40
0.7694162882
 40
0.7996409032
 40
0.8279611655
 40
0.854310874
 40
0.8786246902
 40
0.9008469075
 40
0.9209279493
 40
0.9388183839
 40
0.9544734254
 40
0.9678614351
 40
0.9736962051
 40
0.9789533339
 40
0.9836292617
 40
0.9877210828
 40
0.9912275951
 40
0.9941480578
 40
0.99648212
 40
0.997429409
 40
0.9982304732
 40
0.9988858392
 40
0.9993966211
 40
0.9997654351
 40
1.0
 40
1.0
 40
1.0
 40
1.0
 10
-1.2286147815
 20
12.6966708734
 30
0.0
 10
-1.2284817885
 20
12.6838894316
 30
0.0
 10
-1.2281939191
 20
12.6584292509
 30
0.0
 10
-1.2277622903
 20
12.6205314093
 30
0.0
 10
-1.2273784001
 20
12.5833339659
 30
0.0
 10
-1.2269916484
 20
12.5472063819
 30
0.0
 10
-1.2265877973
 20
12.5124935764
 30
0.0
 10
-1.2261907027
 20
12.4795298499
 30
0.0
 10
-1.2258004995
 20
12.4486342027
 30
0.0
 10
-1.2254078219
 20
12.4201017572
 30
0.0
 10
-1.2250717621
 20
12.3979279263
 30
0.0
 10
-1.2248014683
 20
12.3815725829
 30
0.0
 10
-1.2246049089
 20
12.3704137244
 30
0.0
 10
-1.2244084414
 20
12.3600320503
 30
0.0
 10
-1.2242116996
 20
12.3504522098
 30
0.0
 10
-1.2240148132
 20
12.3416966653
 30
0.0
 10
-1.2238181453
 20
12.3337857935
 30
0.0
 10
-1.2236220471
 20
12.3267385474
 30
0.0
 10
-1.2234267495
 20
12.320571556
 30
0.0
 10
-1.2232581486
 20
12.3159894418
 30
0.0
 10
-1.2231211782
 20
12.3127741207
 30
0.0
 10
-1.2230233846
 20
12.3107035176
 30
0.0
 10
-1.222925803
 20
12.3088623204
 30
0.0
 10
-1.2228284453
 20
12.30725162
 30
0.0
 10
-1.2227314987
 20
12.3058721401
 30
0.0
 10
-1.2226350135
 20
12.3047244024
 30
0.0
 10
-1.2225507319
 20
12.3039133201
 30
0.0
 10
-1.2224810407
 20
12.3033811662
 30
0.0
 10
-1.2224326797
 20
12.3030687851
 30
0.0
 10
-1.2223846612
 20
12.3028147674
 30
0.0
 10
-1.2223372258
 20
12.3026180553
 30
0.0
 10
-1.2222907273
 20
12.3024798709
 30
0.0
 10
-1.2222532088
 20
12.3024075782
 30
0.0
 10
-1.2222314073
 20
12.3023857698
 30
0.0
  0
SPLINE
  5
39A
100
AcDbEntity
  8
0
100
AcDbSpline
 62
7
  6
CONTINUOUS
 70
0
 71
3
 72
36
 73
32
 74
0
 42
0.0000001
 43
0.0000001
 44
0.0000000001
 40
0.0
 40
0.0
 40
0.0
 40
0.0
 40
0.0005025867
 40
0.0009288791
 40
0.0014920386
 40
0.002197498
 40
0.0030479694
 40
0.0040449838
 40
0.0051894857
 40
0.0079229259
 40
0.0112494181
 40
0.0196755554
 40
0.0304517358
 40
0.0435576362
 40
0.0589662657
 40
0.0766370284
 40
0.0965270153
 40
0.118592854
 40
0.1427826129
 40
0.1690340906
 40
0.1972844169
 40
0.2274697653
 40
0.2933434217
 40
0.3660171257
 40
0.4447947006
 40
0.5289199319
 40
0.6175769019
 40
0.7099048735
 40
0.8050393877
 40
0.9020886095
 40
1.0
 40
1.0
 40
1.0
 40
1.0
 10
-1.218517776
 20
12.3088232179
 30
0.0
 10
-1.2185828025
 20
12.3088234322
 30
0.0
 10
-1.218679275
 20
12.3089330545
 30
0.0
 10
-1.21876088
 20
12.3090993893
 30
0.0
 10
-1.2188388468
 20
12.3093076862
 30
0.0
 10
-1.218914632
 20
12.3095702578
 30
0.0
 10
-1.218991772
 20
12.3098918922
 30
0.0
 10
-1.2190688374
 20
12.310271196
 30
0.0
 10
-1.2191785846
 20
12.3108924214
 30
0.0
 10
-1.2193124188
 20
12.311815066
 30
0.0
 10
-1.2195353934
 20
12.3136761454
 30
0.0
 10
-1.2198028289
 20
12.3165791585
 30
0.0
 10
-1.2201087658
 20
12.3207482089
 30
0.0
 10
-1.2204162909
 20
12.3258226279
 30
0.0
 10
-1.2207251597
 20
12.3317903456
 30
0.0
 10
-1.2210347952
 20
12.3386368033
 30
0.0
 10
-1.2213450123
 20
12.3463453431
 30
0.0
 10
-1.2216555676
 20
12.3548979373
 30
0.0
 10
-1.2219664028
 20
12.36427409
 30
0.0
 10
-1.2222775698
 20
12.3744508111
 30
0.0
 10
-1.2225890666
 20
12.3854035938
 30
0.0
 10
-1.2230173595
 20
12.401481597
 30
0.0
 10
-1.2235476216
 20
12.4233065824
 30
0.0
 10
-1.2241654338
 20
12.451418288
 30
0.0
 10
-1.2247832737
 20
12.4818919821
 30
0.0
 10
-1.225411242
 20
12.51443386
 30
0.0
 10
-1.2260397483
 20
12.5487292597
 30
0.0
 10
-1.2266380041
 20
12.58444983
 30
0.0
 10
-1.2272454764
 20
12.6212562321
 30
0.0
 10
-1.2279382906
 20
12.6587836537
 30
0.0
 10
-1.2283938871
 20
12.6840044356
 30
0.0
 10
-1.228601776
 20
12.6966709454
 30
0.0
  0
LINE
  5
39B
100
AcDbEntity
  8
0
100
AcDbLine
 62
9
  6
CONTINUOUS
 10
0.1819827856
 20
12.1466711665
 11
-0.4680167407
 21
12.6966706017
  0
LINE
  5
39C
100
AcDbEntity
  8
0
100
AcDbLine
 62
9
  6
CONTINUOUS
 10
0.0819834891
 20
12.0466708734
 11
-0.4680165109
 21
12.6966708734
  0
LINE
  5
39D
100
AcDbEntity
  8
0
100
AcDbLine
 62
9
  6
CONTINUOUS
 10
-1.0180165109
 20
12.0466708734
 11
-0.4680165109
 21
12.6966708734
  0
SPLINE
  5
39E
100
AcDbEntity
  8
0
100
AcDbSpline
 62
7
  6
CONTINUOUS
 70
0
 71
3
 72
17
 73
13
 74
0
 42
0.0000001
 43
0.0000001
 44
0.0000000001
 40
0.0
 40
0.0
 40
0.0
 40
0.0
 40
0.1166048026
 40
0.239949071
 40
0.303838023
 40
0.3687703583
 40
0.5000003041
 40
0.6312302041
 40
0.696162486
 40
0.7600513663
 40
0.8833954404
 40
1.0
 40
1.0
 40
1.0
 40
1.0
 10
-2.6220165109
 20
12.2466708734
 30
0.0
 10
-2.6220165109
 20
12.2509387483
 30
0.0
 10
-2.6228335908
 20
12.25973818
 30
0.0
 10
-2.6259102868
 20
12.2705022181
 30
0.0
 10
-2.6297640488
 20
12.2789049575
 30
0.0
 10
-2.6345759961
 20
12.2871315282
 30
0.0
 10
-2.6421531944
 20
12.2965342354
 30
0.0
 10
-2.6515559069
 20
12.3041114239
 30
0.0
 10
-2.6597824764
 20
12.3089233609
 30
0.0
 10
-2.6681852079
 20
12.3127771117
 30
0.0
 10
-2.6789492294
 20
12.315853797
 30
0.0
 10
-2.687748645
 20
12.3166708734
 30
0.0
 10
-2.692016511
 20
12.3166708734
 30
0.0
  0
SPLINE
  5
39F
100
AcDbEntity
  8
0
100
AcDbSpline
 62
7
  6
CONTINUOUS
 70
0
 71
3
 72
17
 73
13
 74
0
 42
0.0000001
 43
0.0000001
 44
0.0000000001
 40
0.0
 40
0.0
 40
0.0
 40
0.0
 40
0.1166048029
 40
0.2399490714
 40
0.3038380236
 40
0.3687703589
 40
0.5000003048
 40
0.6312302047
 40
0.6961624866
 40
0.7600513668
 40
0.8833954407
 40
1.0
 40
1.0
 40
1.0
 40
1.0
 10
-2.2720165109
 20
12.2466708734
 30
0.0
 10
-2.2720165109
 20
12.2509387483
 30
0.0
 10
-2.271199431
 20
12.25973818
 30
0.0
 10
-2.268122735
 20
12.2705022182
 30
0.0
 10
-2.2642689729
 20
12.2789049575
 30
0.0
 10
-2.2594570256
 20
12.2871315283
 30
0.0
 10
-2.2518798273
 20
12.2965342355
 30
0.0
 10
-2.2424771148
 20
12.3041114239
 30
0.0
 10
-2.2342505453
 20
12.3089233609
 30
0.0
 10
-2.2258478138
 20
12.3127771117
 30
0.0
 10
-2.2150837923
 20
12.315853797
 30
0.0
 10
-2.2062843767
 20
12.3166708734
 30
0.0
 10
-2.2020165107
 20
12.3166708734
 30
0.0
  0
SPLINE
  5
3A0
100
AcDbEntity
  8
0
100
AcDbSpline
 62
7
  6
CONTINUOUS
 70
0
 71
3
 72
14
 73
10
 74
0
 42
0.0000001
 43
0.0000001
 44
0.0000000001
 40
0.0
 40
0.0
 40
0.0
 40
0.0
 40
0.244964349
 40
0.3705285546
 40
0.4969622469
 40
0.6236481357
 40
0.7501404123
 40
0.875848439
 40
1.0
 40
1.0
 40
1.0
 40
1.0
 10
-2.6479633689
 20
11.967335531
 30
0.0
 10
-2.6462824826
 20
11.9661082054
 30
0.0
 10
-2.6439357159
 20
11.9639647498
 30
0.0
 10
-2.6412811975
 20
11.96067538
 30
0.0
 10
-2.6395286687
 20
11.9579690904
 30
0.0
 10
-2.6380827109
 20
11.9550786287
 30
0.0
 10
-2.6369702679
 20
11.9520509859
 30
0.0
 10
-2.6361860331
 20
11.9489455518
 30
0.0
 10
-2.6358795096
 20
11.9468404318
 30
0.0
 10
-2.6357821209
 20
11.9457901161
 30
0.0
  0
SPLINE
  5
3A1
100
AcDbEntity
  8
0
100
AcDbSpline
 62
7
  6
CONTINUOUS
 70
0
 71
3
 72
11
 73
7
 74
0
 42
0.0000001
 43
0.0000001
 44
0.0000000001
 40
0.0
 40
0.0
 40
0.0
 40
0.0
 40
0.2466751954
 40
0.4999999422
 40
0.7533247204
 40
1.0
 40
1.0
 40
1.0
 40
1.0
 10
-2.2460696529
 20
11.967335531
 30
0.0
 10
-2.2479895919
 20
11.9659336574
 30
0.0
 10
-2.2515361986
 20
11.9625960529
 30
0.0
 10
-2.2555821703
 20
11.9564821004
 30
0.0
 10
-2.2579532479
 20
11.9495446437
 30
0.0
 10
-2.2584306383
 20
11.9446979817
 30
0.0
 10
-2.2583684087
 20
11.942321525
 30
0.0
  0
SPLINE
  5
3A2
100
AcDbEntity
  8
0
100
AcDbSpline
 62
9
  6
CONTINUOUS
 70
0
 71
3
 72
46
 73
42
 74
0
 42
0.0000001
 43
0.0000001
 44
0.0000000001
 40
0.0
 40
0.0
 40
0.0
 40
0.0
 40
0.0001946119
 40
0.0007745808
 40
0.0017360837
 40
0.0030753
 40
0.0068715996
 40
0.0121329593
 40
0.0188220176
 40
0.0268740023
 40
0.036217484
 40
0.0467813073
 40
0.0712783124
 40
0.0997621215
 40
0.1316440335
 40
0.1663968876
 40
0.2426236181
 40
0.3252333812
 40
0.411686552
 40
0.4557367971
 40
0.4999985674
 40
0.5442574201
 40
0.5883001524
 40
0.6747323801
 40
0.7573273894
 40
0.7964306974
 40
0.8335738948
 40
0.8683351463
 40
0.9002268289
 40
0.9287183913
 40
0.9532198724
 40
0.9637845365
 40
0.9731281314
 40
0.9811797771
 40
0.9878683197
 40
0.9931292158
 40
0.9969251487
 40
0.9982642175
 40
0.9992255966
 40
0.9998054651
 40
1.0
 40
1.0
 40
1.0
 40
1.0
 10
-2.6220165109
 20
12.2466708938
 30
0.0
 10
-2.6219963344
 20
12.2466856847
 30
0.0
 10
-2.6219181029
 20
12.24674732
 30
0.0
 10
-2.6217400417
 20
12.2468818433
 30
0.0
 10
-2.6214460063
 20
12.2471069608
 30
0.0
 10
-2.6208218589
 20
12.2475810154
 30
0.0
 10
-2.6197563473
 20
12.2483878341
 30
0.0
 10
-2.6181388521
 20
12.2496048893
 30
0.0
 10
-2.6160797828
 20
12.251144962
 30
0.0
 10
-2.6135915862
 20
12.2529873762
 30
0.0
 10
-2.6106906875
 20
12.2551093724
 30
0.0
 10
-2.6060612925
 20
12.2584488288
 30
0.0
 10
-2.5993807917
 20
12.2631503676
 30
0.0
 10
-2.5903367674
 20
12.2692520451
 30
0.0
 10
-2.5800380979
 20
12.2758465922
 30
0.0
 10
-2.5642840004
 20
12.2852882466
 30
0.0
 10
-2.5422465412
 20
12.2969154884
 30
0.0
 10
-2.5129854725
 20
12.3088371707
 30
0.0
 10
-2.4863587962
 20
12.3157595636
 30
0.0
 10
-2.46406138
 20
12.3186960302
 30
0.0
 10
-2.447014053
 20
12.3194670166
 30
0.0
 10
-2.4299677147
 20
12.3186962078
 30
0.0
 10
-2.4076741772
 20
12.3157601982
 30
0.0
 10
-2.3810537857
 20
12.3088396712
 30
0.0
 10
-2.3562227059
 20
12.2987221631
 30
0.0
 10
-2.3379431932
 20
12.2896117692
 30
0.0
 10
-2.3254485068
 20
12.2827105489
 30
0.0
 10
-2.3140013992
 20
12.2758507535
 30
0.0
 10
-2.3037000046
 20
12.2692546252
 30
0.0
 10
-2.2946535543
 20
12.2631514101
 30
0.0
 10
-2.2879716879
 20
12.2584489064
 30
0.0
 10
-2.2833417348
 20
12.255109029
 30
0.0
 10
-2.2804407819
 20
12.2529869733
 30
0.0
 10
-2.2779526745
 20
12.2511445988
 30
0.0
 10
-2.2758937511
 20
12.2496046139
 30
0.0
 10
-2.2742764074
 20
12.248387645
 30
0.0
 10
-2.2732109909
 20
12.2475809094
 30
0.0
 10
-2.2725869248
 20
12.2471068826
 30
0.0
 10
-2.2722929063
 20
12.2468818231
 30
0.0
 10
-2.2721149164
 20
12.2467472679
 30
0.0
 10
-2.2720366619
 20
12.2466857026
 30
0.0
 10
-2.2720165109
 20
12.2466708938
 30
0.0
  0
LINE
  5
3A3
100
AcDbEntity
  8
0
100
AcDbLine
 62
9
  6
CONTINUOUS
 10
-2.644476767
 20
11.9695867572
 11
-2.6479633241
 21
11.9673354983
  0
LINE
  5
3A4
100
AcDbEntity
  8
0
100
AcDbLine
 62
9
  6
CONTINUOUS
 10
-2.2460696529
 20
11.967335531
 11
-2.2495562255
 21
11.9695868058
  0
SPLINE
  5
3A5
100
AcDbEntity
  8
0
100
AcDbSpline
 62
9
  6
CONTINUOUS
 70
0
 71
3
 72
17
 73
13
 74
0
 42
0.0000001
 43
0.0000001
 44
0.0000000001
 40
0.0
 40
0.0
 40
0.0
 40
0.0
 40
0.0301488594
 40
0.0642294135
 40
0.1447079789
 40
0.1912370342
 40
0.2419443103
 40
0.356111996
 40
0.488307153
 40
0.6399646306
 40
0.8110256081
 40
1.0
 40
1.0
 40
1.0
 40
1.0
 10
-2.2495562678
 20
11.9695867699
 30
0.0
 10
-2.2497679503
 20
11.9697665291
 30
0.0
 10
-2.250244189
 20
11.9701199799
 30
0.0
 10
-2.2513853563
 20
11.9708111853
 30
0.0
 10
-2.252735427
 20
11.9714367983
 30
0.0
 10
-2.2542602303
 20
11.9720320813
 30
0.0
 10
-2.2560990564
 20
11.9726743908
 30
0.0
 10
-2.2587281866
 20
11.9734414203
 30
0.0
 10
-2.2623175382
 20
11.9742064579
 30
0.0
 10
-2.266474836
 20
11.9747596196
 30
0.0
 10
-2.2711777249
 20
11.9750998909
 30
0.0
 10
-2.2744933418
 20
11.97520173
 30
0.0
 10
-2.2762338211
 20
11.9752293847
 30
0.0
  0
SPLINE
  5
3A6
100
AcDbEntity
  8
0
100
AcDbSpline
 62
9
  6
CONTINUOUS
 70
0
 71
3
 72
16
 73
12
 74
0
 42
0.0000001
 43
0.0000001
 44
0.0000000001
 40
0.0
 40
0.0
 40
0.0
 40
0.0
 40
0.1128970075
 40
0.2302571232
 40
0.2904941215
 40
0.3517030449
 40
0.4767324321
 40
0.6046764322
 40
0.7348710882
 40
0.8668049748
 40
1.0
 40
1.0
 40
1.0
 40
1.0
 10
-2.3261362486
 20
11.9752293847
 30
0.0
 10
-2.3288000003
 20
11.9752010869
 30
0.0
 10
-2.3342323719
 20
11.9750865126
 30
0.0
 10
-2.3410810717
 20
11.9747905367
 30
0.0
 10
-2.3467056034
 20
11.9744478883
 30
0.0
 10
-2.3525059605
 20
11.9740225979
 30
0.0
 10
-2.3598909162
 20
11.9733699499
 30
0.0
 10
-2.3688879793
 20
11.9724776556
 30
0.0
 10
-2.378044493
 20
11.9715428773
 30
0.0
 10
-2.3873221383
 20
11.9705749043
 30
0.0
 10
-2.3935434668
 20
11.9699176959
 30
0.0
 10
-2.3966688465
 20
11.9695867653
 30
0.0
  0
SPLINE
  5
3A7
100
AcDbEntity
  8
0
100
AcDbSpline
 62
9
  6
CONTINUOUS
 70
0
 71
3
 72
11
 73
7
 74
0
 42
0.0000001
 43
0.0000001
 44
0.0000000001
 40
0.0
 40
0.0
 40
0.0
 40
0.0
 40
0.2483745251
 40
0.4999745082
 40
0.7515977246
 40
1.0
 40
1.0
 40
1.0
 40
1.0
 10
-2.3966688451
 20
11.9695867865
 30
0.0
 10
-2.4049768053
 20
11.9687756409
 30
0.0
 10
-2.4217527203
 20
11.9676531607
 30
0.0
 10
-2.4470145418
 20
11.9671755323
 30
0.0
 10
-2.4722772889
 20
11.9676532544
 30
0.0
 10
-2.4890549298
 20
11.9687755902
 30
0.0
 10
-2.4973638263
 20
11.9695867439
 30
0.0
  0
SPLINE
  5
3A8
100
AcDbEntity
  8
0
100
AcDbSpline
 62
9
  6
CONTINUOUS
 70
0
 71
3
 72
16
 73
12
 74
0
 42
0.0000001
 43
0.0000001
 44
0.0000000001
 40
0.0
 40
0.0
 40
0.0
 40
0.0
 40
0.1331861858
 40
0.265074973
 40
0.3952515088
 40
0.5232074169
 40
0.6482443274
 40
0.709452465
 40
0.7696905191
 40
0.8870672922
 40
1.0
 40
1.0
 40
1.0
 40
1.0
 10
-2.497363825
 20
11.9695867227
 30
0.0
 10
-2.5004884688
 20
11.9699224565
 30
0.0
 10
-2.5067083803
 20
11.9705807999
 30
0.0
 10
-2.5159852853
 20
11.9715390399
 30
0.0
 10
-2.5251406698
 20
11.9724724926
 30
0.0
 10
-2.5341371233
 20
11.9733707811
 30
0.0
 10
-2.5415224724
 20
11.9740240546
 30
0.0
 10
-2.5473232551
 20
11.9744457646
 30
0.0
 10
-2.5529483417
 20
11.9747853601
 30
0.0
 10
-2.5597982464
 20
11.9750811483
 30
0.0
 10
-2.5652317399
 20
11.9751987431
 30
0.0
 10
-2.5678962965
 20
11.9752293847
 30
0.0
  0
SPLINE
  5
3A9
100
AcDbEntity
  8
0
100
AcDbSpline
 62
9
  6
CONTINUOUS
 70
0
 71
3
 72
15
 73
11
 74
0
 42
0.0000001
 43
0.0000001
 44
0.0000000001
 40
0.0
 40
0.0
 40
0.0
 40
0.0
 40
0.189928257
 40
0.3604740622
 40
0.5118118817
 40
0.6442996347
 40
0.7584528165
 40
0.8550614755
 40
0.9351378292
 40
1.0
 40
1.0
 40
1.0
 40
1.0
 10
-2.6177994218
 20
11.9752293847
 30
0.0
 10
-2.6195482681
 20
11.9752293485
 30
0.0
 10
-2.6228683354
 20
11.9751493555
 30
0.0
 10
-2.6275688206
 20
11.9747767598
 30
0.0
 10
-2.6317148247
 20
11.9741948406
 30
0.0
 10
-2.6353046674
 20
11.9734436176
 30
0.0
 10
-2.6383447132
 20
11.9725673193
 30
0.0
 10
-2.6408512284
 20
11.9716145166
 30
0.0
 10
-2.6428519126
 20
11.9706355755
 30
0.0
 10
-2.6439887084
 20
11.9699309985
 30
0.0
 10
-2.6444767669
 20
11.969586757
 30
0.0
  0
LINE
  5
3AA
100
AcDbEntity
  8
0
100
AcDbLine
 62
9
  6
CONTINUOUS
 10
-2.6335839053
 20
11.9461077314
 11
-2.6356646131
 21
11.9423215248
  0
SPLINE
  5
3AB
100
AcDbEntity
  8
0
100
AcDbSpline
 62
9
  6
CONTINUOUS
 70
0
 71
3
 72
11
 73
7
 74
0
 42
0.0000001
 43
0.0000001
 44
0.0000000001
 40
0.0
 40
0.0
 40
0.0
 40
0.0
 40
0.2466117657
 40
0.4994036498
 40
0.7525059703
 40
1.0
 40
1.0
 40
1.0
 40
1.0
 10
-2.6444767668
 20
11.9695867573
 30
0.0
 10
-2.6427863566
 20
11.9681862099
 30
0.0
 10
-2.6396757538
 20
11.9649548067
 30
0.0
 10
-2.6361276266
 20
11.959207678
 30
0.0
 10
-2.6340076017
 20
11.9527858506
 30
0.0
 10
-2.6335506188
 20
11.9483105597
 30
0.0
 10
-2.6335839023
 20
11.9461077311
 30
0.0
  0
SPLINE
  5
3AC
100
AcDbEntity
  8
0
100
AcDbSpline
 62
9
  6
CONTINUOUS
 70
0
 71
3
 72
13
 73
9
 74
0
 42
0.0000001
 43
0.0000001
 44
0.0000000001
 40
0.0
 40
0.0
 40
0.0
 40
0.0
 40
0.2354283783
 40
0.357546181
 40
0.4822578489
 40
0.7382199785
 40
0.8687407223
 40
1.0
 40
1.0
 40
1.0
 40
1.0
 10
-2.68868109
 20
10.2322710489
 30
0.0
 10
-2.6831714621
 20
10.241529766
 30
0.0
 10
-2.6757549145
 20
10.2561839783
 30
0.0
 10
-2.6677176968
 20
10.2767495241
 30
0.0
 10
-2.6607310021
 20
10.2986867807
 30
0.0
 10
-2.655799194
 20
10.3216332226
 30
0.0
 10
-2.6530437771
 20
10.3451772684
 30
0.0
 10
-2.6524079357
 20
10.3571506929
 30
0.0
 10
-2.6522819065
 20
10.3631562596
 30
0.0
  0
LINE
  5
3AD
100
AcDbEntity
  8
0
100
AcDbLine
 62
9
  6
CONTINUOUS
 10
-2.6522815056
 20
10.3631562827
 11
-2.6380432251
 21
10.3631563042
  0
SPLINE
  5
3AE
100
AcDbEntity
  8
0
100
AcDbSpline
 62
9
  6
CONTINUOUS
 70
0
 71
3
 72
9
 73
5
 74
0
 42
0.0000001
 43
0.0000001
 44
0.0000000001
 40
0.0
 40
0.0
 40
0.0
 40
0.0
 40
0.5020501085
 40
1.0
 40
1.0
 40
1.0
 40
1.0
 10
-2.6925708298
 20
10.2201854601
 30
0.0
 10
-2.6925708298
 20
10.2223364814
 30
0.0
 10
-2.691903192
 20
10.2266476078
 30
0.0
 10
-2.6899344683
 20
10.230544338
 30
0.0
 10
-2.6886813371
 20
10.2322709788
 30
0.0
  0
SPLINE
  5
3AF
100
AcDbEntity
  8
0
100
AcDbSpline
 62
9
  6
CONTINUOUS
 70
0
 71
3
 72
9
 73
5
 74
0
 42
0.0000001
 43
0.0000001
 44
0.0000000001
 40
0.0
 40
0.0
 40
0.0
 40
0.0
 40
0.4586555633
 40
1.0
 40
1.0
 40
1.0
 40
1.0
 10
-2.6886813384
 20
10.2322709641
 30
0.0
 10
-2.6880542948
 20
10.2326092434
 30
0.0
 10
-2.6865533606
 20
10.2330977975
 30
0.0
 10
-2.6849955083
 20
10.2332257973
 30
0.0
 10
-2.6841545879
 20
10.2332257984
 30
0.0
  0
SPLINE
  5
3B0
100
AcDbEntity
  8
0
100
AcDbSpline
 62
9
  6
CONTINUOUS
 70
0
 71
3
 72
9
 73
5
 74
0
 42
0.0000001
 43
0.0000001
 44
0.0000000001
 40
0.0
 40
0.0
 40
0.0
 40
0.0
 40
0.4793128859
 40
1.0
 40
1.0
 40
1.0
 40
1.0
 10
-2.6841545941
 20
10.2332257882
 30
0.0
 10
-2.6831663366
 20
10.2332257894
 30
0.0
 10
-2.6811040599
 20
10.2330272986
 30
0.0
 10
-2.6790898829
 20
10.2325660463
 30
0.0
 10
-2.6780576677
 20
10.2322709686
 30
0.0
  0
SPLINE
  5
3B1
100
AcDbEntity
  8
0
100
AcDbSpline
 62
9
  6
CONTINUOUS
 70
0
 71
3
 72
10
 73
6
 74
0
 42
0.0000001
 43
0.0000001
 44
0.0000000001
 40
0.0
 40
0.0
 40
0.0
 40
0.0
 40
0.2284339378
 40
0.4752118182
 40
1.0
 40
1.0
 40
1.0
 40
1.0
 10
-2.6780576694
 20
10.2322709824
 30
0.0
 10
-2.6782567796
 20
10.2313665558
 30
0.0
 10
-2.6786021142
 20
10.229469541
 30
0.0
 10
-2.6790968865
 20
10.2254444763
 30
0.0
 10
-2.6792374955
 20
10.2223129818
 30
0.0
 10
-2.6792374955
 20
10.2201854601
 30
0.0
  0
SPLINE
  5
3B2
100
AcDbEntity
  8
0
100
AcDbSpline
 62
9
  6
CONTINUOUS
 70
0
 71
3
 72
12
 73
8
 74
0
 42
0.0000001
 43
0.0000001
 44
0.0000000001
 40
0.0
 40
0.0
 40
0.0
 40
0.0
 40
0.2386033374
 40
0.4860365103
 40
0.6127864883
 40
0.7410405246
 40
1.0
 40
1.0
 40
1.0
 40
1.0
 10
-2.6780577612
 20
10.2322711361
 30
0.0
 10
-2.6720469644
 20
10.2415046029
 30
0.0
 10
-2.6611066416
 20
10.261192141
 30
0.0
 10
-2.650816435
 20
10.2876496607
 30
0.0
 10
-2.6446920269
 20
10.3100450586
 30
0.0
 10
-2.6400174665
 20
10.3333253203
 30
0.0
 10
-2.638317776
 20
10.351201971
 30
0.0
 10
-2.6380404243
 20
10.363156261
 30
0.0
  0
SPLINE
  5
3B3
100
AcDbEntity
  8
0
100
AcDbSpline
 62
9
  6
CONTINUOUS
 70
0
 71
3
 72
10
 73
6
 74
0
 42
0.0000001
 43
0.0000001
 44
0.0000000001
 40
0.0
 40
0.0
 40
0.0
 40
0.0
 40
0.2503462573
 40
0.5007354132
 40
1.0
 40
1.0
 40
1.0
 40
1.0
 10
-2.3940622898
 20
11.9461076882
 30
0.0
 10
-2.3848260697
 20
11.9439013691
 30
0.0
 10
-2.3665886423
 20
11.9384509097
 30
0.0
 10
-2.3313645946
 20
11.9242850572
 30
0.0
 10
-2.3062169642
 20
11.9108135087
 30
0.0
 10
-2.2899583081
 20
11.9011024797
 30
0.0
  0
LINE
  5
3B4
100
AcDbEntity
  8
0
100
AcDbLine
 62
7
  6
CONTINUOUS
 10
-2.6380003595
 20
10.3631518931
 11
-2.6041136293
 21
11.9011068896
  0
SPLINE
  5
3B5
100
AcDbEntity
  8
0
100
AcDbSpline
 62
9
  6
CONTINUOUS
 70
0
 71
3
 72
10
 73
6
 74
0
 42
0.0000001
 43
0.0000001
 44
0.0000000001
 40
0.0
 40
0.0
 40
0.0
 40
0.0
 40
0.4992582437
 40
0.7496464122
 40
1.0
 40
1.0
 40
1.0
 40
1.0
 10
-2.6040748127
 20
11.9011026553
 30
0.0
 10
-2.5878162863
 20
11.91081357
 30
0.0
 10
-2.5626688481
 20
11.9242851248
 30
0.0
 10
-2.5274445494
 20
11.9384507581
 30
0.0
 10
-2.5092068295
 20
11.9439012658
 30
0.0
 10
-2.4999703449
 20
11.946107827
 30
0.0
  0
SPLINE
  5
3B6
100
AcDbEntity
  8
0
100
AcDbSpline
 62
9
  6
CONTINUOUS
 70
0
 71
3
 72
15
 73
11
 74
0
 42
0.0000001
 43
0.0000001
 44
0.0000000001
 40
0.0
 40
0.0
 40
0.0
 40
0.0
 40
0.124796978
 40
0.2498014717
 40
0.3749055594
 40
0.5000061111
 40
0.6251032209
 40
0.7502008224
 40
0.8752030658
 40
1.0
 40
1.0
 40
1.0
 40
1.0
 10
-2.394062277
 20
11.9461077423
 30
0.0
 10
-2.3984317372
 20
11.9454356033
 30
0.0
 10
-2.4072105744
 20
11.9442954422
 30
0.0
 10
-2.4204441103
 20
11.9431388527
 30
0.0
 10
-2.4337215032
 20
11.942470064
 30
0.0
 10
-2.4470168606
 20
11.9422432227
 30
0.0
 10
-2.4603120495
 20
11.9424680671
 30
0.0
 10
-2.473588978
 20
11.9431378721
 30
0.0
 10
-2.486822125
 20
11.9442952458
 30
0.0
 10
-2.4956008413
 20
11.9454356376
 30
0.0
 10
-2.4999703138
 20
11.9461076855
 30
0.0
  0
SPLINE
  5
3B7
100
AcDbEntity
  8
0
100
AcDbSpline
 62
9
  6
CONTINUOUS
 70
0
 71
3
 72
11
 73
7
 74
0
 42
0.0000001
 43
0.0000001
 44
0.0000000001
 40
0.0
 40
0.0
 40
0.0
 40
0.0
 40
0.2008415425
 40
0.4455627556
 40
0.718954669
 40
1.0
 40
1.0
 40
1.0
 40
1.0
 10
-2.3966692449
 20
11.9695867474
 30
0.0
 10
-2.3965863843
 20
11.968006933
 30
0.0
 10
-2.3963233715
 20
11.9645064107
 30
0.0
 10
-2.3957574011
 20
11.9588713455
 30
0.0
 10
-2.3949926486
 20
11.9526227434
 30
0.0
 10
-2.3943884751
 20
11.9482973211
 30
0.0
 10
-2.3940627145
 20
11.9461076867
 30
0.0
  0
SPLINE
  5
3B8
100
AcDbEntity
  8
0
100
AcDbSpline
 62
9
  6
CONTINUOUS
 70
0
 71
3
 72
11
 73
7
 74
0
 42
0.0000001
 43
0.0000001
 44
0.0000000001
 40
0.0
 40
0.0
 40
0.0
 40
0.0
 40
0.2125559928
 40
0.4635797618
 40
0.7329198073
 40
1.0
 40
1.0
 40
1.0
 40
1.0
 10
-2.4973637599
 20
11.9695867285
 30
0.0
 10
-2.4974514481
 20
11.967914778
 30
0.0
 10
-2.4977298895
 20
11.9642730145
 30
0.0
 10
-2.4983141619
 20
11.9585293041
 30
0.0
 10
-2.4990737687
 20
11.9523730814
 30
0.0
 10
-2.4996606583
 20
11.9481885985
 30
0.0
 10
-2.4999702267
 20
11.9461077786
 30
0.0
  0
SPLINE
  5
3B9
100
AcDbEntity
  8
0
100
AcDbSpline
 62
9
  6
CONTINUOUS
 70
0
 71
3
 72
11
 73
7
 74
0
 42
0.0000001
 43
0.0000001
 44
0.0000000001
 40
0.0
 40
0.0
 40
0.0
 40
0.0
 40
0.234009342
 40
0.4794808384
 40
0.7349609691
 40
1.0
 40
1.0
 40
1.0
 40
1.0
 10
-2.5686328732
 20
11.9360605131
 30
0.0
 10
-2.5633933975
 20
11.9374473834
 30
0.0
 10
-2.5525422377
 20
11.9398589784
 30
0.0
 10
-2.5357314708
 20
11.9425741194
 30
0.0
 10
-2.5181072505
 20
11.944644861
 30
0.0
 10
-2.5060925891
 20
11.9456603253
 30
0.0
 10
-2.4999703175
 20
11.946107772
 30
0.0
  0
SPLINE
  5
3BA
100
AcDbEntity
  8
0
100
AcDbSpline
 62
9
  6
CONTINUOUS
 70
0
 71
3
 72
10
 73
6
 74
0
 42
0.0000001
 43
0.0000001
 44
0.0000000001
 40
0.0
 40
0.0
 40
0.0
 40
0.0
 40
0.2492887493
 40
0.624112509
 40
1.0
 40
1.0
 40
1.0
 40
1.0
 10
-2.6101176834
 20
11.914027825
 30
0.0
 10
-2.6067576931
 20
11.9160169101
 30
0.0
 10
-2.598292372
 20
11.9209070646
 30
0.0
 10
-2.5845155936
 20
11.9283656452
 30
0.0
 10
-2.5739655427
 20
11.9335659808
 30
0.0
 10
-2.5686326009
 20
11.936060521
 30
0.0
  0
SPLINE
  5
3BB
100
AcDbEntity
  8
0
100
AcDbSpline
 62
9
  6
CONTINUOUS
 70
0
 71
3
 72
11
 73
7
 74
0
 42
0.0000001
 43
0.0000001
 44
0.0000000001
 40
0.0
 40
0.0
 40
0.0
 40
0.0
 40
0.2340983269
 40
0.4825365858
 40
0.740420455
 40
1.0
 40
1.0
 40
1.0
 40
1.0
 10
-2.6191478422
 20
11.901102527
 30
0.0
 10
-2.6189495609
 20
11.9023517527
 30
0.0
 10
-2.6182123285
 20
11.9048808985
 30
0.0
 10
-2.6162709455
 20
11.9084141271
 30
0.0
 10
-2.613520301
 20
11.9115440672
 30
0.0
 10
-2.6113004443
 20
11.913274088
 30
0.0
 10
-2.6101176588
 20
11.9140278404
 30
0.0
  0
SPLINE
  5
3BC
100
AcDbEntity
  8
0
100
AcDbSpline
 62
9
  6
CONTINUOUS
 70
0
 71
3
 72
12
 73
8
 74
0
 42
0.0000001
 43
0.0000001
 44
0.0000000001
 40
0.0
 40
0.0
 40
0.0
 40
0.0
 40
0.0888362055
 40
0.1913805647
 40
0.4318336116
 40
0.7080627308
 40
1.0
 40
1.0
 40
1.0
 40
1.0
 10
-2.6101176588
 20
11.9140278404
 30
0.0
 10
-2.6100018664
 20
11.9136206209
 30
0.0
 10
-2.6097228318
 20
11.9127517258
 30
0.0
 10
-2.6090051605
 20
11.9108224857
 30
0.0
 10
-2.6078213562
 20
11.9081167487
 30
0.0
 10
-2.6060887095
 20
11.9046733609
 30
0.0
 10
-2.6047737649
 20
11.9023054401
 30
0.0
 10
-2.6040747158
 20
11.9011025415
 30
0.0
  0
LINE
  5
3BD
100
AcDbEntity
  8
0
100
AcDbLine
 62
7
  6
CONTINUOUS
 10
-2.6189830466
 20
11.9010981775
 11
-2.6041136293
 21
11.9011068896
  0
LINE
  5
3BE
100
AcDbEntity
  8
0
100
AcDbLine
 62
7
  6
CONTINUOUS
 10
-2.6524318421
 20
10.3631604262
 11
-2.6189830466
 21
11.9010981775
  0
SPLINE
  5
3BF
100
AcDbEntity
  8
0
100
AcDbSpline
 62
9
  6
CONTINUOUS
 70
0
 71
3
 72
14
 73
10
 74
0
 42
0.0000001
 43
0.0000001
 44
0.0000000001
 40
0.0
 40
0.0
 40
0.0
 40
0.0
 40
0.0609386761
 40
0.1370062411
 40
0.2300782362
 40
0.341937606
 40
0.4741386452
 40
0.6274867257
 40
1.0
 40
1.0
 40
1.0
 40
1.0
 10
-2.6335839315
 20
11.9461077541
 30
0.0
 10
-2.6333274333
 20
11.9458510923
 30
0.0
 10
-2.6327199177
 20
11.945304996
 30
0.0
 10
-2.6316453479
 20
11.9444544874
 30
0.0
 10
-2.6302899165
 20
11.943472779
 30
0.0
 10
-2.6286296956
 20
11.942343941
 30
0.0
 10
-2.6266457683
 20
11.9410539226
 30
0.0
 10
-2.6233422769
 20
11.9389465734
 30
0.0
 10
-2.62070052
 20
11.9372654801
 30
0.0
 10
-2.6188382246
 20
11.9360605122
 30
0.0
  0
LINE
  5
3C0
100
AcDbEntity
  8
0
100
AcDbLine
 62
9
  6
CONTINUOUS
 10
-2.6188381917
 20
11.936060521
 11
-2.6101176834
 21
11.914027825
  0
SPLINE
  5
3C1
100
AcDbEntity
  8
0
100
AcDbSpline
 62
9
  6
CONTINUOUS
 70
0
 71
3
 72
11
 73
7
 74
0
 42
0.0000001
 43
0.0000001
 44
0.0000000001
 40
0.0
 40
0.0
 40
0.0
 40
0.0
 40
0.2289565052
 40
0.4746196957
 40
0.7335984369
 40
1.0
 40
1.0
 40
1.0
 40
1.0
 10
-2.6177990976
 20
11.9752293693
 30
0.0
 10
-2.6169645039
 20
11.9739630136
 30
0.0
 10
-2.6154357763
 20
11.9712008008
 30
0.0
 10
-2.6137108672
 20
11.9666398581
 30
0.0
 10
-2.6126215021
 20
11.9616323428
 30
0.0
 10
-2.6123639706
 20
11.958147599
 30
0.0
 10
-2.6123639699
 20
11.9563829151
 30
0.0
  0
SPLINE
  5
3C2
100
AcDbEntity
  8
0
100
AcDbSpline
 62
9
  6
CONTINUOUS
 70
0
 71
3
 72
11
 73
7
 74
0
 42
0.0000001
 43
0.0000001
 44
0.0000000001
 40
0.0
 40
0.0
 40
0.0
 40
0.0
 40
0.2671539203
 40
0.5270805485
 40
0.7726723253
 40
1.0
 40
1.0
 40
1.0
 40
1.0
 10
-2.6123639897
 20
11.9563829151
 30
0.0
 10
-2.6123639887
 20
11.9544530432
 30
0.0
 10
-2.6126739735
 20
11.9506397788
 30
0.0
 10
-2.6139750724
 20
11.9451885073
 30
0.0
 10
-2.6160346341
 20
11.9402871965
 30
0.0
 10
-2.617851531
 20
11.9373732462
 30
0.0
 10
-2.6188382305
 20
11.9360605542
 30
0.0
  0
SPLINE
  5
3C3
100
AcDbEntity
  8
0
100
AcDbSpline
 62
9
  6
CONTINUOUS
 70
0
 71
3
 72
11
 73
7
 74
0
 42
0.0000001
 43
0.0000001
 44
0.0000000001
 40
0.0
 40
0.0
 40
0.0
 40
0.0
 40
0.220553033
 40
0.4645124585
 40
0.7270945635
 40
1.0
 40
1.0
 40
1.0
 40
1.0
 10
-2.5678970222
 20
11.9752293461
 30
0.0
 10
-2.5672949323
 20
11.9739386024
 30
0.0
 10
-2.5662036524
 20
11.9711357516
 30
0.0
 10
-2.5649935435
 20
11.9665897578
 30
0.0
 10
-2.5642303776
 20
11.9616055506
 30
0.0
 10
-2.5640501778
 20
11.9581452564
 30
0.0
 10
-2.5640501892
 20
11.9563829151
 30
0.0
  0
SPLINE
  5
3C4
100
AcDbEntity
  8
0
100
AcDbSpline
 62
9
  6
CONTINUOUS
 70
0
 71
3
 72
11
 73
7
 74
0
 42
0.0000001
 43
0.0000001
 44
0.0000000001
 40
0.0
 40
0.0
 40
0.0
 40
0.0
 40
0.2750111846
 40
0.539294801
 40
0.7827909094
 40
1.0
 40
1.0
 40
1.0
 40
1.0
 10
-2.5640501892
 20
11.9563829151
 30
0.0
 10
-2.5640502016
 20
11.9544561251
 30
0.0
 10
-2.5642667095
 20
11.9506748498
 30
0.0
 10
-2.5651762472
 20
11.9452543693
 30
0.0
 10
-2.5666185547
 20
11.9403713653
 30
0.0
 10
-2.5679179774
 20
11.9374041091
 30
0.0
 10
-2.5686327622
 20
11.9360606043
 30
0.0
  0
SPLINE
  5
3C5
100
AcDbEntity
  8
0
100
AcDbSpline
 62
9
  6
CONTINUOUS
 70
0
 71
3
 72
11
 73
7
 74
0
 42
0.0000001
 43
0.0000001
 44
0.0000000001
 40
0.0
 40
0.0
 40
0.0
 40
0.0
 40
0.2205531053
 40
0.464512566
 40
0.7270946492
 40
1.0
 40
1.0
 40
1.0
 40
1.0
 10
-2.3261362001
 20
11.9752293812
 30
0.0
 10
-2.3267382961
 20
11.9739386359
 30
0.0
 10
-2.3278295881
 20
11.971135781
 30
0.0
 10
-2.3290397142
 20
11.966589779
 30
0.0
 10
-2.3298028964
 20
11.9616055619
 30
0.0
 10
-2.3299831062
 20
11.9581452603
 30
0.0
 10
-2.3299830995
 20
11.9563829151
 30
0.0
  0
SPLINE
  5
3C6
100
AcDbEntity
  8
0
100
AcDbSpline
 62
9
  6
CONTINUOUS
 70
0
 71
3
 72
11
 73
7
 74
0
 42
0.0000001
 43
0.0000001
 44
0.0000000001
 40
0.0
 40
0.0
 40
0.0
 40
0.0
 40
0.2750114054
 40
0.5392951033
 40
0.7827911297
 40
1.0
 40
1.0
 40
1.0
 40
1.0
 10
-2.3299831763
 20
11.9563829151
 30
0.0
 10
-2.3299831682
 20
11.9544561172
 30
0.0
 10
-2.3297666676
 20
11.9506748268
 30
0.0
 10
-2.3288571372
 20
11.9452543249
 30
0.0
 10
-2.3274148338
 20
11.9403713036
 30
0.0
 10
-2.3261154123
 20
11.9374040375
 30
0.0
 10
-2.3254006277
 20
11.9360605286
 30
0.0
  0
SPLINE
  5
3C7
100
AcDbEntity
  8
0
100
AcDbSpline
 62
9
  6
CONTINUOUS
 70
0
 71
3
 72
11
 73
7
 74
0
 42
0.0000001
 43
0.0000001
 44
0.0000000001
 40
0.0
 40
0.0
 40
0.0
 40
0.0
 40
0.2651377714
 40
0.5206517678
 40
0.76603115
 40
1.0
 40
1.0
 40
1.0
 40
1.0
 10
-2.3940625736
 20
11.9461077575
 30
0.0
 10
-2.3879380513
 20
11.9456602931
 30
0.0
 10
-2.375920427
 20
11.9446442677
 30
0.0
 10
-2.3582954454
 20
11.9425731059
 30
0.0
 10
-2.3414869541
 20
11.9398588879
 30
0.0
 10
-2.3306389925
 20
11.9374473324
 30
0.0
 10
-2.3254005281
 20
11.9360604477
 30
0.0
  0
SPLINE
  5
3C8
100
AcDbEntity
  8
0
100
AcDbSpline
 62
9
  6
CONTINUOUS
 70
0
 71
3
 72
9
 73
5
 74
0
 42
0.0000001
 43
0.0000001
 44
0.0000000001
 40
0.0
 40
0.0
 40
0.0
 40
0.0
 40
0.5009488968
 40
1.0
 40
1.0
 40
1.0
 40
1.0
 10
-2.3254006064
 20
11.936060521
 30
0.0
 10
-2.3182920211
 20
11.9327397082
 30
0.0
 10
-2.3042889884
 20
11.9257052415
 30
0.0
 10
-2.2906407905
 20
11.9180106048
 30
0.0
 10
-2.2839153384
 20
11.914027825
 30
0.0
  0
SPLINE
  5
3C9
100
AcDbEntity
  8
0
100
AcDbSpline
 62
9
  6
CONTINUOUS
 70
0
 71
3
 72
11
 73
7
 74
0
 42
0.0000001
 43
0.0000001
 44
0.0000000001
 40
0.0
 40
0.0
 40
0.0
 40
0.0
 40
0.2289565223
 40
0.474619714
 40
0.7335984466
 40
1.0
 40
1.0
 40
1.0
 40
1.0
 10
-2.2762339329
 20
11.9752293773
 30
0.0
 10
-2.277068531
 20
11.9739630222
 30
0.0
 10
-2.2785972681
 20
11.9712008102
 30
0.0
 10
-2.2803221919
 20
11.9666398667
 30
0.0
 10
-2.2814115717
 20
11.9616323484
 30
0.0
 10
-2.2816691118
 20
11.958147601
 30
0.0
 10
-2.2816691164
 20
11.9563829151
 30
0.0
  0
SPLINE
  5
3CA
100
AcDbEntity
  8
0
100
AcDbSpline
 62
9
  6
CONTINUOUS
 70
0
 71
3
 72
11
 73
7
 74
0
 42
0.0000001
 43
0.0000001
 44
0.0000000001
 40
0.0
 40
0.0
 40
0.0
 40
0.0
 40
0.2273277849
 40
0.4729195891
 40
0.7328461748
 40
1.0
 40
1.0
 40
1.0
 40
1.0
 10
-2.2751949002
 20
11.9360605369
 30
0.0
 10
-2.2761816002
 20
11.9373732306
 30
0.0
 10
-2.2779984965
 20
11.9402871847
 30
0.0
 10
-2.2800580537
 20
11.9451885011
 30
0.0
 10
-2.2813591441
 20
11.9506397769
 30
0.0
 10
-2.2816691215
 20
11.9544530429
 30
0.0
 10
-2.2816691164
 20
11.9563829151
 30
0.0
  0
SPLINE
  5
3CB
100
AcDbEntity
  8
0
100
AcDbSpline
 62
9
  6
CONTINUOUS
 70
0
 71
3
 72
12
 73
8
 74
0
 42
0.0000001
 43
0.0000001
 44
0.0000000001
 40
0.0
 40
0.0
 40
0.0
 40
0.0
 40
0.2593104841
 40
0.3888641094
 40
0.5168670443
 40
0.7650556024
 40
1.0
 40
1.0
 40
1.0
 40
1.0
 10
-2.2495562582
 20
11.9695867606
 30
0.0
 10
-2.2513344403
 20
11.9681134911
 30
0.0
 10
-2.2537460853
 20
11.9655730327
 30
0.0
 10
-2.2563249401
 20
11.9617532469
 30
0.0
 10
-2.2584157938
 20
11.9577530765
 30
0.0
 10
-2.2600725143
 20
11.9525191675
 30
0.0
 10
-2.2604807193
 20
11.9481998346
 30
0.0
 10
-2.2604491183
 20
11.9461078472
 30
0.0
  0
SPLINE
  5
3CC
100
AcDbEntity
  8
0
100
AcDbSpline
 62
9
  6
CONTINUOUS
 70
0
 71
3
 72
14
 73
10
 74
0
 42
0.0000001
 43
0.0000001
 44
0.0000000001
 40
0.0
 40
0.0
 40
0.0
 40
0.0
 40
0.372534425
 40
0.5259078109
 40
0.6581249346
 40
0.7699808584
 40
0.8630352615
 40
0.9390802276
 40
1.0
 40
1.0
 40
1.0
 40
1.0
 10
-2.2751948794
 20
11.9360604754
 30
0.0
 10
-2.2733325679
 20
11.9372656729
 30
0.0
 10
-2.2706906159
 20
11.938947009
 30
0.0
 10
-2.2673867562
 20
11.941054513
 30
0.0
 10
-2.2654025905
 20
11.9423446035
 30
0.0
 10
-2.263742381
 20
11.9434734267
 30
0.0
 10
-2.2623871737
 20
11.9444550175
 30
0.0
 10
-2.2613128985
 20
11.9453053443
 30
0.0
 10
-2.2607055659
 20
11.9458512771
 30
0.0
 10
-2.2604491253
 20
11.9461078402
 30
0.0
  0
LINE
  5
3CD
100
AcDbEntity
  8
0
100
AcDbLine
 62
9
  6
CONTINUOUS
 10
-2.2839153384
 20
11.914027825
 11
-2.2751948412
 21
11.936060521
  0
LINE
  5
3CE
100
AcDbEntity
  8
0
100
AcDbLine
 62
7
  6
CONTINUOUS
 10
-2.241914517
 20
10.3631518931
 11
-2.2747208099
 21
11.9011068896
  0
LINE
  5
3CF
100
AcDbEntity
  8
0
100
AcDbLine
 62
9
  6
CONTINUOUS
 10
-2.2583684086
 20
11.9423215248
 11
-2.2604491245
 21
11.9461077573
  0
SPLINE
  5
3D0
100
AcDbEntity
  8
0
100
AcDbSpline
 62
9
  6
CONTINUOUS
 70
0
 71
3
 72
12
 73
8
 74
0
 42
0.0000001
 43
0.0000001
 44
0.0000000001
 40
0.0
 40
0.0
 40
0.0
 40
0.0
 40
0.112384639
 40
0.2274570667
 40
0.468000502
 40
0.7249961633
 40
1.0
 40
1.0
 40
1.0
 40
1.0
 10
-2.6201235243
 20
10.1191877082
 30
0.0
 10
-2.6219884886
 20
10.1197584446
 30
0.0
 10
-2.6257080251
 20
10.1211026248
 30
0.0
 10
-2.6330541438
 20
10.1245903894
 30
0.0
 10
-2.6419638373
 20
10.130507428
 30
0.0
 10
-2.6517497686
 20
10.1397512273
 30
0.0
 10
-2.6574146913
 20
10.1470946376
 30
0.0
 10
-2.6600540266
 20
10.1510708546
 30
0.0
  0
SPLINE
  5
3D1
100
AcDbEntity
  8
0
100
AcDbSpline
 62
9
  6
CONTINUOUS
 70
0
 71
3
 72
14
 73
10
 74
0
 42
0.0000001
 43
0.0000001
 44
0.0000000001
 40
0.0
 40
0.0
 40
0.0
 40
0.0
 40
0.1187637819
 40
0.2381485018
 40
0.3586643955
 40
0.4809655263
 40
0.605758859
 40
0.7336950909
 40
1.0
 40
1.0
 40
1.0
 40
1.0
 10
-2.6035022937
 20
10.1166708734
 30
0.0
 10
-2.6065753391
 20
10.1166708734
 30
0.0
 10
-2.6127435565
 20
10.117031959
 30
0.0
 10
-2.6219011029
 20
10.1186592352
 30
0.0
 10
-2.6308920242
 20
10.1213822405
 30
0.0
 10
-2.639628993
 20
10.1251964468
 30
0.0
 10
-2.6480324545
 20
10.1300949048
 30
0.0
 10
-2.6588086246
 20
10.1381446114
 30
0.0
 10
-2.6659137392
 20
10.1456132919
 30
0.0
 10
-2.6701204866
 20
10.1510708734
 30
0.0
  0
SPLINE
  5
3D2
100
AcDbEntity
  8
0
100
AcDbSpline
 62
9
  6
CONTINUOUS
 70
0
 71
3
 72
11
 73
7
 74
0
 42
0.0000001
 43
0.0000001
 44
0.0000000001
 40
0.0
 40
0.0
 40
0.0
 40
0.0
 40
0.204437656
 40
0.4401307548
 40
0.7075837102
 40
1.0
 40
1.0
 40
1.0
 40
1.0
 10
-2.6701204877
 20
10.1510708748
 30
0.0
 10
-2.6695005739
 20
10.1507422781
 30
0.0
 10
-2.6680476344
 20
10.1502539086
 30
0.0
 10
-2.6656129141
 20
10.1500376365
 30
0.0
 10
-2.662883832
 20
10.1503124849
 30
0.0
 10
-2.6610124471
 20
10.1507735263
 30
0.0
 10
-2.6600539536
 20
10.1510708748
 30
0.0
  0
SPLINE
  5
3D3
100
AcDbEntity
  8
0
100
AcDbSpline
 62
9
  6
CONTINUOUS
 70
0
 71
3
 72
9
 73
5
 74
0
 42
0.0000001
 43
0.0000001
 44
0.0000000001
 40
0.0
 40
0.0
 40
0.0
 40
0.0
 40
0.5266774762
 40
1.0
 40
1.0
 40
1.0
 40
1.0
 10
-2.6701204866
 20
10.1510708734
 30
0.0
 10
-2.671605935
 20
10.1532606387
 30
0.0
 10
-2.6748343858
 20
10.1571637076
 30
0.0
 10
-2.6788561926
 20
10.1602622821
 30
0.0
 10
-2.6809100967
 20
10.1614607666
 30
0.0
  0
SPLINE
  5
3D4
100
AcDbEntity
  8
0
100
AcDbSpline
 62
9
  6
CONTINUOUS
 70
0
 71
3
 72
9
 73
5
 74
0
 42
0.0000001
 43
0.0000001
 44
0.0000000001
 40
0.0
 40
0.0
 40
0.0
 40
0.0
 40
0.5064573339
 40
1.0
 40
1.0
 40
1.0
 40
1.0
 10
-2.6600539247
 20
10.1510708868
 30
0.0
 10
-2.6622973527
 20
10.1533344789
 30
0.0
 10
-2.6672101239
 20
10.157348281
 30
0.0
 10
-2.6728221686
 20
10.16029392
 30
0.0
 10
-2.6757003406
 20
10.1614607751
 30
0.0
  0
SPLINE
  5
3D5
100
AcDbEntity
  8
0
100
AcDbSpline
 62
9
  6
CONTINUOUS
 70
0
 71
3
 72
13
 73
9
 74
0
 42
0.0000001
 43
0.0000001
 44
0.0000000001
 40
0.0
 40
0.0
 40
0.0
 40
0.0
 40
0.0807467779
 40
0.1775973431
 40
0.2893642939
 40
0.4143762359
 40
0.6956547954
 40
1.0
 40
1.0
 40
1.0
 40
1.0
 10
-2.6757003637
 20
10.1614607666
 30
0.0
 10
-2.6759881891
 20
10.1618816561
 30
0.0
 10
-2.6765265389
 20
10.162871673
 30
0.0
 10
-2.6772018172
 20
10.1645720634
 30
0.0
 10
-2.6778015503
 20
10.1665942643
 30
0.0
 10
-2.6785071086
 20
10.1697907118
 30
0.0
 10
-2.6790836154
 20
10.1742495444
 30
0.0
 10
-2.6792374958
 20
10.1779490176
 30
0.0
 10
-2.6792374958
 20
10.1798708734
 30
0.0
  0
SPLINE
  5
3D6
100
AcDbEntity
  8
0
100
AcDbSpline
 62
9
  6
CONTINUOUS
 70
0
 71
3
 72
9
 73
5
 74
0
 42
0.0000001
 43
0.0000001
 44
0.0000000001
 40
0.0
 40
0.0
 40
0.0
 40
0.0
 40
0.5118982157
 40
1.0
 40
1.0
 40
1.0
 40
1.0
 10
-2.6757003636
 20
10.1614607665
 30
0.0
 10
-2.6765739181
 20
10.1612573169
 30
0.0
 10
-2.678328163
 20
10.1610362701
 30
0.0
 10
-2.6800916595
 20
10.1612425318
 30
0.0
 10
-2.6809180249
 20
10.1614628766
 30
0.0
  0
SPLINE
  5
3D7
100
AcDbEntity
  8
0
100
AcDbSpline
 62
9
  6
CONTINUOUS
 70
0
 71
3
 72
14
 73
10
 74
0
 42
0.0000001
 43
0.0000001
 44
0.0000000001
 40
0.0
 40
0.0
 40
0.0
 40
0.0
 40
0.1217319062
 40
0.245488062
 40
0.3700366602
 40
0.4949679751
 40
0.6206073312
 40
0.7471364933
 40
1.0
 40
1.0
 40
1.0
 40
1.0
 10
-2.6809181586
 20
10.1614629472
 30
0.0
 10
-2.6817694072
 20
10.1618454003
 30
0.0
 10
-2.6834301809
 20
10.1627471183
 30
0.0
 10
-2.6857131404
 20
10.1644463605
 30
0.0
 10
-2.6877433886
 20
10.1664779078
 30
0.0
 10
-2.689456053
 20
10.1688006069
 30
0.0
 10
-2.690826012
 20
10.171358374
 30
0.0
 10
-2.6921581906
 20
10.1750021296
 30
0.0
 10
-2.6925806548
 20
10.1779324041
 30
0.0
 10
-2.6925708291
 20
10.1798708734
 30
0.0
  0
SPLINE
  5
3D8
100
AcDbEntity
  8
0
100
AcDbSpline
 62
9
  6
CONTINUOUS
 70
0
 71
3
 72
12
 73
8
 74
0
 42
0.0000001
 43
0.0000001
 44
0.0000000001
 40
0.0
 40
0.0
 40
0.0
 40
0.0
 40
0.1787839762
 40
0.2903216625
 40
0.4149540964
 40
0.6956793906
 40
1.0
 40
1.0
 40
1.0
 40
1.0
 10
-2.2183856653
 20
10.1614732292
 30
0.0
 10
-2.2177461822
 20
10.1624042025
 30
0.0
 10
-2.2169489989
 20
10.1640852208
 30
0.0
 10
-2.2162188381
 20
10.1666030326
 30
0.0
 10
-2.2155295868
 20
10.169797643
 30
0.0
 10
-2.2149479187
 20
10.1742504398
 30
0.0
 10
-2.214795526
 20
10.1779483636
 30
0.0
 10
-2.214795526
 20
10.1798708734
 30
0.0
  0
SPLINE
  5
3D9
100
AcDbEntity
  8
0
100
AcDbSpline
 62
9
  6
CONTINUOUS
 70
0
 71
3
 72
13
 73
9
 74
0
 42
0.0000001
 43
0.0000001
 44
0.0000000001
 40
0.0
 40
0.0
 40
0.0
 40
0.0
 40
0.2453012745
 40
0.3696767969
 40
0.4946793598
 40
0.6204248172
 40
0.7469769582
 40
1.0
 40
1.0
 40
1.0
 40
1.0
 10
-2.213122925
 20
10.1614607666
 30
0.0
 10
-2.2114044405
 20
10.1622230387
 30
0.0
 10
-2.2089739339
 20
10.1637826545
 30
0.0
 10
-2.2062943494
 20
10.1664771606
 30
0.0
 10
-2.2045800991
 20
10.1687985098
 30
0.0
 10
-2.2032069376
 20
10.1713551611
 30
0.0
 10
-2.2018782053
 20
10.1750022675
 30
0.0
 10
-2.2014621926
 20
10.1779317351
 30
0.0
 10
-2.2014621926
 20
10.1798708734
 30
0.0
  0
SPLINE
  5
3DA
100
AcDbEntity
  8
0
100
AcDbSpline
 62
9
  6
CONTINUOUS
 70
0
 71
3
 72
10
 73
6
 74
0
 42
0.0000001
 43
0.0000001
 44
0.0000000001
 40
0.0
 40
0.0
 40
0.0
 40
0.0
 40
0.5247880664
 40
0.7715660052
 40
1.0
 40
1.0
 40
1.0
 40
1.0
 10
-2.2147955283
 20
10.2201854601
 30
0.0
 10
-2.2147955283
 20
10.2223129807
 30
0.0
 10
-2.2149361337
 20
10.2254444742
 30
0.0
 10
-2.2154309074
 20
10.2294695377
 30
0.0
 10
-2.2157762429
 20
10.2313665522
 30
0.0
 10
-2.215975353
 20
10.2322709788
 30
0.0
  0
SPLINE
  5
3DB
100
AcDbEntity
  8
0
100
AcDbSpline
 62
9
  6
CONTINUOUS
 70
0
 71
3
 72
9
 73
5
 74
0
 42
0.0000001
 43
0.0000001
 44
0.0000000001
 40
0.0
 40
0.0
 40
0.0
 40
0.0
 40
0.5274765341
 40
1.0
 40
1.0
 40
1.0
 40
1.0
 10
-2.2159753481
 20
10.2322709641
 30
0.0
 10
-2.2149296752
 20
10.2325698919
 30
0.0
 10
-2.2129148998
 20
10.2330296124
 30
0.0
 10
-2.2108526918
 20
10.2332257972
 30
0.0
 10
-2.2098784338
 20
10.2332257984
 30
0.0
  0
SPLINE
  5
3DC
100
AcDbEntity
  8
0
100
AcDbSpline
 62
9
  6
CONTINUOUS
 70
0
 71
3
 72
9
 73
5
 74
0
 42
0.0000001
 43
0.0000001
 44
0.0000000001
 40
0.0
 40
0.0
 40
0.0
 40
0.0
 40
0.5480999433
 40
1.0
 40
1.0
 40
1.0
 40
1.0
 10
-2.2098784276
 20
10.2332257882
 30
0.0
 10
-2.2090269959
 20
10.2332257892
 30
0.0
 10
-2.2074685156
 20
10.233096729
 30
0.0
 10
-2.2059695193
 20
10.2326042714
 30
0.0
 10
-2.2053516985
 20
10.2322709686
 30
0.0
  0
SPLINE
  5
3DD
100
AcDbEntity
  8
0
100
AcDbSpline
 62
9
  6
CONTINUOUS
 70
0
 71
3
 72
9
 73
5
 74
0
 42
0.0000001
 43
0.0000001
 44
0.0000000001
 40
0.0
 40
0.0
 40
0.0
 40
0.0
 40
0.4979498271
 40
1.0
 40
1.0
 40
1.0
 40
1.0
 10
-2.2053516877
 20
10.2322709824
 30
0.0
 10
-2.204098556
 20
10.2305443414
 30
0.0
 10
-2.2021298294
 20
10.2266476108
 30
0.0
 10
-2.2014621925
 20
10.2223364825
 30
0.0
 10
-2.2014621925
 20
10.2201854601
 30
0.0
  0
SPLINE
  5
3DE
100
AcDbEntity
  8
0
100
AcDbSpline
 62
9
  6
CONTINUOUS
 70
0
 71
3
 72
13
 73
9
 74
0
 42
0.0000001
 43
0.0000001
 44
0.0000000001
 40
0.0
 40
0.0
 40
0.0
 40
0.0
 40
0.2380591351
 40
0.4853623245
 40
0.6120620393
 40
0.7403682702
 40
0.8698942577
 40
1.0
 40
1.0
 40
1.0
 40
1.0
 10
-2.2159753696
 20
10.2322710489
 30
0.0
 10
-2.2219736249
 20
10.2414850651
 30
0.0
 10
-2.2329026455
 20
10.2611478291
 30
0.0
 10
-2.2431829369
 20
10.2875782204
 30
0.0
 10
-2.2493374043
 20
10.3099614979
 30
0.0
 10
-2.2528509511
 20
10.3273851077
 30
0.0
 10
-2.2551500169
 20
10.345167309
 30
0.0
 10
-2.2558533444
 20
10.3571491307
 30
0.0
 10
-2.2559926749
 20
10.3631562596
 30
0.0
  0
LINE
  5
3DF
100
AcDbEntity
  8
0
100
AcDbLine
 62
9
  6
CONTINUOUS
 10
-2.2559911553
 20
10.3631562827
 11
-2.2417518748
 21
10.3631563042
  0
LINE
  5
3E0
100
AcDbEntity
  8
0
100
AcDbLine
 62
7
  6
CONTINUOUS
 10
-2.2899926487
 20
11.9010981774
 11
-2.2747208099
 21
11.9011068896
  0
LINE
  5
3E1
100
AcDbEntity
  8
0
100
AcDbLine
 62
7
  6
CONTINUOUS
 10
-2.2559515466
 20
10.3631604262
 11
-2.2899926487
 21
11.9010981774
  0
SPLINE
  5
3E2
100
AcDbEntity
  8
0
100
AcDbSpline
 62
9
  6
CONTINUOUS
 70
0
 71
3
 72
12
 73
8
 74
0
 42
0.0000001
 43
0.0000001
 44
0.0000000001
 40
0.0
 40
0.0
 40
0.0
 40
0.0
 40
0.2919373857
 40
0.5681665648
 40
0.8086195823
 40
0.9111638869
 40
1.0
 40
1.0
 40
1.0
 40
1.0
 10
-2.2899582884
 20
11.901102527
 30
0.0
 10
-2.2892592382
 20
11.9023054273
 30
0.0
 10
-2.2879442918
 20
11.9046733512
 30
0.0
 10
-2.2862116431
 20
11.9081167431
 30
0.0
 10
-2.2850278381
 20
11.9108224829
 30
0.0
 10
-2.2843101668
 20
11.9127517243
 30
0.0
 10
-2.2840311325
 20
11.9136206198
 30
0.0
 10
-2.2839153404
 20
11.9140278394
 30
0.0
  0
SPLINE
  5
3E3
100
AcDbEntity
  8
0
100
AcDbSpline
 62
9
  6
CONTINUOUS
 70
0
 71
3
 72
11
 73
7
 74
0
 42
0.0000001
 43
0.0000001
 44
0.0000000001
 40
0.0
 40
0.0
 40
0.0
 40
0.0
 40
0.2595795658
 40
0.5174634209
 40
0.7659016818
 40
1.0
 40
1.0
 40
1.0
 40
1.0
 10
-2.2839153404
 20
11.9140278394
 30
0.0
 10
-2.2827325572
 20
11.9132740866
 30
0.0
 10
-2.2805127048
 20
11.9115440665
 30
0.0
 10
-2.2777620664
 20
11.9084141285
 30
0.0
 10
-2.2758206878
 20
11.9048809042
 30
0.0
 10
-2.2750834566
 20
11.9023517618
 30
0.0
 10
-2.2748851758
 20
11.9011025378
 30
0.0
  0
SPLINE
  5
3E4
100
AcDbEntity
  8
0
100
AcDbSpline
 62
9
  6
CONTINUOUS
 70
0
 71
3
 72
11
 73
7
 74
0
 42
0.0000001
 43
0.0000001
 44
0.0000000001
 40
0.0
 40
0.0
 40
0.0
 40
0.0
 40
0.482258561
 40
0.609505384
 40
0.7386142011
 40
1.0
 40
1.0
 40
1.0
 40
1.0
 10
-2.2053518596
 20
10.2322711361
 30
0.0
 10
-2.2166247097
 20
10.2512148899
 30
0.0
 10
-2.2276082362
 20
10.2772966379
 30
0.0
 10
-2.2357322177
 20
10.3100660694
 30
0.0
 10
-2.2399694882
 20
10.3333645
 30
0.0
 10
-2.2415003381
 20
10.3512109079
 30
0.0
 10
-2.2417511357
 20
10.363156261
 30
0.0
  0
SPLINE
  5
3E5
100
AcDbEntity
  8
0
100
AcDbSpline
 62
9
  6
CONTINUOUS
 70
0
 71
3
 72
9
 73
5
 74
0
 42
0.0000001
 43
0.0000001
 44
0.0000000001
 40
0.0
 40
0.0
 40
0.0
 40
0.0
 40
0.5245077779
 40
1.0
 40
1.0
 40
1.0
 40
1.0
 10
-2.2239125143
 20
10.1510708868
 30
0.0
 10
-2.2224332517
 20
10.1532516763
 30
0.0
 10
-2.219206718
 20
10.1571556452
 30
0.0
 10
-2.2151862108
 20
10.1602567762
 30
0.0
 10
-2.2131229019
 20
10.1614607722
 30
0.0
  0
SPLINE
  5
3E6
100
AcDbEntity
  8
0
100
AcDbSpline
 62
9
  6
CONTINUOUS
 70
0
 71
3
 72
11
 73
7
 74
0
 42
0.0000001
 43
0.0000001
 44
0.0000000001
 40
0.0
 40
0.0
 40
0.0
 40
0.0
 40
0.2371919739
 40
0.4816122203
 40
0.73545974
 40
1.0
 40
1.0
 40
1.0
 40
1.0
 10
-2.270768233
 20
10.1191877082
 30
0.0
 10
-2.2663548274
 20
10.120328259
 30
0.0
 10
-2.2575770661
 20
10.1234312308
 30
0.0
 10
-2.2452006922
 20
10.1303909641
 30
0.0
 10
-2.2337259195
 20
10.1396137355
 30
0.0
 10
-2.2270196996
 20
10.1470468435
 30
0.0
 10
-2.2239125744
 20
10.1510708546
 30
0.0
  0
SPLINE
  5
3E7
100
AcDbEntity
  8
0
100
AcDbSpline
 62
9
  6
CONTINUOUS
 70
0
 71
3
 72
9
 73
5
 74
0
 42
0.0000001
 43
0.0000001
 44
0.0000000001
 40
0.0
 40
0.0
 40
0.0
 40
0.0
 40
0.4960521041
 40
1.0
 40
1.0
 40
1.0
 40
1.0
 10
-2.2905307184
 20
10.1166708734
 30
0.0
 10
-2.287781054
 20
10.1166708734
 30
0.0
 10
-2.2822304748
 20
10.1170857295
 30
0.0
 10
-2.2768023172
 20
10.1183132247
 30
0.0
 10
-2.2741285279
 20
10.1191219958
 30
0.0
  0
SPLINE
  5
3E8
100
AcDbEntity
  8
0
100
AcDbSpline
 62
9
  6
CONTINUOUS
 70
0
 71
3
 72
15
 73
11
 74
0
 42
0.0000001
 43
0.0000001
 44
0.0000000001
 40
0.0
 40
0.0
 40
0.0
 40
0.0
 40
0.1127926887
 40
0.2281943586
 40
0.3467634335
 40
0.468962181
 40
0.5951331241
 40
0.7255960261
 40
0.8605391995
 40
1.0
 40
1.0
 40
1.0
 40
1.0
 10
-2.273695485
 20
10.1192548044
 30
0.0
 10
-2.2718330795
 20
10.1198338242
 30
0.0
 10
-2.268121085
 20
10.1211933797
 30
0.0
 10
-2.2627059051
 20
10.1237872613
 30
0.0
 10
-2.2574131161
 20
10.1269528337
 30
0.0
 10
-2.2522721937
 20
10.130685126
 30
0.0
 10
-2.2473148053
 20
10.1349789057
 30
0.0
 10
-2.2425786236
 20
10.1398281629
 30
0.0
 10
-2.2380893588
 20
10.145208227
 30
0.0
 10
-2.2353191015
 20
10.1490660094
 30
0.0
 10
-2.2339790691
 20
10.1510708734
 30
0.0
  0
SPLINE
  5
3E9
100
AcDbEntity
  8
0
100
AcDbSpline
 62
9
  6
CONTINUOUS
 70
0
 71
3
 72
11
 73
7
 74
0
 42
0.0000001
 43
0.0000001
 44
0.0000000001
 40
0.0
 40
0.0
 40
0.0
 40
0.0
 40
0.2924158998
 40
0.5598687737
 40
0.7955620378
 40
1.0
 40
1.0
 40
1.0
 40
1.0
 10
-2.2339790682
 20
10.1510708748
 30
0.0
 10
-2.2330205759
 20
10.1507735267
 30
0.0
 10
-2.2311491927
 20
10.1503124855
 30
0.0
 10
-2.2284201117
 20
10.1500376365
 30
0.0
 10
-2.22598539
 20
10.150253908
 30
0.0
 10
-2.2245324488
 20
10.1507422776
 30
0.0
 10
-2.223912534
 20
10.1510708748
 30
0.0
  0
SPLINE
  5
3EA
100
AcDbEntity
  8
0
100
AcDbSpline
 62
9
  6
CONTINUOUS
 70
0
 71
3
 72
9
 73
5
 74
0
 42
0.0000001
 43
0.0000001
 44
0.0000000001
 40
0.0
 40
0.0
 40
0.0
 40
0.0
 40
0.5086439649
 40
1.0
 40
1.0
 40
1.0
 40
1.0
 10
-2.2339790691
 20
10.1510708734
 30
0.0
 10
-2.2317261773
 20
10.1533444455
 30
0.0
 10
-2.22681064
 20
10.1573558084
 30
0.0
 10
-2.2211980308
 20
10.1602989881
 30
0.0
 10
-2.2183326581
 20
10.1614607666
 30
0.0
  0
SPLINE
  5
3EB
100
AcDbEntity
  8
0
100
AcDbSpline
 62
9
  6
CONTINUOUS
 70
0
 71
3
 72
9
 73
5
 74
0
 42
0.0000001
 43
0.0000001
 44
0.0000000001
 40
0.0
 40
0.0
 40
0.0
 40
0.0
 40
0.5201407057
 40
1.0
 40
1.0
 40
1.0
 40
1.0
 10
-2.2183856697
 20
10.1614732309
 30
0.0
 10
-2.2174911689
 20
10.1612609161
 30
0.0
 10
-2.2157209558
 20
10.1610343436
 30
0.0
 10
-2.2139426398
 20
10.1612430057
 30
0.0
 10
-2.2131229166
 20
10.1614607687
 30
0.0
  0
SPLINE
  5
3EC
100
AcDbEntity
  8
0
100
AcDbSpline
 62
9
  6
CONTINUOUS
 70
0
 71
3
 72
67
 73
63
 74
0
 42
0.0000001
 43
0.0000001
 44
0.0000000001
 40
0.0
 40
0.0
 40
0.0
 40
0.0
 40
0.0000498239
 40
0.00019854
 40
0.0004459196
 40
0.000791734
 40
0.0012357546
 40
0.0017777527
 40
0.0031544274
 40
0.0049171686
 40
0.0070603371
 40
0.0095782256
 40
0.0124638288
 40
0.0157089507
 40
0.0193053567
 40
0.0275158465
 40
0.0370156813
 40
0.0477223226
 40
0.0595519505
 40
0.0724224954
 40
0.0862542141
 40
0.1009713236
 40
0.1327792305
 40
0.1673328146
 40
0.2041947617
 40
0.2429914693
 40
0.2833995512
 40
0.3251318166
 40
0.3679180791
 40
0.4114999707
 40
0.4556157973
 40
0.5000001922
 40
0.5443841817
 40
0.5884999862
 40
0.6320824311
 40
0.6748688086
 40
0.716600684
 40
0.7570096969
 40
0.7958054274
 40
0.8326671093
 40
0.867221258
 40
0.8990286088
 40
0.9137458781
 40
0.9275777011
 40
0.9404481934
 40
0.9522777171
 40
0.9629842964
 40
0.9724841566
 40
0.9806946884
 40
0.9842910756
 40
0.9875361494
 40
0.9904217132
 40
0.9929396031
 40
0.9950827902
 40
0.9968455552
 40
0.9982222527
 40
0.9987642491
 40
0.9992082589
 40
0.9995540605
 40
0.9998014323
 40
0.9999501526
 40
1.0
 40
1.0
 40
1.0
 40
1.0
 10
-2.2020165109
 20
12.3166708734
 30
0.0
 10
-2.2020246623
 20
12.3166731192
 30
0.0
 10
-2.2020541515
 20
12.3166902791
 30
0.0
 10
-2.2021239956
 20
12.3167188982
 30
0.0
 10
-2.2022377859
 20
12.3167731506
 30
0.0
 10
-2.2023980153
 20
12.3168458539
 30
0.0
 10
-2.202603321
 20
12.3169404179
 30
0.0
 10
-2.2029678078
 20
12.3171074504
 30
0.0
 10
-2.2035357056
 20
12.3173678276
 30
0.0
 10
-2.2043509612
 20
12.3177406312
 30
0.0
 10
-2.2053427807
 20
12.3181930181
 30
0.0
 10
-2.206508573
 20
12.3187231477
 30
0.0
 10
-2.2078454201
 20
12.319328865
 30
0.0
 10
-2.2093501039
 20
12.3200076266
 30
0.0
 10
-2.2116804123
 20
12.3210536905
 30
0.0
 10
-2.2149837291
 20
12.3225240094
 30
0.0
 10
-2.2193987422
 20
12.3244638496
 30
0.0
 10
-2.2243880175
 20
12.3266233092
 30
0.0
 10
-2.2299172906
 20
12.3289749375
 30
0.0
 10
-2.2359527339
 20
12.3314910625
 30
0.0
 10
-2.2424619055
 20
12.33414377
 30
0.0
 10
-2.2519808633
 20
12.3379254602
 30
0.0
 10
-2.2648428627
 20
12.3428152119
 30
0.0
 10
-2.2813556519
 20
12.3486662246
 30
0.0
 10
-2.2991464024
 20
12.3544442815
 30
0.0
 10
-2.3180587489
 20
12.35995882
 30
0.0
 10
-2.3379509257
 20
12.3650264507
 30
0.0
 10
-2.3586859877
 20
12.3694694753
 30
0.0
 10
-2.3801212727
 20
12.373130043
 30
0.0
 10
-2.4021038673
 20
12.3758589284
 30
0.0
 10
-2.4244637332
 20
12.3775453402
 30
0.0
 10
-2.4470165106
 20
12.3781178402
 30
0.0
 10
-2.4695693566
 20
12.3775459351
 30
0.0
 10
-2.4919290445
 20
12.375857211
 30
0.0
 10
-2.5139119818
 20
12.3731304504
 30
0.0
 10
-2.5353473222
 20
12.3694696415
 30
0.0
 10
-2.5560822905
 20
12.365025784
 30
0.0
 10
-2.5759747473
 20
12.3599595452
 30
0.0
 10
-2.5948868125
 20
12.3544441604
 30
0.0
 10
-2.6126773038
 20
12.3486657373
 30
0.0
 10
-2.6291903397
 20
12.3428155358
 30
0.0
 10
-2.6420521572
 20
12.3379252184
 30
0.0
 10
-2.651571137
 20
12.3341437224
 30
0.0
 10
-2.6580803712
 20
12.3314910721
 30
0.0
 10
-2.6641158019
 20
12.3289749397
 30
0.0
 10
-2.6696450288
 20
12.3266232976
 30
0.0
 10
-2.6746342754
 20
12.3244638321
 30
0.0
 10
-2.6790492917
 20
12.3225239969
 30
0.0
 10
-2.6823526218
 20
12.3210536875
 30
0.0
 10
-2.6846829228
 20
12.3200076175
 30
0.0
 10
-2.686187586
 20
12.3193288542
 30
0.0
 10
-2.6875244159
 20
12.3187231341
 30
0.0
 10
-2.6886902028
 20
12.3181930005
 30
0.0
 10
-2.6896820323
 20
12.3177406179
 30
0.0
 10
-2.6904973023
 20
12.3173678184
 30
0.0
 10
-2.6910652114
 20
12.3171074496
 30
0.0
 10
-2.6914296983
 20
12.3169404099
 30
0.0
 10
-2.6916350053
 20
12.3168458657
 30
0.0
 10
-2.6917952175
 20
12.3167731208
 30
0.0
 10
-2.6919090337
 20
12.3167189702
 30
0.0
 10
-2.6919788315
 20
12.3166901741
 30
0.0
 10
-2.6920083765
 20
12.3166731948
 30
0.0
 10
-2.6920165109
 20
12.3166708734
 30
0.0
  0
SPLINE
  5
3ED
100
AcDbEntity
  8
0
100
AcDbSpline
 62
7
  6
CONTINUOUS
 70
0
 71
3
 72
17
 73
13
 74
0
 42
0.0000001
 43
0.0000001
 44
0.0000000001
 40
0.0
 40
0.0
 40
0.0
 40
0.0
 40
0.1166048026
 40
0.239949071
 40
0.303838023
 40
0.3687703583
 40
0.5000003041
 40
0.6312302041
 40
0.696162486
 40
0.7600513663
 40
0.8833954404
 40
1.0
 40
1.0
 40
1.0
 40
1.0
 10
18.6259834891
 20
6.6666708734
 30
0.0
 10
18.6259834891
 20
6.6709387483
 30
0.0
 10
18.6251664092
 20
6.67973818
 30
0.0
 10
18.6220897132
 20
6.6905022181
 30
0.0
 10
18.6182359512
 20
6.6989049575
 30
0.0
 10
18.6134240039
 20
6.7071315282
 30
0.0
 10
18.6058468056
 20
6.7165342354
 30
0.0
 10
18.5964440931
 20
6.7241114239
 30
0.0
 10
18.5882175236
 20
6.7289233609
 30
0.0
 10
18.5798147921
 20
6.7327771117
 30
0.0
 10
18.5690507706
 20
6.735853797
 30
0.0
 10
18.560251355
 20
6.7366708734
 30
0.0
 10
18.555983489
 20
6.7366708734
 30
0.0
  0
SPLINE
  5
3EE
100
AcDbEntity
  8
0
100
AcDbSpline
 62
7
  6
CONTINUOUS
 70
0
 71
3
 72
17
 73
13
 74
0
 42
0.0000001
 43
0.0000001
 44
0.0000000001
 40
0.0
 40
0.0
 40
0.0
 40
0.0
 40
0.1166048029
 40
0.2399490714
 40
0.3038380236
 40
0.3687703589
 40
0.5000003048
 40
0.6312302047
 40
0.6961624866
 40
0.7600513668
 40
0.8833954407
 40
1.0
 40
1.0
 40
1.0
 40
1.0
 10
18.9759834891
 20
6.6666708734
 30
0.0
 10
18.9759834891
 20
6.6709387483
 30
0.0
 10
18.976800569
 20
6.67973818
 30
0.0
 10
18.979877265
 20
6.6905022182
 30
0.0
 10
18.9837310271
 20
6.6989049575
 30
0.0
 10
18.9885429744
 20
6.7071315283
 30
0.0
 10
18.9961201727
 20
6.7165342355
 30
0.0
 10
19.0055228852
 20
6.7241114239
 30
0.0
 10
19.0137494547
 20
6.7289233609
 30
0.0
 10
19.0221521862
 20
6.7327771117
 30
0.0
 10
19.0329162077
 20
6.735853797
 30
0.0
 10
19.0417156233
 20
6.7366708734
 30
0.0
 10
19.0459834893
 20
6.7366708734
 30
0.0
  0
SPLINE
  5
3EF
100
AcDbEntity
  8
0
100
AcDbSpline
 62
7
  6
CONTINUOUS
 70
0
 71
3
 72
14
 73
10
 74
0
 42
0.0000001
 43
0.0000001
 44
0.0000000001
 40
0.0
 40
0.0
 40
0.0
 40
0.0
 40
0.244964349
 40
0.3705285546
 40
0.4969622469
 40
0.6236481357
 40
0.7501404123
 40
0.875848439
 40
1.0
 40
1.0
 40
1.0
 40
1.0
 10
18.6000366311
 20
6.387335531
 30
0.0
 10
18.6017175174
 20
6.3861082054
 30
0.0
 10
18.6040642841
 20
6.3839647498
 30
0.0
 10
18.6067188025
 20
6.38067538
 30
0.0
 10
18.6084713313
 20
6.3779690904
 30
0.0
 10
18.6099172891
 20
6.3750786287
 30
0.0
 10
18.6110297321
 20
6.3720509859
 30
0.0
 10
18.6118139669
 20
6.3689455518
 30
0.0
 10
18.6121204904
 20
6.3668404318
 30
0.0
 10
18.6122178791
 20
6.3657901161
 30
0.0
  0
SPLINE
  5
3F0
100
AcDbEntity
  8
0
100
AcDbSpline
 62
7
  6
CONTINUOUS
 70
0
 71
3
 72
11
 73
7
 74
0
 42
0.0000001
 43
0.0000001
 44
0.0000000001
 40
0.0
 40
0.0
 40
0.0
 40
0.0
 40
0.2466751954
 40
0.4999999422
 40
0.7533247204
 40
1.0
 40
1.0
 40
1.0
 40
1.0
 10
19.0019303471
 20
6.387335531
 30
0.0
 10
19.0000104081
 20
6.3859336574
 30
0.0
 10
18.9964638014
 20
6.3825960529
 30
0.0
 10
18.9924178297
 20
6.3764821004
 30
0.0
 10
18.9900467521
 20
6.3695446437
 30
0.0
 10
18.9895693617
 20
6.3646979817
 30
0.0
 10
18.9896315913
 20
6.362321525
 30
0.0
  0
SPLINE
  5
3F1
100
AcDbEntity
  8
0
100
AcDbSpline
 62
9
  6
CONTINUOUS
 70
0
 71
3
 72
46
 73
42
 74
0
 42
0.0000001
 43
0.0000001
 44
0.0000000001
 40
0.0
 40
0.0
 40
0.0
 40
0.0
 40
0.0001946119
 40
0.0007745808
 40
0.0017360837
 40
0.0030753
 40
0.0068715996
 40
0.0121329593
 40
0.0188220176
 40
0.0268740023
 40
0.036217484
 40
0.0467813073
 40
0.0712783124
 40
0.0997621215
 40
0.1316440335
 40
0.1663968876
 40
0.2426236181
 40
0.3252333812
 40
0.411686552
 40
0.4557367971
 40
0.4999985674
 40
0.5442574201
 40
0.5883001524
 40
0.6747323801
 40
0.7573273894
 40
0.7964306974
 40
0.8335738948
 40
0.8683351463
 40
0.9002268289
 40
0.9287183913
 40
0.9532198724
 40
0.9637845365
 40
0.9731281314
 40
0.9811797771
 40
0.9878683197
 40
0.9931292158
 40
0.9969251487
 40
0.9982642175
 40
0.9992255966
 40
0.9998054651
 40
1.0
 40
1.0
 40
1.0
 40
1.0
 10
18.6259834891
 20
6.6666708938
 30
0.0
 10
18.6260036656
 20
6.6666856847
 30
0.0
 10
18.6260818971
 20
6.66674732
 30
0.0
 10
18.6262599583
 20
6.6668818433
 30
0.0
 10
18.6265539937
 20
6.6671069608
 30
0.0
 10
18.6271781411
 20
6.6675810154
 30
0.0
 10
18.6282436527
 20
6.6683878341
 30
0.0
 10
18.6298611479
 20
6.6696048893
 30
0.0
 10
18.6319202172
 20
6.671144962
 30
0.0
 10
18.6344084138
 20
6.6729873762
 30
0.0
 10
18.6373093125
 20
6.6751093724
 30
0.0
 10
18.6419387075
 20
6.6784488288
 30
0.0
 10
18.6486192083
 20
6.6831503676
 30
0.0
 10
18.6576632326
 20
6.6892520451
 30
0.0
 10
18.6679619021
 20
6.6958465922
 30
0.0
 10
18.6837159996
 20
6.7052882466
 30
0.0
 10
18.7057534588
 20
6.7169154884
 30
0.0
 10
18.7350145275
 20
6.7288371707
 30
0.0
 10
18.7616412038
 20
6.7357595636
 30
0.0
 10
18.78393862
 20
6.7386960302
 30
0.0
 10
18.800985947
 20
6.7394670166
 30
0.0
 10
18.8180322853
 20
6.7386962078
 30
0.0
 10
18.8403258228
 20
6.7357601982
 30
0.0
 10
18.8669462143
 20
6.7288396712
 30
0.0
 10
18.8917772941
 20
6.7187221631
 30
0.0
 10
18.9100568068
 20
6.7096117692
 30
0.0
 10
18.9225514932
 20
6.7027105489
 30
0.0
 10
18.9339986008
 20
6.6958507535
 30
0.0
 10
18.9442999954
 20
6.6892546252
 30
0.0
 10
18.9533464457
 20
6.6831514101
 30
0.0
 10
18.9600283121
 20
6.6784489064
 30
0.0
 10
18.9646582652
 20
6.675109029
 30
0.0
 10
18.9675592181
 20
6.6729869733
 30
0.0
 10
18.9700473255
 20
6.6711445988
 30
0.0
 10
18.9721062489
 20
6.6696046139
 30
0.0
 10
18.9737235926
 20
6.668387645
 30
0.0
 10
18.9747890091
 20
6.6675809094
 30
0.0
 10
18.9754130752
 20
6.6671068826
 30
0.0
 10
18.9757070937
 20
6.6668818231
 30
0.0
 10
18.9758850836
 20
6.6667472679
 30
0.0
 10
18.9759633381
 20
6.6666857026
 30
0.0
 10
18.9759834891
 20
6.6666708938
 30
0.0
  0
LINE
  5
3F2
100
AcDbEntity
  8
0
100
AcDbLine
 62
9
  6
CONTINUOUS
 10
18.603523233
 20
6.3895867572
 11
18.6000366759
 21
6.3873354983
  0
LINE
  5
3F3
100
AcDbEntity
  8
0
100
AcDbLine
 62
9
  6
CONTINUOUS
 10
19.0019303471
 20
6.387335531
 11
18.9984437745
 21
6.3895868058
  0
SPLINE
  5
3F4
100
AcDbEntity
  8
0
100
AcDbSpline
 62
9
  6
CONTINUOUS
 70
0
 71
3
 72
17
 73
13
 74
0
 42
0.0000001
 43
0.0000001
 44
0.0000000001
 40
0.0
 40
0.0
 40
0.0
 40
0.0
 40
0.0301488594
 40
0.0642294135
 40
0.1447079789
 40
0.1912370342
 40
0.2419443103
 40
0.356111996
 40
0.488307153
 40
0.6399646306
 40
0.8110256081
 40
1.0
 40
1.0
 40
1.0
 40
1.0
 10
18.9984437322
 20
6.3895867699
 30
0.0
 10
18.9982320497
 20
6.3897665291
 30
0.0
 10
18.997755811
 20
6.3901199799
 30
0.0
 10
18.9966146437
 20
6.3908111853
 30
0.0
 10
18.995264573
 20
6.3914367983
 30
0.0
 10
18.9937397697
 20
6.3920320813
 30
0.0
 10
18.9919009436
 20
6.3926743908
 30
0.0
 10
18.9892718134
 20
6.3934414203
 30
0.0
 10
18.9856824618
 20
6.3942064579
 30
0.0
 10
18.981525164
 20
6.3947596196
 30
0.0
 10
18.9768222751
 20
6.3950998909
 30
0.0
 10
18.9735066582
 20
6.39520173
 30
0.0
 10
18.9717661789
 20
6.3952293847
 30
0.0
  0
SPLINE
  5
3F5
100
AcDbEntity
  8
0
100
AcDbSpline
 62
9
  6
CONTINUOUS
 70
0
 71
3
 72
16
 73
12
 74
0
 42
0.0000001
 43
0.0000001
 44
0.0000000001
 40
0.0
 40
0.0
 40
0.0
 40
0.0
 40
0.1128970075
 40
0.2302571232
 40
0.2904941215
 40
0.3517030449
 40
0.4767324321
 40
0.6046764322
 40
0.7348710882
 40
0.8668049748
 40
1.0
 40
1.0
 40
1.0
 40
1.0
 10
18.9218637514
 20
6.3952293847
 30
0.0
 10
18.9191999997
 20
6.3952010869
 30
0.0
 10
18.9137676281
 20
6.3950865126
 30
0.0
 10
18.9069189283
 20
6.3947905367
 30
0.0
 10
18.9012943966
 20
6.3944478883
 30
0.0
 10
18.8954940395
 20
6.3940225979
 30
0.0
 10
18.8881090838
 20
6.3933699499
 30
0.0
 10
18.8791120207
 20
6.3924776556
 30
0.0
 10
18.869955507
 20
6.3915428773
 30
0.0
 10
18.8606778617
 20
6.3905749043
 30
0.0
 10
18.8544565332
 20
6.3899176959
 30
0.0
 10
18.8513311535
 20
6.3895867653
 30
0.0
  0
SPLINE
  5
3F6
100
AcDbEntity
  8
0
100
AcDbSpline
 62
9
  6
CONTINUOUS
 70
0
 71
3
 72
11
 73
7
 74
0
 42
0.0000001
 43
0.0000001
 44
0.0000000001
 40
0.0
 40
0.0
 40
0.0
 40
0.0
 40
0.2483745251
 40
0.4999745082
 40
0.7515977246
 40
1.0
 40
1.0
 40
1.0
 40
1.0
 10
18.8513311549
 20
6.3895867865
 30
0.0
 10
18.8430231947
 20
6.3887756409
 30
0.0
 10
18.8262472797
 20
6.3876531607
 30
0.0
 10
18.8009854582
 20
6.3871755323
 30
0.0
 10
18.7757227111
 20
6.3876532544
 30
0.0
 10
18.7589450702
 20
6.3887755902
 30
0.0
 10
18.7506361737
 20
6.3895867439
 30
0.0
  0
SPLINE
  5
3F7
100
AcDbEntity
  8
0
100
AcDbSpline
 62
9
  6
CONTINUOUS
 70
0
 71
3
 72
16
 73
12
 74
0
 42
0.0000001
 43
0.0000001
 44
0.0000000001
 40
0.0
 40
0.0
 40
0.0
 40
0.0
 40
0.1331861858
 40
0.265074973
 40
0.3952515088
 40
0.5232074169
 40
0.6482443274
 40
0.709452465
 40
0.7696905191
 40
0.8870672922
 40
1.0
 40
1.0
 40
1.0
 40
1.0
 10
18.750636175
 20
6.3895867227
 30
0.0
 10
18.7475115312
 20
6.3899224565
 30
0.0
 10
18.7412916197
 20
6.3905807999
 30
0.0
 10
18.7320147147
 20
6.3915390399
 30
0.0
 10
18.7228593302
 20
6.3924724926
 30
0.0
 10
18.7138628767
 20
6.3933707811
 30
0.0
 10
18.7064775276
 20
6.3940240546
 30
0.0
 10
18.7006767449
 20
6.3944457646
 30
0.0
 10
18.6950516583
 20
6.3947853601
 30
0.0
 10
18.6882017536
 20
6.3950811483
 30
0.0
 10
18.6827682601
 20
6.3951987431
 30
0.0
 10
18.6801037035
 20
6.3952293847
 30
0.0
  0
SPLINE
  5
3F8
100
AcDbEntity
  8
0
100
AcDbSpline
 62
9
  6
CONTINUOUS
 70
0
 71
3
 72
15
 73
11
 74
0
 42
0.0000001
 43
0.0000001
 44
0.0000000001
 40
0.0
 40
0.0
 40
0.0
 40
0.0
 40
0.189928257
 40
0.3604740622
 40
0.5118118817
 40
0.6442996347
 40
0.7584528165
 40
0.8550614755
 40
0.9351378292
 40
1.0
 40
1.0
 40
1.0
 40
1.0
 10
18.6302005782
 20
6.3952293847
 30
0.0
 10
18.6284517319
 20
6.3952293485
 30
0.0
 10
18.6251316646
 20
6.3951493555
 30
0.0
 10
18.6204311794
 20
6.3947767598
 30
0.0
 10
18.6162851753
 20
6.3941948406
 30
0.0
 10
18.6126953326
 20
6.3934436176
 30
0.0
 10
18.6096552868
 20
6.3925673193
 30
0.0
 10
18.6071487716
 20
6.3916145166
 30
0.0
 10
18.6051480874
 20
6.3906355755
 30
0.0
 10
18.6040112916
 20
6.3899309985
 30
0.0
 10
18.6035232331
 20
6.389586757
 30
0.0
  0
LINE
  5
3F9
100
AcDbEntity
  8
0
100
AcDbLine
 62
9
  6
CONTINUOUS
 10
18.6144160947
 20
6.3661077314
 11
18.6123353869
 21
6.3623215248
  0
SPLINE
  5
3FA
100
AcDbEntity
  8
0
100
AcDbSpline
 62
9
  6
CONTINUOUS
 70
0
 71
3
 72
11
 73
7
 74
0
 42
0.0000001
 43
0.0000001
 44
0.0000000001
 40
0.0
 40
0.0
 40
0.0
 40
0.0
 40
0.2466117657
 40
0.4994036498
 40
0.7525059703
 40
1.0
 40
1.0
 40
1.0
 40
1.0
 10
18.6035232332
 20
6.3895867573
 30
0.0
 10
18.6052136434
 20
6.3881862099
 30
0.0
 10
18.6083242462
 20
6.3849548067
 30
0.0
 10
18.6118723734
 20
6.379207678
 30
0.0
 10
18.6139923983
 20
6.3727858506
 30
0.0
 10
18.6144493812
 20
6.3683105597
 30
0.0
 10
18.6144160977
 20
6.3661077311
 30
0.0
  0
SPLINE
  5
3FB
100
AcDbEntity
  8
0
100
AcDbSpline
 62
9
  6
CONTINUOUS
 70
0
 71
3
 72
13
 73
9
 74
0
 42
0.0000001
 43
0.0000001
 44
0.0000000001
 40
0.0
 40
0.0
 40
0.0
 40
0.0
 40
0.2354283783
 40
0.357546181
 40
0.4822578489
 40
0.7382199785
 40
0.8687407223
 40
1.0
 40
1.0
 40
1.0
 40
1.0
 10
18.55931891
 20
4.6522710489
 30
0.0
 10
18.5648285379
 20
4.661529766
 30
0.0
 10
18.5722450855
 20
4.6761839783
 30
0.0
 10
18.5802823032
 20
4.6967495241
 30
0.0
 10
18.5872689979
 20
4.7186867807
 30
0.0
 10
18.592200806
 20
4.7416332226
 30
0.0
 10
18.5949562229
 20
4.7651772684
 30
0.0
 10
18.5955920643
 20
4.7771506929
 30
0.0
 10
18.5957180935
 20
4.7831562596
 30
0.0
  0
LINE
  5
3FC
100
AcDbEntity
  8
0
100
AcDbLine
 62
9
  6
CONTINUOUS
 10
18.5957184944
 20
4.7831562827
 11
18.6099567749
 21
4.7831563042
  0
SPLINE
  5
3FD
100
AcDbEntity
  8
0
100
AcDbSpline
 62
9
  6
CONTINUOUS
 70
0
 71
3
 72
9
 73
5
 74
0
 42
0.0000001
 43
0.0000001
 44
0.0000000001
 40
0.0
 40
0.0
 40
0.0
 40
0.0
 40
0.5020501085
 40
1.0
 40
1.0
 40
1.0
 40
1.0
 10
18.5554291702
 20
4.6401854601
 30
0.0
 10
18.5554291702
 20
4.6423364814
 30
0.0
 10
18.556096808
 20
4.6466476078
 30
0.0
 10
18.5580655317
 20
4.650544338
 30
0.0
 10
18.5593186629
 20
4.6522709788
 30
0.0
  0
SPLINE
  5
3FE
100
AcDbEntity
  8
0
100
AcDbSpline
 62
9
  6
CONTINUOUS
 70
0
 71
3
 72
9
 73
5
 74
0
 42
0.0000001
 43
0.0000001
 44
0.0000000001
 40
0.0
 40
0.0
 40
0.0
 40
0.0
 40
0.4586555633
 40
1.0
 40
1.0
 40
1.0
 40
1.0
 10
18.5593186616
 20
4.6522709641
 30
0.0
 10
18.5599457052
 20
4.6526092434
 30
0.0
 10
18.5614466394
 20
4.6530977975
 30
0.0
 10
18.5630044917
 20
4.6532257973
 30
0.0
 10
18.5638454121
 20
4.6532257984
 30
0.0
  0
SPLINE
  5
3FF
100
AcDbEntity
  8
0
100
AcDbSpline
 62
9
  6
CONTINUOUS
 70
0
 71
3
 72
9
 73
5
 74
0
 42
0.0000001
 43
0.0000001
 44
0.0000000001
 40
0.0
 40
0.0
 40
0.0
 40
0.0
 40
0.4793128859
 40
1.0
 40
1.0
 40
1.0
 40
1.0
 10
18.5638454059
 20
4.6532257882
 30
0.0
 10
18.5648336634
 20
4.6532257894
 30
0.0
 10
18.5668959401
 20
4.6530272986
 30
0.0
 10
18.5689101171
 20
4.6525660463
 30
0.0
 10
18.5699423323
 20
4.6522709686
 30
0.0
  0
SPLINE
  5
400
100
AcDbEntity
  8
0
100
AcDbSpline
 62
9
  6
CONTINUOUS
 70
0
 71
3
 72
10
 73
6
 74
0
 42
0.0000001
 43
0.0000001
 44
0.0000000001
 40
0.0
 40
0.0
 40
0.0
 40
0.0
 40
0.2284339378
 40
0.4752118182
 40
1.0
 40
1.0
 40
1.0
 40
1.0
 10
18.5699423306
 20
4.6522709824
 30
0.0
 10
18.5697432204
 20
4.6513665558
 30
0.0
 10
18.5693978858
 20
4.649469541
 30
0.0
 10
18.5689031135
 20
4.6454444763
 30
0.0
 10
18.5687625045
 20
4.6423129818
 30
0.0
 10
18.5687625045
 20
4.6401854601
 30
0.0
  0
SPLINE
  5
401
100
AcDbEntity
  8
0
100
AcDbSpline
 62
9
  6
CONTINUOUS
 70
0
 71
3
 72
12
 73
8
 74
0
 42
0.0000001
 43
0.0000001
 44
0.0000000001
 40
0.0
 40
0.0
 40
0.0
 40
0.0
 40
0.2386033374
 40
0.4860365103
 40
0.6127864883
 40
0.7410405246
 40
1.0
 40
1.0
 40
1.0
 40
1.0
 10
18.5699422388
 20
4.6522711361
 30
0.0
 10
18.5759530356
 20
4.6615046029
 30
0.0
 10
18.5868933584
 20
4.681192141
 30
0.0
 10
18.597183565
 20
4.7076496607
 30
0.0
 10
18.6033079731
 20
4.7300450586
 30
0.0
 10
18.6079825335
 20
4.7533253203
 30
0.0
 10
18.609682224
 20
4.771201971
 30
0.0
 10
18.6099595757
 20
4.783156261
 30
0.0
  0
SPLINE
  5
402
100
AcDbEntity
  8
0
100
AcDbSpline
 62
9
  6
CONTINUOUS
 70
0
 71
3
 72
10
 73
6
 74
0
 42
0.0000001
 43
0.0000001
 44
0.0000000001
 40
0.0
 40
0.0
 40
0.0
 40
0.0
 40
0.2503462573
 40
0.5007354132
 40
1.0
 40
1.0
 40
1.0
 40
1.0
 10
18.8539377102
 20
6.3661076882
 30
0.0
 10
18.8631739303
 20
6.3639013691
 30
0.0
 10
18.8814113577
 20
6.3584509097
 30
0.0
 10
18.9166354054
 20
6.3442850572
 30
0.0
 10
18.9417830358
 20
6.3308135087
 30
0.0
 10
18.9580416919
 20
6.3211024797
 30
0.0
  0
LINE
  5
403
100
AcDbEntity
  8
0
100
AcDbLine
 62
7
  6
CONTINUOUS
 10
18.6099996405
 20
4.7831518931
 11
18.6438863707
 21
6.3211068896
  0
SPLINE
  5
404
100
AcDbEntity
  8
0
100
AcDbSpline
 62
9
  6
CONTINUOUS
 70
0
 71
3
 72
10
 73
6
 74
0
 42
0.0000001
 43
0.0000001
 44
0.0000000001
 40
0.0
 40
0.0
 40
0.0
 40
0.0
 40
0.4992582437
 40
0.7496464122
 40
1.0
 40
1.0
 40
1.0
 40
1.0
 10
18.6439251873
 20
6.3211026553
 30
0.0
 10
18.6601837137
 20
6.33081357
 30
0.0
 10
18.6853311519
 20
6.3442851248
 30
0.0
 10
18.7205554506
 20
6.3584507581
 30
0.0
 10
18.7387931705
 20
6.3639012658
 30
0.0
 10
18.7480296551
 20
6.366107827
 30
0.0
  0
SPLINE
  5
405
100
AcDbEntity
  8
0
100
AcDbSpline
 62
9
  6
CONTINUOUS
 70
0
 71
3
 72
15
 73
11
 74
0
 42
0.0000001
 43
0.0000001
 44
0.0000000001
 40
0.0
 40
0.0
 40
0.0
 40
0.0
 40
0.124796978
 40
0.2498014717
 40
0.3749055594
 40
0.5000061111
 40
0.6251032209
 40
0.7502008224
 40
0.8752030658
 40
1.0
 40
1.0
 40
1.0
 40
1.0
 10
18.853937723
 20
6.3661077423
 30
0.0
 10
18.8495682628
 20
6.3654356033
 30
0.0
 10
18.8407894256
 20
6.3642954422
 30
0.0
 10
18.8275558897
 20
6.3631388527
 30
0.0
 10
18.8142784968
 20
6.362470064
 30
0.0
 10
18.8009831394
 20
6.3622432227
 30
0.0
 10
18.7876879505
 20
6.3624680671
 30
0.0
 10
18.774411022
 20
6.3631378721
 30
0.0
 10
18.761177875
 20
6.3642952458
 30
0.0
 10
18.7523991587
 20
6.3654356376
 30
0.0
 10
18.7480296862
 20
6.3661076855
 30
0.0
  0
SPLINE
  5
406
100
AcDbEntity
  8
0
100
AcDbSpline
 62
9
  6
CONTINUOUS
 70
0
 71
3
 72
11
 73
7
 74
0
 42
0.0000001
 43
0.0000001
 44
0.0000000001
 40
0.0
 40
0.0
 40
0.0
 40
0.0
 40
0.2008415425
 40
0.4455627556
 40
0.718954669
 40
1.0
 40
1.0
 40
1.0
 40
1.0
 10
18.8513307551
 20
6.3895867474
 30
0.0
 10
18.8514136157
 20
6.388006933
 30
0.0
 10
18.8516766285
 20
6.3845064107
 30
0.0
 10
18.8522425989
 20
6.3788713455
 30
0.0
 10
18.8530073514
 20
6.3726227434
 30
0.0
 10
18.8536115249
 20
6.3682973211
 30
0.0
 10
18.8539372855
 20
6.3661076867
 30
0.0
  0
SPLINE
  5
407
100
AcDbEntity
  8
0
100
AcDbSpline
 62
9
  6
CONTINUOUS
 70
0
 71
3
 72
11
 73
7
 74
0
 42
0.0000001
 43
0.0000001
 44
0.0000000001
 40
0.0
 40
0.0
 40
0.0
 40
0.0
 40
0.2125559928
 40
0.4635797618
 40
0.7329198073
 40
1.0
 40
1.0
 40
1.0
 40
1.0
 10
18.7506362401
 20
6.3895867285
 30
0.0
 10
18.7505485519
 20
6.387914778
 30
0.0
 10
18.7502701105
 20
6.3842730145
 30
0.0
 10
18.7496858381
 20
6.3785293041
 30
0.0
 10
18.7489262313
 20
6.3723730814
 30
0.0
 10
18.7483393417
 20
6.3681885985
 30
0.0
 10
18.7480297733
 20
6.3661077786
 30
0.0
  0
SPLINE
  5
408
100
AcDbEntity
  8
0
100
AcDbSpline
 62
9
  6
CONTINUOUS
 70
0
 71
3
 72
11
 73
7
 74
0
 42
0.0000001
 43
0.0000001
 44
0.0000000001
 40
0.0
 40
0.0
 40
0.0
 40
0.0
 40
0.234009342
 40
0.4794808384
 40
0.7349609691
 40
1.0
 40
1.0
 40
1.0
 40
1.0
 10
18.6793671268
 20
6.3560605131
 30
0.0
 10
18.6846066025
 20
6.3574473834
 30
0.0
 10
18.6954577623
 20
6.3598589784
 30
0.0
 10
18.7122685292
 20
6.3625741194
 30
0.0
 10
18.7298927495
 20
6.364644861
 30
0.0
 10
18.7419074109
 20
6.3656603253
 30
0.0
 10
18.7480296825
 20
6.366107772
 30
0.0
  0
SPLINE
  5
409
100
AcDbEntity
  8
0
100
AcDbSpline
 62
9
  6
CONTINUOUS
 70
0
 71
3
 72
10
 73
6
 74
0
 42
0.0000001
 43
0.0000001
 44
0.0000000001
 40
0.0
 40
0.0
 40
0.0
 40
0.0
 40
0.2492887493
 40
0.624112509
 40
1.0
 40
1.0
 40
1.0
 40
1.0
 10
18.6378823166
 20
6.334027825
 30
0.0
 10
18.6412423069
 20
6.3360169101
 30
0.0
 10
18.649707628
 20
6.3409070646
 30
0.0
 10
18.6634844064
 20
6.3483656452
 30
0.0
 10
18.6740344573
 20
6.3535659808
 30
0.0
 10
18.6793673991
 20
6.356060521
 30
0.0
  0
SPLINE
  5
40A
100
AcDbEntity
  8
0
100
AcDbSpline
 62
9
  6
CONTINUOUS
 70
0
 71
3
 72
11
 73
7
 74
0
 42
0.0000001
 43
0.0000001
 44
0.0000000001
 40
0.0
 40
0.0
 40
0.0
 40
0.0
 40
0.2340983269
 40
0.4825365858
 40
0.740420455
 40
1.0
 40
1.0
 40
1.0
 40
1.0
 10
18.6288521578
 20
6.321102527
 30
0.0
 10
18.6290504391
 20
6.3223517527
 30
0.0
 10
18.6297876715
 20
6.3248808985
 30
0.0
 10
18.6317290545
 20
6.3284141271
 30
0.0
 10
18.634479699
 20
6.3315440672
 30
0.0
 10
18.6366995557
 20
6.333274088
 30
0.0
 10
18.6378823412
 20
6.3340278404
 30
0.0
  0
SPLINE
  5
40B
100
AcDbEntity
  8
0
100
AcDbSpline
 62
9
  6
CONTINUOUS
 70
0
 71
3
 72
12
 73
8
 74
0
 42
0.0000001
 43
0.0000001
 44
0.0000000001
 40
0.0
 40
0.0
 40
0.0
 40
0.0
 40
0.0888362055
 40
0.1913805647
 40
0.4318336116
 40
0.7080627308
 40
1.0
 40
1.0
 40
1.0
 40
1.0
 10
18.6378823412
 20
6.3340278404
 30
0.0
 10
18.6379981336
 20
6.3336206209
 30
0.0
 10
18.6382771682
 20
6.3327517258
 30
0.0
 10
18.6389948395
 20
6.3308224857
 30
0.0
 10
18.6401786438
 20
6.3281167487
 30
0.0
 10
18.6419112905
 20
6.3246733609
 30
0.0
 10
18.6432262351
 20
6.3223054401
 30
0.0
 10
18.6439252842
 20
6.3211025415
 30
0.0
  0
LINE
  5
40C
100
AcDbEntity
  8
0
100
AcDbLine
 62
7
  6
CONTINUOUS
 10
18.6290169534
 20
6.3210981775
 11
18.6438863707
 21
6.3211068896
  0
LINE
  5
40D
100
AcDbEntity
  8
0
100
AcDbLine
 62
7
  6
CONTINUOUS
 10
18.5955681579
 20
4.7831604262
 11
18.6290169534
 21
6.3210981775
  0
SPLINE
  5
40E
100
AcDbEntity
  8
0
100
AcDbSpline
 62
9
  6
CONTINUOUS
 70
0
 71
3
 72
14
 73
10
 74
0
 42
0.0000001
 43
0.0000001
 44
0.0000000001
 40
0.0
 40
0.0
 40
0.0
 40
0.0
 40
0.0609386761
 40
0.1370062411
 40
0.2300782362
 40
0.341937606
 40
0.4741386452
 40
0.6274867257
 40
1.0
 40
1.0
 40
1.0
 40
1.0
 10
18.6144160685
 20
6.3661077541
 30
0.0
 10
18.6146725667
 20
6.3658510923
 30
0.0
 10
18.6152800823
 20
6.365304996
 30
0.0
 10
18.6163546521
 20
6.3644544874
 30
0.0
 10
18.6177100835
 20
6.363472779
 30
0.0
 10
18.6193703044
 20
6.362343941
 30
0.0
 10
18.6213542317
 20
6.3610539226
 30
0.0
 10
18.6246577231
 20
6.3589465734
 30
0.0
 10
18.62729948
 20
6.3572654801
 30
0.0
 10
18.6291617754
 20
6.3560605122
 30
0.0
  0
LINE
  5
40F
100
AcDbEntity
  8
0
100
AcDbLine
 62
9
  6
CONTINUOUS
 10
18.6291618083
 20
6.356060521
 11
18.6378823166
 21
6.334027825
  0
SPLINE
  5
410
100
AcDbEntity
  8
0
100
AcDbSpline
 62
9
  6
CONTINUOUS
 70
0
 71
3
 72
11
 73
7
 74
0
 42
0.0000001
 43
0.0000001
 44
0.0000000001
 40
0.0
 40
0.0
 40
0.0
 40
0.0
 40
0.2289565052
 40
0.4746196957
 40
0.7335984369
 40
1.0
 40
1.0
 40
1.0
 40
1.0
 10
18.6302009024
 20
6.3952293693
 30
0.0
 10
18.6310354961
 20
6.3939630136
 30
0.0
 10
18.6325642237
 20
6.3912008008
 30
0.0
 10
18.6342891328
 20
6.3866398581
 30
0.0
 10
18.6353784979
 20
6.3816323428
 30
0.0
 10
18.6356360294
 20
6.378147599
 30
0.0
 10
18.6356360301
 20
6.3763829151
 30
0.0
  0
SPLINE
  5
411
100
AcDbEntity
  8
0
100
AcDbSpline
 62
9
  6
CONTINUOUS
 70
0
 71
3
 72
11
 73
7
 74
0
 42
0.0000001
 43
0.0000001
 44
0.0000000001
 40
0.0
 40
0.0
 40
0.0
 40
0.0
 40
0.2671539203
 40
0.5270805485
 40
0.7726723253
 40
1.0
 40
1.0
 40
1.0
 40
1.0
 10
18.6356360103
 20
6.3763829151
 30
0.0
 10
18.6356360113
 20
6.3744530432
 30
0.0
 10
18.6353260265
 20
6.3706397788
 30
0.0
 10
18.6340249276
 20
6.3651885073
 30
0.0
 10
18.6319653659
 20
6.3602871965
 30
0.0
 10
18.630148469
 20
6.3573732462
 30
0.0
 10
18.6291617695
 20
6.3560605542
 30
0.0
  0
SPLINE
  5
412
100
AcDbEntity
  8
0
100
AcDbSpline
 62
9
  6
CONTINUOUS
 70
0
 71
3
 72
11
 73
7
 74
0
 42
0.0000001
 43
0.0000001
 44
0.0000000001
 40
0.0
 40
0.0
 40
0.0
 40
0.0
 40
0.220553033
 40
0.4645124585
 40
0.7270945635
 40
1.0
 40
1.0
 40
1.0
 40
1.0
 10
18.6801029778
 20
6.3952293461
 30
0.0
 10
18.6807050677
 20
6.3939386024
 30
0.0
 10
18.6817963476
 20
6.3911357516
 30
0.0
 10
18.6830064565
 20
6.3865897578
 30
0.0
 10
18.6837696224
 20
6.3816055506
 30
0.0
 10
18.6839498222
 20
6.3781452564
 30
0.0
 10
18.6839498108
 20
6.3763829151
 30
0.0
  0
SPLINE
  5
413
100
AcDbEntity
  8
0
100
AcDbSpline
 62
9
  6
CONTINUOUS
 70
0
 71
3
 72
11
 73
7
 74
0
 42
0.0000001
 43
0.0000001
 44
0.0000000001
 40
0.0
 40
0.0
 40
0.0
 40
0.0
 40
0.2750111846
 40
0.539294801
 40
0.7827909094
 40
1.0
 40
1.0
 40
1.0
 40
1.0
 10
18.6839498108
 20
6.3763829151
 30
0.0
 10
18.6839497984
 20
6.3744561251
 30
0.0
 10
18.6837332905
 20
6.3706748498
 30
0.0
 10
18.6828237528
 20
6.3652543693
 30
0.0
 10
18.6813814453
 20
6.3603713653
 30
0.0
 10
18.6800820226
 20
6.3574041091
 30
0.0
 10
18.6793672378
 20
6.3560606043
 30
0.0
  0
SPLINE
  5
414
100
AcDbEntity
  8
0
100
AcDbSpline
 62
9
  6
CONTINUOUS
 70
0
 71
3
 72
11
 73
7
 74
0
 42
0.0000001
 43
0.0000001
 44
0.0000000001
 40
0.0
 40
0.0
 40
0.0
 40
0.0
 40
0.2205531053
 40
0.464512566
 40
0.7270946492
 40
1.0
 40
1.0
 40
1.0
 40
1.0
 10
18.9218637999
 20
6.3952293812
 30
0.0
 10
18.9212617039
 20
6.3939386359
 30
0.0
 10
18.9201704119
 20
6.391135781
 30
0.0
 10
18.9189602858
 20
6.386589779
 30
0.0
 10
18.9181971036
 20
6.3816055619
 30
0.0
 10
18.9180168938
 20
6.3781452603
 30
0.0
 10
18.9180169005
 20
6.3763829151
 30
0.0
  0
SPLINE
  5
415
100
AcDbEntity
  8
0
100
AcDbSpline
 62
9
  6
CONTINUOUS
 70
0
 71
3
 72
11
 73
7
 74
0
 42
0.0000001
 43
0.0000001
 44
0.0000000001
 40
0.0
 40
0.0
 40
0.0
 40
0.0
 40
0.2750114054
 40
0.5392951033
 40
0.7827911297
 40
1.0
 40
1.0
 40
1.0
 40
1.0
 10
18.9180168237
 20
6.3763829151
 30
0.0
 10
18.9180168318
 20
6.3744561172
 30
0.0
 10
18.9182333324
 20
6.3706748268
 30
0.0
 10
18.9191428628
 20
6.3652543249
 30
0.0
 10
18.9205851662
 20
6.3603713036
 30
0.0
 10
18.9218845877
 20
6.3574040375
 30
0.0
 10
18.9225993723
 20
6.3560605286
 30
0.0
  0
SPLINE
  5
416
100
AcDbEntity
  8
0
100
AcDbSpline
 62
9
  6
CONTINUOUS
 70
0
 71
3
 72
11
 73
7
 74
0
 42
0.0000001
 43
0.0000001
 44
0.0000000001
 40
0.0
 40
0.0
 40
0.0
 40
0.0
 40
0.2651377714
 40
0.5206517678
 40
0.76603115
 40
1.0
 40
1.0
 40
1.0
 40
1.0
 10
18.8539374264
 20
6.3661077575
 30
0.0
 10
18.8600619487
 20
6.3656602931
 30
0.0
 10
18.872079573
 20
6.3646442677
 30
0.0
 10
18.8897045546
 20
6.3625731059
 30
0.0
 10
18.9065130459
 20
6.3598588879
 30
0.0
 10
18.9173610075
 20
6.3574473324
 30
0.0
 10
18.9225994719
 20
6.3560604477
 30
0.0
  0
SPLINE
  5
417
100
AcDbEntity
  8
0
100
AcDbSpline
 62
9
  6
CONTINUOUS
 70
0
 71
3
 72
9
 73
5
 74
0
 42
0.0000001
 43
0.0000001
 44
0.0000000001
 40
0.0
 40
0.0
 40
0.0
 40
0.0
 40
0.5009488968
 40
1.0
 40
1.0
 40
1.0
 40
1.0
 10
18.9225993936
 20
6.356060521
 30
0.0
 10
18.9297079789
 20
6.3527397082
 30
0.0
 10
18.9437110116
 20
6.3457052415
 30
0.0
 10
18.9573592095
 20
6.3380106048
 30
0.0
 10
18.9640846616
 20
6.334027825
 30
0.0
  0
SPLINE
  5
418
100
AcDbEntity
  8
0
100
AcDbSpline
 62
9
  6
CONTINUOUS
 70
0
 71
3
 72
11
 73
7
 74
0
 42
0.0000001
 43
0.0000001
 44
0.0000000001
 40
0.0
 40
0.0
 40
0.0
 40
0.0
 40
0.2289565223
 40
0.474619714
 40
0.7335984466
 40
1.0
 40
1.0
 40
1.0
 40
1.0
 10
18.9717660671
 20
6.3952293773
 30
0.0
 10
18.970931469
 20
6.3939630222
 30
0.0
 10
18.9694027319
 20
6.3912008102
 30
0.0
 10
18.9676778081
 20
6.3866398667
 30
0.0
 10
18.9665884283
 20
6.3816323484
 30
0.0
 10
18.9663308882
 20
6.378147601
 30
0.0
 10
18.9663308836
 20
6.3763829151
 30
0.0
  0
SPLINE
  5
419
100
AcDbEntity
  8
0
100
AcDbSpline
 62
9
  6
CONTINUOUS
 70
0
 71
3
 72
11
 73
7
 74
0
 42
0.0000001
 43
0.0000001
 44
0.0000000001
 40
0.0
 40
0.0
 40
0.0
 40
0.0
 40
0.2273277849
 40
0.4729195891
 40
0.7328461748
 40
1.0
 40
1.0
 40
1.0
 40
1.0
 10
18.9728050998
 20
6.3560605369
 30
0.0
 10
18.9718183998
 20
6.3573732306
 30
0.0
 10
18.9700015035
 20
6.3602871847
 30
0.0
 10
18.9679419463
 20
6.3651885011
 30
0.0
 10
18.9666408559
 20
6.3706397769
 30
0.0
 10
18.9663308785
 20
6.3744530429
 30
0.0
 10
18.9663308836
 20
6.3763829151
 30
0.0
  0
SPLINE
  5
41A
100
AcDbEntity
  8
0
100
AcDbSpline
 62
9
  6
CONTINUOUS
 70
0
 71
3
 72
12
 73
8
 74
0
 42
0.0000001
 43
0.0000001
 44
0.0000000001
 40
0.0
 40
0.0
 40
0.0
 40
0.0
 40
0.2593104841
 40
0.3888641094
 40
0.5168670443
 40
0.7650556024
 40
1.0
 40
1.0
 40
1.0
 40
1.0
 10
18.9984437418
 20
6.3895867606
 30
0.0
 10
18.9966655597
 20
6.3881134911
 30
0.0
 10
18.9942539147
 20
6.3855730327
 30
0.0
 10
18.9916750599
 20
6.3817532469
 30
0.0
 10
18.9895842062
 20
6.3777530765
 30
0.0
 10
18.9879274857
 20
6.3725191675
 30
0.0
 10
18.9875192807
 20
6.3681998346
 30
0.0
 10
18.9875508817
 20
6.3661078472
 30
0.0
  0
SPLINE
  5
41B
100
AcDbEntity
  8
0
100
AcDbSpline
 62
9
  6
CONTINUOUS
 70
0
 71
3
 72
14
 73
10
 74
0
 42
0.0000001
 43
0.0000001
 44
0.0000000001
 40
0.0
 40
0.0
 40
0.0
 40
0.0
 40
0.372534425
 40
0.5259078109
 40
0.6581249346
 40
0.7699808584
 40
0.8630352615
 40
0.9390802276
 40
1.0
 40
1.0
 40
1.0
 40
1.0
 10
18.9728051206
 20
6.3560604754
 30
0.0
 10
18.9746674321
 20
6.3572656729
 30
0.0
 10
18.9773093841
 20
6.358947009
 30
0.0
 10
18.9806132438
 20
6.361054513
 30
0.0
 10
18.9825974095
 20
6.3623446035
 30
0.0
 10
18.984257619
 20
6.3634734267
 30
0.0
 10
18.9856128263
 20
6.3644550175
 30
0.0
 10
18.9866871015
 20
6.3653053443
 30
0.0
 10
18.9872944341
 20
6.3658512771
 30
0.0
 10
18.9875508747
 20
6.3661078402
 30
0.0
  0
LINE
  5
41C
100
AcDbEntity
  8
0
100
AcDbLine
 62
9
  6
CONTINUOUS
 10
18.9640846616
 20
6.334027825
 11
18.9728051588
 21
6.356060521
  0
LINE
  5
41D
100
AcDbEntity
  8
0
100
AcDbLine
 62
7
  6
CONTINUOUS
 10
19.006085483
 20
4.7831518931
 11
18.9732791901
 21
6.3211068896
  0
LINE
  5
41E
100
AcDbEntity
  8
0
100
AcDbLine
 62
9
  6
CONTINUOUS
 10
18.9896315914
 20
6.3623215248
 11
18.9875508755
 21
6.3661077573
  0
SPLINE
  5
41F
100
AcDbEntity
  8
0
100
AcDbSpline
 62
9
  6
CONTINUOUS
 70
0
 71
3
 72
12
 73
8
 74
0
 42
0.0000001
 43
0.0000001
 44
0.0000000001
 40
0.0
 40
0.0
 40
0.0
 40
0.0
 40
0.112384639
 40
0.2274570667
 40
0.468000502
 40
0.7249961633
 40
1.0
 40
1.0
 40
1.0
 40
1.0
 10
18.6278764757
 20
4.5391877082
 30
0.0
 10
18.6260115114
 20
4.5397584446
 30
0.0
 10
18.6222919749
 20
4.5411026248
 30
0.0
 10
18.6149458562
 20
4.5445903894
 30
0.0
 10
18.6060361627
 20
4.550507428
 30
0.0
 10
18.5962502314
 20
4.5597512273
 30
0.0
 10
18.5905853087
 20
4.5670946376
 30
0.0
 10
18.5879459734
 20
4.5710708546
 30
0.0
  0
SPLINE
  5
420
100
AcDbEntity
  8
0
100
AcDbSpline
 62
9
  6
CONTINUOUS
 70
0
 71
3
 72
14
 73
10
 74
0
 42
0.0000001
 43
0.0000001
 44
0.0000000001
 40
0.0
 40
0.0
 40
0.0
 40
0.0
 40
0.1187637819
 40
0.2381485018
 40
0.3586643955
 40
0.4809655263
 40
0.605758859
 40
0.7336950909
 40
1.0
 40
1.0
 40
1.0
 40
1.0
 10
18.6444977063
 20
4.5366708734
 30
0.0
 10
18.6414246609
 20
4.5366708734
 30
0.0
 10
18.6352564435
 20
4.537031959
 30
0.0
 10
18.6260988971
 20
4.5386592352
 30
0.0
 10
18.6171079758
 20
4.5413822405
 30
0.0
 10
18.608371007
 20
4.5451964468
 30
0.0
 10
18.5999675455
 20
4.5500949048
 30
0.0
 10
18.5891913754
 20
4.5581446114
 30
0.0
 10
18.5820862608
 20
4.5656132919
 30
0.0
 10
18.5778795134
 20
4.5710708734
 30
0.0
  0
SPLINE
  5
421
100
AcDbEntity
  8
0
100
AcDbSpline
 62
9
  6
CONTINUOUS
 70
0
 71
3
 72
11
 73
7
 74
0
 42
0.0000001
 43
0.0000001
 44
0.0000000001
 40
0.0
 40
0.0
 40
0.0
 40
0.0
 40
0.204437656
 40
0.4401307548
 40
0.7075837102
 40
1.0
 40
1.0
 40
1.0
 40
1.0
 10
18.5778795123
 20
4.5710708748
 30
0.0
 10
18.5784994261
 20
4.5707422781
 30
0.0
 10
18.5799523656
 20
4.5702539086
 30
0.0
 10
18.5823870859
 20
4.5700376365
 30
0.0
 10
18.585116168
 20
4.5703124849
 30
0.0
 10
18.5869875529
 20
4.5707735263
 30
0.0
 10
18.5879460464
 20
4.5710708748
 30
0.0
  0
SPLINE
  5
422
100
AcDbEntity
  8
0
100
AcDbSpline
 62
9
  6
CONTINUOUS
 70
0
 71
3
 72
9
 73
5
 74
0
 42
0.0000001
 43
0.0000001
 44
0.0000000001
 40
0.0
 40
0.0
 40
0.0
 40
0.0
 40
0.5266774762
 40
1.0
 40
1.0
 40
1.0
 40
1.0
 10
18.5778795134
 20
4.5710708734
 30
0.0
 10
18.576394065
 20
4.5732606387
 30
0.0
 10
18.5731656142
 20
4.5771637076
 30
0.0
 10
18.5691438074
 20
4.5802622821
 30
0.0
 10
18.5670899033
 20
4.5814607666
 30
0.0
  0
SPLINE
  5
423
100
AcDbEntity
  8
0
100
AcDbSpline
 62
9
  6
CONTINUOUS
 70
0
 71
3
 72
9
 73
5
 74
0
 42
0.0000001
 43
0.0000001
 44
0.0000000001
 40
0.0
 40
0.0
 40
0.0
 40
0.0
 40
0.5064573339
 40
1.0
 40
1.0
 40
1.0
 40
1.0
 10
18.5879460753
 20
4.5710708868
 30
0.0
 10
18.5857026473
 20
4.5733344789
 30
0.0
 10
18.5807898761
 20
4.577348281
 30
0.0
 10
18.5751778314
 20
4.58029392
 30
0.0
 10
18.5722996594
 20
4.5814607751
 30
0.0
  0
SPLINE
  5
424
100
AcDbEntity
  8
0
100
AcDbSpline
 62
9
  6
CONTINUOUS
 70
0
 71
3
 72
13
 73
9
 74
0
 42
0.0000001
 43
0.0000001
 44
0.0000000001
 40
0.0
 40
0.0
 40
0.0
 40
0.0
 40
0.0807467779
 40
0.1775973431
 40
0.2893642939
 40
0.4143762359
 40
0.6956547954
 40
1.0
 40
1.0
 40
1.0
 40
1.0
 10
18.5722996363
 20
4.5814607666
 30
0.0
 10
18.5720118109
 20
4.5818816561
 30
0.0
 10
18.5714734611
 20
4.582871673
 30
0.0
 10
18.5707981828
 20
4.5845720634
 30
0.0
 10
18.5701984497
 20
4.5865942643
 30
0.0
 10
18.5694928914
 20
4.5897907118
 30
0.0
 10
18.5689163846
 20
4.5942495444
 30
0.0
 10
18.5687625042
 20
4.5979490176
 30
0.0
 10
18.5687625042
 20
4.5998708734
 30
0.0
  0
SPLINE
  5
425
100
AcDbEntity
  8
0
100
AcDbSpline
 62
9
  6
CONTINUOUS
 70
0
 71
3
 72
9
 73
5
 74
0
 42
0.0000001
 43
0.0000001
 44
0.0000000001
 40
0.0
 40
0.0
 40
0.0
 40
0.0
 40
0.5118982157
 40
1.0
 40
1.0
 40
1.0
 40
1.0
 10
18.5722996364
 20
4.5814607665
 30
0.0
 10
18.5714260819
 20
4.5812573169
 30
0.0
 10
18.569671837
 20
4.5810362701
 30
0.0
 10
18.5679083405
 20
4.5812425318
 30
0.0
 10
18.5670819751
 20
4.5814628766
 30
0.0
  0
SPLINE
  5
426
100
AcDbEntity
  8
0
100
AcDbSpline
 62
9
  6
CONTINUOUS
 70
0
 71
3
 72
14
 73
10
 74
0
 42
0.0000001
 43
0.0000001
 44
0.0000000001
 40
0.0
 40
0.0
 40
0.0
 40
0.0
 40
0.1217319062
 40
0.245488062
 40
0.3700366602
 40
0.4949679751
 40
0.6206073312
 40
0.7471364933
 40
1.0
 40
1.0
 40
1.0
 40
1.0
 10
18.5670818414
 20
4.5814629472
 30
0.0
 10
18.5662305928
 20
4.5818454003
 30
0.0
 10
18.5645698191
 20
4.5827471183
 30
0.0
 10
18.5622868596
 20
4.5844463605
 30
0.0
 10
18.5602566114
 20
4.5864779078
 30
0.0
 10
18.558543947
 20
4.5888006069
 30
0.0
 10
18.557173988
 20
4.591358374
 30
0.0
 10
18.5558418094
 20
4.5950021296
 30
0.0
 10
18.5554193452
 20
4.5979324041
 30
0.0
 10
18.5554291709
 20
4.5998708734
 30
0.0
  0
SPLINE
  5
427
100
AcDbEntity
  8
0
100
AcDbSpline
 62
9
  6
CONTINUOUS
 70
0
 71
3
 72
12
 73
8
 74
0
 42
0.0000001
 43
0.0000001
 44
0.0000000001
 40
0.0
 40
0.0
 40
0.0
 40
0.0
 40
0.1787839762
 40
0.2903216625
 40
0.4149540964
 40
0.6956793906
 40
1.0
 40
1.0
 40
1.0
 40
1.0
 10
19.0296143347
 20
4.5814732292
 30
0.0
 10
19.0302538178
 20
4.5824042025
 30
0.0
 10
19.0310510011
 20
4.5840852208
 30
0.0
 10
19.0317811619
 20
4.5866030326
 30
0.0
 10
19.0324704132
 20
4.589797643
 30
0.0
 10
19.0330520813
 20
4.5942504398
 30
0.0
 10
19.033204474
 20
4.5979483636
 30
0.0
 10
19.033204474
 20
4.5998708734
 30
0.0
  0
SPLINE
  5
428
100
AcDbEntity
  8
0
100
AcDbSpline
 62
9
  6
CONTINUOUS
 70
0
 71
3
 72
13
 73
9
 74
0
 42
0.0000001
 43
0.0000001
 44
0.0000000001
 40
0.0
 40
0.0
 40
0.0
 40
0.0
 40
0.2453012745
 40
0.3696767969
 40
0.4946793598
 40
0.6204248172
 40
0.7469769582
 40
1.0
 40
1.0
 40
1.0
 40
1.0
 10
19.034877075
 20
4.5814607666
 30
0.0
 10
19.0365955595
 20
4.5822230387
 30
0.0
 10
19.0390260661
 20
4.5837826545
 30
0.0
 10
19.0417056506
 20
4.5864771606
 30
0.0
 10
19.0434199009
 20
4.5887985098
 30
0.0
 10
19.0447930624
 20
4.5913551611
 30
0.0
 10
19.0461217947
 20
4.5950022675
 30
0.0
 10
19.0465378074
 20
4.5979317351
 30
0.0
 10
19.0465378074
 20
4.5998708734
 30
0.0
  0
SPLINE
  5
429
100
AcDbEntity
  8
0
100
AcDbSpline
 62
9
  6
CONTINUOUS
 70
0
 71
3
 72
10
 73
6
 74
0
 42
0.0000001
 43
0.0000001
 44
0.0000000001
 40
0.0
 40
0.0
 40
0.0
 40
0.0
 40
0.5247880664
 40
0.7715660052
 40
1.0
 40
1.0
 40
1.0
 40
1.0
 10
19.0332044717
 20
4.6401854601
 30
0.0
 10
19.0332044717
 20
4.6423129807
 30
0.0
 10
19.0330638663
 20
4.6454444742
 30
0.0
 10
19.0325690926
 20
4.6494695377
 30
0.0
 10
19.0322237571
 20
4.6513665522
 30
0.0
 10
19.032024647
 20
4.6522709788
 30
0.0
  0
SPLINE
  5
42A
100
AcDbEntity
  8
0
100
AcDbSpline
 62
9
  6
CONTINUOUS
 70
0
 71
3
 72
9
 73
5
 74
0
 42
0.0000001
 43
0.0000001
 44
0.0000000001
 40
0.0
 40
0.0
 40
0.0
 40
0.0
 40
0.5274765341
 40
1.0
 40
1.0
 40
1.0
 40
1.0
 10
19.0320246519
 20
4.6522709641
 30
0.0
 10
19.0330703248
 20
4.6525698919
 30
0.0
 10
19.0350851002
 20
4.6530296124
 30
0.0
 10
19.0371473082
 20
4.6532257972
 30
0.0
 10
19.0381215662
 20
4.6532257984
 30
0.0
  0
SPLINE
  5
42B
100
AcDbEntity
  8
0
100
AcDbSpline
 62
9
  6
CONTINUOUS
 70
0
 71
3
 72
9
 73
5
 74
0
 42
0.0000001
 43
0.0000001
 44
0.0000000001
 40
0.0
 40
0.0
 40
0.0
 40
0.0
 40
0.5480999433
 40
1.0
 40
1.0
 40
1.0
 40
1.0
 10
19.0381215724
 20
4.6532257882
 30
0.0
 10
19.0389730041
 20
4.6532257892
 30
0.0
 10
19.0405314844
 20
4.653096729
 30
0.0
 10
19.0420304807
 20
4.6526042714
 30
0.0
 10
19.0426483015
 20
4.6522709686
 30
0.0
  0
SPLINE
  5
42C
100
AcDbEntity
  8
0
100
AcDbSpline
 62
9
  6
CONTINUOUS
 70
0
 71
3
 72
9
 73
5
 74
0
 42
0.0000001
 43
0.0000001
 44
0.0000000001
 40
0.0
 40
0.0
 40
0.0
 40
0.0
 40
0.4979498271
 40
1.0
 40
1.0
 40
1.0
 40
1.0
 10
19.0426483123
 20
4.6522709824
 30
0.0
 10
19.043901444
 20
4.6505443414
 30
0.0
 10
19.0458701706
 20
4.6466476108
 30
0.0
 10
19.0465378075
 20
4.6423364825
 30
0.0
 10
19.0465378075
 20
4.6401854601
 30
0.0
  0
SPLINE
  5
42D
100
AcDbEntity
  8
0
100
AcDbSpline
 62
9
  6
CONTINUOUS
 70
0
 71
3
 72
13
 73
9
 74
0
 42
0.0000001
 43
0.0000001
 44
0.0000000001
 40
0.0
 40
0.0
 40
0.0
 40
0.0
 40
0.2380591351
 40
0.4853623245
 40
0.6120620393
 40
0.7403682702
 40
0.8698942577
 40
1.0
 40
1.0
 40
1.0
 40
1.0
 10
19.0320246304
 20
4.6522710489
 30
0.0
 10
19.0260263751
 20
4.6614850651
 30
0.0
 10
19.0150973545
 20
4.6811478291
 30
0.0
 10
19.0048170631
 20
4.7075782204
 30
0.0
 10
18.9986625957
 20
4.7299614979
 30
0.0
 10
18.9951490489
 20
4.7473851077
 30
0.0
 10
18.9928499831
 20
4.765167309
 30
0.0
 10
18.9921466556
 20
4.7771491307
 30
0.0
 10
18.9920073251
 20
4.7831562596
 30
0.0
  0
LINE
  5
42E
100
AcDbEntity
  8
0
100
AcDbLine
 62
9
  6
CONTINUOUS
 10
18.9920088447
 20
4.7831562827
 11
19.0062481252
 21
4.7831563042
  0
LINE
  5
42F
100
AcDbEntity
  8
0
100
AcDbLine
 62
7
  6
CONTINUOUS
 10
18.9580073513
 20
6.3210981774
 11
18.9732791901
 21
6.3211068896
  0
LINE
  5
430
100
AcDbEntity
  8
0
100
AcDbLine
 62
7
  6
CONTINUOUS
 10
18.9920484534
 20
4.7831604262
 11
18.9580073513
 21
6.3210981774
  0
SPLINE
  5
431
100
AcDbEntity
  8
0
100
AcDbSpline
 62
9
  6
CONTINUOUS
 70
0
 71
3
 72
12
 73
8
 74
0
 42
0.0000001
 43
0.0000001
 44
0.0000000001
 40
0.0
 40
0.0
 40
0.0
 40
0.0
 40
0.2919373857
 40
0.5681665648
 40
0.8086195823
 40
0.9111638869
 40
1.0
 40
1.0
 40
1.0
 40
1.0
 10
18.9580417116
 20
6.321102527
 30
0.0
 10
18.9587407618
 20
6.3223054273
 30
0.0
 10
18.9600557082
 20
6.3246733512
 30
0.0
 10
18.9617883569
 20
6.3281167431
 30
0.0
 10
18.9629721619
 20
6.3308224829
 30
0.0
 10
18.9636898332
 20
6.3327517243
 30
0.0
 10
18.9639688675
 20
6.3336206198
 30
0.0
 10
18.9640846596
 20
6.3340278394
 30
0.0
  0
SPLINE
  5
432
100
AcDbEntity
  8
0
100
AcDbSpline
 62
9
  6
CONTINUOUS
 70
0
 71
3
 72
11
 73
7
 74
0
 42
0.0000001
 43
0.0000001
 44
0.0000000001
 40
0.0
 40
0.0
 40
0.0
 40
0.0
 40
0.2595795658
 40
0.5174634209
 40
0.7659016818
 40
1.0
 40
1.0
 40
1.0
 40
1.0
 10
18.9640846596
 20
6.3340278394
 30
0.0
 10
18.9652674428
 20
6.3332740866
 30
0.0
 10
18.9674872952
 20
6.3315440665
 30
0.0
 10
18.9702379336
 20
6.3284141285
 30
0.0
 10
18.9721793122
 20
6.3248809042
 30
0.0
 10
18.9729165434
 20
6.3223517618
 30
0.0
 10
18.9731148242
 20
6.3211025378
 30
0.0
  0
SPLINE
  5
433
100
AcDbEntity
  8
0
100
AcDbSpline
 62
9
  6
CONTINUOUS
 70
0
 71
3
 72
11
 73
7
 74
0
 42
0.0000001
 43
0.0000001
 44
0.0000000001
 40
0.0
 40
0.0
 40
0.0
 40
0.0
 40
0.482258561
 40
0.609505384
 40
0.7386142011
 40
1.0
 40
1.0
 40
1.0
 40
1.0
 10
19.0426481404
 20
4.6522711361
 30
0.0
 10
19.0313752903
 20
4.6712148899
 30
0.0
 10
19.0203917638
 20
4.6972966379
 30
0.0
 10
19.0122677823
 20
4.7300660694
 30
0.0
 10
19.0080305118
 20
4.7533645
 30
0.0
 10
19.0064996619
 20
4.7712109079
 30
0.0
 10
19.0062488643
 20
4.783156261
 30
0.0
  0
SPLINE
  5
434
100
AcDbEntity
  8
0
100
AcDbSpline
 62
9
  6
CONTINUOUS
 70
0
 71
3
 72
9
 73
5
 74
0
 42
0.0000001
 43
0.0000001
 44
0.0000000001
 40
0.0
 40
0.0
 40
0.0
 40
0.0
 40
0.5245077779
 40
1.0
 40
1.0
 40
1.0
 40
1.0
 10
19.0240874857
 20
4.5710708868
 30
0.0
 10
19.0255667483
 20
4.5732516763
 30
0.0
 10
19.028793282
 20
4.5771556452
 30
0.0
 10
19.0328137892
 20
4.5802567762
 30
0.0
 10
19.0348770981
 20
4.5814607722
 30
0.0
  0
SPLINE
  5
435
100
AcDbEntity
  8
0
100
AcDbSpline
 62
9
  6
CONTINUOUS
 70
0
 71
3
 72
11
 73
7
 74
0
 42
0.0000001
 43
0.0000001
 44
0.0000000001
 40
0.0
 40
0.0
 40
0.0
 40
0.0
 40
0.2371919739
 40
0.4816122203
 40
0.73545974
 40
1.0
 40
1.0
 40
1.0
 40
1.0
 10
18.977231767
 20
4.5391877082
 30
0.0
 10
18.9816451726
 20
4.540328259
 30
0.0
 10
18.9904229339
 20
4.5434312308
 30
0.0
 10
19.0027993078
 20
4.5503909641
 30
0.0
 10
19.0142740805
 20
4.5596137355
 30
0.0
 10
19.0209803004
 20
4.5670468435
 30
0.0
 10
19.0240874256
 20
4.5710708546
 30
0.0
  0
SPLINE
  5
436
100
AcDbEntity
  8
0
100
AcDbSpline
 62
9
  6
CONTINUOUS
 70
0
 71
3
 72
9
 73
5
 74
0
 42
0.0000001
 43
0.0000001
 44
0.0000000001
 40
0.0
 40
0.0
 40
0.0
 40
0.0
 40
0.4960521041
 40
1.0
 40
1.0
 40
1.0
 40
1.0
 10
18.9574692816
 20
4.5366708734
 30
0.0
 10
18.960218946
 20
4.5366708734
 30
0.0
 10
18.9657695252
 20
4.5370857295
 30
0.0
 10
18.9711976828
 20
4.5383132247
 30
0.0
 10
18.9738714721
 20
4.5391219958
 30
0.0
  0
SPLINE
  5
437
100
AcDbEntity
  8
0
100
AcDbSpline
 62
9
  6
CONTINUOUS
 70
0
 71
3
 72
15
 73
11
 74
0
 42
0.0000001
 43
0.0000001
 44
0.0000000001
 40
0.0
 40
0.0
 40
0.0
 40
0.0
 40
0.1127926887
 40
0.2281943586
 40
0.3467634335
 40
0.468962181
 40
0.5951331241
 40
0.7255960261
 40
0.8605391995
 40
1.0
 40
1.0
 40
1.0
 40
1.0
 10
18.974304515
 20
4.5392548044
 30
0.0
 10
18.9761669205
 20
4.5398338242
 30
0.0
 10
18.979878915
 20
4.5411933797
 30
0.0
 10
18.9852940949
 20
4.5437872613
 30
0.0
 10
18.9905868839
 20
4.5469528337
 30
0.0
 10
18.9957278063
 20
4.550685126
 30
0.0
 10
19.0006851947
 20
4.5549789057
 30
0.0
 10
19.0054213764
 20
4.5598281629
 30
0.0
 10
19.0099106412
 20
4.565208227
 30
0.0
 10
19.0126808985
 20
4.5690660094
 30
0.0
 10
19.0140209309
 20
4.5710708734
 30
0.0
  0
SPLINE
  5
438
100
AcDbEntity
  8
0
100
AcDbSpline
 62
9
  6
CONTINUOUS
 70
0
 71
3
 72
11
 73
7
 74
0
 42
0.0000001
 43
0.0000001
 44
0.0000000001
 40
0.0
 40
0.0
 40
0.0
 40
0.0
 40
0.2924158998
 40
0.5598687737
 40
0.7955620378
 40
1.0
 40
1.0
 40
1.0
 40
1.0
 10
19.0140209318
 20
4.5710708748
 30
0.0
 10
19.0149794241
 20
4.5707735267
 30
0.0
 10
19.0168508073
 20
4.5703124855
 30
0.0
 10
19.0195798883
 20
4.5700376365
 30
0.0
 10
19.02201461
 20
4.570253908
 30
0.0
 10
19.0234675512
 20
4.5707422776
 30
0.0
 10
19.024087466
 20
4.5710708748
 30
0.0
  0
SPLINE
  5
439
100
AcDbEntity
  8
0
100
AcDbSpline
 62
9
  6
CONTINUOUS
 70
0
 71
3
 72
9
 73
5
 74
0
 42
0.0000001
 43
0.0000001
 44
0.0000000001
 40
0.0
 40
0.0
 40
0.0
 40
0.0
 40
0.5086439649
 40
1.0
 40
1.0
 40
1.0
 40
1.0
 10
19.0140209309
 20
4.5710708734
 30
0.0
 10
19.0162738227
 20
4.5733444455
 30
0.0
 10
19.02118936
 20
4.5773558084
 30
0.0
 10
19.0268019692
 20
4.5802989881
 30
0.0
 10
19.0296673419
 20
4.5814607666
 30
0.0
  0
SPLINE
  5
43A
100
AcDbEntity
  8
0
100
AcDbSpline
 62
9
  6
CONTINUOUS
 70
0
 71
3
 72
9
 73
5
 74
0
 42
0.0000001
 43
0.0000001
 44
0.0000000001
 40
0.0
 40
0.0
 40
0.0
 40
0.0
 40
0.5201407057
 40
1.0
 40
1.0
 40
1.0
 40
1.0
 10
19.0296143303
 20
4.5814732309
 30
0.0
 10
19.0305088311
 20
4.5812609161
 30
0.0
 10
19.0322790442
 20
4.5810343436
 30
0.0
 10
19.0340573602
 20
4.5812430057
 30
0.0
 10
19.0348770834
 20
4.5814607687
 30
0.0
  0
SPLINE
  5
43B
100
AcDbEntity
  8
0
100
AcDbSpline
 62
9
  6
CONTINUOUS
 70
0
 71
3
 72
67
 73
63
 74
0
 42
0.0000001
 43
0.0000001
 44
0.0000000001
 40
0.0
 40
0.0
 40
0.0
 40
0.0
 40
0.0000498239
 40
0.00019854
 40
0.0004459196
 40
0.000791734
 40
0.0012357546
 40
0.0017777527
 40
0.0031544274
 40
0.0049171686
 40
0.0070603371
 40
0.0095782256
 40
0.0124638288
 40
0.0157089507
 40
0.0193053567
 40
0.0275158465
 40
0.0370156813
 40
0.0477223226
 40
0.0595519505
 40
0.0724224954
 40
0.0862542141
 40
0.1009713236
 40
0.1327792305
 40
0.1673328146
 40
0.2041947617
 40
0.2429914693
 40
0.2833995512
 40
0.3251318166
 40
0.3679180791
 40
0.4114999707
 40
0.4556157973
 40
0.5000001922
 40
0.5443841817
 40
0.5884999862
 40
0.6320824311
 40
0.6748688086
 40
0.716600684
 40
0.7570096969
 40
0.7958054274
 40
0.8326671093
 40
0.867221258
 40
0.8990286088
 40
0.9137458781
 40
0.9275777011
 40
0.9404481934
 40
0.9522777171
 40
0.9629842964
 40
0.9724841566
 40
0.9806946884
 40
0.9842910756
 40
0.9875361494
 40
0.9904217132
 40
0.9929396031
 40
0.9950827902
 40
0.9968455552
 40
0.9982222527
 40
0.9987642491
 40
0.9992082589
 40
0.9995540605
 40
0.9998014323
 40
0.9999501526
 40
1.0
 40
1.0
 40
1.0
 40
1.0
 10
19.0459834891
 20
6.7366708734
 30
0.0
 10
19.0459753377
 20
6.7366731192
 30
0.0
 10
19.0459458485
 20
6.7366902791
 30
0.0
 10
19.0458760044
 20
6.7367188982
 30
0.0
 10
19.0457622141
 20
6.7367731506
 30
0.0
 10
19.0456019847
 20
6.7368458539
 30
0.0
 10
19.045396679
 20
6.7369404179
 30
0.0
 10
19.0450321922
 20
6.7371074504
 30
0.0
 10
19.0444642944
 20
6.7373678276
 30
0.0
 10
19.0436490388
 20
6.7377406312
 30
0.0
 10
19.0426572193
 20
6.7381930181
 30
0.0
 10
19.041491427
 20
6.7387231477
 30
0.0
 10
19.0401545799
 20
6.739328865
 30
0.0
 10
19.0386498961
 20
6.7400076266
 30
0.0
 10
19.0363195877
 20
6.7410536905
 30
0.0
 10
19.0330162709
 20
6.7425240094
 30
0.0
 10
19.0286012578
 20
6.7444638496
 30
0.0
 10
19.0236119825
 20
6.7466233092
 30
0.0
 10
19.0180827094
 20
6.7489749375
 30
0.0
 10
19.0120472661
 20
6.7514910625
 30
0.0
 10
19.0055380945
 20
6.75414377
 30
0.0
 10
18.9960191367
 20
6.7579254602
 30
0.0
 10
18.9831571373
 20
6.7628152119
 30
0.0
 10
18.9666443481
 20
6.7686662246
 30
0.0
 10
18.9488535976
 20
6.7744442815
 30
0.0
 10
18.9299412511
 20
6.77995882
 30
0.0
 10
18.9100490743
 20
6.7850264507
 30
0.0
 10
18.8893140123
 20
6.7894694753
 30
0.0
 10
18.8678787273
 20
6.793130043
 30
0.0
 10
18.8458961327
 20
6.7958589284
 30
0.0
 10
18.8235362668
 20
6.7975453402
 30
0.0
 10
18.8009834894
 20
6.7981178402
 30
0.0
 10
18.7784306434
 20
6.7975459351
 30
0.0
 10
18.7560709555
 20
6.795857211
 30
0.0
 10
18.7340880182
 20
6.7931304504
 30
0.0
 10
18.7126526778
 20
6.7894696415
 30
0.0
 10
18.6919177095
 20
6.785025784
 30
0.0
 10
18.6720252527
 20
6.7799595452
 30
0.0
 10
18.6531131875
 20
6.7744441604
 30
0.0
 10
18.6353226962
 20
6.7686657373
 30
0.0
 10
18.6188096603
 20
6.7628155358
 30
0.0
 10
18.6059478428
 20
6.7579252184
 30
0.0
 10
18.596428863
 20
6.7541437224
 30
0.0
 10
18.5899196288
 20
6.7514910721
 30
0.0
 10
18.5838841981
 20
6.7489749397
 30
0.0
 10
18.5783549712
 20
6.7466232976
 30
0.0
 10
18.5733657246
 20
6.7444638321
 30
0.0
 10
18.5689507083
 20
6.7425239969
 30
0.0
 10
18.5656473782
 20
6.7410536875
 30
0.0
 10
18.5633170772
 20
6.7400076175
 30
0.0
 10
18.561812414
 20
6.7393288542
 30
0.0
 10
18.5604755841
 20
6.7387231341
 30
0.0
 10
18.5593097972
 20
6.7381930005
 30
0.0
 10
18.5583179677
 20
6.7377406179
 30
0.0
 10
18.5575026977
 20
6.7373678184
 30
0.0
 10
18.5569347886
 20
6.7371074496
 30
0.0
 10
18.5565703017
 20
6.7369404099
 30
0.0
 10
18.5563649947
 20
6.7368458657
 30
0.0
 10
18.5562047825
 20
6.7367731208
 30
0.0
 10
18.5560909663
 20
6.7367189702
 30
0.0
 10
18.5560211685
 20
6.7366901741
 30
0.0
 10
18.5559916235
 20
6.7366731948
 30
0.0
 10
18.5559834891
 20
6.7366708734
 30
0.0
  0
SPLINE
  5
43C
100
AcDbEntity
  8
0
100
AcDbSpline
 62
7
  6
CONTINUOUS
 70
0
 71
3
 72
17
 73
13
 74
0
 42
0.0000001
 43
0.0000001
 44
0.0000000001
 40
0.0
 40
0.0
 40
0.0
 40
0.0
 40
0.1166044674
 40
0.2399485119
 40
0.303837405
 40
0.3687697149
 40
0.4999996926
 40
0.6312297236
 40
0.6961620959
 40
0.7600510705
 40
0.8833953165
 40
1.0
 40
1.0
 40
1.0
 40
1.0
 10
21.5219829286
 20
7.8391708734
 30
0.0
 10
21.5219828924
 20
7.8355126898
 30
0.0
 10
21.5226831782
 20
7.827970298
 30
0.0
 10
21.5253202794
 20
7.8187439372
 30
0.0
 10
21.5286234655
 20
7.8115415448
 30
0.0
 10
21.5327479659
 20
7.8044901448
 30
0.0
 10
21.5392426986
 20
7.7964306106
 30
0.0
 10
21.5473021863
 20
7.7899358174
 30
0.0
 10
21.55435356
 20
7.7858112596
 30
0.0
 10
21.5615559359
 20
7.7825080116
 30
0.0
 10
21.570782289
 20
7.7798708279
 30
0.0
 10
21.5783246869
 20
7.7791704705
 30
0.0
 10
21.5819828772
 20
7.7791704708
 30
0.0
  0
SPLINE
  5
43D
100
AcDbEntity
  8
0
100
AcDbSpline
 62
7
  6
CONTINUOUS
 70
0
 71
3
 72
17
 73
13
 74
0
 42
0.0000001
 43
0.0000001
 44
0.0000000001
 40
0.0
 40
0.0
 40
0.0
 40
0.0
 40
0.1166044641
 40
0.2399484972
 40
0.3038373817
 40
0.3687696819
 40
0.499999642
 40
0.6312296624
 40
0.6961620331
 40
0.7600510101
 40
0.8833952766
 40
1.0
 40
1.0
 40
1.0
 40
1.0
 10
20.3219840103
 20
7.8391708734
 30
0.0
 10
20.3219840439
 20
7.8355126933
 30
0.0
 10
20.3212837547
 20
7.8279703095
 30
0.0
 10
20.3186466534
 20
7.8187439589
 30
0.0
 10
20.3153434702
 20
7.8115415742
 30
0.0
 10
20.3112189747
 20
7.8044901814
 30
0.0
 10
20.304724251
 20
7.796430654
 30
0.0
 10
20.2966647751
 20
7.7899358632
 30
0.0
 10
20.2896134111
 20
7.7858113045
 30
0.0
 10
20.2824110438
 20
7.7825080538
 30
0.0
 10
20.2731846997
 20
7.7798708638
 30
0.0
 10
20.2656423076
 20
7.7791704995
 30
0.0
 10
20.2619841194
 20
7.779170496
 30
0.0
  0
SPLINE
  5
43E
100
AcDbEntity
  8
0
100
AcDbSpline
 62
9
  6
CONTINUOUS
 70
0
 71
3
 72
97
 73
93
 74
0
 42
0.0000001
 43
0.0000001
 44
0.0000000001
 40
0.0
 40
0.0
 40
0.0
 40
0.0
 40
0.000003459
 40
0.0000135267
 40
0.0000302123
 40
0.0000535249
 40
0.0001200665
 40
0.0002132232
 40
0.0003330666
 40
0.0004796686
 40
0.0006531015
 40
0.0008534375
 40
0.0013351092
 40
0.0019249868
 40
0.002622141
 40
0.0034253019
 40
0.0043331978
 40
0.0053445571
 40
0.007672646
 40
0.0103998131
 40
0.01351641
 40
0.0170121637
 40
0.0208756326
 40
0.0250952054
 40
0.0296583457
 40
0.0397615924
 40
0.0510783671
 40
0.0635032395
 40
0.0769349507
 40
0.0912773918
 40
0.106442421
 40
0.1223488041
 40
0.1389223561
 40
0.173813261
 40
0.2106632566
 40
0.2491076088
 40
0.2888521258
 40
0.3296569333
 40
0.3504002146
 40
0.371342204
 40
0.3924626218
 40
0.4137431671
 40
0.4351644921
 40
0.4567019687
 40
0.4783238281
 40
0.4999907428
 40
0.5108306725
 40
0.5216648911
 40
0.5324873282
 40
0.5432923053
 40
0.5648292968
 40
0.5862511281
 40
0.6075334334
 40
0.6286541237
 40
0.6495954821
 40
0.6703387468
 40
0.7111473695
 40
0.7508935355
 40
0.7893329926
 40
0.8261781074
 40
0.8610703299
 40
0.8776469623
 40
0.8935572772
 40
0.9087261693
 40
0.9230713809
 40
0.9365037715
 40
0.9489274664
 40
0.9602416229
 40
0.9703407431
 40
0.9749018923
 40
0.9791201586
 40
0.9829831821
 40
0.9864792266
 40
0.9895967076
 40
0.9923252005
 40
0.99465492
 40
0.9956671483
 40
0.9965758531
 40
0.9973796697
 40
0.9980772342
 40
0.9986671841
 40
0.9991485331
 40
0.9993485979
 40
0.9995217187
 40
0.9996679919
 40
0.9997875137
 40
0.99988038
 40
0.9999466863
 40
0.9999699092
 40
0.9999865278
 40
0.999996554
 40
1.0
 40
1.0
 40
1.0
 40
1.0
 10
21.5819828771
 20
7.7791708734
 30
0.0
 10
21.5819811447
 20
7.7791703834
 30
0.0
 10
21.5819765517
 20
7.7791643156
 30
0.0
 10
21.58196387
 20
7.7791555255
 30
0.0
 10
21.581944512
 20
7.779137745
 30
0.0
 10
21.581902197
 20
7.7791021028
 30
0.0
 10
21.581830105
 20
7.7790396992
 30
0.0
 10
21.5817195087
 20
7.7789452323
 30
0.0
 10
21.581577231
 20
7.7788236003
 30
0.0
 10
21.5814029248
 20
7.7786751719
 30
0.0
 10
21.581196482
 20
7.7784998506
 30
0.0
 10
21.5808566631
 20
7.7782121727
 30
0.0
 10
21.5803503672
 20
7.7777856824
 30
0.0
 10
21.5796444944
 20
7.7771947567
 30
0.0
 10
21.5788091908
 20
7.7764977708
 30
0.0
 10
21.5778461381
 20
7.7756955314
 30
0.0
 10
21.5767571885
 20
7.7747889164
 30
0.0
 10
21.5750584178
 20
7.7733743031
 30
0.0
 10
21.5726332646
 20
7.7713522604
 30
0.0
 10
21.569367492
 20
7.7686273808
 30
0.0
 10
21.5656352979
 20
7.7655128829
 30
0.0
 10
21.5614484039
 20
7.7620201979
 30
0.0
 10
21.556818743
 20
7.7581620999
 30
0.0
 10
21.5517591965
 20
7.7539520694
 30
0.0
 10
21.5441978556
 20
7.747671199
 30
0.0
 10
21.5337833742
 20
7.7390440527
 30
0.0
 10
21.5201954447
 20
7.7278336016
 30
0.0
 10
21.5052420087
 20
7.715556139
 30
0.0
 10
21.4890356271
 20
7.7023231281
 30
0.0
 10
21.4716812174
 20
7.6882413005
 30
0.0
 10
21.4532737323
 20
7.6734133288
 30
0.0
 10
21.4338988708
 20
7.6579354296
 30
0.0
 10
21.4064031532
 20
7.6361743527
 30
0.0
 10
21.3701298698
 20
7.6079395838
 30
0.0
 10
21.3243752081
 20
7.5733608762
 30
0.0
 10
21.2759091359
 20
7.5381936499
 30
0.0
 10
21.2248087133
 20
7.5031857466
 30
0.0
 10
21.1802166672
 20
7.4750200344
 30
0.0
 10
21.1429721189
 20
7.4536478612
 30
0.0
 10
21.1140614522
 20
7.4383746387
 30
0.0
 10
21.0842676577
 20
7.4242305722
 30
0.0
 10
21.0535376273
 20
7.4115679471
 30
0.0
 10
21.0218348293
 20
7.4008552027
 30
0.0
 10
20.9891975682
 20
7.3926427534
 30
0.0
 10
20.9558086439
 20
7.3874395034
 30
0.0
 10
20.927621436
 20
7.3859190486
 30
0.0
 10
20.9050616814
 20
7.3864926309
 30
0.0
 10
20.8881922658
 20
7.3878229422
 30
0.0
 10
20.8714321013
 20
7.3900142661
 30
0.0
 10
20.8493189145
 20
7.3940230065
 30
0.0
 10
20.822152338
 20
7.400885093
 30
0.0
 10
20.7904427044
 20
7.4115750117
 30
0.0
 10
20.7597043139
 20
7.4242229082
 30
0.0
 10
20.7299116375
 20
7.4383713284
 30
0.0
 10
20.701006122
 20
7.4536540068
 30
0.0
 10
20.6637653865
 20
7.4750355759
 30
0.0
 10
20.6191501671
 20
7.5031690774
 30
0.0
 10
20.5680443457
 20
7.5381710522
 30
0.0
 10
20.5196048784
 20
7.5733678592
 30
0.0
 10
20.4738679591
 20
7.6079624279
 30
0.0
 10
20.4375898322
 20
7.6361904166
 30
0.0
 10
20.4100816767
 20
7.6579427576
 30
0.0
 10
20.390695259
 20
7.6734152543
 30
0.0
 10
20.3722773384
 20
7.6882390386
 30
0.0
 10
20.354916001
 20
7.7023183755
 30
0.0
 10
20.3387081436
 20
7.7155514573
 30
0.0
 10
20.3237578782
 20
7.7278302284
 30
0.0
 10
20.3101760721
 20
7.739041625
 30
0.0
 10
20.2997691442
 20
7.7476707619
 30
0.0
 10
20.2922137181
 20
7.7539527034
 30
0.0
 10
20.2871569955
 20
7.7581630808
 30
0.0
 10
20.2825282929
 20
7.7620211404
 30
0.0
 10
20.2783407781
 20
7.7655136738
 30
0.0
 10
20.2746067422
 20
7.7686279958
 30
0.0
 10
20.2713382298
 20
7.7713527113
 30
0.0
 10
20.2689103105
 20
7.7733745448
 30
0.0
 10
20.2672091554
 20
7.7747889849
 30
0.0
 10
20.2661185668
 20
7.775695529
 30
0.0
 10
20.2651541855
 20
7.7764976976
 30
0.0
 10
20.2643180517
 20
7.777194613
 30
0.0
 10
20.2636120073
 20
7.7777854642
 30
0.0
 10
20.2631061443
 20
7.7782120479
 30
0.0
 10
20.2627670129
 20
7.7784998078
 30
0.0
 10
20.2625611983
 20
7.778675135
 30
0.0
 10
20.2623875555
 20
7.778823569
 30
0.0
 10
20.2622459277
 20
7.7789452076
 30
0.0
 10
20.2621359172
 20
7.7790396792
 30
0.0
 10
20.2620642578
 20
7.7791020953
 30
0.0
 10
20.2620222153
 20
7.7791377398
 30
0.0
 10
20.262002998
 20
7.7791555276
 30
0.0
 10
20.2619903951
 20
7.7791643087
 30
0.0
 10
20.2619858464
 20
7.7791703887
 30
0.0
 10
20.2619841195
 20
7.7791708734
 30
0.0
  0
SPLINE
  5
43F
100
AcDbEntity
  8
0
100
AcDbSpline
 62
7
  6
CONTINUOUS
 70
0
 71
3
 72
13
 73
9
 74
0
 42
0.0000001
 43
0.0000001
 44
0.0000000001
 40
0.0
 40
0.0
 40
0.0
 40
0.0
 40
0.385585426
 40
0.6804600973
 40
0.7939015485
 40
0.8847637096
 40
0.9532619006
 40
1.0
 40
1.0
 40
1.0
 40
1.0
 10
20.0114835056
 20
6.6496658674
 30
0.0
 10
20.0115445477
 20
6.6489705837
 30
0.0
 10
20.0116620831
 20
6.6477444862
 30
0.0
 10
20.011836993
 20
6.6463175427
 30
0.0
 10
20.01198407
 20
6.6454260237
 30
0.0
 10
20.0120834674
 20
6.6449418259
 30
0.0
 10
20.0121817147
 20
6.6445822782
 30
0.0
 10
20.0122583557
 20
6.6443862453
 30
0.0
 10
20.0123020795
 20
6.6443138181
 30
0.0
  0
LINE
  5
440
100
AcDbEntity
  8
0
100
AcDbLine
 62
7
  6
CONTINUOUS
 10
20.0123020795
 20
6.6443138181
 11
20.0124341984
 21
6.644199805
  0
SPLINE
  5
441
100
AcDbEntity
  8
0
100
AcDbSpline
 62
7
  6
CONTINUOUS
 70
0
 71
3
 72
31
 73
27
 74
0
 42
0.0000001
 43
0.0000001
 44
0.0000000001
 40
0.0
 40
0.0
 40
0.0
 40
0.0
 40
0.214475178
 40
0.3148192508
 40
0.4098328898
 40
0.4990720034
 40
0.5821485763
 40
0.6586752051
 40
0.7282645932
 40
0.7905296124
 40
0.8450854575
 40
0.8693748783
 40
0.8916456384
 40
0.9118807235
 40
0.9300632202
 40
0.94617637
 40
0.9602036638
 40
0.9721290229
 40
0.9819371788
 40
0.9896145894
 40
0.9951521511
 40
0.9971198626
 40
0.9985593569
 40
0.9990864104
 40
0.9994917186
 40
1.0
 40
1.0
 40
1.0
 40
1.0
 10
20.0219834817
 20
7.3084809116
 30
0.0
 10
20.0216987483
 20
7.3270395124
 30
0.0
 10
20.0212679797
 20
7.3542807258
 30
0.0
 10
20.0206660233
 20
7.389742756
 30
0.0
 10
20.0202246165
 20
7.4143679507
 30
0.0
 10
20.0197833762
 20
7.4374985568
 30
0.0
 10
20.019342512
 20
7.4590289858
 30
0.0
 10
20.0189021415
 20
7.4788585452
 30
0.0
 10
20.0184624811
 20
7.4968865991
 30
0.0
 10
20.0180237782
 20
7.5130126892
 30
0.0
 10
20.0176460738
 20
7.5252186465
 30
0.0
 10
20.0173397206
 20
7.5339639233
 30
0.0
 10
20.0171191165
 20
7.5397402183
 30
0.0
 10
20.0168987362
 20
7.5449876056
 30
0.0
 10
20.0166786563
 20
7.5497016094
 30
0.0
 10
20.0164589612
 20
7.5538777517
 30
0.0
 10
20.0162399661
 20
7.5575116116
 30
0.0
 10
20.0160216513
 20
7.5605987016
 30
0.0
 10
20.015805673
 20
7.5631349678
 30
0.0
 10
20.0155906039
 20
7.5651158311
 30
0.0
 10
20.0154039514
 20
7.5664171918
 30
0.0
 10
20.0152409941
 20
7.5671746981
 30
0.0
 10
20.0151474882
 20
7.5675018284
 30
0.0
 10
20.0150651608
 20
7.5676920897
 30
0.0
 10
20.0150051932
 20
7.5677973547
 30
0.0
 10
20.014936671
 20
7.5678608549
 30
0.0
 10
20.0148926841
 20
7.5678608728
 30
0.0
  0
SPLINE
  5
442
100
AcDbEntity
  8
0
100
AcDbSpline
 62
7
  6
CONTINUOUS
 70
0
 71
3
 72
10
 73
6
 74
0
 42
0.0000001
 43
0.0000001
 44
0.0000000001
 40
0.0
 40
0.0
 40
0.0
 40
0.0
 40
0.5253405673
 40
0.7720017971
 40
1.0
 40
1.0
 40
1.0
 40
1.0
 10
20.0148944114
 20
7.1167254523
 30
0.0
 10
20.0142531435
 20
7.1629053351
 30
0.0
 10
20.0133121674
 20
7.2307679201
 30
0.0
 10
20.0119985033
 20
7.3186712466
 30
0.0
 10
20.0113257733
 20
7.3603946418
 30
0.0
 10
20.0109828011
 20
7.3804357436
 30
0.0
  0
SPLINE
  5
443
100
AcDbEntity
  8
0
100
AcDbSpline
 62
9
  6
CONTINUOUS
 70
0
 71
3
 72
63
 73
59
 74
0
 42
0.0000001
 43
0.0000001
 44
0.0000000001
 40
0.0
 40
0.0
 40
0.0
 40
0.0
 40
0.0000550109
 40
0.0002177629
 40
0.0004874676
 40
0.0008633367
 40
0.0019304153
 40
0.0034126925
 40
0.0053038626
 40
0.0075976198
 40
0.0102876587
 40
0.013367674
 40
0.0206636107
 40
0.0293909831
 40
0.0394465606
 40
0.0507271373
 40
0.0631314725
 40
0.0765661158
 40
0.106160573
 40
0.1388136754
 40
0.17396572
 40
0.2111216789
 40
0.2499015903
 40
0.2899669373
 40
0.3310171944
 40
0.3728005425
 40
0.4150506192
 40
0.43629121
 40
0.457547339
 40
0.4999996328
 40
0.5424520728
 40
0.5637083069
 40
0.5849489827
 40
0.6271991366
 40
0.6689825112
 40
0.7100328266
 40
0.7500982527
 40
0.7888782322
 40
0.8260342312
 40
0.8611862801
 40
0.8938393655
 40
0.9234338045
 40
0.9368684449
 40
0.9492727847
 40
0.9605533749
 40
0.9706089696
 40
0.9793363559
 40
0.9866322968
 40
0.9897123089
 40
0.9924023425
 40
0.9946960943
 40
0.996587261
 40
0.9980695388
 40
0.9991366239
 40
0.9995124992
 40
0.9997822124
 40
0.9999449753
 40
1.0
 40
1.0
 40
1.0
 40
1.0
 10
21.5219829286
 20
7.8391704343
 30
0.0
 10
21.5219640964
 20
7.8391503031
 30
0.0
 10
21.5218858097
 20
7.8390742155
 30
0.0
 10
21.5217149669
 20
7.838899652
 30
0.0
 10
21.5214286518
 20
7.8386130996
 30
0.0
 10
21.5208239342
 20
7.8380041203
 30
0.0
 10
21.5197896356
 20
7.8369653715
 30
0.0
 10
21.5182196416
 20
7.8353884773
 30
0.0
 10
21.5162149172
 20
7.8333769845
 30
0.0
 10
21.5137821237
 20
7.8309376488
 30
0.0
 10
21.5109274976
 20
7.8280776348
 30
0.0
 10
21.5063002897
 20
7.8234452696
 30
0.0
 10
21.4995305465
 20
7.8166769127
 30
0.0
 10
21.4902764853
 20
7.8074494644
 30
0.0
 10
21.4795909025
 20
7.7968297909
 30
0.0
 10
21.4675756072
 20
7.7849342428
 30
0.0
 10
21.4543288277
 20
7.7718758745
 30
0.0
 10
21.4344949572
 20
7.7524271589
 30
0.0
 10
21.4072905246
 20
7.7260025615
 30
0.0
 10
21.3720162857
 20
7.6922680637
 30
0.0
 10
21.3336081217
 20
7.656331974
 30
0.0
 10
21.2924305053
 20
7.618867941
 30
0.0
 10
21.2486663107
 20
7.580602632
 30
0.0
 10
21.2024385354
 20
7.5422107519
 30
0.0
 10
21.1534591151
 20
7.5048358221
 30
0.0
 10
21.1015198044
 20
7.4696724152
 30
0.0
 10
21.0552076968
 20
7.4441268377
 30
0.0
 10
21.015970037
 20
7.4277459422
 30
0.0
 10
20.9753045766
 20
7.4150039982
 30
0.0
 10
20.9219840019
 20
7.4077185276
 30
0.0
 10
20.8686633538
 20
7.415003849
 30
0.0
 10
20.827997687
 20
7.4277456977
 30
0.0
 10
20.7887598551
 20
7.4441265335
 30
0.0
 10
20.7424476394
 20
7.4696721184
 30
0.0
 10
20.6905082398
 20
7.5048355382
 30
0.0
 10
20.6415287477
 20
7.5422105104
 30
0.0
 10
20.5953008941
 20
7.5806024574
 30
0.0
 10
20.5515366327
 20
7.6188678326
 30
0.0
 10
20.5103589746
 20
7.6563319035
 30
0.0
 10
20.4719507893
 20
7.6922679905
 30
0.0
 10
20.4366765492
 20
7.7260024646
 30
0.0
 10
20.4094721276
 20
7.7524270459
 30
0.0
 10
20.3896382638
 20
7.7718757566
 30
0.0
 10
20.3763914803
 20
7.7849341316
 30
0.0
 10
20.3643761738
 20
7.7968296936
 30
0.0
 10
20.3536905763
 20
7.807449384
 30
0.0
 10
20.3444365031
 20
7.8166768454
 30
0.0
 10
20.3376667543
 20
7.8234452072
 30
0.0
 10
20.3330395469
 20
7.8280775698
 30
0.0
 10
20.3301849248
 20
7.8309375779
 30
0.0
 10
20.3277521355
 20
7.8333769078
 30
0.0
 10
20.3257474127
 20
7.8353883964
 30
0.0
 10
20.3241774181
 20
7.8369652927
 30
0.0
 10
20.3231431117
 20
7.8380040432
 30
0.0
 10
20.3225383907
 20
7.838613034
 30
0.0
 10
20.3222520601
 20
7.8388995895
 30
0.0
 10
20.3220812179
 20
7.8390741763
 30
0.0
 10
20.3220029103
 20
7.8391502612
 30
0.0
 10
20.321984079
 20
7.8391704027
 30
0.0
  0
ENDSEC
  0
SECTION
  2
OBJECTS
  0
DICTIONARY
  5
C
100
AcDbDictionary
280
0
281
1
  3
ACAD_GROUP
350
D
  3
ACAD_MLINESTYLE
350
17
  3
ACAD_LAYOUT
350
1A
  3
ACAD_PLOTSETTINGS
350
19
  3
ACAD_PLOTSTYLENAME
350
E
  0
DICTIONARY
  5
D
102
{ACAD_REACTORS
330
C
102
}
100
AcDbDictionary
280
0
281
1
  0
ACDBDICTIONARYWDFLT
  5
E
102
{ACAD_REACTORS
330
C
102
}
100
AcDbDictionary
281
1
  3
Normal
350
F
100
AcDbDictionaryWithDefault
340
F
  0
DICTIONARY
  5
17
102
{ACAD_REACTORS
330
C
102
}
100
AcDbDictionary
280
0
281
1
  3
Standard
350
18
  0
DICTIONARY
  5
19
102
{ACAD_REACTORS
330
C
102
}
100
AcDbDictionary
281
1
  0
DICTIONARY
  5
1A
102
{ACAD_REACTORS
330
C
102
}
100
AcDbDictionary
281
1
  3
Model
350
444
  3
Layout1
350
445
  0
ACDBPLACEHOLDER
  5
F
102
{ACAD_REACTORS
330
E
102
}
  0
MLINESTYLE
  5
18
102
{ACAD_REACTORS
330
17
102
}
100
AcDbMlineStyle
  2
STANDARD
 70
0
  3

 62
256
 51
90.0
 52
90.0
 71
2
 49
0.5
 62
256
  6
BYLAYER
 49
-0.5
 62
256
  6
BYLAYER
  0
LAYOUT
  5
444
102
{ACAD_REACTORS
330
1A
102
}
100
AcDbPlotSettings
  1

  2
none_device
  4
ANSI_C_(22.00_x_17.00_Inches)
  6

 40
0.0
 41
0.0
 42
0.0
 43
0.0
 44
558.8
 45
431.8
 46
0.0
 47
0.0
 48
0.0
 49
0.0
140
0.0
141
0.0
142
1.0
143
1.0
 70
1024
 72
0
 73
0
 74
0
  7

 75
0
147
1.0
148
0.0
149
0.0
100
AcDbLayout
  1
Model
 70
0
 71
0
 10
0.0
 20
0.0
 11
22.0
 21
17.0
 12
0.0
 22
0.0
 32
0.0
 14
0.0
 24
0.0
 34
0.0
 15
0.0
 25
0.0
 35
0.0
146
0.0
 13
0.0
 23
0.0
 33
0.0
 16
1.0
 26
0.0
 36
0.0
 17
0.0
 27
1.0
 37
0.0
 76
0
330
202
345
0
346
0
  0
LAYOUT
  5
445
102
{ACAD_REACTORS
330
1A
102
}
100
AcDbPlotSettings
  1

  2
none_device
  4
ANSI_C_(22.00_x_17.00_Inches)
  6

 40
0.0
 41
0.0
 42
0.0
 43
0.0
 44
558.8
 45
431.8
 46
0.0
 47
0.0
 48
0.0
 49
0.0
140
0.0
141
0.0
142
1.0
143
1.0
 70
0
 72
0
 73
0
 74
0
  7

 75
0
147
1.0
148
0.0
149
0.0
100
AcDbLayout
  1
Layout1
 70
0
 71
1
 10
0.0
 20
0.0
 11
22.0
 21
17.0
 12
0.0
 22
0.0
 32
0.0
 14
0.0
 24
0.0
 34
0.0
 15
0.0
 25
0.0
 35
0.0
146
0.0
 13
0.0
 23
0.0
 33
0.0
 16
1.0
 26
0.0
 36
0.0
 17
0.0
 27
1.0
 37
0.0
 76
0
330
203
345
0
346
0
  0
ENDSEC
  0
EOF
