999
DXF file: E:\BT Custom\CADOUTPUT\_TOP.dxf
999
Pro/ENGINEER 2018400 by Parametric Technology Corporation
  0
SECTION
  2
HEADER
  9
$ACADVER
  1
AC1018
  9
$DWGCODEPAGE
  3
ANSI_1252
  9
$EXTMAX
 10
22.0
 20
17.0
 30
0.0
  9
$EXTMIN
 10
0.0
 20
0.0
 30
0.0
  9
$LIMMIN
 10
0.0
 20
0.0
  9
$LIMMAX
 10
22.0
 20
17.0
  9
$VIEWCTR
 10
11.0
 20
8.5
  9
$VIEWSIZE
 40
17.0
  9
$CLAYER
  8
0
  9
$LTSCALE
 40
1.21
  9
$CELTYPE
  6
BYLAYER
  9
$DIMSCALE
 40
1.0
  9
$DIMASZ
 40
0.1
  9
$DIMEXO
 40
0.0625
  9
$DIMDLI
 40
0.836
  9
$DIMEXE
 40
0.125
  9
$DIMCEN
 40
0.198
  9
$DIMLFAC
 40
1.0
  9
$DIMBLK
  1
_FILLED
  9
$DIMALT
 70
1
  9
$DIMALTD
 70
2
  9
$DIMALTTD
 70
2
  9
$DIMALTF
 40
25.4
  9
$DIMTXT
 40
0.08
  9
$DIMTOL
 70
1
  9
$DIMLIM
 70
0
  9
$DIMTFAC
 40
1.0
  9
$DIMTP
 40
0.001
  9
$DIMTM
 40
0.001
  9
$DIMGAP
 40
0.09
  9
$DIMDSEP
 70
46
  9
$AUNITS
 70
0
  9
$PDMODE
 70
3
  9
$PDSIZE
 40
0.06
  9
$HANDSEED
  5
35B
  9
$TILEMODE
 70
1
  9
$MEASUREMENT
 70
0
  9
$INSUNITS
 70
1
  0
ENDSEC
  0
SECTION
  2
CLASSES
  0
CLASS
  1
ACDBDICTIONARYWDFLT
  2
AcDbDictionaryWithDefault
  3
AutoCAD 2000
 90
0
 91
1
280
0
281
0
  0
CLASS
  1
ACDBPLACEHOLDER
  2
AcDbPlaceHolder
  3
AutoCAD 2000
 90
0
 91
1
280
0
281
0
  0
CLASS
  1
LAYOUT
  2
AcDbLayout
  3
AutoCAD 2000
 90
0
 91
0
280
0
281
0
  0
ENDSEC
  0
SECTION
  2
TABLES
  0
TABLE
  2
VPORT
  5
8
100
AcDbSymbolTable
 70
2
  0
VPORT
  5
1F4
100
AcDbSymbolTableRecord
100
AcDbViewportTableRecord
  2
*ACTIVE
 70
0
 10
0.0
 20
0.0
 11
1.0
 21
1.0
 12
11.0
 22
8.5
 13
0.0
 23
0.0
 14
1.0
 24
1.0
 15
0.0
 25
0.0
 16
0.0
 26
0.0
 36
1.0
 17
0.0
 27
0.0
 37
0.0
 40
17.0
 41
1.2941176471
 42
50.0
 43
0.0
 44
0.0
 50
0.0
 51
0.0
 71
0
 72
100
 73
1
 74
1
 75
0
 76
0
 77
0
 78
0
  0
ENDTAB
  0
TABLE
  2
LTYPE
  5
5
100
AcDbSymbolTable
 70
6
  0
LTYPE
  5
14
100
AcDbSymbolTableRecord
100
AcDbLinetypeTableRecord
  2
BYBLOCK
 70
0
  3

 72
65
 73
0
 40
0.0
  0
LTYPE
  5
15
100
AcDbSymbolTableRecord
100
AcDbLinetypeTableRecord
  2
BYLAYER
 70
0
  3

 72
65
 73
0
 40
0.0
  0
LTYPE
  5
16
100
AcDbSymbolTableRecord
100
AcDbLinetypeTableRecord
  2
CONTINUOUS
 70
64
  3
Solid line
 72
65
 73
0
 40
0.0
  0
LTYPE
  5
1F5
100
AcDbSymbolTableRecord
100
AcDbLinetypeTableRecord
  2
CENTER
 70
64
  3
____ _ ____ _ ____ _ ____ _ ____ _ ____ _ ____
 72
65
 73
4
 40
0.6
 49
0.375
 74
0
 49
-0.075
 74
0
 49
0.075
 74
0
 49
-0.075
 74
0
  0
LTYPE
  5
1F6
100
AcDbSymbolTableRecord
100
AcDbLinetypeTableRecord
  2
HIDDEN
 70
64
  3
- - - - - - - - - - - - - - - - - - - -
 72
65
 73
2
 40
0.2
 49
0.1
 74
0
 49
-0.1
 74
0
  0
LTYPE
  5
1F7
100
AcDbSymbolTableRecord
100
AcDbLinetypeTableRecord
  2
PHANTOM
 70
64
  3
_____ _ _ _____ _ _ _____ _ _ _____
 72
65
 73
6
 40
0.8
 49
0.45
 74
0
 49
-0.05
 74
0
 49
0.1
 74
0
 49
-0.05
 74
0
 49
0.1
 74
0
 49
-0.05
 74
0
  0
LTYPE
  5
1F8
100
AcDbSymbolTableRecord
100
AcDbLinetypeTableRecord
  2
DOT
 70
64
  3
. . . . . . . . . . . . . . . . . . . .
 72
65
 73
2
 40
0.2
 49
0.1
 74
0
 49
-0.1
 74
0
  0
LTYPE
  5
1F9
100
AcDbSymbolTableRecord
100
AcDbLinetypeTableRecord
  2
DASHED
 70
64
  3
- - - - - - - - - - - - - - - - - - - -
 72
65
 73
2
 40
0.2
 49
0.1
 74
0
 49
-0.1
 74
0
  0
ENDTAB
  0
TABLE
  2
LAYER
  5
2
100
AcDbSymbolTable
 70
36
  0
LAYER
  5
10
100
AcDbSymbolTableRecord
100
AcDbLayerTableRecord
  2
0
 70
0
 62
7
  6
CONTINUOUS
370
-3
390
F
  0
LAYER
  5
1FA
100
AcDbSymbolTableRecord
100
AcDbLayerTableRecord
  2
DEFAULT_1
 70
0
 62
7
  6
CENTER
370
-3
390
F
  0
LAYER
  5
1FB
100
AcDbSymbolTableRecord
100
AcDbLayerTableRecord
  2
DEFAULT_2
 70
0
 62
8
  6
HIDDEN
370
-3
390
F
  0
LAYER
  5
1FC
100
AcDbSymbolTableRecord
100
AcDbLayerTableRecord
  2
DEFAULT_3
 70
0
 62
7
  6
PHANTOM
370
-3
390
F
  0
LAYER
  5
1FD
100
AcDbSymbolTableRecord
100
AcDbLayerTableRecord
  2
ALL_FEATURES
 70
0
 62
7
  6
CONTINUOUS
370
-3
390
F
  0
LAYER
  5
1FE
100
AcDbSymbolTableRecord
100
AcDbLayerTableRecord
  2
AXES_FEATURES
 70
0
 62
7
  6
CONTINUOUS
370
-3
390
F
  0
LAYER
  5
1FF
100
AcDbSymbolTableRecord
100
AcDbLayerTableRecord
  2
DEFAULT_COORDINATE_SYSTEM
 70
0
 62
7
  6
CONTINUOUS
370
-3
390
F
  0
LAYER
  5
200
100
AcDbSymbolTableRecord
100
AcDbLayerTableRecord
  2
DEFAULT_DATUM_AXES
 70
0
 62
7
  6
CONTINUOUS
370
-3
390
F
  0
LAYER
  5
201
100
AcDbSymbolTableRecord
100
AcDbLayerTableRecord
  2
DEFAULT_DATUM_PLANES
 70
0
 62
7
  6
CONTINUOUS
370
-3
390
F
  0
LAYER
  5
202
100
AcDbSymbolTableRecord
100
AcDbLayerTableRecord
  2
DIMENSIONS
 70
0
 62
7
  6
CONTINUOUS
370
-3
390
F
  0
ENDTAB
  0
TABLE
  2
STYLE
  5
3
100
AcDbSymbolTable
 70
1
  0
STYLE
  5
11
100
AcDbSymbolTableRecord
100
AcDbTextStyleTableRecord
  2
STANDARD
 70
0
 40
0.0
 41
0.8
 50
0.0
 71
0
 42
0.2
  3
txt
  4

  0
STYLE
  5
203
100
AcDbSymbolTableRecord
100
AcDbTextStyleTableRecord
  2
TEXTSTYLE_1
 70
0
 40
0.0
 41
0.8
 50
0.0
 71
0
 42
0.2
  3
gdt
  4

  0
ENDTAB
  0
TABLE
  2
VIEW
  5
6
100
AcDbSymbolTable
 70
0
  0
ENDTAB
  0
TABLE
  2
UCS
  5
7
100
AcDbSymbolTable
 70
0
  0
ENDTAB
  0
TABLE
  2
APPID
  5
9
100
AcDbSymbolTable
 70
1
  0
APPID
  5
204
100
AcDbSymbolTableRecord
100
AcDbRegAppTableRecord
  2
ACAD
 70
0
  0
ENDTAB
  0
TABLE
  2
BLOCK_RECORD
  5
1
100
AcDbSymbolTable
 70
0
  0
BLOCK_RECORD
  5
205
100
AcDbSymbolTableRecord
100
AcDbBlockTableRecord
  2
*Model_Space
  0
BLOCK_RECORD
  5
206
100
AcDbSymbolTableRecord
100
AcDbBlockTableRecord
  2
*Paper_Space
  0
BLOCK_RECORD
  5
207
100
AcDbSymbolTableRecord
100
AcDbBlockTableRecord
  2
_FILLED
  0
ENDTAB
  0
TABLE
  2
DIMSTYLE
  5
A
100
AcDbSymbolTable
 70
1
100
AcDbDimStyleTable
 71
0
  0
DIMSTYLE
105
208
100
AcDbSymbolTableRecord
100
AcDbDimStyleTableRecord
  2
STANDARD
 70
0
  3

  4

 40
1.0
 41
0.1
 42
0.0625
 43
0.38
 44
0.125
 45
0.0
 46
0.0
 47
0.001
 48
0.001
140
0.08
141
0.09
142
0.0
143
25.4
144
1.0
145
0.0
146
1.0
147
0.09
 71
1.0
 72
0.0
 73
1
 74
1
 75
0
 76
0
 77
0
 78
4
 79
1
170
1
171
2
172
0
173
0
174
0
175
0
176
0
177
0
178
0
270
2
179
3
271
3
272
3
273
2
274
2
275
0
280
0
281
0
282
0
283
1
284
4
285
0
286
0
287
3
288
0
340
11
278
46
341
207
342
207
343
207
344
207
  0
ENDTAB
  0
ENDSEC
  0
SECTION
  2
BLOCKS
  0
BLOCK
  5
20
100
AcDbEntity
  8
0
100
AcDbBlockBegin
  2
*Model_Space
 70
0
 10
0.0
 20
0.0
 30
0.0
  3
*Model_Space
  1

  0
ENDBLK
  5
21
100
AcDbEntity
  8
0
100
AcDbBlockEnd
  0
BLOCK
  5
1C
100
AcDbEntity
  8
0
100
AcDbBlockBegin
  2
*Paper_Space
 70
0
 10
0.0
 20
0.0
 30
0.0
  3
*Paper_Space
  1

  0
ENDBLK
  5
1D
100
AcDbEntity
  8
0
100
AcDbBlockEnd
  0
BLOCK
  5
209
100
AcDbEntity
  8
0
100
AcDbBlockBegin
  2
_FILLED
 70
64
 10
0.0
 20
0.0
  3
_FILLED
  1

  0
SOLID
  5
20A
100
AcDbEntity
  8
0
  6
BYBLOCK
 62
0
100
AcDbTrace
 10
0.0
 20
0.0
 11
-1.0
 21
0.2
 12
-1.0
 22
-0.2
 13
-1.0
 23
-0.2
  0
ENDBLK
  5
20B
100
AcDbEntity
  8
0
  6
BYBLOCK
 62
0
100
AcDbBlockEnd
  0
ENDSEC
  0
SECTION
  2
ENTITIES
  0
LINE
  5
20C
100
AcDbEntity
  8
0
100
AcDbLine
 62
9
  6
CONTINUOUS
 10
8.6925973534
 20
9.2689091293
 11
8.6961344855
 21
9.2805698617
  0
LINE
  5
20D
100
AcDbEntity
  8
0
100
AcDbLine
 62
9
  6
CONTINUOUS
 10
9.1703726565
 20
9.7466844325
 11
9.1587119241
 21
9.7431473004
  0
LINE
  5
20E
100
AcDbEntity
  8
0
100
AcDbLine
 62
7
  6
CONTINUOUS
 10
8.4848183383
 20
9.1570037806
 11
8.4848183383
 21
9.8719231145
  0
LINE
  5
20F
100
AcDbEntity
  8
0
100
AcDbLine
 62
7
  6
CONTINUOUS
 10
8.5848183383
 20
9.8944634476
 11
8.5848183383
 21
9.1344634476
  0
LINE
  5
210
100
AcDbEntity
  8
0
100
AcDbLine
 62
9
  6
CONTINUOUS
 10
9.1570393232
 20
9.7600177658
 11
9.1535021911
 21
9.7483570334
  0
LINE
  5
211
100
AcDbEntity
  8
0
100
AcDbLine
 62
9
  6
CONTINUOUS
 10
8.67926402
 20
9.2822424627
 11
8.6909247524
 21
9.2857795948
  0
LINE
  5
212
100
AcDbEntity
  8
0
100
AcDbLine
 62
9
  6
CONTINUOUS
 10
9.3598183383
 20
9.8944634476
 11
9.3598183383
 21
9.1344634476
  0
LINE
  5
213
100
AcDbEntity
  8
0
100
AcDbLine
 62
7
  6
CONTINUOUS
 10
9.4198183383
 20
9.9620634476
 11
9.4198183383
 21
9.0668634476
  0
LINE
  5
214
100
AcDbEntity
  8
0
100
AcDbLine
 62
9
  6
CONTINUOUS
 10
9.4516664347
 20
9.9846031406
 11
9.4516664347
 21
9.0443237545
  0
LINE
  5
215
100
AcDbEntity
  8
0
100
AcDbLine
 62
9
  6
CONTINUOUS
 10
9.4807227294
 20
9.9897446447
 11
9.4807227294
 21
9.0391822504
  0
LINE
  5
216
100
AcDbEntity
  8
0
100
AcDbLine
 62
9
  6
CONTINUOUS
 10
8.6925973534
 20
9.7600177658
 11
8.6961344855
 21
9.7483570334
  0
LINE
  5
217
100
AcDbEntity
  8
0
100
AcDbLine
 62
9
  6
CONTINUOUS
 10
9.5257881473
 20
9.9903270839
 11
9.5257881473
 21
9.0385998112
  0
LINE
  5
218
100
AcDbEntity
  8
0
100
AcDbLine
 62
9
  6
CONTINUOUS
 10
9.55539767
 20
9.9861063047
 11
9.55539767
 21
9.0428205904
  0
LINE
  5
219
100
AcDbEntity
  8
0
100
AcDbLine
 62
9
  6
CONTINUOUS
 10
9.5603044751
 20
9.9869548957
 11
9.5603044751
 21
9.0419719995
  0
LINE
  5
21A
100
AcDbEntity
  8
0
100
AcDbLine
 62
9
  6
CONTINUOUS
 10
13.4153726565
 20
9.7466844325
 11
13.4037119241
 21
9.7431473004
  0
LINE
  5
21B
100
AcDbEntity
  8
0
100
AcDbLine
 62
9
  6
CONTINUOUS
 10
9.1570393232
 20
9.2689091293
 11
9.1535021911
 21
9.2805698617
  0
LINE
  5
21C
100
AcDbEntity
  8
0
100
AcDbLine
 62
9
  6
CONTINUOUS
 10
9.8051736024
 20
10.1046034105
 11
9.8051736024
 21
8.9243234846
  0
LINE
  5
21D
100
AcDbEntity
  8
0
100
AcDbLine
 62
9
  6
CONTINUOUS
 10
9.8148183383
 20
10.1094634476
 11
9.8148183383
 21
8.9194634476
  0
LINE
  5
21E
100
AcDbEntity
  8
0
100
AcDbLine
 62
7
  6
CONTINUOUS
 10
9.9748183383
 20
8.9194634476
 11
9.9748183383
 21
10.1094634476
  0
LINE
  5
21F
100
AcDbEntity
  8
0
100
AcDbLine
 62
9
  6
CONTINUOUS
 10
10.1767141204
 20
8.6217329301
 11
10.1793851112
 21
8.6376642562
  0
LINE
  5
220
100
AcDbEntity
  8
0
100
AcDbLine
 62
9
  6
CONTINUOUS
 10
12.92426402
 20
9.2822424627
 11
12.9359247524
 21
9.2857795948
  0
LINE
  5
221
100
AcDbEntity
  8
0
100
AcDbLine
 62
9
  6
CONTINUOUS
 10
11.3413976824
 20
5.0744488701
 11
11.3413932107
 21
5.0744559153
  0
LINE
  5
222
100
AcDbEntity
  8
0
100
AcDbLine
 62
7
  6
CONTINUOUS
 10
11.3413976875
 20
5.0744488734
 11
11.3481114906
 21
5.0633940172
  0
LINE
  5
223
100
AcDbEntity
  8
0
100
AcDbLine
 62
7
  6
CONTINUOUS
 10
11.3485364615
 20
5.0626598025
 11
11.3481208995
 21
5.0633777616
  0
LINE
  5
224
100
AcDbEntity
  8
0
100
AcDbLine
 62
7
  6
CONTINUOUS
 10
10.7948183383
 20
9.5144634476
 11
10.7948183383
 21
4.9210015548
  0
LINE
  5
225
100
AcDbEntity
  8
0
100
AcDbLine
 62
9
  6
CONTINUOUS
 10
10.1767140927
 20
10.4071941299
 11
10.179385168
 21
10.3912626588
  0
LINE
  5
226
100
AcDbEntity
  8
0
100
AcDbLine
 62
7
  6
CONTINUOUS
 10
11.2948183383
 20
9.5144634476
 11
11.2948183383
 21
4.9210015548
  0
LINE
  5
227
100
AcDbEntity
  8
0
100
AcDbLine
 62
9
  6
CONTINUOUS
 10
11.9129226115
 20
10.4071942947
 11
11.9102507181
 21
10.3912632262
  0
LINE
  5
228
100
AcDbEntity
  8
0
100
AcDbLine
 62
7
  6
CONTINUOUS
 10
12.1198183383
 20
10.1094634476
 11
12.1198183383
 21
8.9194634476
  0
LINE
  5
229
100
AcDbEntity
  8
0
100
AcDbLine
 62
7
  6
CONTINUOUS
 10
10.7415157471
 20
5.0633777099
 11
10.7411002592
 21
5.062659879
  0
LINE
  5
22A
100
AcDbEntity
  8
0
100
AcDbLine
 62
7
  6
CONTINUOUS
 10
10.741525156
 20
5.0633939655
 11
10.7482387951
 21
5.0744485678
  0
LINE
  5
22B
100
AcDbEntity
  8
0
100
AcDbLine
 62
9
  6
CONTINUOUS
 10
10.7482434659
 20
5.0744559153
 11
10.7482388003
 21
5.0744485645
  0
LINE
  5
22C
100
AcDbEntity
  8
0
100
AcDbLine
 62
9
  6
CONTINUOUS
 10
11.9129225838
 20
8.6217327652
 11
11.9102515086
 21
8.6376642363
  0
LINE
  5
22D
100
AcDbEntity
  8
0
100
AcDbLine
 62
9
  6
CONTINUOUS
 10
12.2798183383
 20
8.9194634476
 11
12.2798183383
 21
10.1094634476
  0
LINE
  5
22E
100
AcDbEntity
  8
0
100
AcDbLine
 62
9
  6
CONTINUOUS
 10
12.2894630741
 20
8.9243234846
 11
12.2894630741
 21
10.1046034105
  0
LINE
  5
22F
100
AcDbEntity
  8
0
100
AcDbLine
 62
9
  6
CONTINUOUS
 10
12.9375973534
 20
9.2689091293
 11
12.9411344855
 21
9.2805698617
  0
LINE
  5
230
100
AcDbEntity
  8
0
100
AcDbLine
 62
9
  6
CONTINUOUS
 10
10.1520876559
 20
8.646359202
 11
10.1680190068
 21
8.6490309646
  0
LINE
  5
231
100
AcDbEntity
  8
0
100
AcDbLine
 62
9
  6
CONTINUOUS
 10
11.9375490206
 20
8.646359202
 11
11.9216178204
 21
8.6490306406
  0
LINE
  5
232
100
AcDbEntity
  8
0
100
AcDbLine
 62
9
  6
CONTINUOUS
 10
9.1703726565
 20
9.2822424627
 11
9.1587119241
 21
9.2857795948
  0
LINE
  5
233
100
AcDbEntity
  8
0
100
AcDbLine
 62
9
  6
CONTINUOUS
 10
12.5343322015
 20
9.0419719995
 11
12.5343322015
 21
9.9869548957
  0
LINE
  5
234
100
AcDbEntity
  8
0
100
AcDbLine
 62
9
  6
CONTINUOUS
 10
12.5392390066
 20
9.0428205904
 11
12.5392390066
 21
9.9861063047
  0
LINE
  5
235
100
AcDbEntity
  8
0
100
AcDbLine
 62
9
  6
CONTINUOUS
 10
12.5688485293
 20
9.0385998112
 11
12.5688485293
 21
9.9903270839
  0
LINE
  5
236
100
AcDbEntity
  8
0
100
AcDbLine
 62
9
  6
CONTINUOUS
 10
12.6139139472
 20
9.0391822504
 11
12.6139139472
 21
9.9897446447
  0
LINE
  5
237
100
AcDbEntity
  8
0
100
AcDbLine
 62
9
  6
CONTINUOUS
 10
12.6429702418
 20
9.0443237545
 11
12.6429702418
 21
9.9846031406
  0
LINE
  5
238
100
AcDbEntity
  8
0
100
AcDbLine
 62
9
  6
CONTINUOUS
 10
13.4020393232
 20
9.7600177658
 11
13.3985021911
 21
9.7483570334
  0
LINE
  5
239
100
AcDbEntity
  8
0
100
AcDbLine
 62
7
  6
CONTINUOUS
 10
12.2798183383
 20
8.9194634476
 11
12.1198183383
 21
8.9194634476
  0
LINE
  5
23A
100
AcDbEntity
  8
0
100
AcDbLine
 62
7
  6
CONTINUOUS
 10
9.8148183383
 20
8.9194634476
 11
9.9748183383
 21
8.9194634476
  0
LINE
  5
23B
100
AcDbEntity
  8
0
100
AcDbLine
 62
7
  6
CONTINUOUS
 10
12.1198183383
 20
9.0294634476
 11
11.8203350323
 21
9.0294634476
  0
LINE
  5
23C
100
AcDbEntity
  8
0
100
AcDbLine
 62
7
  6
CONTINUOUS
 10
9.9748183383
 20
9.0294634476
 11
10.2693016442
 21
9.0294634476
  0
LINE
  5
23D
100
AcDbEntity
  8
0
100
AcDbLine
 62
9
  6
CONTINUOUS
 10
8.67926402
 20
9.7466844325
 11
8.6909247524
 21
9.7431473004
  0
LINE
  5
23E
100
AcDbEntity
  8
0
100
AcDbLine
 62
7
  6
CONTINUOUS
 10
12.6748183383
 20
9.0668634476
 11
12.6748183383
 21
9.9620634476
  0
LINE
  5
23F
100
AcDbEntity
  8
0
100
AcDbLine
 62
9
  6
CONTINUOUS
 10
12.7348183383
 20
9.1344634476
 11
12.7348183383
 21
9.8944634476
  0
LINE
  5
240
100
AcDbEntity
  8
0
100
AcDbLine
 62
7
  6
CONTINUOUS
 10
13.5098183383
 20
9.1344634476
 11
12.7348183383
 21
9.1344634476
  0
LINE
  5
241
100
AcDbEntity
  8
0
100
AcDbLine
 62
7
  6
CONTINUOUS
 10
8.5848183383
 20
9.1344634476
 11
9.3598183383
 21
9.1344634476
  0
LINE
  5
242
100
AcDbEntity
  8
0
100
AcDbLine
 62
7
  6
CONTINUOUS
 10
13.5098183383
 20
9.1344634476
 11
13.5098183383
 21
9.8944634476
  0
LINE
  5
243
100
AcDbEntity
  8
0
100
AcDbLine
 62
7
  6
CONTINUOUS
 10
13.6098183383
 20
9.1570037806
 11
13.6098183383
 21
9.8719231145
  0
LINE
  5
244
100
AcDbEntity
  8
0
100
AcDbLine
 62
7
  6
CONTINUOUS
 10
13.5098183383
 20
9.8944634476
 11
12.7348183383
 21
9.8944634476
  0
LINE
  5
245
100
AcDbEntity
  8
0
100
AcDbLine
 62
7
  6
CONTINUOUS
 10
8.5848183383
 20
9.8944634476
 11
9.3598183383
 21
9.8944634476
  0
LINE
  5
246
100
AcDbEntity
  8
0
100
AcDbLine
 62
7
  6
CONTINUOUS
 10
12.1198183383
 20
9.9994634476
 11
11.8203350323
 21
9.9994634476
  0
LINE
  5
247
100
AcDbEntity
  8
0
100
AcDbLine
 62
7
  6
CONTINUOUS
 10
9.9748183383
 20
9.9994634476
 11
10.2693016442
 21
9.9994634476
  0
LINE
  5
248
100
AcDbEntity
  8
0
100
AcDbLine
 62
7
  6
CONTINUOUS
 10
12.2798183383
 20
10.1094634476
 11
12.1198183383
 21
10.1094634476
  0
LINE
  5
249
100
AcDbEntity
  8
0
100
AcDbLine
 62
7
  6
CONTINUOUS
 10
9.8148183383
 20
10.1094634476
 11
9.9748183383
 21
10.1094634476
  0
LINE
  5
24A
100
AcDbEntity
  8
0
100
AcDbLine
 62
9
  6
CONTINUOUS
 10
13.4153726565
 20
9.2822424627
 11
13.4037119241
 21
9.2857795948
  0
LINE
  5
24B
100
AcDbEntity
  8
0
100
AcDbLine
 62
9
  6
CONTINUOUS
 10
12.9375973534
 20
9.7600177658
 11
12.9411344855
 21
9.7483570334
  0
LINE
  5
24C
100
AcDbEntity
  8
0
100
AcDbLine
 62
9
  6
CONTINUOUS
 10
11.9375490206
 20
10.3825676931
 11
11.9216174322
 21
10.3798973171
  0
LINE
  5
24D
100
AcDbEntity
  8
0
100
AcDbLine
 62
9
  6
CONTINUOUS
 10
10.1520876559
 20
10.3825676931
 11
10.1680188561
 21
10.3798962545
  0
LINE
  5
24E
100
AcDbEntity
  8
0
100
AcDbLine
 62
9
  6
CONTINUOUS
 10
12.92426402
 20
9.7466844325
 11
12.9359247524
 21
9.7431473004
  0
LINE
  5
24F
100
AcDbEntity
  8
0
100
AcDbLine
 62
9
  6
CONTINUOUS
 10
13.4020393232
 20
9.2689091293
 11
13.3985021911
 21
9.2805698617
  0
ARC
  5
250
100
AcDbEntity
  8
0
100
AcDbCircle
 62
9
  6
CONTINUOUS
 10
-3.8860396603
 20
6.8143230976
 40
14.2246386827
100
AcDbArc
 50
7.6443181307
 51
8.0106870021
  0
ARC
  5
251
100
AcDbEntity
  8
0
100
AcDbCircle
 62
9
  6
CONTINUOUS
 10
8.3410892409
 20
-5.4422003705
 40
14.25069281
100
AcDbArc
 50
81.989491296
 51
82.3551850829
  0
ARC
  5
252
100
AcDbEntity
  8
0
100
AcDbCircle
 62
9
  6
CONTINUOUS
 10
3.6020819113
 20
5.3424831627
 40
6.7398642809
100
AcDbArc
 50
39.9574564077
 51
40.7003207963
  0
ARC
  5
253
100
AcDbEntity
  8
0
100
AcDbCircle
 62
9
  6
CONTINUOUS
 10
4.7541074019
 20
4.1932219867
 40
6.7379031155
100
AcDbArc
 50
49.2995725757
 51
50.0426531843
  0
ARC
  5
254
100
AcDbEntity
  8
0
100
AcDbCircle
 62
9
  6
CONTINUOUS
 10
3.6702780488
 20
7.8542935278
 40
6.6188918035
100
AcDbArc
 50
7.3761268928
 51
8.1646334655
  0
ARC
  5
255
100
AcDbEntity
  8
0
100
AcDbCircle
 62
9
  6
CONTINUOUS
 10
6.7544746342
 20
9.5062431052
 40
5.1647018144
100
AcDbArc
 50
5.480165893
 51
8.1075946576
  0
ARC
  5
256
100
AcDbEntity
  8
0
100
AcDbCircle
 62
9
  6
CONTINUOUS
 10
6.473135398
 20
8.20223089
 40
2.7005578597
100
AcDbArc
 50
34.3882734575
 51
34.7915092366
  0
ARC
  5
257
100
AcDbEntity
  8
0
100
AcDbCircle
 62
9
  6
CONTINUOUS
 10
7.8470819112
 20
5.3424831626
 40
6.7398642811
100
AcDbArc
 50
39.9574564077
 51
40.7003207963
  0
ARC
  5
258
100
AcDbEntity
  8
0
100
AcDbCircle
 62
9
  6
CONTINUOUS
 10
8.9991074033
 20
4.1932219854
 40
6.7379031156
100
AcDbArc
 50
49.2995725922
 51
50.0426532008
  0
ARC
  5
259
100
AcDbEntity
  8
0
100
AcDbCircle
 62
9
  6
CONTINUOUS
 10
9.3824078092
 20
2.1238621043
 40
6.635108269
100
AcDbArc
 50
81.8359269222
 51
82.6224979506
  0
ARC
  5
25A
100
AcDbEntity
  8
0
100
AcDbCircle
 62
7
  6
CONTINUOUS
 10
11.0448183383
 20
5.2294634476
 40
5.25
100
AcDbArc
 50
80.4822474196
 51
99.5177525804
  0
ARC
  5
25B
100
AcDbEntity
  8
0
100
AcDbCircle
 62
9
  6
CONTINUOUS
 10
11.0448183383
 20
5.2294634476
 40
5.2338461538
100
AcDbArc
 50
80.4822548546
 51
99.5177527473
  0
ARC
  5
25C
100
AcDbEntity
  8
0
100
AcDbCircle
 62
7
  6
CONTINUOUS
 10
11.0448183383
 20
5.2294634476
 40
5.18
100
AcDbArc
 50
82.0345212979
 51
87.7043944699
  0
ARC
  5
25D
100
AcDbEntity
  8
0
100
AcDbCircle
 62
7
  6
CONTINUOUS
 10
11.0448183383
 20
5.2294634476
 40
5.18
100
AcDbArc
 50
92.2974514375
 51
97.9654787021
  0
ARC
  5
25E
100
AcDbEntity
  8
0
100
AcDbCircle
 62
9
  6
CONTINUOUS
 10
11.0508722192
 20
5.2419921157
 40
5.1467025492
100
AcDbArc
 50
93.3698765358
 51
98.1117575632
  0
ARC
  5
25F
100
AcDbEntity
  8
0
100
AcDbCircle
 62
9
  6
CONTINUOUS
 10
11.0387646822
 20
5.2419944081
 40
5.146700248
100
AcDbArc
 50
81.888241313
 51
86.6301240187
  0
ARC
  5
260
100
AcDbEntity
  8
0
100
AcDbCircle
 62
7
  6
CONTINUOUS
 10
11.0267881361
 20
4.8973985339
 40
0.330055222
100
AcDbArc
 50
134.667243614
 51
147.5578523548
  0
ARC
  5
261
100
AcDbEntity
  8
0
100
AcDbCircle
 62
7
  6
CONTINUOUS
 10
11.0184382449
 20
4.902601755
 40
0.3202108022
100
AcDbArc
 50
147.6796580631
 51
149.8613613073
  0
ARC
  5
262
100
AcDbEntity
  8
0
100
AcDbCircle
 62
9
  6
CONTINUOUS
 10
11.0184367016
 20
4.9029514347
 40
0.3200283867
100
AcDbArc
 50
147.6776491396
 51
149.9178006327
  0
ARC
  5
263
100
AcDbEntity
  8
0
100
AcDbCircle
 62
9
  6
CONTINUOUS
 10
11.0167610028
 20
4.9039268873
 40
0.3180894456
100
AcDbArc
 50
150.0680424014
 51
152.0026637387
  0
ARC
  5
264
100
AcDbEntity
  8
0
100
AcDbCircle
 62
9
  6
CONTINUOUS
 10
11.0156668977
 20
4.9045172486
 40
0.3168462508
100
AcDbArc
 50
152.0040497525
 51
152.3083768684
  0
ARC
  5
265
100
AcDbEntity
  8
0
100
AcDbCircle
 62
9
  6
CONTINUOUS
 10
11.0145680673
 20
4.9050854607
 40
0.3156092234
100
AcDbArc
 50
152.3070134252
 51
156.1729740019
  0
ARC
  5
266
100
AcDbEntity
  8
0
100
AcDbCircle
 62
7
  6
CONTINUOUS
 10
11.0114974639
 20
4.9042101942
 40
0.3131065058
100
AcDbArc
 50
179.2568738993
 51
179.9999498817
  0
ARC
  5
267
100
AcDbEntity
  8
0
100
AcDbCircle
 62
9
  6
CONTINUOUS
 10
11.0070930857
 20
4.9079679497
 40
0.3076016131
100
AcDbArc
 50
156.1016526014
 51
179.9509060272
  0
ARC
  5
268
100
AcDbEntity
  8
0
100
AcDbCircle
 62
9
  6
CONTINUOUS
 10
11.0039694659
 20
4.9078872478
 40
0.3046511254
100
AcDbArc
 50
179.9987360771
 51
180.6835300549
  0
ARC
  5
269
100
AcDbEntity
  8
0
100
AcDbCircle
 62
9
  6
CONTINUOUS
 10
10.2377552815
 20
7.0617543656
 40
2.7018024969
100
AcDbArc
 50
124.3883098602
 51
124.7913602503
  0
ARC
  5
26A
100
AcDbEntity
  8
0
100
AcDbCircle
 62
9
  6
CONTINUOUS
 10
10.7202865301
 20
8.2037216855
 40
2.6979406551
100
AcDbArc
 50
34.3879481959
 51
34.7915760095
  0
ARC
  5
26B
100
AcDbEntity
  8
0
100
AcDbCircle
 62
9
  6
CONTINUOUS
 10
7.6157039412
 20
7.0673005377
 40
2.6950666656
100
AcDbArc
 50
55.2081002004
 51
55.612157945
  0
ARC
  5
26C
100
AcDbEntity
  8
0
100
AcDbCircle
 62
7
  6
CONTINUOUS
 10
8.9248183383
 20
8.9944634476
 40
0.8
100
AcDbArc
 50
73.1255057021
 51
106.8744942979
  0
ARC
  5
26D
100
AcDbEntity
  8
0
100
AcDbCircle
 62
9
  6
CONTINUOUS
 10
8.9248183383
 20
8.9944634476
 40
0.7878145996
100
AcDbArc
 50
73.1255077407
 51
106.8744942979
  0
ARC
  5
26E
100
AcDbEntity
  8
0
100
AcDbCircle
 62
9
  6
CONTINUOUS
 10
8.9248183383
 20
8.9944634476
 40
0.7730384663
100
AcDbArc
 50
74.0031486957
 51
105.9968513043
  0
ARC
  5
26F
100
AcDbEntity
  8
0
100
AcDbCircle
 62
9
  6
CONTINUOUS
 10
8.9248183383
 20
8.9944634476
 40
0.694349204
100
AcDbArc
 50
76.9753274976
 51
103.0246719638
  0
ARC
  5
270
100
AcDbEntity
  8
0
100
AcDbCircle
 62
7
  6
CONTINUOUS
 10
9.5712887585
 20
8.7511793835
 40
0.291
100
AcDbArc
 50
36.5124119026
 51
92.1632392682
  0
ARC
  5
271
100
AcDbEntity
  8
0
100
AcDbCircle
 62
7
  6
CONTINUOUS
 10
9.3598183383
 20
9.0744634476
 40
0.06
100
AcDbArc
 50
0.0
 51
90.0
  0
ARC
  5
272
100
AcDbEntity
  8
0
100
AcDbCircle
 62
9
  6
CONTINUOUS
 10
9.1161577593
 20
9.3231240266
 40
0.0566168132
100
AcDbArc
 50
311.269349197
 51
318.730650803
  0
ARC
  5
273
100
AcDbEntity
  8
0
100
AcDbCircle
 62
9
  6
CONTINUOUS
 10
8.7334789173
 20
9.3231240266
 40
0.0566168132
100
AcDbArc
 50
221.269349197
 51
228.730650803
  0
ARC
  5
274
100
AcDbEntity
  8
0
100
AcDbCircle
 62
7
  6
CONTINUOUS
 10
8.5373586714
 20
9.1570037806
 40
0.0525403331
100
AcDbArc
 50
180.0
 51
334.5952455743
  0
ARC
  5
275
100
AcDbEntity
  8
0
100
AcDbCircle
 62
7
  6
CONTINUOUS
 10
9.5036182548
 20
9.0669634476
 40
0.036
100
AcDbArc
 50
230.5067866396
 51
308.0122795444
  0
ARC
  5
276
100
AcDbEntity
  8
0
100
AcDbCircle
 62
7
  6
CONTINUOUS
 10
10.1816746884
 20
8.6513197977
 40
0.03
100
AcDbArc
 50
189.5177525804
 51
260.4822474196
  0
ARC
  5
277
100
AcDbEntity
  8
0
100
AcDbCircle
 62
7
  6
CONTINUOUS
 10
9.4616431249
 20
9.0160312528
 40
0.03
100
AcDbArc
 50
50.5067866393
 51
109.4240083989
  0
ARC
  5
278
100
AcDbEntity
  8
0
100
AcDbCircle
 62
7
  6
CONTINUOUS
 10
9.5442630577
 20
9.0149634476
 40
0.03
100
AcDbArc
 50
68.2132107017
 51
128.0122795444
  0
ARC
  5
279
100
AcDbEntity
  8
0
100
AcDbCircle
 62
7
  6
CONTINUOUS
 10
9.4437183383
 20
9.0668634476
 40
0.0239
100
AcDbArc
 50
180.0
 51
289.4240083987
  0
ARC
  5
27A
100
AcDbEntity
  8
0
100
AcDbCircle
 62
7
  6
CONTINUOUS
 10
9.1512337986
 20
9.2880479873
 40
0.02
100
AcDbArc
 50
286.8744942979
 51
343.1255057021
  0
ARC
  5
27B
100
AcDbEntity
  8
0
100
AcDbCircle
 62
7
  6
CONTINUOUS
 10
8.698402878
 20
9.2880479873
 40
0.02
100
AcDbArc
 50
196.8744942979
 51
253.125505702
  0
ARC
  5
27C
100
AcDbEntity
  8
0
100
AcDbCircle
 62
7
  6
CONTINUOUS
 10
9.8148183383
 20
8.9314634476
 40
0.012
100
AcDbArc
 50
216.5124119026
 51
270.0
  0
ARC
  5
27D
100
AcDbEntity
  8
0
100
AcDbCircle
 62
7
  6
CONTINUOUS
 10
9.5598515149
 20
9.0539634476
 40
0.012
100
AcDbArc
 50
248.2132107017
 51
272.1632392682
  0
ARC
  5
27E
100
AcDbEntity
  8
0
100
AcDbCircle
 62
9
  6
CONTINUOUS
 10
-3.8861169087
 20
12.2146144003
 40
14.2247166548
100
AcDbArc
 50
351.9893140685
 51
352.3556811169
  0
ARC
  5
27F
100
AcDbEntity
  8
0
100
AcDbCircle
 62
9
  6
CONTINUOUS
 10
3.6693420263
 20
11.174760865
 40
6.6198364456
100
AcDbArc
 50
351.8354247555
 51
352.6238192425
  0
ARC
  5
280
100
AcDbEntity
  8
0
100
AcDbCircle
 62
7
  6
CONTINUOUS
 10
6.7598183383
 20
9.5144634476
 40
5.25
100
AcDbArc
 50
5.3006214015
 51
9.5177525804
  0
ARC
  5
281
100
AcDbEntity
  8
0
100
AcDbCircle
 62
7
  6
CONTINUOUS
 10
6.7598183383
 20
9.5144634476
 40
5.25
100
AcDbArc
 50
350.4822474196
 51
354.6993785985
  0
ARC
  5
282
100
AcDbEntity
  8
0
100
AcDbCircle
 62
9
  6
CONTINUOUS
 10
6.7598183383
 20
9.5144634476
 40
5.2338461538
100
AcDbArc
 50
5.3170595537
 51
9.5177604782
  0
ARC
  5
283
100
AcDbEntity
  8
0
100
AcDbCircle
 62
9
  6
CONTINUOUS
 10
6.7598183383
 20
9.5144634476
 40
5.2338461538
100
AcDbArc
 50
350.4822471187
 51
354.6829404317
  0
ARC
  5
284
100
AcDbEntity
  8
0
100
AcDbCircle
 62
7
  6
CONTINUOUS
 10
6.7598183383
 20
9.5144634476
 40
5.18
100
AcDbArc
 50
352.0345010231
 51
354.6341861248
  0
ARC
  5
285
100
AcDbEntity
  8
0
100
AcDbCircle
 62
7
  6
CONTINUOUS
 10
6.7598183383
 20
9.5144634476
 40
5.18
100
AcDbArc
 50
5.3658135877
 51
7.9654989769
  0
ARC
  5
286
100
AcDbEntity
  8
0
100
AcDbCircle
 62
9
  6
CONTINUOUS
 10
6.7468360089
 20
9.5235938014
 40
5.1723924357
100
AcDbArc
 50
351.8943591244
 51
354.5178767799
  0
ARC
  5
287
100
AcDbEntity
  8
0
100
AcDbCircle
 62
9
  6
CONTINUOUS
 10
6.4776554245
 20
10.8235778392
 40
2.6950666657
100
AcDbArc
 50
325.2081003416
 51
325.6121580862
  0
ARC
  5
288
100
AcDbEntity
  8
0
100
AcDbCircle
 62
9
  6
CONTINUOUS
 10
4.7528380541
 20
14.8371998751
 40
6.7398642809
100
AcDbArc
 50
309.9574563999
 51
310.7003207885
  0
ARC
  5
289
100
AcDbEntity
  8
0
100
AcDbCircle
 62
9
  6
CONTINUOUS
 10
3.6035768825
 20
13.6851743901
 40
6.7379031156
100
AcDbArc
 50
319.2995725079
 51
320.0426531164
  0
ARC
  5
28A
100
AcDbEntity
  8
0
100
AcDbCircle
 62
7
  6
CONTINUOUS
 10
8.4048183383
 20
9.5144634476
 40
0.8
100
AcDbArc
 50
343.1255057021
 51
16.8744942979
  0
ARC
  5
28B
100
AcDbEntity
  8
0
100
AcDbCircle
 62
7
  6
CONTINUOUS
 10
8.9248183383
 20
10.0344634476
 40
0.8
100
AcDbArc
 50
253.1255057021
 51
286.8744942979
  0
ARC
  5
28C
100
AcDbEntity
  8
0
100
AcDbCircle
 62
9
  6
CONTINUOUS
 10
8.4048183383
 20
9.5144634476
 40
0.7878145996
100
AcDbArc
 50
343.1255057021
 51
16.8744942979
  0
ARC
  5
28D
100
AcDbEntity
  8
0
100
AcDbCircle
 62
9
  6
CONTINUOUS
 10
8.9248183383
 20
10.0344634476
 40
0.7878145996
100
AcDbArc
 50
253.1255057021
 51
286.8744942979
  0
ARC
  5
28E
100
AcDbEntity
  8
0
100
AcDbCircle
 62
9
  6
CONTINUOUS
 10
8.4048183383
 20
9.5144634476
 40
0.7730384663
100
AcDbArc
 50
344.0031486957
 51
15.9968513043
  0
ARC
  5
28F
100
AcDbEntity
  8
0
100
AcDbCircle
 62
9
  6
CONTINUOUS
 10
8.9248183383
 20
10.0344634476
 40
0.7730384663
100
AcDbArc
 50
254.0031486957
 51
285.9968513043
  0
ARC
  5
290
100
AcDbEntity
  8
0
100
AcDbCircle
 62
9
  6
CONTINUOUS
 10
8.9248183383
 20
10.0344634476
 40
0.694349204
100
AcDbArc
 50
256.9753274976
 51
283.0246719638
  0
ARC
  5
291
100
AcDbEntity
  8
0
100
AcDbCircle
 62
9
  6
CONTINUOUS
 10
8.4048183383
 20
9.5144634476
 40
0.694349204
100
AcDbArc
 50
346.9753278663
 51
13.0246716099
  0
ARC
  5
292
100
AcDbEntity
  8
0
100
AcDbCircle
 62
9
  6
CONTINUOUS
 10
8.7334789174
 20
9.7058028685
 40
0.0566168133
100
AcDbArc
 50
131.2693492027
 51
138.7306507973
  0
ARC
  5
293
100
AcDbEntity
  8
0
100
AcDbCircle
 62
9
  6
CONTINUOUS
 10
9.1161577592
 20
9.7058028685
 40
0.0566168133
100
AcDbArc
 50
41.2693492026
 51
48.7306507974
  0
ARC
  5
294
100
AcDbEntity
  8
0
100
AcDbCircle
 62
7
  6
CONTINUOUS
 10
8.5373586714
 20
9.8719231145
 40
0.0525403331
100
AcDbArc
 50
25.4047544257
 51
180.0
  0
ARC
  5
295
100
AcDbEntity
  8
0
100
AcDbCircle
 62
7
  6
CONTINUOUS
 10
8.698402878
 20
9.7408789078
 40
0.02
100
AcDbArc
 50
106.8744942979
 51
163.1255057021
  0
ARC
  5
296
100
AcDbEntity
  8
0
100
AcDbCircle
 62
7
  6
CONTINUOUS
 10
9.1512337986
 20
9.7408789078
 40
0.02
100
AcDbArc
 50
16.8744942979
 51
73.1255057021
  0
ARC
  5
297
100
AcDbEntity
  8
0
100
AcDbCircle
 62
9
  6
CONTINUOUS
 10
7.6147789455
 20
11.9629720401
 40
2.6966995715
100
AcDbArc
 50
304.3879118139
 51
304.7917250164
  0
ARC
  5
298
100
AcDbEntity
  8
0
100
AcDbCircle
 62
7
  6
CONTINUOUS
 10
9.4448183383
 20
9.5144634476
 40
0.8
100
AcDbArc
 50
163.1255057021
 51
196.8744942979
  0
ARC
  5
299
100
AcDbEntity
  8
0
100
AcDbCircle
 62
9
  6
CONTINUOUS
 10
9.4448183383
 20
9.5144634476
 40
0.7878145996
100
AcDbArc
 50
163.1255077407
 51
196.8744942979
  0
ARC
  5
29A
100
AcDbEntity
  8
0
100
AcDbCircle
 62
9
  6
CONTINUOUS
 10
9.4448183383
 20
9.5144634476
 40
0.7730384663
100
AcDbArc
 50
164.0031486957
 51
195.9968513043
  0
ARC
  5
29B
100
AcDbEntity
  8
0
100
AcDbCircle
 62
9
  6
CONTINUOUS
 10
9.4448183383
 20
9.5144634476
 40
0.694349204
100
AcDbArc
 50
166.9753278663
 51
193.0246716099
  0
ARC
  5
29C
100
AcDbEntity
  8
0
100
AcDbCircle
 62
7
  6
CONTINUOUS
 10
9.5712887585
 20
10.2777475116
 40
0.291
100
AcDbArc
 50
267.8367607318
 51
323.4875880974
  0
ARC
  5
29D
100
AcDbEntity
  8
0
100
AcDbCircle
 62
7
  6
CONTINUOUS
 10
9.3598183383
 20
9.9544634476
 40
0.06
100
AcDbArc
 50
270.0
 51
360.0
  0
ARC
  5
29E
100
AcDbEntity
  8
0
100
AcDbCircle
 62
7
  6
CONTINUOUS
 10
9.5036182548
 20
9.9619634476
 40
0.036
100
AcDbArc
 50
51.9877204556
 51
129.4932133604
  0
ARC
  5
29F
100
AcDbEntity
  8
0
100
AcDbCircle
 62
7
  6
CONTINUOUS
 10
10.1816746884
 20
10.3776070974
 40
0.03
100
AcDbArc
 50
99.5177525804
 51
170.4822474196
  0
ARC
  5
2A0
100
AcDbEntity
  8
0
100
AcDbCircle
 62
7
  6
CONTINUOUS
 10
9.4616431249
 20
10.0128956424
 40
0.03
100
AcDbArc
 50
250.5759916011
 51
309.4932133607
  0
ARC
  5
2A1
100
AcDbEntity
  8
0
100
AcDbCircle
 62
7
  6
CONTINUOUS
 10
9.5442630577
 20
10.0139634476
 40
0.03
100
AcDbArc
 50
231.9877204556
 51
291.7867892983
  0
ARC
  5
2A2
100
AcDbEntity
  8
0
100
AcDbCircle
 62
7
  6
CONTINUOUS
 10
9.4437183383
 20
9.9620634476
 40
0.0239
100
AcDbArc
 50
70.5759916013
 51
180.0
  0
ARC
  5
2A3
100
AcDbEntity
  8
0
100
AcDbCircle
 62
7
  6
CONTINUOUS
 10
9.8148183383
 20
10.0974634476
 40
0.012
100
AcDbArc
 50
90.0
 51
143.4875880974
  0
ARC
  5
2A4
100
AcDbEntity
  8
0
100
AcDbCircle
 62
7
  6
CONTINUOUS
 10
9.5598515149
 20
9.9749634476
 40
0.012
100
AcDbArc
 50
87.8367607318
 51
111.7867892983
  0
ARC
  5
2A5
100
AcDbEntity
  8
0
100
AcDbCircle
 62
7
  6
CONTINUOUS
 10
11.0448183383
 20
9.5144634476
 40
0.915
100
AcDbArc
 50
285.8633462386
 51
254.1366537614
  0
ARC
  5
2A6
100
AcDbEntity
  8
0
100
AcDbCircle
 62
9
  6
CONTINUOUS
 10
11.0448183383
 20
9.5144634476
 40
0.9008790903
100
AcDbArc
 50
286.1181203939
 51
253.8818796061
  0
ARC
  5
2A7
100
AcDbEntity
  8
0
100
AcDbCircle
 62
9
  6
CONTINUOUS
 10
11.0448183383
 20
9.5144634476
 40
0.713787791
100
AcDbArc
 50
290.5057264335
 51
249.4942735664
  0
ARC
  5
2A8
100
AcDbEntity
  8
0
100
AcDbCircle
 62
9
  6
CONTINUOUS
 10
11.0448183383
 20
9.5144634476
 40
0.6964165168
100
AcDbArc
 50
291.0486615533
 51
248.9513384468
  0
ARC
  5
2A9
100
AcDbEntity
  8
0
100
AcDbCircle
 62
9
  6
CONTINUOUS
 10
11.0448183383
 20
9.5144634476
 40
0.5668160424
100
AcDbArc
 50
296.1853041108
 51
243.8146958891
  0
ARC
  5
2AA
100
AcDbEntity
  8
0
100
AcDbCircle
 62
7
  6
CONTINUOUS
 10
11.0448183383
 20
9.5144634476
 40
0.547
100
AcDbArc
 50
297.1992407551
 51
242.8007592449
  0
ARC
  5
2AB
100
AcDbEntity
  8
0
100
AcDbCircle
 62
9
  6
CONTINUOUS
 10
11.0448183383
 20
9.5144634476
 40
0.5405406455
100
AcDbArc
 50
297.5660692739
 51
242.4339307231
  0
ARC
  5
2AC
100
AcDbEntity
  8
0
100
AcDbCircle
 62
7
  6
CONTINUOUS
 10
11.0448183383
 20
9.5144634476
 40
0.539
100
AcDbArc
 50
297.6382970274
 51
242.3617029726
  0
ARC
  5
2AD
100
AcDbEntity
  8
0
100
AcDbCircle
 62
7
  6
CONTINUOUS
 10
11.0448183383
 20
9.5144634476
 40
0.505
100
AcDbArc
 50
299.6787839862
 51
240.3212160138
  0
ARC
  5
2AE
100
AcDbEntity
  8
0
100
AcDbCircle
 62
7
  6
CONTINUOUS
 10
11.0448183383
 20
9.5144634476
 40
0.25
100
AcDbArc
 50
0.0
 51
180.0
  0
ARC
  5
2AF
100
AcDbEntity
  8
0
100
AcDbCircle
 62
9
  6
CONTINUOUS
 10
10.7226554243
 20
10.8235778394
 40
2.695066666
100
AcDbArc
 50
325.2081003416
 51
325.6121580862
  0
ARC
  5
2B0
100
AcDbEntity
  8
0
100
AcDbCircle
 62
9
  6
CONTINUOUS
 10
10.2339327335
 20
11.961626359
 40
2.6950666659
100
AcDbArc
 50
235.208100251
 51
235.6121579956
  0
ARC
  5
2B1
100
AcDbEntity
  8
0
100
AcDbCircle
 62
9
  6
CONTINUOUS
 10
8.9978380542
 20
14.8371998752
 40
6.7398642809
100
AcDbArc
 50
309.9574563986
 51
310.7003207872
  0
ARC
  5
2B2
100
AcDbEntity
  8
0
100
AcDbCircle
 62
9
  6
CONTINUOUS
 10
7.8485768825
 20
13.6851743901
 40
6.7379031156
100
AcDbArc
 50
319.2995725078
 51
320.0426531164
  0
ARC
  5
2B3
100
AcDbEntity
  8
0
100
AcDbCircle
 62
9
  6
CONTINUOUS
 10
9.3824277097
 20
16.9049466033
 40
6.6349884551
100
AcDbArc
 50
277.3774627588
 51
278.164063759
  0
ARC
  5
2B4
100
AcDbEntity
  8
0
100
AcDbCircle
 62
7
  6
CONTINUOUS
 10
11.0448183383
 20
13.7994634476
 40
5.25
100
AcDbArc
 50
272.7296645494
 51
279.5177525804
  0
ARC
  5
2B5
100
AcDbEntity
  8
0
100
AcDbCircle
 62
7
  6
CONTINUOUS
 10
11.0448183383
 20
13.7994634476
 40
5.25
100
AcDbArc
 50
260.4822474196
 51
267.2703354506
  0
ARC
  5
2B6
100
AcDbEntity
  8
0
100
AcDbCircle
 62
9
  6
CONTINUOUS
 10
11.0448183383
 20
13.7994634476
 40
5.2338461538
100
AcDbArc
 50
272.7380916461
 51
279.5177527473
  0
ARC
  5
2B7
100
AcDbEntity
  8
0
100
AcDbCircle
 62
9
  6
CONTINUOUS
 10
11.0448183383
 20
13.7994634476
 40
5.2338461538
100
AcDbArc
 50
260.4822395218
 51
267.2619083498
  0
ARC
  5
2B8
100
AcDbEntity
  8
0
100
AcDbCircle
 62
7
  6
CONTINUOUS
 10
11.0448183383
 20
13.7994634476
 40
5.18
100
AcDbArc
 50
272.7648015975
 51
277.9654989769
  0
ARC
  5
2B9
100
AcDbEntity
  8
0
100
AcDbCircle
 62
7
  6
CONTINUOUS
 10
11.0448183383
 20
13.7994634476
 40
5.18
100
AcDbArc
 50
262.0345010231
 51
267.2352059233
  0
ARC
  5
2BA
100
AcDbEntity
  8
0
100
AcDbCircle
 62
9
  6
CONTINUOUS
 10
11.0387644394
 20
13.7869349854
 40
5.1467027559
100
AcDbArc
 50
273.3698766623
 51
278.1117778782
  0
ARC
  5
2BB
100
AcDbEntity
  8
0
100
AcDbCircle
 62
9
  6
CONTINUOUS
 10
11.0508720125
 20
13.7869326936
 40
5.1467004553
100
AcDbArc
 50
261.8882209981
 51
266.6301238904
  0
ARC
  5
2BC
100
AcDbEntity
  8
0
100
AcDbCircle
 62
9
  6
CONTINUOUS
 10
8.3410977969
 20
24.4711128219
 40
14.2506773163
100
AcDbArc
 50
277.6447885128
 51
278.010490102
  0
ARC
  5
2BD
100
AcDbEntity
  8
0
100
AcDbCircle
 62
9
  6
CONTINUOUS
 10
13.7485500387
 20
-5.4422192527
 40
14.2507118707
100
AcDbArc
 50
97.6448153149
 51
98.0105084879
  0
ARC
  5
2BE
100
AcDbEntity
  8
0
100
AcDbCircle
 62
9
  6
CONTINUOUS
 10
13.0967986229
 20
4.1917270203
 40
6.739864281
100
AcDbArc
 50
129.9574564042
 51
130.7003207928
  0
ARC
  5
2BF
100
AcDbEntity
  8
0
100
AcDbCircle
 62
9
  6
CONTINUOUS
 10
14.2460597991
 20
5.3437525111
 40
6.7379031156
100
AcDbArc
 50
139.299572575
 51
140.0426531836
  0
ARC
  5
2C0
100
AcDbEntity
  8
0
100
AcDbCircle
 62
9
  6
CONTINUOUS
 10
12.7072140878
 20
2.123972052
 40
6.6349973367
100
AcDbArc
 50
97.377497826
 51
98.1640815722
  0
ARC
  5
2C1
100
AcDbEntity
  8
0
100
AcDbCircle
 62
7
  6
CONTINUOUS
 10
11.0628483803
 20
4.8973984156
 40
0.3300554207
100
AcDbArc
 50
32.4421500704
 51
45.3331760221
  0
ARC
  5
2C2
100
AcDbEntity
  8
0
100
AcDbCircle
 62
9
  6
CONTINUOUS
 10
11.0714526988
 20
4.9031045035
 40
0.3197329786
100
AcDbArc
 50
30.0811749792
 51
32.3234185776
  0
ARC
  5
2C3
100
AcDbEntity
  8
0
100
AcDbCircle
 62
9
  6
CONTINUOUS
 10
11.0731326659
 20
4.9040690991
 40
0.3177957719
100
AcDbArc
 50
28.0174482022
 51
29.9328409047
  0
ARC
  5
2C4
100
AcDbEntity
  8
0
100
AcDbCircle
 62
9
  6
CONTINUOUS
 10
11.073964493
 20
4.9045144719
 40
0.3168522216
100
AcDbArc
 50
27.6806493643
 51
28.0170080214
  0
ARC
  5
2C5
100
AcDbEntity
  8
0
100
AcDbCircle
 62
9
  6
CONTINUOUS
 10
11.0754869526
 20
4.9052871327
 40
0.3151450733
100
AcDbArc
 50
23.8743306953
 51
27.6848341599
  0
ARC
  5
2C6
100
AcDbEntity
  8
0
100
AcDbCircle
 62
7
  6
CONTINUOUS
 10
11.0781392153
 20
4.9042101942
 40
0.3131065033
100
AcDbArc
 50
0.0000501272
 51
0.7431248819
  0
ARC
  5
2C7
100
AcDbEntity
  8
0
100
AcDbCircle
 62
9
  6
CONTINUOUS
 10
11.0856672107
 20
4.9078872478
 40
0.3046511254
100
AcDbArc
 50
359.3164699451
 51
0.0012639229
  0
ARC
  5
2C8
100
AcDbEntity
  8
0
100
AcDbCircle
 62
9
  6
CONTINUOUS
 10
14.4798577278
 20
7.0659548533
 40
2.696699571
100
AcDbArc
 50
124.3879117364
 51
124.791724939
  0
ARC
  5
2C9
100
AcDbEntity
  8
0
100
AcDbCircle
 62
9
  6
CONTINUOUS
 10
11.8607039407
 20
7.0673005375
 40
2.695066666
100
AcDbArc
 50
55.2081001942
 51
55.6121579387
  0
ARC
  5
2CA
100
AcDbEntity
  8
0
100
AcDbCircle
 62
9
  6
CONTINUOUS
 10
11.3719812513
 20
8.2053490549
 40
2.6950666657
100
AcDbArc
 50
145.2081003149
 51
145.6121580595
  0
ARC
  5
2CB
100
AcDbEntity
  8
0
100
AcDbCircle
 62
7
  6
CONTINUOUS
 10
13.1698183383
 20
8.9944634476
 40
0.8
100
AcDbArc
 50
73.1255057021
 51
106.8744942979
  0
ARC
  5
2CC
100
AcDbEntity
  8
0
100
AcDbCircle
 62
9
  6
CONTINUOUS
 10
13.1698183383
 20
8.9944634476
 40
0.7878145996
100
AcDbArc
 50
73.1255057021
 51
106.8744942979
  0
ARC
  5
2CD
100
AcDbEntity
  8
0
100
AcDbCircle
 62
9
  6
CONTINUOUS
 10
13.1698183383
 20
8.9944634476
 40
0.7730384663
100
AcDbArc
 50
74.0031486957
 51
105.9968513043
  0
ARC
  5
2CE
100
AcDbEntity
  8
0
100
AcDbCircle
 62
9
  6
CONTINUOUS
 10
13.1698183383
 20
8.9944634476
 40
0.694349204
100
AcDbArc
 50
76.9753274976
 51
103.0246719638
  0
ARC
  5
2CF
100
AcDbEntity
  8
0
100
AcDbCircle
 62
7
  6
CONTINUOUS
 10
12.5233479181
 20
8.7511793835
 40
0.291
100
AcDbArc
 50
87.8367607318
 51
143.4875880974
  0
ARC
  5
2D0
100
AcDbEntity
  8
0
100
AcDbCircle
 62
7
  6
CONTINUOUS
 10
12.7348183383
 20
9.0744634476
 40
0.06
100
AcDbArc
 50
90.0
 51
180.0
  0
ARC
  5
2D1
100
AcDbEntity
  8
0
100
AcDbCircle
 62
9
  6
CONTINUOUS
 10
12.9784789174
 20
9.3231240267
 40
0.0566168133
100
AcDbArc
 50
221.2693492026
 51
228.7306507974
  0
ARC
  5
2D2
100
AcDbEntity
  8
0
100
AcDbCircle
 62
9
  6
CONTINUOUS
 10
13.3611577592
 20
9.3231240267
 40
0.0566168133
100
AcDbArc
 50
311.2693492027
 51
318.7306507973
  0
ARC
  5
2D3
100
AcDbEntity
  8
0
100
AcDbCircle
 62
7
  6
CONTINUOUS
 10
13.5572780052
 20
9.1570037806
 40
0.0525403331
100
AcDbArc
 50
205.4047544257
 51
360.0
  0
ARC
  5
2D4
100
AcDbEntity
  8
0
100
AcDbCircle
 62
7
  6
CONTINUOUS
 10
12.5910184218
 20
9.0669634476
 40
0.036
100
AcDbArc
 50
231.9877204556
 51
309.4932133604
  0
ARC
  5
2D5
100
AcDbEntity
  8
0
100
AcDbCircle
 62
7
  6
CONTINUOUS
 10
11.9079619882
 20
8.6513197977
 40
0.03
100
AcDbArc
 50
279.5177525804
 51
350.4822474196
  0
ARC
  5
2D6
100
AcDbEntity
  8
0
100
AcDbCircle
 62
7
  6
CONTINUOUS
 10
12.6329935517
 20
9.0160312528
 40
0.03
100
AcDbArc
 50
70.5759916011
 51
129.4932133607
  0
ARC
  5
2D7
100
AcDbEntity
  8
0
100
AcDbCircle
 62
7
  6
CONTINUOUS
 10
12.5503736189
 20
9.0149634476
 40
0.03
100
AcDbArc
 50
51.9877204556
 51
111.7867892983
  0
ARC
  5
2D8
100
AcDbEntity
  8
0
100
AcDbCircle
 62
7
  6
CONTINUOUS
 10
12.6509183383
 20
9.0668634476
 40
0.0239
100
AcDbArc
 50
250.5759916013
 51
360.0
  0
ARC
  5
2D9
100
AcDbEntity
  8
0
100
AcDbCircle
 62
7
  6
CONTINUOUS
 10
12.943402878
 20
9.2880479873
 40
0.02
100
AcDbArc
 50
196.8744942979
 51
253.1255057021
  0
ARC
  5
2DA
100
AcDbEntity
  8
0
100
AcDbCircle
 62
7
  6
CONTINUOUS
 10
13.3962337986
 20
9.2880479873
 40
0.02
100
AcDbArc
 50
286.8744942979
 51
343.1255057021
  0
ARC
  5
2DB
100
AcDbEntity
  8
0
100
AcDbCircle
 62
7
  6
CONTINUOUS
 10
12.2798183383
 20
8.9314634476
 40
0.012
100
AcDbArc
 50
270.0
 51
323.4875880974
  0
ARC
  5
2DC
100
AcDbEntity
  8
0
100
AcDbCircle
 62
7
  6
CONTINUOUS
 10
12.5347851616
 20
9.0539634476
 40
0.012
100
AcDbArc
 50
267.8367607318
 51
291.7867892983
  0
ARC
  5
2DD
100
AcDbEntity
  8
0
100
AcDbCircle
 62
9
  6
CONTINUOUS
 10
17.3417986225
 20
4.19172702
 40
6.739864281
100
AcDbArc
 50
129.9574564
 51
130.7003207886
  0
ARC
  5
2DE
100
AcDbEntity
  8
0
100
AcDbCircle
 62
9
  6
CONTINUOUS
 10
18.4910597991
 20
5.3437525111
 40
6.7379031156
100
AcDbArc
 50
139.299572575
 51
140.0426531836
  0
ARC
  5
2DF
100
AcDbEntity
  8
0
100
AcDbCircle
 62
9
  6
CONTINUOUS
 10
18.4203014562
 20
7.8541611153
 40
6.6198438786
100
AcDbArc
 50
171.8354069047
 51
172.6237842679
  0
ARC
  5
2E0
100
AcDbEntity
  8
0
100
AcDbCircle
 62
9
  6
CONTINUOUS
 10
15.3428004833
 20
9.5053331151
 40
5.1723922501
100
AcDbArc
 50
171.8943794094
 51
174.5178768061
  0
ARC
  5
2E1
100
AcDbEntity
  8
0
100
AcDbCircle
 62
9
  6
CONTINUOUS
 10
15.6169812514
 20
8.2053490549
 40
2.6950666658
100
AcDbArc
 50
145.2081003149
 51
145.6121580595
  0
ARC
  5
2E2
100
AcDbEntity
  8
0
100
AcDbCircle
 62
9
  6
CONTINUOUS
 10
25.9757871377
 20
6.814301314
 40
14.2247514366
100
AcDbArc
 50
171.9892956894
 51
172.3556542991
  0
ARC
  5
2E3
100
AcDbEntity
  8
0
100
AcDbCircle
 62
7
  6
CONTINUOUS
 10
12.6498183383
 20
9.5144634476
 40
0.8
100
AcDbArc
 50
343.1255057021
 51
16.8744942979
  0
ARC
  5
2E4
100
AcDbEntity
  8
0
100
AcDbCircle
 62
9
  6
CONTINUOUS
 10
12.6498183383
 20
9.5144634476
 40
0.7878145996
100
AcDbArc
 50
343.1255077407
 51
16.8744942979
  0
ARC
  5
2E5
100
AcDbEntity
  8
0
100
AcDbCircle
 62
9
  6
CONTINUOUS
 10
12.6498183383
 20
9.5144634476
 40
0.7730384663
100
AcDbArc
 50
344.0031486957
 51
15.9968513043
  0
ARC
  5
2E6
100
AcDbEntity
  8
0
100
AcDbCircle
 62
9
  6
CONTINUOUS
 10
12.6498183383
 20
9.5144634476
 40
0.694349204
100
AcDbArc
 50
346.9753278663
 51
13.0246716099
  0
ARC
  5
2E7
100
AcDbEntity
  8
0
100
AcDbCircle
 62
7
  6
CONTINUOUS
 10
12.5233479181
 20
10.2777475116
 40
0.291
100
AcDbArc
 50
216.5124119026
 51
272.1632392682
  0
ARC
  5
2E8
100
AcDbEntity
  8
0
100
AcDbCircle
 62
7
  6
CONTINUOUS
 10
12.7348183383
 20
9.9544634476
 40
0.06
100
AcDbArc
 50
180.0
 51
270.0
  0
ARC
  5
2E9
100
AcDbEntity
  8
0
100
AcDbCircle
 62
7
  6
CONTINUOUS
 10
12.5910184218
 20
9.9619634476
 40
0.036
100
AcDbArc
 50
50.5067866396
 51
128.0122795444
  0
ARC
  5
2EA
100
AcDbEntity
  8
0
100
AcDbCircle
 62
7
  6
CONTINUOUS
 10
11.9079619882
 20
10.3776070974
 40
0.03
100
AcDbArc
 50
9.5177525804
 51
80.4822474196
  0
ARC
  5
2EB
100
AcDbEntity
  8
0
100
AcDbCircle
 62
7
  6
CONTINUOUS
 10
12.6329935517
 20
10.0128956424
 40
0.03
100
AcDbArc
 50
230.5067866393
 51
289.4240083989
  0
ARC
  5
2EC
100
AcDbEntity
  8
0
100
AcDbCircle
 62
7
  6
CONTINUOUS
 10
12.5503736189
 20
10.0139634476
 40
0.03
100
AcDbArc
 50
248.2132107017
 51
308.0122795444
  0
ARC
  5
2ED
100
AcDbEntity
  8
0
100
AcDbCircle
 62
7
  6
CONTINUOUS
 10
12.6509183383
 20
9.9620634476
 40
0.0239
100
AcDbArc
 50
0.0
 51
109.4240083987
  0
ARC
  5
2EE
100
AcDbEntity
  8
0
100
AcDbCircle
 62
7
  6
CONTINUOUS
 10
12.2798183383
 20
10.0974634476
 40
0.012
100
AcDbArc
 50
36.5124119026
 51
90.0
  0
ARC
  5
2EF
100
AcDbEntity
  8
0
100
AcDbCircle
 62
7
  6
CONTINUOUS
 10
12.5347851616
 20
9.9749634476
 40
0.012
100
AcDbArc
 50
68.2132107017
 51
92.1632392682
  0
ARC
  5
2F0
100
AcDbEntity
  8
0
100
AcDbCircle
 62
9
  6
CONTINUOUS
 10
11.8568813923
 20
11.9671725271
 40
2.7018024965
100
AcDbArc
 50
304.3883099388
 51
304.791360329
  0
ARC
  5
2F1
100
AcDbEntity
  8
0
100
AcDbCircle
 62
9
  6
CONTINUOUS
 10
11.3743501483
 20
10.8252052075
 40
2.6979406554
100
AcDbArc
 50
214.3879481371
 51
214.7915759506
  0
ARC
  5
2F2
100
AcDbEntity
  8
0
100
AcDbCircle
 62
7
  6
CONTINUOUS
 10
13.1698183383
 20
10.0344634476
 40
0.8
100
AcDbArc
 50
253.1255057021
 51
286.8744942979
  0
ARC
  5
2F3
100
AcDbEntity
  8
0
100
AcDbCircle
 62
7
  6
CONTINUOUS
 10
13.6898183383
 20
9.5144634476
 40
0.8
100
AcDbArc
 50
163.1255057021
 51
196.8744942979
  0
ARC
  5
2F4
100
AcDbEntity
  8
0
100
AcDbCircle
 62
9
  6
CONTINUOUS
 10
13.1698183383
 20
10.0344634476
 40
0.7878145996
100
AcDbArc
 50
253.1255077407
 51
286.8744942979
  0
ARC
  5
2F5
100
AcDbEntity
  8
0
100
AcDbCircle
 62
9
  6
CONTINUOUS
 10
13.6898183383
 20
9.5144634476
 40
0.7878145996
100
AcDbArc
 50
163.1255057021
 51
196.8744942979
  0
ARC
  5
2F6
100
AcDbEntity
  8
0
100
AcDbCircle
 62
9
  6
CONTINUOUS
 10
13.1698183383
 20
10.0344634476
 40
0.7730384663
100
AcDbArc
 50
254.0031486957
 51
285.9968513043
  0
ARC
  5
2F7
100
AcDbEntity
  8
0
100
AcDbCircle
 62
9
  6
CONTINUOUS
 10
13.6898183383
 20
9.5144634476
 40
0.7730384663
100
AcDbArc
 50
164.0031486957
 51
195.9968513043
  0
ARC
  5
2F8
100
AcDbEntity
  8
0
100
AcDbCircle
 62
9
  6
CONTINUOUS
 10
13.1698183383
 20
10.0344634476
 40
0.694349204
100
AcDbArc
 50
256.9753274976
 51
283.0246719638
  0
ARC
  5
2F9
100
AcDbEntity
  8
0
100
AcDbCircle
 62
9
  6
CONTINUOUS
 10
13.6898183383
 20
9.5144634476
 40
0.694349204
100
AcDbArc
 50
166.9753278663
 51
193.0246716099
  0
ARC
  5
2FA
100
AcDbEntity
  8
0
100
AcDbCircle
 62
9
  6
CONTINUOUS
 10
13.3611577593
 20
9.7058028685
 40
0.0566168132
100
AcDbArc
 50
41.2693491969
 51
48.7306508031
  0
ARC
  5
2FB
100
AcDbEntity
  8
0
100
AcDbCircle
 62
9
  6
CONTINUOUS
 10
12.9784789173
 20
9.7058028685
 40
0.0566168132
100
AcDbArc
 50
131.269349197
 51
138.730650803
  0
ARC
  5
2FC
100
AcDbEntity
  8
0
100
AcDbCircle
 62
7
  6
CONTINUOUS
 10
13.5572780052
 20
9.8719231145
 40
0.0525403331
100
AcDbArc
 50
0.0
 51
154.5952455743
  0
ARC
  5
2FD
100
AcDbEntity
  8
0
100
AcDbCircle
 62
7
  6
CONTINUOUS
 10
13.3962337986
 20
9.7408789078
 40
0.02
100
AcDbArc
 50
16.8744942979
 51
73.125505702
  0
ARC
  5
2FE
100
AcDbEntity
  8
0
100
AcDbCircle
 62
7
  6
CONTINUOUS
 10
12.943402878
 20
9.7408789078
 40
0.02
100
AcDbArc
 50
106.8744942979
 51
163.1255057021
  0
ARC
  5
2FF
100
AcDbEntity
  8
0
100
AcDbCircle
 62
9
  6
CONTINUOUS
 10
14.4789327336
 20
11.9616263591
 40
2.6950666659
100
AcDbArc
 50
235.208100251
 51
235.6121579956
  0
ARC
  5
300
100
AcDbEntity
  8
0
100
AcDbCircle
 62
9
  6
CONTINUOUS
 10
14.2475547602
 20
13.6864437385
 40
6.739864281
100
AcDbArc
 50
219.9574564744
 51
220.700320863
  0
ARC
  5
301
100
AcDbEntity
  8
0
100
AcDbCircle
 62
9
  6
CONTINUOUS
 10
13.0955292751
 20
14.8357049082
 40
6.7379031156
100
AcDbArc
 50
229.2995725713
 51
230.0426531798
  0
ARC
  5
302
100
AcDbEntity
  8
0
100
AcDbCircle
 62
9
  6
CONTINUOUS
 10
12.7051157564
 20
16.8899397847
 40
6.6198364705
100
AcDbArc
 50
261.8354247799
 51
262.6238187948
  0
ARC
  5
303
100
AcDbEntity
  8
0
100
AcDbCircle
 62
9
  6
CONTINUOUS
 10
18.4353075869
 20
11.1768588996
 40
6.6349951692
100
AcDbArc
 50
187.377497191
 51
188.1640816625
  0
ARC
  5
304
100
AcDbEntity
  8
0
100
AcDbCircle
 62
7
  6
CONTINUOUS
 10
15.3298183383
 20
9.5144634476
 40
5.25
100
AcDbArc
 50
185.3006214015
 51
189.5177525804
  0
ARC
  5
305
100
AcDbEntity
  8
0
100
AcDbCircle
 62
7
  6
CONTINUOUS
 10
15.3298183383
 20
9.5144634476
 40
5.25
100
AcDbArc
 50
170.4822474196
 51
174.6993785985
  0
ARC
  5
306
100
AcDbEntity
  8
0
100
AcDbCircle
 62
9
  6
CONTINUOUS
 10
15.3298183383
 20
9.5144634476
 40
5.2338461538
100
AcDbArc
 50
185.3170595761
 51
189.5177451454
  0
ARC
  5
307
100
AcDbEntity
  8
0
100
AcDbCircle
 62
9
  6
CONTINUOUS
 10
15.3298183383
 20
9.5144634476
 40
5.2338461538
100
AcDbArc
 50
170.4822471187
 51
174.6829404384
  0
ARC
  5
308
100
AcDbEntity
  8
0
100
AcDbCircle
 62
7
  6
CONTINUOUS
 10
15.3298183383
 20
9.5144634476
 40
5.18
100
AcDbArc
 50
172.0345212979
 51
174.6341860603
  0
ARC
  5
309
100
AcDbEntity
  8
0
100
AcDbCircle
 62
7
  6
CONTINUOUS
 10
15.3298183383
 20
9.5144634476
 40
5.18
100
AcDbArc
 50
185.3658136535
 51
187.9654787021
  0
ARC
  5
30A
100
AcDbEntity
  8
0
100
AcDbCircle
 62
9
  6
CONTINUOUS
 10
15.3351618967
 20
9.5226837745
 40
5.164701668
100
AcDbArc
 50
185.4801658922
 51
188.1075743476
  0
ARC
  5
30B
100
AcDbEntity
  8
0
100
AcDbCircle
 62
9
  6
CONTINUOUS
 10
15.6215012816
 20
10.8266960015
 40
2.7005578602
100
AcDbArc
 50
214.3882733562
 51
214.7915091353
  0
ARC
  5
30C
100
AcDbEntity
  8
0
100
AcDbCircle
 62
9
  6
CONTINUOUS
 10
18.4925547601
 20
13.6864437384
 40
6.7398642809
100
AcDbArc
 50
219.9574564744
 51
220.700320863
  0
ARC
  5
30D
100
AcDbEntity
  8
0
100
AcDbCircle
 62
9
  6
CONTINUOUS
 10
17.3405292746
 20
14.8357049085
 40
6.7379031155
100
AcDbArc
 50
229.2995725762
 51
230.0426531849
  0
ARC
  5
30E
100
AcDbEntity
  8
0
100
AcDbCircle
 62
9
  6
CONTINUOUS
 10
13.7449709412
 20
24.4454105848
 40
14.2247286591
100
AcDbArc
 50
261.9893141609
 51
262.3556807915
  0
ARC
  5
30F
100
AcDbEntity
  8
0
100
AcDbCircle
 62
9
  6
CONTINUOUS
 10
26.0014941288
 20
12.2181941904
 40
14.2507048949
100
AcDbArc
 50
187.6448149802
 51
188.0105085468
  0
LINE
  5
310
100
AcDbEntity
  8
0
100
AcDbLine
 62
7
  6
CONTINUOUS
 10
11.390318336
 20
4.9078939683
 11
11.3903181493
 21
4.9082381856
  0
SPLINE
  5
311
100
AcDbEntity
  8
0
100
AcDbSpline
 62
7
  6
CONTINUOUS
 70
0
 71
3
 72
15
 73
11
 74
0
 42
0.0000001
 43
0.0000001
 44
0.0000000001
 40
0.0
 40
0.0
 40
0.0
 40
0.0
 40
0.1243649184
 40
0.2488000418
 40
0.373355153
 40
0.4980989086
 40
0.6230845742
 40
0.7483657886
 40
0.8739902195
 40
1.0
 40
1.0
 40
1.0
 40
1.0
 10
11.3903181493
 20
4.9082381856
 30
0.0
 10
11.3903107212
 20
4.9149448954
 30
0.0
 10
11.3898525503
 20
4.9283658064
 30
0.0
 10
11.387840128
 20
4.9484130948
 30
0.0
 10
11.3845096276
 20
4.9683055496
 30
0.0
 10
11.3798742802
 20
4.9879652086
 30
0.0
 10
11.3739517422
 20
5.0073170158
 30
0.0
 10
11.3667648065
 20
5.0262866151
 30
0.0
 10
11.3583417061
 20
5.0448002157
 30
0.0
 10
11.3519329323
 20
5.0567740855
 30
0.0
 10
11.3485364341
 20
5.0626597885
 30
0.0
  0
SPLINE
  5
312
100
AcDbEntity
  8
0
100
AcDbSpline
 62
7
  6
CONTINUOUS
 70
0
 71
3
 72
39
 73
35
 74
0
 42
0.0000001
 43
0.0000001
 44
0.0000000001
 40
0.0
 40
0.0
 40
0.0
 40
0.0
 40
0.03053989
 40
0.0611197534
 40
0.0917624661
 40
0.1224885373
 40
0.1533154907
 40
0.1842573772
 40
0.2153242228
 40
0.2465216397
 40
0.2778506333
 40
0.3093074964
 40
0.34088398
 40
0.3725675218
 40
0.4043417468
 40
0.4361869889
 40
0.4680810523
 40
0.4999999716
 40
0.5319188915
 40
0.563812957
 40
0.5956582023
 40
0.6274324313
 40
0.6591159782
 40
0.6906924675
 40
0.7221493362
 40
0.7534783354
 40
0.784675758
 40
0.8157426086
 40
0.8466844994
 40
0.8775114564
 40
0.9082375306
 40
0.9388802455
 40
0.9694601106
 40
1.0
 40
1.0
 40
1.0
 40
1.0
 10
11.3591937769
 20
4.766005724
 30
0.0
 10
11.358568337
 20
4.7565974542
 30
0.0
 10
11.3563747143
 20
4.7378177366
 30
0.0
 10
11.3502976153
 20
4.7101005844
 30
0.0
 10
11.3414902632
 20
4.6830634271
 30
0.0
 10
11.3300375086
 20
4.656954381
 30
0.0
 10
11.316048116
 20
4.63200653
 30
0.0
 10
11.299653651
 20
4.6084415928
 30
0.0
 10
11.2810064975
 20
4.586466466
 30
0.0
 10
11.2602780301
 20
4.5662720967
 30
0.0
 10
11.2376566044
 20
4.5480321921
 30
0.0
 10
11.2133456518
 20
4.531902237
 30
0.0
 10
11.1875618147
 20
4.5180186557
 30
0.0
 10
11.1605330788
 20
4.506498096
 30
0.0
 10
11.1324969547
 20
4.4974367825
 30
0.0
 10
11.1036985589
 20
4.4909101001
 30
0.0
 10
11.0743887621
 20
4.4869721934
 30
0.0
 10
11.0448222787
 20
4.4856556826
 30
0.0
 10
11.0152557633
 20
4.4869714904
 30
0.0
 10
10.9859458713
 20
4.4909087029
 30
0.0
 10
10.9571473177
 20
4.4974347007
 30
0.0
 10
10.9291109728
 20
4.5064953428
 30
0.0
 10
10.9020819529
 20
4.5180152469
 30
0.0
 10
10.8762977692
 20
4.5318981949
 30
0.0
 10
10.8519864121
 20
4.5480275492
 30
0.0
 10
10.8293645237
 20
4.5662668879
 30
0.0
 10
10.8086355373
 20
4.5864607312
 30
0.0
 10
10.7899878106
 20
4.6084353771
 30
0.0
 10
10.7735927225
 20
4.6319998852
 30
0.0
 10
10.7596026641
 20
4.6569473665
 30
0.0
 10
10.7481492053
 20
4.6830561063
 30
0.0
 10
10.7393411169
 20
4.7100930257
 30
0.0
 10
10.733263258
 20
4.7378100122
 30
0.0
 10
10.7310691177
 20
4.7565896697
 30
0.0
 10
10.7304434184
 20
4.7659979221
 30
0.0
  0
SPLINE
  5
313
100
AcDbEntity
  8
0
100
AcDbSpline
 62
7
  6
CONTINUOUS
 70
0
 71
3
 72
15
 73
11
 74
0
 42
0.0000001
 43
0.0000001
 44
0.0000000001
 40
0.0
 40
0.0
 40
0.0
 40
0.0
 40
0.1256269086
 40
0.2510153897
 40
0.3761917096
 40
0.5011850761
 40
0.6260279824
 40
0.7507524814
 40
0.8753974008
 40
1.0
 40
1.0
 40
1.0
 40
1.0
 10
11.3485364462
 20
5.0626597824
 30
0.0
 10
11.3519252406
 20
5.0567874037
 30
0.0
 10
11.3583305796
 20
5.0448381722
 30
0.0
 10
11.3667807327
 20
5.0263631584
 30
0.0
 10
11.3740314469
 20
5.0074209384
 30
0.0
 10
11.3800530339
 20
4.9880838448
 30
0.0
 10
11.3848211249
 20
4.9684251603
 30
0.0
 10
11.3883164134
 20
4.9485195796
 30
0.0
 10
11.3905244137
 20
4.9284442898
 30
0.0
 10
11.3911321711
 20
4.9149952436
 30
0.0
 10
11.3912193835
 20
4.9082710641
 30
0.0
  0
SPLINE
  5
314
100
AcDbEntity
  8
0
100
AcDbSpline
 62
7
  6
CONTINUOUS
 70
0
 71
3
 72
15
 73
11
 74
0
 42
0.0000001
 43
0.0000001
 44
0.0000000001
 40
0.0
 40
0.0
 40
0.0
 40
0.0
 40
0.1260097815
 40
0.251634213
 40
0.3769154277
 40
0.5019010933
 40
0.6266448487
 40
0.7511999594
 40
0.8756350822
 40
1.0
 40
1.0
 40
1.0
 40
1.0
 10
10.7411002866
 20
5.062659865
 30
0.0
 10
10.7377037849
 20
5.0567741597
 30
0.0
 10
10.7312950045
 20
5.044800285
 30
0.0
 10
10.7228718952
 20
5.026286676
 30
0.0
 10
10.715684952
 20
5.0073170677
 30
0.0
 10
10.7097624076
 20
4.9879652509
 30
0.0
 10
10.7051270553
 20
4.9683055818
 30
0.0
 10
10.7017965513
 20
4.9484131164
 30
0.0
 10
10.6997841268
 20
4.9283658172
 30
0.0
 10
10.6993259554
 20
4.9149448991
 30
0.0
 10
10.6993185273
 20
4.9082381856
 30
0.0
  0
LINE
  5
315
100
AcDbEntity
  8
0
100
AcDbLine
 62
7
  6
CONTINUOUS
 10
10.6993185273
 20
4.9082381856
 11
10.6993183406
 21
4.9078939683
  0
SPLINE
  5
316
100
AcDbEntity
  8
0
100
AcDbSpline
 62
7
  6
CONTINUOUS
 70
0
 71
3
 72
15
 73
11
 74
0
 42
0.0000001
 43
0.0000001
 44
0.0000000001
 40
0.0
 40
0.0
 40
0.0
 40
0.0
 40
0.1246025321
 40
0.2492474127
 40
0.3739718855
 40
0.4988147884
 40
0.6238081676
 40
0.7489845148
 40
0.874373038
 40
1.0
 40
1.0
 40
1.0
 40
1.0
 10
10.6984172932
 20
4.9082710709
 30
0.0
 10
10.6985045057
 20
4.9149952501
 30
0.0
 10
10.6991122635
 20
4.9284442975
 30
0.0
 10
10.7013202646
 20
4.9485195905
 30
0.0
 10
10.7048155554
 20
4.9684251774
 30
0.0
 10
10.7095836498
 20
4.9880838709
 30
0.0
 10
10.715605242
 20
5.0074209757
 30
0.0
 10
10.7228559645
 20
5.0263632086
 30
0.0
 10
10.7313061296
 20
5.0448382355
 30
0.0
 10
10.7377114756
 20
5.056787477
 30
0.0
 10
10.7411002757
 20
5.0626598598
 30
0.0
  0
SPLINE
  5
317
100
AcDbEntity
  8
0
100
AcDbSpline
 62
7
  6
CONTINUOUS
 70
0
 71
3
 72
39
 73
35
 74
0
 42
0.0000001
 43
0.0000001
 44
0.0000000001
 40
0.0
 40
0.0
 40
0.0
 40
0.0
 40
0.0306220592
 40
0.061267399
 40
0.0919596761
 40
0.1227197494
 40
0.1535664661
 40
0.184515412
 40
0.2155784229
 40
0.2467629975
 40
0.2780720499
 40
0.30950364
 40
0.3410510935
 40
0.3727031244
 40
0.4044443408
 40
0.4362557632
 40
0.4681156265
 40
0.5000001987
 40
0.5318847673
 40
0.56374462
 40
0.5955560247
 40
0.6272972174
 40
0.6589492193
 40
0.6904966396
 40
0.7219281928
 40
0.7532372067
 40
0.7844217425
 40
0.8154847156
 40
0.8464336262
 40
0.8772803117
 40
0.9080403594
 40
0.9387326168
 40
0.9693779447
 40
1.0
 40
1.0
 40
1.0
 40
1.0
 10
11.3912457186
 20
4.9042104681
 30
0.0
 10
11.3912457186
 20
4.893377745
 30
0.0
 10
11.3901192445
 20
4.8716872619
 30
0.0
 10
11.385068731
 20
4.8394944167
 30
0.0
 10
11.3767114676
 20
4.8079439398
 30
0.0
 10
11.3651357799
 20
4.7773525182
 30
0.0
 10
11.3504633535
 20
4.7480188235
 30
0.0
 10
11.3328464276
 20
4.7202272793
 30
0.0
 10
11.3124652275
 20
4.6942435942
 30
0.0
 10
11.2895253024
 20
4.6703130579
 30
0.0
 10
11.2642549476
 20
4.6486585518
 30
0.0
 10
11.2369022835
 20
4.6294793976
 30
0.0
 10
11.2077327059
 20
4.6129503576
 30
0.0
 10
11.1770264289
 20
4.599220645
 30
0.0
 10
11.145076005
 20
4.588413235
 30
0.0
 10
11.1121837932
 20
4.5806244393
 30
0.0
 10
11.0786595776
 20
4.575923465
 30
0.0
 10
11.0448181281
 20
4.5743518715
 30
0.0
 10
11.0109766846
 20
4.5759235084
 30
0.0
 10
10.9774524848
 20
4.5806245129
 30
0.0
 10
10.9445602989
 20
4.588413339
 30
0.0
 10
10.9126099114
 20
4.5992207789
 30
0.0
 10
10.8819036769
 20
4.6129505113
 30
0.0
 10
10.8527341414
 20
4.629479554
 30
0.0
 10
10.8253815252
 20
4.6486587099
 30
0.0
 10
10.8001112184
 20
4.6703132095
 30
0.0
 10
10.7771713349
 20
4.6942437288
 30
0.0
 10
10.7567901696
 20
4.7202273907
 30
0.0
 10
10.7391732752
 20
4.748018911
 30
0.0
 10
10.7245008714
 20
4.7773525803
 30
0.0
 10
10.7129251972
 20
4.8079439779
 30
0.0
 10
10.7045679419
 20
4.839494436
 30
0.0
 10
10.6995174316
 20
4.8716872689
 30
0.0
 10
10.6983909581
 20
4.8933777463
 30
0.0
 10
10.6983909581
 20
4.9042104681
 30
0.0
  0
LINE
  5
318
100
AcDbEntity
  8
0
100
AcDbLine
 62
9
  6
CONTINUOUS
 10
10.2121838647
 20
10.3223989754
 11
10.1680191246
 21
10.3798966327
  0
SPLINE
  5
319
100
AcDbEntity
  8
0
100
AcDbSpline
 62
9
  6
CONTINUOUS
 70
0
 71
3
 72
11
 73
7
 74
0
 42
0.0000001
 43
0.0000001
 44
0.0000000001
 40
0.0
 40
0.0
 40
0.0
 40
0.0
 40
0.249227981
 40
0.4987690468
 40
0.7489349149
 40
1.0
 40
1.0
 40
1.0
 40
1.0
 10
11.3901407168
 20
4.9082315148
 30
0.0
 10
11.3901407168
 20
4.9188865128
 30
0.0
 10
11.389020757
 20
4.9402266107
 30
0.0
 10
11.3839976962
 20
4.9719056559
 30
0.0
 10
11.3756826854
 20
5.0029649205
 30
0.0
 10
11.3680106989
 20
5.0230211693
 30
0.0
 10
11.3636667551
 20
5.032836412
 30
0.0
  0
LINE
  5
31A
100
AcDbEntity
  8
0
100
AcDbLine
 62
9
  6
CONTINUOUS
 10
11.3485379402
 20
5.0626442786
 11
11.3481228087
 21
5.0633631316
  0
LINE
  5
31B
100
AcDbEntity
  8
0
100
AcDbLine
 62
9
  6
CONTINUOUS
 10
11.3416409281
 20
5.0740650204
 11
11.3413976822
 21
5.0744488701
  0
SPLINE
  5
31C
100
AcDbEntity
  8
0
100
AcDbSpline
 62
9
  6
CONTINUOUS
 70
0
 71
3
 72
15
 73
11
 74
0
 42
0.0000001
 43
0.0000001
 44
0.0000000001
 40
0.0
 40
0.0
 40
0.0
 40
0.0
 40
0.1241885713
 40
0.2484632103
 40
0.3728977202
 40
0.4975736821
 40
0.6225606924
 40
0.7479244649
 40
0.8737216812
 40
1.0
 40
1.0
 40
1.0
 40
1.0
 10
11.3413183398
 20
4.9210015548
 30
0.0
 10
11.3413183398
 20
4.9275877555
 30
0.0
 10
11.3408205233
 20
4.9407701266
 30
0.0
 10
11.3385846367
 20
4.9604374792
 30
0.0
 10
11.3348704964
 20
4.9799073455
 30
0.0
 10
11.329697238
 20
4.9990800144
 30
0.0
 10
11.3230908408
 20
5.0178593617
 30
0.0
 10
11.315084647
 20
5.0361510036
 30
0.0
 10
11.3057198178
 20
5.0538617904
 30
0.0
 10
11.2986147396
 20
5.065202475
 30
0.0
 10
11.294855668
 20
5.0707449985
 30
0.0
  0
SPLINE
  5
31D
100
AcDbEntity
  8
0
100
AcDbSpline
 62
9
  6
CONTINUOUS
 70
0
 71
3
 72
15
 73
11
 74
0
 42
0.0000001
 43
0.0000001
 44
0.0000000001
 40
0.0
 40
0.0
 40
0.0
 40
0.0
 40
0.1262783188
 40
0.2520755351
 40
0.3774393076
 40
0.5024263179
 40
0.6271022798
 40
0.7515367897
 40
0.8758114287
 40
1.0
 40
1.0
 40
1.0
 40
1.0
 10
10.7947810086
 20
5.0707449984
 30
0.0
 10
10.7910219369
 20
5.0652024749
 30
0.0
 10
10.7839168587
 20
5.0538617903
 30
0.0
 10
10.7745520296
 20
5.0361510035
 30
0.0
 10
10.7665458357
 20
5.0178593617
 30
0.0
 10
10.7599394386
 20
4.9990800143
 30
0.0
 10
10.7547661802
 20
4.9799073455
 30
0.0
 10
10.7510520399
 20
4.9604374792
 30
0.0
 10
10.7488161533
 20
4.9407701265
 30
0.0
 10
10.7483183368
 20
4.9275877555
 30
0.0
 10
10.7483183368
 20
4.9210015548
 30
0.0
  0
SPLINE
  5
31E
100
AcDbEntity
  8
0
100
AcDbSpline
 62
9
  6
CONTINUOUS
 70
0
 71
3
 72
15
 73
11
 74
0
 42
0.0000001
 43
0.0000001
 44
0.0000000001
 40
0.0
 40
0.0
 40
0.0
 40
0.0
 40
0.1237058352
 40
0.2475472991
 40
0.3716607814
 40
0.496166865
 40
0.6211744662
 40
0.7467736602
 40
0.8730335522
 40
1.0
 40
1.0
 40
1.0
 40
1.0
 10
11.3824849713
 20
4.9140823556
 30
0.0
 10
11.3824849713
 20
4.9238158702
 30
0.0
 10
11.3815294524
 20
4.9433070246
 30
0.0
 10
11.3772424375
 20
4.9722792001
 30
0.0
 10
11.3701384794
 20
5.0007597273
 30
0.0
 10
11.3602780372
 20
5.0285032976
 30
0.0
 10
11.3477457046
 20
5.0552753044
 30
0.0
 10
11.3326477682
 20
5.0808492807
 30
0.0
 10
11.3151152172
 20
5.1050064213
 30
0.0
 10
11.3019350554
 20
5.1199938514
 30
0.0
 10
11.2949992943
 20
5.1271838923
 30
0.0
  0
SPLINE
  5
31F
100
AcDbEntity
  8
0
100
AcDbSpline
 62
9
  6
CONTINUOUS
 70
0
 71
3
 72
15
 73
11
 74
0
 42
0.0000001
 43
0.0000001
 44
0.0000000001
 40
0.0
 40
0.0
 40
0.0
 40
0.0
 40
0.1269664477
 40
0.2532263398
 40
0.3788255338
 40
0.503833135
 40
0.6283392186
 40
0.7524527009
 40
0.8762941648
 40
1.0
 40
1.0
 40
1.0
 40
1.0
 10
10.7946373822
 20
5.1271838923
 30
0.0
 10
10.7877016212
 20
5.1199938514
 30
0.0
 10
10.7745214593
 20
5.1050064213
 30
0.0
 10
10.7569889084
 20
5.0808492807
 30
0.0
 10
10.741890972
 20
5.0552753044
 30
0.0
 10
10.7293586394
 20
5.0285032976
 30
0.0
 10
10.7194981972
 20
5.0007597273
 30
0.0
 10
10.7123942391
 20
4.9722792001
 30
0.0
 10
10.7081072242
 20
4.9433070245
 30
0.0
 10
10.7071517053
 20
4.9238158702
 30
0.0
 10
10.7071517053
 20
4.9140823556
 30
0.0
  0
LINE
  5
320
100
AcDbEntity
  8
0
100
AcDbLine
 62
9
  6
CONTINUOUS
 10
10.2121838587
 20
8.7065279653
 11
10.1680190077
 21
8.6490309593
  0
LINE
  5
321
100
AcDbEntity
  8
0
100
AcDbLine
 62
9
  6
CONTINUOUS
 10
10.2368823714
 20
8.6818292942
 11
10.1793844695
 21
8.6376643535
  0
SPLINE
  5
322
100
AcDbEntity
  8
0
100
AcDbSpline
 62
9
  6
CONTINUOUS
 70
0
 71
3
 72
22
 73
18
 74
0
 42
0.0000001
 43
0.0000001
 44
0.0000000001
 40
0.0
 40
0.0
 40
0.0
 40
0.0
 40
0.2200726088
 40
0.4148077211
 40
0.5827344767
 40
0.6562825829
 40
0.7227103736
 40
0.7819125639
 40
0.8338356279
 40
0.8784552096
 40
0.9157896931
 40
0.9459538808
 40
0.9692818835
 40
0.9786207573
 40
0.9866285324
 40
0.9936049058
 40
1.0
 40
1.0
 40
1.0
 40
1.0
 10
10.8031031312
 20
10.3965650939
 30
0.0
 10
10.8031230725
 20
10.397114779
 30
0.0
 10
10.8031677993
 20
10.3981506351
 30
0.0
 10
10.8032569782
 20
10.3996044648
 30
0.0
 10
10.8033491914
 20
10.4006909839
 30
0.0
 10
10.8034338237
 20
10.4014559245
 30
0.0
 10
10.8034985159
 20
10.4019495687
 30
0.0
 10
10.8035671047
 20
10.4023880648
 30
0.0
 10
10.8036393861
 20
10.402770654
 30
0.0
 10
10.8037151378
 20
10.4030966839
 30
0.0
 10
10.8037940987
 20
10.4033658444
 30
0.0
 10
10.8038761117
 20
10.4035777496
 30
0.0
 10
10.8039515549
 20
10.403716666
 30
0.0
 10
10.8040159333
 20
10.4037957598
 30
0.0
 10
10.8040617859
 20
10.4038362375
 30
0.0
 10
10.8041091487
 20
10.4038621589
 30
0.0
 10
10.804142455
 20
10.4038692221
 30
0.0
 10
10.8041584215
 20
10.4038699647
 30
0.0
  0
SPLINE
  5
323
100
AcDbEntity
  8
0
100
AcDbSpline
 62
9
  6
CONTINUOUS
 70
0
 71
3
 72
23
 73
19
 74
0
 42
0.0000001
 43
0.0000001
 44
0.0000000001
 40
0.0
 40
0.0
 40
0.0
 40
0.0
 40
0.1965908988
 40
0.3793719891
 40
0.4641415097
 40
0.5438287731
 40
0.6179662606
 40
0.6861256472
 40
0.7479625014
 40
0.8031832212
 40
0.8516047411
 40
0.8931521097
 40
0.9279547627
 40
0.9564701891
 40
0.9686903975
 40
0.9798099668
 40
0.9901227966
 40
1.0
 40
1.0
 40
1.0
 40
1.0
 10
11.867555111
 20
8.7942931873
 30
0.0
 10
11.8690634052
 20
8.7941640494
 30
0.0
 10
11.8719782221
 20
8.7939607717
 30
0.0
 10
11.8755512676
 20
8.7938406322
 30
0.0
 10
11.8782253298
 20
8.7938396072
 30
0.0
 10
11.8800622576
 20
8.7938838322
 30
0.0
 10
11.8817695633
 20
8.7939724259
 30
0.0
 10
11.8833361867
 20
8.7941049796
 30
0.0
 10
11.8847520435
 20
8.794280191
 30
0.0
 10
11.8860083209
 20
8.7944970603
 30
0.0
 10
11.8870973267
 20
8.7947536385
 30
0.0
 10
11.8880133704
 20
8.7950484186
 30
0.0
 10
11.8887517737
 20
8.7953796104
 30
0.0
 10
11.8892418056
 20
8.7957017124
 30
0.0
 10
11.889527767
 20
8.7959822008
 30
0.0
 10
11.889683548
 20
8.7961908334
 30
0.0
 10
11.8897908902
 20
8.7964083601
 30
0.0
 10
11.8898295692
 20
8.7965604062
 30
0.0
 10
11.889840109
 20
8.79663573
 30
0.0
  0
SPLINE
  5
324
100
AcDbEntity
  8
0
100
AcDbSpline
 62
9
  6
CONTINUOUS
 70
0
 71
3
 72
23
 73
19
 74
0
 42
0.0000001
 43
0.0000001
 44
0.0000000001
 40
0.0
 40
0.0
 40
0.0
 40
0.0
 40
0.1965909363
 40
0.3793720573
 40
0.4641415905
 40
0.5438288642
 40
0.6179663596
 40
0.6861257517
 40
0.7479626085
 40
0.8031833277
 40
0.8516048434
 40
0.8931522035
 40
0.9279548428
 40
0.9564702493
 40
0.9686904449
 40
0.9798099997
 40
0.9901228135
 40
1.0
 40
1.0
 40
1.0
 40
1.0
 10
10.2220813067
 20
10.2346318901
 30
0.0
 10
10.2205730127
 20
10.2347610276
 30
0.0
 10
10.217658196
 20
10.2349643046
 30
0.0
 10
10.214085151
 20
10.2350844435
 30
0.0
 10
10.2114110891
 20
10.2350854681
 30
0.0
 10
10.2095741616
 20
10.2350412431
 30
0.0
 10
10.2078668563
 20
10.2349526494
 30
0.0
 10
10.2063002332
 20
10.2348200958
 30
0.0
 10
10.2048843768
 20
10.2346448846
 30
0.0
 10
10.2036280997
 20
10.2344280156
 30
0.0
 10
10.2025390943
 20
10.2341714379
 30
0.0
 10
10.201623051
 20
10.2338766583
 30
0.0
 10
10.200884648
 20
10.2335454671
 30
0.0
 10
10.2003946163
 20
10.2332233657
 30
0.0
 10
10.2001086551
 20
10.2329428778
 30
0.0
 10
10.1999528742
 20
10.2327342455
 30
0.0
 10
10.1998455322
 20
10.2325167193
 30
0.0
 10
10.1998068533
 20
10.2323646735
 30
0.0
 10
10.1997963136
 20
10.2322893499
 30
0.0
  0
SPLINE
  5
325
100
AcDbEntity
  8
0
100
AcDbSpline
 62
9
  6
CONTINUOUS
 70
0
 71
3
 72
23
 73
19
 74
0
 42
0.0000001
 43
0.0000001
 44
0.0000000001
 40
0.0
 40
0.0
 40
0.0
 40
0.0
 40
0.196590939
 40
0.3793720626
 40
0.4641415969
 40
0.5438288716
 40
0.6179663678
 40
0.6861257605
 40
0.7479626177
 40
0.803183337
 40
0.8516048524
 40
0.8931522118
 40
0.92795485
 40
0.9564702548
 40
0.9686904493
 40
0.9798100028
 40
0.9901228151
 40
1.0
 40
1.0
 40
1.0
 40
1.0
 10
11.7649867808
 20
10.3372004792
 30
0.0
 10
11.7651159183
 20
10.3387087732
 30
0.0
 10
11.7653191951
 20
10.3416235899
 30
0.0
 10
11.7654393339
 20
10.3451966349
 30
0.0
 10
11.7654403584
 20
10.3478706968
 30
0.0
 10
11.7653961334
 20
10.3497076243
 30
0.0
 10
11.7653075396
 20
10.3514149296
 30
0.0
 10
11.765174986
 20
10.3529815527
 30
0.0
 10
11.7649997749
 20
10.3543974091
 30
0.0
 10
11.7647829059
 20
10.3556536862
 30
0.0
 10
11.7645263282
 20
10.3567426916
 30
0.0
 10
11.7642315487
 20
10.3576587349
 30
0.0
 10
11.7639003576
 20
10.3583971378
 30
0.0
 10
11.7635782562
 20
10.3588871695
 30
0.0
 10
11.7632977684
 20
10.3591731307
 30
0.0
 10
11.7630891362
 20
10.3593289116
 30
0.0
 10
11.76287161
 20
10.3594362536
 30
0.0
 10
11.7627195642
 20
10.3594749325
 30
0.0
 10
11.7626442406
 20
10.3594854723
 30
0.0
  0
SPLINE
  5
326
100
AcDbEntity
  8
0
100
AcDbSpline
 62
9
  6
CONTINUOUS
 70
0
 71
3
 72
23
 73
19
 74
0
 42
0.0000001
 43
0.0000001
 44
0.0000000001
 40
0.0
 40
0.0
 40
0.0
 40
0.0
 40
0.1965909016
 40
0.3793719944
 40
0.4641415162
 40
0.5438287805
 40
0.6179662688
 40
0.686125656
 40
0.7479625106
 40
0.8031832305
 40
0.8516047501
 40
0.893152118
 40
0.9279547699
 40
0.9564701946
 40
0.9686904018
 40
0.9798099699
 40
0.9901227982
 40
1.0
 40
1.0
 40
1.0
 40
1.0
 10
10.324648078
 20
8.6917266748
 30
0.0
 10
10.3245189402
 20
8.6902183807
 30
0.0
 10
10.3243156626
 20
8.6873035637
 30
0.0
 10
10.3241955232
 20
8.6837305182
 30
0.0
 10
10.3241944984
 20
8.6810564559
 30
0.0
 10
10.3242387234
 20
8.6792195281
 30
0.0
 10
10.3243273171
 20
8.6775122225
 30
0.0
 10
10.3244598708
 20
8.6759455991
 30
0.0
 10
10.3246350822
 20
8.6745297423
 30
0.0
 10
10.3248519514
 20
8.6732734649
 30
0.0
 10
10.3251085295
 20
8.6721844591
 30
0.0
 10
10.3254033096
 20
8.6712684154
 30
0.0
 10
10.3257345013
 20
8.6705300122
 30
0.0
 10
10.3260566033
 20
8.6700399802
 30
0.0
 10
10.3263370916
 20
8.6697540188
 30
0.0
 10
10.3265457242
 20
8.6695982378
 30
0.0
 10
10.3267632508
 20
8.6694908957
 30
0.0
 10
10.3269152969
 20
8.6694522167
 30
0.0
 10
10.3269906207
 20
8.6694416769
 30
0.0
  0
SPLINE
  5
327
100
AcDbEntity
  8
0
100
AcDbSpline
 62
9
  6
CONTINUOUS
 70
0
 71
3
 72
11
 73
7
 74
0
 42
0.0000001
 43
0.0000001
 44
0.0000000001
 40
0.0
 40
0.0
 40
0.0
 40
0.0
 40
0.2480103189
 40
0.4999996884
 40
0.7519893454
 40
1.0
 40
1.0
 40
1.0
 40
1.0
 10
11.9216178204
 20
8.6490306406
 30
0.0
 10
11.9207834995
 20
8.6479932849
 30
0.0
 10
11.9190416876
 20
8.645949376
 30
0.0
 10
11.9162624545
 20
8.6430196627
 30
0.0
 10
11.9133327486
 20
8.6402404227
 30
0.0
 10
11.9112888929
 20
8.6384985424
 30
0.0
 10
11.9102515393
 20
8.6376642159
 30
0.0
  0
SPLINE
  5
328
100
AcDbEntity
  8
0
100
AcDbSpline
 62
9
  6
CONTINUOUS
 70
0
 71
3
 72
15
 73
11
 74
0
 42
0.0000001
 43
0.0000001
 44
0.0000000001
 40
0.0
 40
0.0
 40
0.0
 40
0.0
 40
0.1247065871
 40
0.2496682568
 40
0.3747846423
 40
0.4999974712
 40
0.6252097835
 40
0.7503241054
 40
0.8752852887
 40
1.0
 40
1.0
 40
1.0
 40
1.0
 10
11.8527544876
 20
8.6818287825
 30
0.0
 10
11.8542774171
 20
8.6820921755
 30
0.0
 10
11.8572906314
 20
8.6828569606
 30
0.0
 10
11.861580352
 20
8.6846832363
 30
0.0
 10
11.8655468309
 20
8.6871473615
 30
0.0
 10
11.8690937232
 20
8.6901888533
 30
0.0
 10
11.8721355983
 20
8.6937353827
 30
0.0
 10
11.8746002332
 20
8.6977014822
 30
0.0
 10
11.8764270527
 20
8.7019911109
 30
0.0
 10
11.8771913399
 20
8.7050045481
 30
0.0
 10
11.8774548188
 20
8.7065275649
 30
0.0
  0
SPLINE
  5
329
100
AcDbEntity
  8
0
100
AcDbSpline
 62
9
  6
CONTINUOUS
 70
0
 71
3
 72
11
 73
7
 74
0
 42
0.0000001
 43
0.0000001
 44
0.0000000001
 40
0.0
 40
0.0
 40
0.0
 40
0.0
 40
0.2480101927
 40
0.4999994316
 40
0.7519892191
 40
1.0
 40
1.0
 40
1.0
 40
1.0
 10
11.9102507181
 20
10.3912632262
 30
0.0
 10
11.9112880832
 20
10.3904289179
 30
0.0
 10
11.913332011
 20
10.3886871303
 30
0.0
 10
11.9162617557
 20
10.3859079312
 30
0.0
 10
11.9190410298
 20
10.3829782565
 30
0.0
 10
11.9207829342
 20
10.3809344196
 30
0.0
 10
11.9216172735
 20
10.3798970753
 30
0.0
  0
SPLINE
  5
32A
100
AcDbEntity
  8
0
100
AcDbSpline
 62
9
  6
CONTINUOUS
 70
0
 71
3
 72
15
 73
11
 74
0
 42
0.0000001
 43
0.0000001
 44
0.0000000001
 40
0.0
 40
0.0
 40
0.0
 40
0.0
 40
0.1247065593
 40
0.2496682104
 40
0.3747845871
 40
0.4999974162
 40
0.6252097365
 40
0.7503240723
 40
0.8752852723
 40
1.0
 40
1.0
 40
1.0
 40
1.0
 10
11.8774529962
 20
10.3223996506
 30
0.0
 10
11.8771896027
 20
10.3239225791
 30
0.0
 10
11.8764248167
 20
10.3269357913
 30
0.0
 10
11.8745985402
 20
10.331225509
 30
0.0
 10
11.8721344147
 20
10.3351919853
 30
0.0
 10
11.8690929231
 20
10.3387388755
 30
0.0
 10
11.8655463943
 20
10.341780749
 30
0.0
 10
11.8615802957
 20
10.3442453831
 30
0.0
 10
11.8572906682
 20
10.3460722024
 30
0.0
 10
11.8542772319
 20
10.3468364899
 30
0.0
 10
11.8527542155
 20
10.3470999693
 30
0.0
  0
SPLINE
  5
32B
100
AcDbEntity
  8
0
100
AcDbSpline
 62
9
  6
CONTINUOUS
 70
0
 71
3
 72
11
 73
7
 74
0
 42
0.0000001
 43
0.0000001
 44
0.0000000001
 40
0.0
 40
0.0
 40
0.0
 40
0.0
 40
0.2480103189
 40
0.4999996884
 40
0.7519893454
 40
1.0
 40
1.0
 40
1.0
 40
1.0
 10
10.1680188561
 20
10.3798962545
 30
0.0
 10
10.1688531771
 20
10.3809336103
 30
0.0
 10
10.170594989
 20
10.3829775192
 30
0.0
 10
10.1733742221
 20
10.3859072324
 30
0.0
 10
10.176303928
 20
10.3886864725
 30
0.0
 10
10.1783477837
 20
10.3904283527
 30
0.0
 10
10.1793851372
 20
10.3912626792
 30
0.0
  0
SPLINE
  5
32C
100
AcDbEntity
  8
0
100
AcDbSpline
 62
9
  6
CONTINUOUS
 70
0
 71
3
 72
15
 73
11
 74
0
 42
0.0000001
 43
0.0000001
 44
0.0000000001
 40
0.0
 40
0.0
 40
0.0
 40
0.0
 40
0.1247065759
 40
0.2496682437
 40
0.374784634
 40
0.4999974711
 40
0.6252097915
 40
0.750324118
 40
0.8752852993
 40
1.0
 40
1.0
 40
1.0
 40
1.0
 10
10.2368821441
 20
10.3470981471
 30
0.0
 10
10.2353592158
 20
10.3468347534
 30
0.0
 10
10.2323460037
 20
10.3460699671
 30
0.0
 10
10.2280562864
 20
10.3442436907
 30
0.0
 10
10.2240898102
 20
10.3417795658
 30
0.0
 10
10.2205429199
 20
10.3387380753
 30
0.0
 10
10.2175010461
 20
10.3351915479
 30
0.0
 10
10.2150364115
 20
10.3312254512
 30
0.0
 10
10.2132095913
 20
10.3269358258
 30
0.0
 10
10.212445303
 20
10.3239223908
 30
0.0
 10
10.2121818234
 20
10.3223993751
 30
0.0
  0
SPLINE
  5
32D
100
AcDbEntity
  8
0
100
AcDbSpline
 62
9
  6
CONTINUOUS
 70
0
 71
3
 72
11
 73
7
 74
0
 42
0.0000001
 43
0.0000001
 44
0.0000000001
 40
0.0
 40
0.0
 40
0.0
 40
0.0
 40
0.2480104286
 40
0.4999999553
 40
0.7519894873
 40
1.0
 40
1.0
 40
1.0
 40
1.0
 10
10.1793851112
 20
8.6376642562
 30
0.0
 10
10.1783477626
 20
8.6384985867
 30
0.0
 10
10.1763038818
 20
8.6402404335
 30
0.0
 10
10.1733741972
 20
8.6430196962
 30
0.0
 10
10.1705949753
 20
8.6459494179
 30
0.0
 10
10.1688531152
 20
8.6479932886
 30
0.0
 10
10.1680187985
 20
8.6490306489
 30
0.0
  0
SPLINE
  5
32E
100
AcDbEntity
  8
0
100
AcDbSpline
 62
9
  6
CONTINUOUS
 70
0
 71
3
 72
15
 73
11
 74
0
 42
0.0000001
 43
0.0000001
 44
0.0000000001
 40
0.0
 40
0.0
 40
0.0
 40
0.0
 40
0.124709104
 40
0.2496695978
 40
0.3747846329
 40
0.499997279
 40
0.6252105846
 40
0.7503272409
 40
0.8752898698
 40
1.0
 40
1.0
 40
1.0
 40
1.0
 10
10.2121817916
 20
8.7065271833
 30
0.0
 10
10.212445207
 20
8.7050041746
 30
0.0
 10
10.2132096686
 20
8.7019907586
 30
0.0
 10
10.2150361558
 20
8.697700927
 30
0.0
 10
10.217500555
 20
8.6937344828
 30
0.0
 10
10.2205423394
 20
8.690187647
 30
0.0
 10
10.2240891807
 20
8.6871458396
 30
0.0
 10
10.2280556595
 20
8.6846813896
 30
0.0
 10
10.2323454935
 20
8.6828547978
 30
0.0
 10
10.2353588864
 20
8.6820900659
 30
0.0
 10
10.2368819042
 20
8.6818266286
 30
0.0
  0
LINE
  5
32F
100
AcDbEntity
  8
0
100
AcDbLine
 62
9
  6
CONTINUOUS
 10
10.7482388004
 20
5.0744485645
 11
10.7479956508
 21
5.074064866
  0
LINE
  5
330
100
AcDbEntity
  8
0
100
AcDbLine
 62
9
  6
CONTINUOUS
 10
10.7415138382
 20
5.0633630803
 11
10.7410987808
 21
5.0626443556
  0
SPLINE
  5
331
100
AcDbEntity
  8
0
100
AcDbSpline
 62
9
  6
CONTINUOUS
 70
0
 71
3
 72
23
 73
19
 74
0
 42
0.0000001
 43
0.0000001
 44
0.0000000001
 40
0.0
 40
0.0
 40
0.0
 40
0.0
 40
0.1965909344
 40
0.3793720535
 40
0.4641415855
 40
0.5438288582
 40
0.6179663525
 40
0.6861257436
 40
0.7479625994
 40
0.8031833178
 40
0.851604833
 40
0.8931521929
 40
0.9279548328
 40
0.9564702409
 40
0.968690438
 40
0.9798099946
 40
0.9901228107
 40
1.0
 40
1.0
 40
1.0
 40
1.0
 10
10.3246498958
 20
10.3372004792
 30
0.0
 10
10.3245207582
 20
10.3387087732
 30
0.0
 10
10.3243174813
 20
10.3416235898
 30
0.0
 10
10.3241973423
 20
10.3451966349
 30
0.0
 10
10.3241963176
 20
10.3478706967
 30
0.0
 10
10.3242405426
 20
10.3497076242
 30
0.0
 10
10.3243291362
 20
10.3514149295
 30
0.0
 10
10.3244616898
 20
10.3529815526
 30
0.0
 10
10.324636901
 20
10.354397409
 30
0.0
 10
10.3248537699
 20
10.3556536861
 30
0.0
 10
10.3251103477
 20
10.3567426915
 30
0.0
 10
10.3254051273
 20
10.3576587349
 30
0.0
 10
10.3257363185
 20
10.3583971378
 30
0.0
 10
10.32605842
 20
10.3588871695
 30
0.0
 10
10.3263389079
 20
10.3591731307
 30
0.0
 10
10.3265475402
 20
10.3593289116
 30
0.0
 10
10.3267650665
 20
10.3594362536
 30
0.0
 10
10.3269171123
 20
10.3594749325
 30
0.0
 10
10.326992436
 20
10.3594854723
 30
0.0
  0
SPLINE
  5
332
100
AcDbEntity
  8
0
100
AcDbSpline
 62
9
  6
CONTINUOUS
 70
0
 71
3
 72
22
 73
18
 74
0
 42
0.0000001
 43
0.0000001
 44
0.0000000001
 40
0.0
 40
0.0
 40
0.0
 40
0.0
 40
0.2200651646
 40
0.4147942577
 40
0.5827165507
 40
0.6562630703
 40
0.7226897459
 40
0.7818913331
 40
0.8338143582
 40
0.8784345427
 40
0.915770388
 40
0.9459368936
 40
0.9692685397
 40
0.9786099243
 40
0.9866207731
 40
0.9936008068
 40
1.0
 40
1.0
 40
1.0
 40
1.0
 10
11.2865342611
 20
10.3965648789
 30
0.0
 10
11.2865143185
 20
10.3971145778
 30
0.0
 10
11.2864695803
 20
10.398150461
 30
0.0
 10
11.2863803556
 20
10.3996043292
 30
0.0
 10
11.2862880823
 20
10.4006908777
 30
0.0
 10
11.2862033897
 20
10.4014558393
 30
0.0
 10
11.2861386494
 20
10.4019494986
 30
0.0
 10
11.2860700086
 20
10.4023880086
 30
0.0
 10
11.2859976718
 20
10.4027706107
 30
0.0
 10
11.2859218621
 20
10.4030966526
 30
0.0
 10
11.285842841
 20
10.403365824
 30
0.0
 10
11.2857607663
 20
10.4035777397
 30
0.0
 10
11.2856852668
 20
10.4037166611
 30
0.0
 10
11.2856208435
 20
10.403795756
 30
0.0
 10
11.285574957
 20
10.4038362359
 30
0.0
 10
11.2855275604
 20
10.4038621581
 30
0.0
 10
11.2854942328
 20
10.4038692216
 30
0.0
 10
11.285478255
 20
10.4038699647
 30
0.0
  0
SPLINE
  5
333
100
AcDbEntity
  8
0
100
AcDbSpline
 62
9
  6
CONTINUOUS
 70
0
 71
3
 72
20
 73
16
 74
0
 42
0.0000001
 43
0.0000001
 44
0.0000000001
 40
0.0
 40
0.0
 40
0.0
 40
0.0
 40
0.18023313
 40
0.3500460935
 40
0.5060075721
 40
0.5779086465
 40
0.6453130076
 40
0.7079186428
 40
0.7654901484
 40
0.8178289052
 40
0.8647976763
 40
0.9063509025
 40
0.9425331182
 40
0.9735778067
 40
1.0
 40
1.0
 40
1.0
 40
1.0
 10
11.8552408995
 20
10.3248866871
 30
0.0
 10
11.8553317098
 20
10.3262486926
 30
0.0
 10
11.8554642714
 20
10.3288971518
 30
0.0
 10
11.8555193774
 20
10.3327299023
 30
0.0
 10
11.8554390659
 20
10.335741916
 30
0.0
 10
11.8552921263
 20
10.3379735943
 30
0.0
 10
11.8551479151
 20
10.3394962341
 30
0.0
 10
11.8549674066
 20
10.3409057013
 30
0.0
 10
11.8547517244
 20
10.342194743
 30
0.0
 10
11.8545018843
 20
10.3433568465
 30
0.0
 10
11.8542190923
 20
10.3443862428
 30
0.0
 10
11.8539055774
 20
10.3452781464
 30
0.0
 10
11.8535626824
 20
10.3460289926
 30
0.0
 10
11.8531916208
 20
10.3466357171
 30
0.0
 10
11.8529034935
 20
10.3469666971
 30
0.0
 10
11.8527542155
 20
10.3470999693
 30
0.0
  0
SPLINE
  5
334
100
AcDbEntity
  8
0
100
AcDbSpline
 62
9
  6
CONTINUOUS
 70
0
 71
3
 72
20
 73
16
 74
0
 42
0.0000001
 43
0.0000001
 44
0.0000000001
 40
0.0
 40
0.0
 40
0.0
 40
0.0
 40
0.180223207
 40
0.3500262288
 40
0.5059820915
 40
0.5778795824
 40
0.6452803782
 40
0.7078831623
 40
0.7654518967
 40
0.8177865008
 40
0.8647500903
 40
0.9063025696
 40
0.9424966121
 40
0.9735632945
 40
1.0
 40
1.0
 40
1.0
 40
1.0
 10
11.8552408995
 20
10.3248866871
 30
0.0
 10
11.8566028181
 20
10.3249774944
 30
0.0
 10
11.8592510358
 20
10.3251112195
 30
0.0
 10
11.8630835787
 20
10.3251668382
 30
0.0
 10
11.8660954084
 20
10.3250860987
 30
0.0
 10
11.8683269726
 20
10.3249392241
 30
0.0
 10
11.8698495273
 20
10.3247950469
 30
0.0
 10
11.8712589075
 20
10.3246144968
 30
0.0
 10
11.8725478561
 20
10.3243987805
 30
0.0
 10
11.8737098757
 20
10.3241490491
 30
0.0
 10
11.8747392418
 20
10.3238664749
 30
0.0
 10
11.8756311935
 20
10.3235529504
 30
0.0
 10
11.8763820464
 20
10.3232094345
 30
0.0
 10
11.876988662
 20
10.3228374943
 30
0.0
 10
11.8773196479
 20
10.3225490057
 30
0.0
 10
11.8774529962
 20
10.3223996506
 30
0.0
  0
SPLINE
  5
335
100
AcDbEntity
  8
0
100
AcDbSpline
 62
9
  6
CONTINUOUS
 70
0
 71
3
 72
23
 73
19
 74
0
 42
0.0000001
 43
0.0000001
 44
0.0000000001
 40
0.0
 40
0.0
 40
0.0
 40
0.0
 40
0.196590897
 40
0.3793719853
 40
0.4641415049
 40
0.5438287672
 40
0.6179662536
 40
0.6861256392
 40
0.7479624925
 40
0.8031832114
 40
0.8516047309
 40
0.8931520993
 40
0.9279547528
 40
0.9564701809
 40
0.9686903907
 40
0.9798099618
 40
0.9901227939
 40
1.0
 40
1.0
 40
1.0
 40
1.0
 10
11.867555111
 20
10.2346337078
 30
0.0
 10
11.8690634052
 20
10.2347628458
 30
0.0
 10
11.8719782221
 20
10.2349661234
 30
0.0
 10
11.8755512676
 20
10.235086263
 30
0.0
 10
11.8782253298
 20
10.235087288
 30
0.0
 10
11.8800622576
 20
10.2350430631
 30
0.0
 10
11.8817695632
 20
10.2349544694
 30
0.0
 10
11.8833361867
 20
10.2348219158
 30
0.0
 10
11.8847520435
 20
10.2346467044
 30
0.0
 10
11.8860083209
 20
10.2344298351
 30
0.0
 10
11.8870973267
 20
10.234173257
 30
0.0
 10
11.8880133703
 20
10.2338784769
 30
0.0
 10
11.8887517736
 20
10.233547285
 30
0.0
 10
11.8892418056
 20
10.233225183
 30
0.0
 10
11.889527767
 20
10.2329446945
 30
0.0
 10
11.889683548
 20
10.2327360618
 30
0.0
 10
11.8897908902
 20
10.2325185351
 30
0.0
 10
11.8898295692
 20
10.232366489
 30
0.0
 10
11.889840109
 20
10.2322911652
 30
0.0
  0
SPLINE
  5
336
100
AcDbEntity
  8
0
100
AcDbSpline
 62
9
  6
CONTINUOUS
 70
0
 71
3
 72
20
 73
16
 74
0
 42
0.0000001
 43
0.0000001
 44
0.0000000001
 40
0.0
 40
0.0
 40
0.0
 40
0.0
 40
0.1802333884
 40
0.3500465578
 40
0.5060081689
 40
0.5779092772
 40
0.6453136488
 40
0.7079192701
 40
0.7654907356
 40
0.8178294234
 40
0.8647980986
 40
0.9063512145
 40
0.9425333247
 40
0.9735779154
 40
1.0
 40
1.0
 40
1.0
 40
1.0
 10
11.855241524
 20
8.7040408795
 30
0.0
 10
11.8566035325
 20
8.7039500681
 30
0.0
 10
11.8592519974
 20
8.7038175044
 30
0.0
 10
11.8630847556
 20
8.7037623961
 30
0.0
 10
11.8660967747
 20
8.7038427063
 30
0.0
 10
11.8683284562
 20
8.7039896453
 30
0.0
 10
11.8698510976
 20
8.7041338564
 30
0.0
 10
11.8712605657
 20
8.7043143651
 30
0.0
 10
11.8725496075
 20
8.7045300476
 30
0.0
 10
11.8737117104
 20
8.7047798878
 30
0.0
 10
11.8747411054
 20
8.7050626801
 30
0.0
 10
11.8756330071
 20
8.7053761958
 30
0.0
 10
11.8763838506
 20
8.7057190929
 30
0.0
 10
11.8769905713
 20
8.7060901572
 30
0.0
 10
11.8773215483
 20
8.7063782863
 30
0.0
 10
11.8774548188
 20
8.7065275649
 30
0.0
  0
SPLINE
  5
337
100
AcDbEntity
  8
0
100
AcDbSpline
 62
9
  6
CONTINUOUS
 70
0
 71
3
 72
20
 73
16
 74
0
 42
0.0000001
 43
0.0000001
 44
0.0000000001
 40
0.0
 40
0.0
 40
0.0
 40
0.0
 40
0.1802232165
 40
0.3500262459
 40
0.5059821137
 40
0.577879606
 40
0.6452804023
 40
0.7078831862
 40
0.7654519193
 40
0.8177865213
 40
0.8647501077
 40
0.9063025833
 40
0.9424966215
 40
0.9735632993
 40
1.0
 40
1.0
 40
1.0
 40
1.0
 10
11.855241524
 20
8.7040408795
 30
0.0
 10
11.8553323314
 20
8.7026789608
 30
0.0
 10
11.8554660565
 20
8.7000307429
 30
0.0
 10
11.8555216753
 20
8.6961981998
 30
0.0
 10
11.8554409357
 20
8.6931863699
 30
0.0
 10
11.8552940612
 20
8.6909548056
 30
0.0
 10
11.855149884
 20
8.6894322509
 30
0.0
 10
11.854969334
 20
8.6880228706
 30
0.0
 10
11.8547536176
 20
8.6867339221
 30
0.0
 10
11.8545038862
 20
8.6855719025
 30
0.0
 10
11.8542213121
 20
8.6845425364
 30
0.0
 10
11.8539077875
 20
8.6836505848
 30
0.0
 10
11.8535642716
 20
8.682899732
 30
0.0
 10
11.8531923313
 20
8.6822931166
 30
0.0
 10
11.8529038427
 20
8.6819621307
 30
0.0
 10
11.8527544876
 20
8.6818287825
 30
0.0
  0
SPLINE
  5
338
100
AcDbEntity
  8
0
100
AcDbSpline
 62
9
  6
CONTINUOUS
 70
0
 71
3
 72
11
 73
7
 74
0
 42
0.0000001
 43
0.0000001
 44
0.0000000001
 40
0.0
 40
0.0
 40
0.0
 40
0.0
 40
0.2478348608
 40
0.5000000014
 40
0.7521651414
 40
1.0
 40
1.0
 40
1.0
 40
1.0
 10
9.1378557801
 20
9.2913594717
 30
0.0
 10
9.1388809546
 20
9.2919594592
 30
0.0
 10
9.140869379
 20
9.2933112648
 30
0.0
 10
9.1435782215
 20
9.2957035644
 30
0.0
 10
9.1459705212
 20
9.2984124068
 30
0.0
 10
9.1473223268
 20
9.3004008312
 30
0.0
 10
9.1479223141
 20
9.3014260058
 30
0.0
  0
SPLINE
  5
339
100
AcDbEntity
  8
0
100
AcDbSpline
 62
9
  6
CONTINUOUS
 70
0
 71
3
 72
23
 73
19
 74
0
 42
0.0000001
 43
0.0000001
 44
0.0000000001
 40
0.0
 40
0.0
 40
0.0
 40
0.0
 40
0.196590897
 40
0.3793719852
 40
0.4641415048
 40
0.5438287671
 40
0.6179662535
 40
0.6861256391
 40
0.7479624923
 40
0.8031832113
 40
0.8516047307
 40
0.8931520991
 40
0.9279547527
 40
0.9564701808
 40
0.9686903905
 40
0.9798099617
 40
0.9901227938
 40
1.0
 40
1.0
 40
1.0
 40
1.0
 10
11.7649885985
 20
8.6917266748
 30
0.0
 10
11.7651177365
 20
8.6902183807
 30
0.0
 10
11.7653210142
 20
8.6873035637
 30
0.0
 10
11.7654411537
 20
8.6837305183
 30
0.0
 10
11.7654421787
 20
8.681056456
 30
0.0
 10
11.7653979538
 20
8.6792195282
 30
0.0
 10
11.7653093602
 20
8.6775122226
 30
0.0
 10
11.7651768065
 20
8.6759455992
 30
0.0
 10
11.7650015951
 20
8.6745297424
 30
0.0
 10
11.7647847259
 20
8.673273465
 30
0.0
 10
11.7645281477
 20
8.6721844592
 30
0.0
 10
11.7642333676
 20
8.6712684155
 30
0.0
 10
11.7639021757
 20
8.6705300122
 30
0.0
 10
11.7635800737
 20
8.6700399803
 30
0.0
 10
11.7632995852
 20
8.6697540189
 30
0.0
 10
11.7630909525
 20
8.6695982378
 30
0.0
 10
11.7628734258
 20
8.6694908957
 30
0.0
 10
11.7627213797
 20
8.6694522167
 30
0.0
 10
11.7626460559
 20
8.6694416769
 30
0.0
  0
SPLINE
  5
33A
100
AcDbEntity
  8
0
100
AcDbSpline
 62
9
  6
CONTINUOUS
 70
0
 71
3
 72
11
 73
7
 74
0
 42
0.0000001
 43
0.0000001
 44
0.0000000001
 40
0.0
 40
0.0
 40
0.0
 40
0.0
 40
0.2478348599
 40
0.4999999996
 40
0.7521651388
 40
1.0
 40
1.0
 40
1.0
 40
1.0
 10
8.7017143625
 20
9.3014260058
 30
0.0
 10
8.7023143499
 20
9.3004008313
 30
0.0
 10
8.7036661555
 20
9.2984124069
 30
0.0
 10
8.7060584551
 20
9.2957035644
 30
0.0
 10
8.7087672975
 20
9.2933112647
 30
0.0
 10
8.7107557219
 20
9.2919594591
 30
0.0
 10
8.7117808965
 20
9.2913594717
 30
0.0
  0
SPLINE
  5
33B
100
AcDbEntity
  8
0
100
AcDbSpline
 62
9
  6
CONTINUOUS
 70
0
 71
3
 72
20
 73
16
 74
0
 42
0.0000001
 43
0.0000001
 44
0.0000000001
 40
0.0
 40
0.0
 40
0.0
 40
0.0
 40
0.1802212623
 40
0.3500245318
 40
0.5059782211
 40
0.5778762994
 40
0.6452784556
 40
0.7078827634
 40
0.7654532659
 40
0.8177903553
 40
0.8647571687
 40
0.9063120906
 40
0.9425052348
 40
0.9735673976
 40
1.0
 40
1.0
 40
1.0
 40
1.0
 10
10.2343946343
 20
8.7040408506
 30
0.0
 10
10.2343038079
 20
8.7026788522
 30
0.0
 10
10.2341712001
 20
8.7000303958
 30
0.0
 10
10.234116028
 20
8.696197633
 30
0.0
 10
10.2341962686
 20
8.6931855879
 30
0.0
 10
10.2343431409
 20
8.6909538661
 30
0.0
 10
10.2344873212
 20
8.6894311784
 30
0.0
 10
10.23466783
 20
8.6880216575
 30
0.0
 10
10.2348834938
 20
8.6867325629
 30
0.0
 10
10.2351332201
 20
8.6855703982
 30
0.0
 10
10.235415834
 20
8.6845409012
 30
0.0
 10
10.2357293303
 20
8.6836488357
 30
0.0
 10
10.2360726172
 20
8.6828978476
 30
0.0
 10
10.236444234
 20
8.6822910643
 30
0.0
 10
10.2367325815
 20
8.6819599876
 30
0.0
 10
10.2368819042
 20
8.6818266286
 30
0.0
  0
SPLINE
  5
33C
100
AcDbEntity
  8
0
100
AcDbSpline
 62
9
  6
CONTINUOUS
 70
0
 71
3
 72
20
 73
16
 74
0
 42
0.0000001
 43
0.0000001
 44
0.0000000001
 40
0.0
 40
0.0
 40
0.0
 40
0.0
 40
0.1802309221
 40
0.3500406963
 40
0.5060047607
 40
0.5779044761
 40
0.6453062814
 40
0.7079092548
 40
0.7654775759
 40
0.817811305
 40
0.8647732572
 40
0.9063221408
 40
0.9425093056
 40
0.9735677533
 40
1.0
 40
1.0
 40
1.0
 40
1.0
 10
10.2343946343
 20
8.7040408506
 30
0.0
 10
10.2330325986
 20
8.7039500458
 30
0.0
 10
10.2303842224
 20
8.7038152251
 30
0.0
 10
10.2265513265
 20
8.7037591339
 30
0.0
 10
10.2235392511
 20
8.7038403438
 30
0.0
 10
10.221307508
 20
8.7039872412
 30
0.0
 10
10.2197848619
 20
8.7041314266
 30
0.0
 10
10.2183754189
 20
8.7043120135
 30
0.0
 10
10.217086433
 20
8.7045277974
 30
0.0
 10
10.2159244038
 20
8.7047776229
 30
0.0
 10
10.2148950661
 20
8.7050602993
 30
0.0
 10
10.2140031932
 20
8.7053738901
 30
0.0
 10
10.2132524527
 20
8.7057173922
 30
0.0
 10
10.2126459547
 20
8.7060893022
 30
0.0
 10
10.2123150811
 20
8.7063778096
 30
0.0
 10
10.2121817916
 20
8.7065271833
 30
0.0
  0
SPLINE
  5
33D
100
AcDbEntity
  8
0
100
AcDbSpline
 62
9
  6
CONTINUOUS
 70
0
 71
3
 72
11
 73
7
 74
0
 42
0.0000001
 43
0.0000001
 44
0.0000000001
 40
0.0
 40
0.0
 40
0.0
 40
0.0
 40
0.2478348599
 40
0.4999999996
 40
0.7521651388
 40
1.0
 40
1.0
 40
1.0
 40
1.0
 10
8.7117808965
 20
9.7375674234
 30
0.0
 10
8.710755722
 20
9.736967436
 30
0.0
 10
8.7087672976
 20
9.7356156304
 30
0.0
 10
8.7060584551
 20
9.7332233307
 30
0.0
 10
8.7036661554
 20
9.7305144883
 30
0.0
 10
8.7023143498
 20
9.7285260639
 30
0.0
 10
8.7017143624
 20
9.7275008894
 30
0.0
  0
SPLINE
  5
33E
100
AcDbEntity
  8
0
100
AcDbSpline
 62
9
  6
CONTINUOUS
 70
0
 71
3
 72
23
 73
19
 74
0
 42
0.0000001
 43
0.0000001
 44
0.0000000001
 40
0.0
 40
0.0
 40
0.0
 40
0.0
 40
0.1965909345
 40
0.3793720535
 40
0.4641415856
 40
0.5438288583
 40
0.6179663526
 40
0.6861257437
 40
0.7479625996
 40
0.803183318
 40
0.8516048332
 40
0.8931521931
 40
0.927954833
 40
0.9564702411
 40
0.9686904381
 40
0.9798099947
 40
0.9901228108
 40
1.0
 40
1.0
 40
1.0
 40
1.0
 10
10.2220813067
 20
8.7942950051
 30
0.0
 10
10.2205730127
 20
8.7941658675
 30
0.0
 10
10.217658196
 20
8.7939625906
 30
0.0
 10
10.214085151
 20
8.7938424516
 30
0.0
 10
10.2114110891
 20
8.7938414269
 30
0.0
 10
10.2095741616
 20
8.7938856519
 30
0.0
 10
10.2078668564
 20
8.7939742455
 30
0.0
 10
10.2063002333
 20
8.7941067991
 30
0.0
 10
10.2048843768
 20
8.7942820103
 30
0.0
 10
10.2036280998
 20
8.7944988792
 30
0.0
 10
10.2025390943
 20
8.7947554569
 30
0.0
 10
10.201623051
 20
8.7950502366
 30
0.0
 10
10.2008846481
 20
8.7953814278
 30
0.0
 10
10.2003946164
 20
8.7957035293
 30
0.0
 10
10.2001086551
 20
8.7959840172
 30
0.0
 10
10.1999528742
 20
8.7961926495
 30
0.0
 10
10.1998455322
 20
8.7964101758
 30
0.0
 10
10.1998068533
 20
8.7965622216
 30
0.0
 10
10.1997963136
 20
8.7966375453
 30
0.0
  0
SPLINE
  5
33F
100
AcDbEntity
  8
0
100
AcDbSpline
 62
9
  6
CONTINUOUS
 70
0
 71
3
 72
11
 73
7
 74
0
 42
0.0000001
 43
0.0000001
 44
0.0000000001
 40
0.0
 40
0.0
 40
0.0
 40
0.0
 40
0.2478348608
 40
0.5000000014
 40
0.7521651414
 40
1.0
 40
1.0
 40
1.0
 40
1.0
 10
9.1479223141
 20
9.7275008894
 30
0.0
 10
9.1473223267
 20
9.7285260639
 30
0.0
 10
9.1459705211
 20
9.7305144883
 30
0.0
 10
9.1435782214
 20
9.7332233307
 30
0.0
 10
9.140869379
 20
9.7356156305
 30
0.0
 10
9.1388809546
 20
9.7369674361
 30
0.0
 10
9.1378557801
 20
9.7375674234
 30
0.0
  0
SPLINE
  5
340
100
AcDbEntity
  8
0
100
AcDbSpline
 62
9
  6
CONTINUOUS
 70
0
 71
3
 72
23
 73
19
 74
0
 42
0.0000001
 43
0.0000001
 44
0.0000000001
 40
0.0
 40
0.0
 40
0.0
 40
0.0
 40
0.0616186898
 40
0.1235602945
 40
0.1857995778
 40
0.2483020835
 40
0.3110253081
 40
0.3739200761
 40
0.436932075
 40
0.5000035055
 40
0.5630748073
 40
0.6260864241
 40
0.6889805677
 40
0.7517029444
 40
0.8142044041
 40
0.8764424752
 40
0.9383827385
 40
1.0
 40
1.0
 40
1.0
 40
1.0
 10
11.2318702421
 20
4.6268187475
 30
0.0
 10
11.2254582491
 20
4.6215259106
 30
0.0
 10
11.2121182788
 20
4.6114823721
 30
0.0
 10
11.1908124527
 20
4.5982115411
 30
0.0
 10
11.1683222549
 20
4.5867955368
 30
0.0
 10
11.1448321316
 20
4.5773281496
 30
0.0
 10
11.1205319416
 20
4.5698852865
 30
0.0
 10
11.0956187118
 20
4.5645270643
 30
0.0
 10
11.0702941722
 20
4.561296632
 30
0.0
 10
11.044763384
 20
4.5602200276
 30
0.0
 10
11.0192330406
 20
4.5613059224
 30
0.0
 10
10.9939098321
 20
4.5645455704
 30
0.0
 10
10.9689988091
 20
4.5699128594
 30
0.0
 10
10.9447016839
 20
4.5773645673
 30
0.0
 10
10.9212154591
 20
4.5868405058
 30
0.0
 10
10.8987299624
 20
4.5982646984
 30
0.0
 10
10.8774296012
 20
4.6115432875
 30
0.0
 10
10.864093761
 20
4.6215916912
 30
0.0
 10
10.857683947
 20
4.6268868642
 30
0.0
  0
SPLINE
  5
341
100
AcDbEntity
  8
0
100
AcDbSpline
 62
7
  6
CONTINUOUS
 70
0
 71
3
 72
23
 73
19
 74
0
 42
0.0000001
 43
0.0000001
 44
0.0000000001
 40
0.0
 40
0.0
 40
0.0
 40
0.0
 40
0.0605518229
 40
0.1211802674
 40
0.1819587296
 40
0.2429543277
 40
0.3042251762
 40
0.3658181137
 40
0.4277669716
 40
0.4900914447
 40
0.5527965749
 40
0.6158728186
 40
0.6792966604
 40
0.743031718
 40
0.8070301893
 40
0.8712351793
 40
0.9355809003
 40
1.0
 40
1.0
 40
1.0
 40
1.0
 10
11.2948183383
 20
4.9210015548
 30
0.0
 10
11.2948183383
 20
4.9133155745
 30
0.0
 10
11.2940132963
 20
4.8979218104
 30
0.0
 10
11.2904031849
 20
4.8750689431
 30
0.0
 10
11.2844255004
 20
4.8526576139
 30
0.0
 10
11.276138494
 20
4.830907603
 30
0.0
 10
11.2656227998
 20
4.81002788
 30
0.0
 10
11.2529805576
 20
4.7902198969
 30
0.0
 10
11.2383343993
 20
4.7716741854
 30
0.0
 10
11.2218261511
 20
4.7545689471
 30
0.0
 10
11.2036153826
 20
4.7390683121
 30
0.0
 10
11.1838778386
 20
4.7253208501
 30
0.0
 10
11.1628037535
 20
4.7134582062
 30
0.0
 10
11.1405959663
 20
4.7035938932
 30
0.0
 10
11.1174682746
 20
4.695822135
 30
0.0
 10
11.0936423403
 20
4.6902173217
 30
0.0
 10
11.0693496637
 20
4.6868327404
 30
0.0
 10
11.0529952008
 20
4.6860783996
 30
0.0
 10
11.0448183383
 20
4.6860783996
 30
0.0
  0
SPLINE
  5
342
100
AcDbEntity
  8
0
100
AcDbSpline
 62
9
  6
CONTINUOUS
 70
0
 71
3
 72
20
 73
16
 74
0
 42
0.0000001
 43
0.0000001
 44
0.0000000001
 40
0.0
 40
0.0
 40
0.0
 40
0.0
 40
0.1802331053
 40
0.3500460469
 40
0.5060075071
 40
0.5779085736
 40
0.6453129283
 40
0.7079185589
 40
0.7654900605
 40
0.8178288111
 40
0.8647975751
 40
0.9063508034
 40
0.9425330455
 40
0.9735777787
 40
1.0
 40
1.0
 40
1.0
 40
1.0
 10
10.2343951058
 20
10.3248860623
 30
0.0
 10
10.2330331004
 20
10.3249768727
 30
0.0
 10
10.2303846413
 20
10.3251094344
 30
0.0
 10
10.226551891
 20
10.3251645403
 30
0.0
 10
10.2235398774
 20
10.3250842288
 30
0.0
 10
10.2213081992
 20
10.3249372892
 30
0.0
 10
10.2197855594
 20
10.3247930779
 30
0.0
 10
10.2183760922
 20
10.3246125693
 30
0.0
 10
10.2170870505
 20
10.324396887
 30
0.0
 10
10.215924947
 20
10.3241470472
 30
0.0
 10
10.2148955506
 20
10.3238642555
 30
0.0
 10
10.2140036467
 20
10.3235507406
 30
0.0
 10
10.2132528003
 20
10.3232078444
 30
0.0
 10
10.2126460759
 20
10.3228367813
 30
0.0
 10
10.2123150958
 20
10.3225486532
 30
0.0
 10
10.2121818234
 20
10.3223993751
 30
0.0
  0
SPLINE
  5
343
100
AcDbEntity
  8
0
100
AcDbSpline
 62
9
  6
CONTINUOUS
 70
0
 71
3
 72
20
 73
16
 74
0
 42
0.0000001
 43
0.0000001
 44
0.0000000001
 40
0.0
 40
0.0
 40
0.0
 40
0.0
 40
0.1802229337
 40
0.3500257355
 40
0.5059814524
 40
0.5778789031
 40
0.6452796827
 40
0.707882476
 40
0.7654512453
 40
0.8177859102
 40
0.8647495857
 40
0.9063021737
 40
0.9424963435
 40
0.973563163
 40
1.0
 40
1.0
 40
1.0
 40
1.0
 10
10.2343951058
 20
10.3248860623
 30
0.0
 10
10.2343042996
 20
10.3262479779
 30
0.0
 10
10.2341705766
 20
10.3288961901
 30
0.0
 10
10.2341149601
 20
10.3327287253
 30
0.0
 10
10.234195701
 20
10.3357405497
 30
0.0
 10
10.234342576
 20
10.3379721107
 30
0.0
 10
10.2344867534
 20
10.3394946639
 30
0.0
 10
10.2346673035
 20
10.3409040432
 30
0.0
 10
10.2348830197
 20
10.3421929916
 30
0.0
 10
10.2351327506
 20
10.3433550119
 30
0.0
 10
10.2354153242
 20
10.3443843793
 30
0.0
 10
10.2357288479
 20
10.3452763331
 30
0.0
 10
10.2360723629
 20
10.3460271889
 30
0.0
 10
10.236444302
 20
10.346633808
 30
0.0
 10
10.2367327895
 20
10.346964797
 30
0.0
 10
10.2368821441
 20
10.3470981471
 30
0.0
  0
SPLINE
  5
344
100
AcDbEntity
  8
0
100
AcDbSpline
 62
9
  6
CONTINUOUS
 70
0
 71
3
 72
23
 73
19
 74
0
 42
0.0000001
 43
0.0000001
 44
0.0000000001
 40
0.0
 40
0.0
 40
0.0
 40
0.0
 40
0.0605518229
 40
0.1211802674
 40
0.1819587296
 40
0.2429543277
 40
0.3042251762
 40
0.3658181137
 40
0.4277669716
 40
0.4900914447
 40
0.5527965749
 40
0.6158728186
 40
0.6792966604
 40
0.743031718
 40
0.8070301893
 40
0.8712351793
 40
0.9355809003
 40
1.0
 40
1.0
 40
1.0
 40
1.0
 10
11.2948183383
 20
5.1501550508
 30
0.0
 10
11.2948183383
 20
5.1424690705
 30
0.0
 10
11.2940132963
 20
5.1270753064
 30
0.0
 10
11.2904031849
 20
5.1042224391
 30
0.0
 10
11.2844255004
 20
5.0818111099
 30
0.0
 10
11.276138494
 20
5.060061099
 30
0.0
 10
11.2656227998
 20
5.039181376
 30
0.0
 10
11.2529805576
 20
5.019373393
 30
0.0
 10
11.2383343993
 20
5.0008276815
 30
0.0
 10
11.2218261511
 20
4.9837224431
 30
0.0
 10
11.2036153826
 20
4.9682218081
 30
0.0
 10
11.1838778386
 20
4.9544743461
 30
0.0
 10
11.1628037535
 20
4.9426117023
 30
0.0
 10
11.1405959663
 20
4.9327473892
 30
0.0
 10
11.1174682746
 20
4.924975631
 30
0.0
 10
11.0936423403
 20
4.9193708178
 30
0.0
 10
11.0693496637
 20
4.9159862364
 30
0.0
 10
11.0529952008
 20
4.9152318956
 30
0.0
 10
11.0448183383
 20
4.9152318956
 30
0.0
  0
LINE
  5
345
100
AcDbEntity
  8
0
100
AcDbLine
 62
9
  6
CONTINUOUS
 10
11.8527542744
 20
8.6818292901
 11
11.9102515106
 21
8.6376642366
  0
LINE
  5
346
100
AcDbEntity
  8
0
100
AcDbLine
 62
9
  6
CONTINUOUS
 10
11.8774527774
 20
8.7065279645
 11
11.9216175519
 21
8.6490302624
  0
SPLINE
  5
347
100
AcDbEntity
  8
0
100
AcDbSpline
 62
9
  6
CONTINUOUS
 70
0
 71
3
 72
11
 73
7
 74
0
 42
0.0000001
 43
0.0000001
 44
0.0000000001
 40
0.0
 40
0.0
 40
0.0
 40
0.0
 40
0.2478348608
 40
0.5000000014
 40
0.7521651414
 40
1.0
 40
1.0
 40
1.0
 40
1.0
 10
12.9467143625
 20
9.3014260058
 30
0.0
 10
12.9473143499
 20
9.3004008313
 30
0.0
 10
12.9486661555
 20
9.2984124069
 30
0.0
 10
12.9510584551
 20
9.2957035644
 30
0.0
 10
12.9537672975
 20
9.2933112647
 30
0.0
 10
12.9557557219
 20
9.2919594591
 30
0.0
 10
12.9567808965
 20
9.2913594717
 30
0.0
  0
SPLINE
  5
348
100
AcDbEntity
  8
0
100
AcDbSpline
 62
9
  6
CONTINUOUS
 70
0
 71
3
 72
11
 73
7
 74
0
 42
0.0000001
 43
0.0000001
 44
0.0000000001
 40
0.0
 40
0.0
 40
0.0
 40
0.0
 40
0.2478348599
 40
0.4999999996
 40
0.7521651388
 40
1.0
 40
1.0
 40
1.0
 40
1.0
 10
13.3828557801
 20
9.2913594717
 30
0.0
 10
13.3838809546
 20
9.2919594592
 30
0.0
 10
13.385869379
 20
9.2933112648
 30
0.0
 10
13.3885782214
 20
9.2957035644
 30
0.0
 10
13.3909705212
 20
9.2984124068
 30
0.0
 10
13.3923223268
 20
9.3004008312
 30
0.0
 10
13.3929223141
 20
9.3014260058
 30
0.0
  0
LINE
  5
349
100
AcDbEntity
  8
0
100
AcDbLine
 62
9
  6
CONTINUOUS
 10
11.8774524887
 20
10.3223994366
 11
11.9216174323
 21
10.3798973163
  0
SPLINE
  5
34A
100
AcDbEntity
  8
0
100
AcDbSpline
 62
7
  6
CONTINUOUS
 70
0
 71
3
 72
23
 73
19
 74
0
 42
0.0000001
 43
0.0000001
 44
0.0000000001
 40
0.0
 40
0.0
 40
0.0
 40
0.0
 40
0.0644190997
 40
0.1287648207
 40
0.1929698107
 40
0.256968282
 40
0.3207033396
 40
0.3841271814
 40
0.4472034251
 40
0.5099085553
 40
0.5722330284
 40
0.6341818863
 40
0.6957748238
 40
0.7570456723
 40
0.8180412704
 40
0.8788197326
 40
0.9394481771
 40
1.0
 40
1.0
 40
1.0
 40
1.0
 10
11.0448183383
 20
4.6860783996
 30
0.0
 10
11.0366414758
 20
4.6860783996
 30
0.0
 10
11.0202870129
 20
4.6868327404
 30
0.0
 10
10.9959943362
 20
4.6902173217
 30
0.0
 10
10.972168402
 20
4.695822135
 30
0.0
 10
10.9490407103
 20
4.7035938932
 30
0.0
 10
10.9268329231
 20
4.7134582062
 30
0.0
 10
10.905758838
 20
4.7253208501
 30
0.0
 10
10.886021294
 20
4.7390683121
 30
0.0
 10
10.8678105255
 20
4.7545689471
 30
0.0
 10
10.8513022773
 20
4.7716741854
 30
0.0
 10
10.836656119
 20
4.7902198969
 30
0.0
 10
10.8240138768
 20
4.81002788
 30
0.0
 10
10.8134981826
 20
4.830907603
 30
0.0
 10
10.8052111762
 20
4.8526576139
 30
0.0
 10
10.7992334917
 20
4.8750689431
 30
0.0
 10
10.7956233802
 20
4.8979218104
 30
0.0
 10
10.7948183383
 20
4.9133155745
 30
0.0
 10
10.7948183383
 20
4.9210015548
 30
0.0
  0
SPLINE
  5
34B
100
AcDbEntity
  8
0
100
AcDbSpline
 62
9
  6
CONTINUOUS
 70
0
 71
3
 72
23
 73
19
 74
0
 42
0.0000001
 43
0.0000001
 44
0.0000000001
 40
0.0
 40
0.0
 40
0.0
 40
0.0
 40
0.0644190997
 40
0.1287648207
 40
0.1929698107
 40
0.256968282
 40
0.3207033396
 40
0.3841271814
 40
0.4472034251
 40
0.5099085553
 40
0.5722330284
 40
0.6341818863
 40
0.6957748238
 40
0.7570456723
 40
0.8180412704
 40
0.8788197326
 40
0.9394481771
 40
1.0
 40
1.0
 40
1.0
 40
1.0
 10
11.0448183383
 20
4.9152318956
 30
0.0
 10
11.0366414758
 20
4.9152318956
 30
0.0
 10
11.0202870129
 20
4.9159862364
 30
0.0
 10
10.9959943362
 20
4.9193708178
 30
0.0
 10
10.972168402
 20
4.924975631
 30
0.0
 10
10.9490407103
 20
4.9327473892
 30
0.0
 10
10.9268329231
 20
4.9426117023
 30
0.0
 10
10.905758838
 20
4.9544743461
 30
0.0
 10
10.886021294
 20
4.9682218081
 30
0.0
 10
10.8678105255
 20
4.9837224431
 30
0.0
 10
10.8513022773
 20
5.0008276815
 30
0.0
 10
10.836656119
 20
5.019373393
 30
0.0
 10
10.8240138768
 20
5.039181376
 30
0.0
 10
10.8134981826
 20
5.060061099
 30
0.0
 10
10.8052111762
 20
5.0818111099
 30
0.0
 10
10.7992334917
 20
5.1042224391
 30
0.0
 10
10.7956233802
 20
5.1270753064
 30
0.0
 10
10.7948183383
 20
5.1424690705
 30
0.0
 10
10.7948183383
 20
5.1501550508
 30
0.0
  0
SPLINE
  5
34C
100
AcDbEntity
  8
0
100
AcDbSpline
 62
9
  6
CONTINUOUS
 70
0
 71
3
 72
45
 73
41
 74
0
 42
0.0000001
 43
0.0000001
 44
0.0000000001
 40
0.0
 40
0.0
 40
0.0
 40
0.0
 40
0.0302505319
 40
0.0605644531
 40
0.0757594363
 40
0.0909815938
 40
0.1062342289
 40
0.1215203647
 40
0.1521948199
 40
0.1830316552
 40
0.214042707
 40
0.2452336362
 40
0.260900772
 40
0.2766121345
 40
0.3081548617
 40
0.3398575557
 40
0.3717023483
 40
0.4036667209
 40
0.4357242899
 40
0.4678456884
 40
0.4999995196
 40
0.532153359
 40
0.5642747816
 40
0.59633239
 40
0.6282968158
 40
0.6601416741
 40
0.6918444437
 40
0.7233872543
 40
0.7390986605
 40
0.7547658407
 40
0.78595686
 40
0.8169680006
 40
0.8478049203
 40
0.8784794525
 40
0.8937656231
 40
0.9090182902
 40
0.9242404765
 40
0.939435485
 40
0.9697494458
 40
1.0
 40
1.0
 40
1.0
 40
1.0
 10
11.3580622395
 20
4.7638737399
 30
0.0
 10
11.3572783481
 20
4.7547318208
 30
0.0
 10
11.354799592
 20
4.7364947037
 30
0.0
 10
11.3494642862
 20
4.714103936
 30
0.0
 10
11.3438863995
 20
4.6965414608
 30
0.0
 10
11.3390503307
 20
4.6835546339
 30
0.0
 10
11.333576053
 20
4.6707935783
 30
0.0
 10
11.325434102
 20
4.6541003601
 30
0.0
 10
11.3137112629
 20
4.6339258712
 30
0.0
 10
11.2973323794
 20
4.6110866922
 30
0.0
 10
11.2787657313
 20
4.5897799695
 30
0.0
 10
11.2616257411
 20
4.5734759999
 30
0.0
 10
11.2469981155
 20
4.5613753208
 30
0.0
 10
11.231744482
 20
4.5498954669
 30
0.0
 10
11.2116359042
 20
4.5368219307
 30
0.0
 10
11.1860992362
 20
4.5233327624
 30
0.0
 10
11.159339278
 20
4.5121334046
 30
0.0
 10
11.1315889669
 20
4.5033212417
 30
0.0
 10
11.1030881372
 20
4.4969718659
 30
0.0
 10
11.0740834241
 20
4.4931399922
 30
0.0
 10
11.0448256428
 20
4.4918585887
 30
0.0
 10
11.0155677984
 20
4.4931387159
 30
0.0
 10
10.9865628963
 20
4.4969693244
 30
0.0
 10
10.9580617535
 20
4.5033174568
 30
0.0
 10
10.9303110077
 20
4.5121284089
 30
0.0
 10
10.9035504971
 20
4.5233265989
 30
0.0
 10
10.8780131635
 20
4.5368146524
 30
0.0
 10
10.8579039415
 20
4.54988731
 30
0.0
 10
10.8426497417
 20
4.5613664978
 30
0.0
 10
10.8280215179
 20
4.5734665384
 30
0.0
 10
10.8108807226
 20
4.5897697594
 30
0.0
 10
10.7923130223
 20
4.6110756706
 30
0.0
 10
10.7759330106
 20
4.6339141335
 30
0.0
 10
10.7642091737
 20
4.6540881111
 30
0.0
 10
10.7560663973
 20
4.6707809752
 30
0.0
 10
10.7505914887
 20
4.6835417916
 30
0.0
 10
10.7457547781
 20
4.6965284073
 30
0.0
 10
10.740176024
 20
4.7140906368
 30
0.0
 10
10.7348396119
 20
4.7364811678
 30
0.0
 10
10.7323599534
 20
4.7547181812
 30
0.0
 10
10.7315756098
 20
4.7638600682
 30
0.0
  0
SPLINE
  5
34D
100
AcDbEntity
  8
0
100
AcDbSpline
 62
9
  6
CONTINUOUS
 70
0
 71
3
 72
45
 73
41
 74
0
 42
0.0000001
 43
0.0000001
 44
0.0000000001
 40
0.0
 40
0.0
 40
0.0
 40
0.0
 40
0.0151189556
 40
0.0302571944
 40
0.0454179193
 40
0.0606042169
 40
0.091056775
 40
0.1216422819
 40
0.1369936676
 40
0.1523837206
 40
0.1832770111
 40
0.2143356738
 40
0.245560777
 40
0.276948471
 40
0.3084901758
 40
0.3401728974
 40
0.3719796545
 40
0.4038900015
 40
0.4358806293
 40
0.4679260282
 40
0.4999991957
 40
0.5320723752
 40
0.5641178098
 40
0.5961084962
 40
0.6280189229
 40
0.6598257786
 40
0.691508615
 40
0.7230504477
 40
0.7544382789
 40
0.7856635247
 40
0.8167223312
 40
0.8476157625
 40
0.8630058833
 40
0.8783573346
 40
0.9089429634
 40
0.9393956283
 40
0.9545819725
 40
0.969742739
 40
0.9848810138
 40
1.0
 40
1.0
 40
1.0
 40
1.0
 10
11.3452684065
 20
4.740074638
 30
0.0
 10
11.3444340257
 20
4.736014126
 30
0.0
 10
11.3425782928
 20
4.7279248448
 30
0.0
 10
11.3392425015
 20
4.715922958
 30
0.0
 10
11.3353591201
 20
4.7040669697
 30
0.0
 10
11.3294563358
 20
4.6884717686
 30
0.0
 10
11.3207389925
 20
4.6694440574
 30
0.0
 10
11.31033188
 20
4.6512341217
 30
0.0
 10
11.3010347395
 20
4.6372176796
 30
0.0
 10
11.2910787616
 20
4.6235567684
 30
0.0
 10
11.2774676411
 20
4.6072572973
 30
0.0
 10
11.2594299134
 20
4.5891215787
 30
0.0
 10
11.2397976598
 20
4.5725138839
 30
0.0
 10
11.2187178051
 20
4.5575582541
 30
0.0
 10
11.1963469847
 20
4.5443651067
 30
0.0
 10
11.1728515566
 20
4.5330321099
 30
0.0
 10
11.1484060557
 20
4.5236430365
 30
0.0
 10
11.1231919957
 20
4.5162672861
 30
0.0
 10
11.0973965144
 20
4.510959356
 30
0.0
 10
11.0712110087
 20
4.5077584599
 30
0.0
 10
11.0448297313
 20
4.5066882436
 30
0.0
 10
11.0184483693
 20
4.5077566161
 30
0.0
 10
10.9922626107
 20
4.5109556821
 30
0.0
 10
10.96646671
 20
4.5162618093
 30
0.0
 10
10.941252067
 20
4.5236357972
 30
0.0
 10
10.916805824
 20
4.5330231617
 30
0.0
 10
10.8933095
 20
4.5443545157
 30
0.0
 10
10.8709376366
 20
4.5575460986
 30
0.0
 10
10.8498565992
 20
4.5725002538
 30
0.0
 10
10.8302230321
 20
4.5891065749
 30
0.0
 10
10.8121838698
 20
4.6072410311
 30
0.0
 10
10.7985714587
 20
4.6235395499
 30
0.0
 10
10.7886143991
 20
4.6371997655
 30
0.0
 10
10.7793161495
 20
4.6512155559
 30
0.0
 10
10.7689075966
 20
4.6694247609
 30
0.0
 10
10.7601887454
 20
4.6884518639
 30
0.0
 10
10.7542847257
 20
4.7040466544
 30
0.0
 10
10.7504004054
 20
4.7159023709
 30
0.0
 10
10.7470636637
 20
4.7279040243
 30
0.0
 10
10.7452072899
 20
4.7359931771
 30
0.0
 10
10.7443725875
 20
4.7400536316
 30
0.0
  0
SPLINE
  5
34E
100
AcDbEntity
  8
0
100
AcDbSpline
 62
9
  6
CONTINUOUS
 70
0
 71
3
 72
11
 73
7
 74
0
 42
0.0000001
 43
0.0000001
 44
0.0000000001
 40
0.0
 40
0.0
 40
0.0
 40
0.0
 40
0.2478348599
 40
0.4999999996
 40
0.7521651388
 40
1.0
 40
1.0
 40
1.0
 40
1.0
 10
13.3929223141
 20
9.7275008894
 30
0.0
 10
13.3923223267
 20
9.7285260639
 30
0.0
 10
13.3909705211
 20
9.7305144882
 30
0.0
 10
13.3885782214
 20
9.7332233307
 30
0.0
 10
13.3858693791
 20
9.7356156305
 30
0.0
 10
13.3838809546
 20
9.736967436
 30
0.0
 10
13.3828557801
 20
9.7375674234
 30
0.0
  0
SPLINE
  5
34F
100
AcDbEntity
  8
0
100
AcDbSpline
 62
9
  6
CONTINUOUS
 70
0
 71
3
 72
29
 73
25
 74
0
 42
0.0000001
 43
0.0000001
 44
0.0000000001
 40
0.0
 40
0.0
 40
0.0
 40
0.0
 40
0.0305870649
 40
0.0612806173
 40
0.0920808817
 40
0.1229867676
 40
0.1539958921
 40
0.1851045928
 40
0.2475773678
 40
0.3103762793
 40
0.3734339584
 40
0.4366710346
 40
0.4999999106
 40
0.5633287902
 40
0.626565877
 40
0.6896235733
 40
0.7524225077
 40
0.8148953103
 40
0.8460040262
 40
0.8770131664
 40
0.9079190686
 40
0.9387193496
 40
0.9694129186
 40
1.0
 40
1.0
 40
1.0
 40
1.0
 10
11.2662962597
 20
4.6509918183
 30
0.0
 10
11.2629791675
 20
4.6471063896
 30
0.0
 10
11.256111333
 20
4.6395085768
 30
0.0
 10
11.2451681758
 20
4.6286910647
 30
0.0
 10
11.2335986275
 20
4.6184649998
 30
0.0
 10
11.2214394751
 20
4.6088628116
 30
0.0
 10
11.2087280471
 20
4.599914167
 30
0.0
 10
11.1910757975
 20
4.5888781327
 30
0.0
 10
11.1678243755
 20
4.5768574189
 30
0.0
 10
11.138439757
 20
4.5654698975
 30
0.0
 10
11.1078878379
 20
4.5572329372
 30
0.0
 10
11.0765512464
 20
4.5522498136
 30
0.0
 10
11.0448195752
 20
4.5505818444
 30
0.0
 10
11.0130878885
 20
4.5522495544
 30
0.0
 10
10.981751251
 20
4.5572324219
 30
0.0
 10
10.9511992559
 20
4.5654691326
 30
0.0
 10
10.9218145323
 20
4.5768564137
 30
0.0
 10
10.8985629996
 20
4.5888769372
 30
0.0
 10
10.8809106481
 20
4.599912827
 30
0.0
 10
10.8681991374
 20
4.6088613676
 30
0.0
 10
10.8560398961
 20
4.6184634564
 30
0.0
 10
10.8444702531
 20
4.6286894267
 30
0.0
 10
10.8335269958
 20
4.6395068494
 30
0.0
 10
10.8266590909
 20
4.6471046059
 30
0.0
 10
10.8233419628
 20
4.6509900076
 30
0.0
  0
LINE
  5
350
100
AcDbEntity
  8
0
100
AcDbLine
 62
9
  6
CONTINUOUS
 10
11.8527538394
 20
10.3470979247
 11
11.9102508265
 21
10.3912627781
  0
SPLINE
  5
351
100
AcDbEntity
  8
0
100
AcDbSpline
 62
9
  6
CONTINUOUS
 70
0
 71
3
 72
39
 73
35
 74
0
 42
0.0000001
 43
0.0000001
 44
0.0000000001
 40
0.0
 40
0.0
 40
0.0
 40
0.0
 40
0.0302721677
 40
0.0605853705
 40
0.0909768146
 40
0.1214788794
 40
0.1521197832
 40
0.1829221094
 40
0.2139020236
 40
0.2450687503
 40
0.276424331
 40
0.3079636819
 40
0.3396749077
 40
0.3715398413
 40
0.4035347901
 40
0.4356314527
 40
0.4677979579
 40
0.5
 40
0.5322020421
 40
0.5643685473
 40
0.5964652099
 40
0.6284601587
 40
0.6603250923
 40
0.6920363181
 40
0.723575669
 40
0.7549312497
 40
0.7860979764
 40
0.8170778906
 40
0.8478802168
 40
0.8785211206
 40
0.9090231854
 40
0.9394146295
 40
0.9697278323
 40
1.0
 40
1.0
 40
1.0
 40
1.0
 10
11.3902966572
 20
4.9042528918
 30
0.0
 10
11.3901708404
 20
4.893706321
 30
0.0
 10
11.388821651
 20
4.8725956599
 30
0.0
 10
11.3835292166
 20
4.8412882096
 30
0.0
 10
11.3750179266
 20
4.8106123051
 30
0.0
 10
11.3633694831
 20
4.7808641729
 30
0.0
 10
11.3486956666
 20
4.7523255967
 30
0.0
 10
11.33113702
 20
4.7252679153
 30
0.0
 10
11.3108613386
 20
4.6999476909
 30
0.0
 10
11.2880620659
 20
4.6766048122
 30
0.0
 10
11.2629564802
 20
4.6554600197
 30
0.0
 10
11.2357834067
 20
4.6367130831
 30
0.0
 10
11.2068009618
 20
4.6205410147
 30
0.0
 10
11.176284205
 20
4.6070963378
 30
0.0
 10
11.1445225183
 20
4.5965057027
 30
0.0
 10
11.1118168388
 20
4.5888688861
 30
0.0
 10
11.0784768916
 20
4.5842578903
 30
0.0
 10
11.0448183383
 20
4.582716067
 30
0.0
 10
11.011159785
 20
4.5842578903
 30
0.0
 10
10.9778198378
 20
4.5888688861
 30
0.0
 10
10.9451141583
 20
4.5965057027
 30
0.0
 10
10.9133524716
 20
4.6070963378
 30
0.0
 10
10.8828357148
 20
4.6205410147
 30
0.0
 10
10.8538532699
 20
4.6367130831
 30
0.0
 10
10.8266801964
 20
4.6554600197
 30
0.0
 10
10.8015746107
 20
4.6766048122
 30
0.0
 10
10.778775338
 20
4.6999476909
 30
0.0
 10
10.7584996566
 20
4.7252679153
 30
0.0
 10
10.74094101
 20
4.7523255967
 30
0.0
 10
10.7262671935
 20
4.7808641729
 30
0.0
 10
10.71461875
 20
4.8106123051
 30
0.0
 10
10.70610746
 20
4.8412882096
 30
0.0
 10
10.7008150256
 20
4.8725956599
 30
0.0
 10
10.6994658362
 20
4.893706321
 30
0.0
 10
10.6993400194
 20
4.9042528918
 30
0.0
  0
LINE
  5
352
100
AcDbEntity
  8
0
100
AcDbLine
 62
9
  6
CONTINUOUS
 10
11.3901407168
 20
4.9082315148
 11
11.3901405383
 21
4.9079017495
  0
SPLINE
  5
353
100
AcDbEntity
  8
0
100
AcDbSpline
 62
9
  6
CONTINUOUS
 70
0
 71
3
 72
39
 73
35
 74
0
 42
0.0000001
 43
0.0000001
 44
0.0000000001
 40
0.0
 40
0.0
 40
0.0
 40
0.0
 40
0.0302758135
 40
0.0605896451
 40
0.0909791246
 40
0.1214772995
 40
0.1521132169
 40
0.1829102146
 40
0.2138851388
 40
0.2450477849
 40
0.276400628
 40
0.307938865
 40
0.3396507259
 40
0.3715180198
 40
0.4035168913
 40
0.435618758
 40
0.4677913752
 40
0.5
 40
0.5322086248
 40
0.564381242
 40
0.5964831087
 40
0.6284819802
 40
0.6603492741
 40
0.692061135
 40
0.723599372
 40
0.7549522151
 40
0.7861148612
 40
0.8170897854
 40
0.8478867831
 40
0.8785227005
 40
0.9090208754
 40
0.9394103549
 40
0.9697241865
 40
1.0
 40
1.0
 40
1.0
 40
1.0
 10
11.3901405383
 20
4.9079017495
 30
0.0
 10
11.3901290534
 20
4.8972918733
 30
0.0
 10
11.3889955487
 20
4.8760433442
 30
0.0
 10
11.3839811416
 20
4.8445017457
 30
0.0
 10
11.3757014671
 20
4.8135720595
 30
0.0
 10
11.3642367392
 20
4.7835570599
 30
0.0
 10
11.3496985037
 20
4.7547448651
 30
0.0
 10
11.3322278708
 20
4.7274130194
 30
0.0
 10
11.311994048
 20
4.7018240867
 30
0.0
 10
11.2891926133
 20
4.6782237127
 30
0.0
 10
11.2640437399
 20
4.6568380158
 30
0.0
 10
11.236789843
 20
4.6378716718
 30
0.0
 10
11.2076932206
 20
4.621506094
 30
0.0
 10
11.1770336285
 20
4.6078976766
 30
0.0
 10
11.1451056272
 20
4.5971762693
 30
0.0
 10
11.1122156938
 20
4.5894441895
 30
0.0
 10
11.078679373
 20
4.5847752899
 30
0.0
 10
11.0448183383
 20
4.5832140436
 30
0.0
 10
11.0109573036
 20
4.5847752899
 30
0.0
 10
10.9774209828
 20
4.5894441895
 30
0.0
 10
10.9445310494
 20
4.5971762693
 30
0.0
 10
10.9126030481
 20
4.6078976766
 30
0.0
 10
10.881943456
 20
4.621506094
 30
0.0
 10
10.8528468336
 20
4.6378716718
 30
0.0
 10
10.8255929367
 20
4.6568380158
 30
0.0
 10
10.8004440633
 20
4.6782237127
 30
0.0
 10
10.7776426286
 20
4.7018240867
 30
0.0
 10
10.7574088058
 20
4.7274130194
 30
0.0
 10
10.739938173
 20
4.7547448651
 30
0.0
 10
10.7253999374
 20
4.7835570599
 30
0.0
 10
10.7139352095
 20
4.8135720595
 30
0.0
 10
10.705655535
 20
4.8445017457
 30
0.0
 10
10.7006411279
 20
4.8760433442
 30
0.0
 10
10.6995076232
 20
4.8972918733
 30
0.0
 10
10.6994961383
 20
4.9079017495
 30
0.0
  0
LINE
  5
354
100
AcDbEntity
  8
0
100
AcDbLine
 62
9
  6
CONTINUOUS
 10
10.6994961383
 20
4.9079017495
 11
10.6994959598
 21
4.9082315148
  0
SPLINE
  5
355
100
AcDbEntity
  8
0
100
AcDbSpline
 62
9
  6
CONTINUOUS
 70
0
 71
3
 72
39
 73
35
 74
0
 42
0.0000001
 43
0.0000001
 44
0.0000000001
 40
0.0
 40
0.0
 40
0.0
 40
0.0
 40
0.0302760905
 40
0.0605899731
 40
0.0909793086
 40
0.1214770944
 40
0.1521125234
 40
0.1829090008
 40
0.2138834338
 40
0.2450456743
 40
0.2763982453
 40
0.3079363751
 40
0.3396483028
 40
0.3715158328
 40
0.4035150969
 40
0.4356174858
 40
0.467790716
 40
0.5
 40
0.532209284
 40
0.5643825142
 40
0.5964849031
 40
0.6284841672
 40
0.6603516972
 40
0.6920636249
 40
0.7236017547
 40
0.7549543257
 40
0.7861165662
 40
0.8170909992
 40
0.8478874766
 40
0.8785229056
 40
0.9090206914
 40
0.9394100269
 40
0.9697239095
 40
1.0
 40
1.0
 40
1.0
 40
1.0
 10
11.3413183398
 20
4.9210015548
 30
0.0
 10
11.3413183398
 20
4.9118859281
 30
0.0
 10
11.3403636057
 20
4.8936289671
 30
0.0
 10
11.3360819264
 20
4.8665254984
 30
0.0
 10
11.3289924872
 20
4.8399457164
 30
0.0
 10
11.3191640814
 20
4.8141501753
 30
0.0
 10
11.3066924595
 20
4.7893868281
 30
0.0
 10
11.2916987435
 20
4.7658945648
 30
0.0
 10
11.2743284138
 20
4.7438993343
 30
0.0
 10
11.2547496509
 20
4.7236124968
 30
0.0
 10
11.2331516859
 20
4.7052287243
 30
0.0
 10
11.209742933
 20
4.6889242614
 30
0.0
 10
11.1847490414
 20
4.6748551888
 30
0.0
 10
11.1584106491
 20
4.6631560748
 30
0.0
 10
11.1309810902
 20
4.6539387637
 30
0.0
 10
11.1027239996
 20
4.6472913637
 30
0.0
 10
11.0739108414
 20
4.6432773943
 30
0.0
 10
11.0448183383
 20
4.6419351353
 30
0.0
 10
11.0157258352
 20
4.6432773943
 30
0.0
 10
10.986912677
 20
4.6472913637
 30
0.0
 10
10.9586555864
 20
4.6539387637
 30
0.0
 10
10.9312260275
 20
4.6631560748
 30
0.0
 10
10.9048876352
 20
4.6748551888
 30
0.0
 10
10.8798937436
 20
4.6889242614
 30
0.0
 10
10.8564849907
 20
4.7052287243
 30
0.0
 10
10.8348870257
 20
4.7236124968
 30
0.0
 10
10.8153082628
 20
4.7438993343
 30
0.0
 10
10.7979379331
 20
4.7658945648
 30
0.0
 10
10.7829442171
 20
4.7893868281
 30
0.0
 10
10.7704725952
 20
4.8141501753
 30
0.0
 10
10.7606441895
 20
4.8399457164
 30
0.0
 10
10.7535547502
 20
4.8665254984
 30
0.0
 10
10.7492730709
 20
4.8936289671
 30
0.0
 10
10.7483183368
 20
4.9118859281
 30
0.0
 10
10.7483183368
 20
4.9210015548
 30
0.0
  0
SPLINE
  5
356
100
AcDbEntity
  8
0
100
AcDbSpline
 62
9
  6
CONTINUOUS
 70
0
 71
3
 72
39
 73
35
 74
0
 42
0.0000001
 43
0.0000001
 44
0.0000000001
 40
0.0
 40
0.0
 40
0.0
 40
0.0
 40
0.0302761661
 40
0.0605900661
 40
0.0909793753
 40
0.121477165
 40
0.1521125905
 40
0.1829090597
 40
0.2138834863
 40
0.2450457215
 40
0.2763982887
 40
0.3079364125
 40
0.3396483326
 40
0.3715158561
 40
0.4035151157
 40
0.4356174989
 40
0.4677907222
 40
0.5
 40
0.5322092778
 40
0.5643825011
 40
0.5964848843
 40
0.6284841439
 40
0.6603516674
 40
0.6920635875
 40
0.7236017113
 40
0.7549542785
 40
0.7861165137
 40
0.8170909403
 40
0.8478874095
 40
0.878522835
 40
0.9090206247
 40
0.9394099339
 40
0.9697238339
 40
1.0
 40
1.0
 40
1.0
 40
1.0
 10
11.3824849713
 20
4.9140823556
 30
0.0
 10
11.3824849713
 20
4.9037010718
 30
0.0
 10
11.3813976724
 20
4.8829092474
 30
0.0
 10
11.3765215126
 20
4.8520426582
 30
0.0
 10
11.3684477581
 20
4.8217724908
 30
0.0
 10
11.3572547575
 20
4.7923954553
 30
0.0
 10
11.3430515139
 20
4.7641939391
 30
0.0
 10
11.3259760524
 20
4.7374399667
 30
0.0
 10
11.3061940144
 20
4.7123908675
 30
0.0
 10
11.283896905
 20
4.6892873642
 30
0.0
 10
11.2593001988
 20
4.6683512054
 30
0.0
 10
11.2326413358
 20
4.6497830049
 30
0.0
 10
11.2041772697
 20
4.6337605242
 30
0.0
 10
11.174182018
 20
4.6204370618
 30
0.0
 10
11.1429440713
 20
4.6099400595
 30
0.0
 10
11.1107637125
 20
4.6023697539
 30
0.0
 10
11.0779500942
 20
4.597798431
 30
0.0
 10
11.0448183383
 20
4.5962697677
 30
0.0
 10
11.0116865824
 20
4.597798431
 30
0.0
 10
10.9788729641
 20
4.6023697539
 30
0.0
 10
10.9466926054
 20
4.6099400595
 30
0.0
 10
10.9154546586
 20
4.6204370618
 30
0.0
 10
10.8854594069
 20
4.6337605242
 30
0.0
 10
10.8569953409
 20
4.6497830049
 30
0.0
 10
10.8303364778
 20
4.6683512054
 30
0.0
 10
10.8057397716
 20
4.6892873642
 30
0.0
 10
10.7834426622
 20
4.7123908675
 30
0.0
 10
10.7636606242
 20
4.7374399667
 30
0.0
 10
10.7465851627
 20
4.7641939391
 30
0.0
 10
10.7323819191
 20
4.7923954553
 30
0.0
 10
10.7211889185
 20
4.8217724908
 30
0.0
 10
10.713115164
 20
4.8520426582
 30
0.0
 10
10.7082390042
 20
4.8829092474
 30
0.0
 10
10.7071517053
 20
4.9037010718
 30
0.0
 10
10.7071517053
 20
4.9140823556
 30
0.0
  0
LINE
  5
357
100
AcDbEntity
  8
0
100
AcDbLine
 62
9
  6
CONTINUOUS
 10
10.2368823573
 20
10.3470976395
 11
10.179385166
 21
10.3912626585
  0
SPLINE
  5
358
100
AcDbEntity
  8
0
100
AcDbSpline
 62
9
  6
CONTINUOUS
 70
0
 71
3
 72
11
 73
7
 74
0
 42
0.0000001
 43
0.0000001
 44
0.0000000001
 40
0.0
 40
0.0
 40
0.0
 40
0.0
 40
0.2478348608
 40
0.5000000014
 40
0.7521651414
 40
1.0
 40
1.0
 40
1.0
 40
1.0
 10
12.9567808965
 20
9.7375674234
 30
0.0
 10
12.955755722
 20
9.736967436
 30
0.0
 10
12.9537672976
 20
9.7356156304
 30
0.0
 10
12.9510584551
 20
9.7332233307
 30
0.0
 10
12.9486661554
 20
9.7305144883
 30
0.0
 10
12.9473143498
 20
9.7285260639
 30
0.0
 10
12.9467143624
 20
9.7275008894
 30
0.0
  0
ENDSEC
  0
SECTION
  2
OBJECTS
  0
DICTIONARY
  5
C
100
AcDbDictionary
280
0
281
1
  3
ACAD_GROUP
350
D
  3
ACAD_MLINESTYLE
350
17
  3
ACAD_LAYOUT
350
1A
  3
ACAD_PLOTSETTINGS
350
19
  3
ACAD_PLOTSTYLENAME
350
E
  0
DICTIONARY
  5
D
102
{ACAD_REACTORS
330
C
102
}
100
AcDbDictionary
280
0
281
1
  0
ACDBDICTIONARYWDFLT
  5
E
102
{ACAD_REACTORS
330
C
102
}
100
AcDbDictionary
281
1
  3
Normal
350
F
100
AcDbDictionaryWithDefault
340
F
  0
DICTIONARY
  5
17
102
{ACAD_REACTORS
330
C
102
}
100
AcDbDictionary
280
0
281
1
  3
Standard
350
18
  0
DICTIONARY
  5
19
102
{ACAD_REACTORS
330
C
102
}
100
AcDbDictionary
281
1
  0
DICTIONARY
  5
1A
102
{ACAD_REACTORS
330
C
102
}
100
AcDbDictionary
281
1
  3
Model
350
359
  3
Layout1
350
35A
  0
ACDBPLACEHOLDER
  5
F
102
{ACAD_REACTORS
330
E
102
}
  0
MLINESTYLE
  5
18
102
{ACAD_REACTORS
330
17
102
}
100
AcDbMlineStyle
  2
STANDARD
 70
0
  3

 62
256
 51
90.0
 52
90.0
 71
2
 49
0.5
 62
256
  6
BYLAYER
 49
-0.5
 62
256
  6
BYLAYER
  0
LAYOUT
  5
359
102
{ACAD_REACTORS
330
1A
102
}
100
AcDbPlotSettings
  1

  2
none_device
  4
ANSI_C_(22.00_x_17.00_Inches)
  6

 40
0.0
 41
0.0
 42
0.0
 43
0.0
 44
558.8
 45
431.8
 46
0.0
 47
0.0
 48
0.0
 49
0.0
140
0.0
141
0.0
142
1.0
143
1.0
 70
1024
 72
0
 73
0
 74
0
  7

 75
0
147
1.0
148
0.0
149
0.0
100
AcDbLayout
  1
Model
 70
0
 71
0
 10
0.0
 20
0.0
 11
22.0
 21
17.0
 12
0.0
 22
0.0
 32
0.0
 14
0.0
 24
0.0
 34
0.0
 15
0.0
 25
0.0
 35
0.0
146
0.0
 13
0.0
 23
0.0
 33
0.0
 16
1.0
 26
0.0
 36
0.0
 17
0.0
 27
1.0
 37
0.0
 76
0
330
205
345
0
346
0
  0
LAYOUT
  5
35A
102
{ACAD_REACTORS
330
1A
102
}
100
AcDbPlotSettings
  1

  2
none_device
  4
ANSI_C_(22.00_x_17.00_Inches)
  6

 40
0.0
 41
0.0
 42
0.0
 43
0.0
 44
558.8
 45
431.8
 46
0.0
 47
0.0
 48
0.0
 49
0.0
140
0.0
141
0.0
142
1.0
143
1.0
 70
0
 72
0
 73
0
 74
0
  7

 75
0
147
1.0
148
0.0
149
0.0
100
AcDbLayout
  1
Layout1
 70
0
 71
1
 10
0.0
 20
0.0
 11
22.0
 21
17.0
 12
0.0
 22
0.0
 32
0.0
 14
0.0
 24
0.0
 34
0.0
 15
0.0
 25
0.0
 35
0.0
146
0.0
 13
0.0
 23
0.0
 33
0.0
 16
1.0
 26
0.0
 36
0.0
 17
0.0
 27
1.0
 37
0.0
 76
0
330
206
345
0
346
0
  0
ENDSEC
  0
EOF
