999
DXF file: E:\BT Custom\CADOUTPUT\_RIGHT.dxf
999
Pro/ENGINEER 2018400 by Parametric Technology Corporation
  0
SECTION
  2
HEADER
  9
$ACADVER
  1
AC1018
  9
$DWGCODEPAGE
  3
ANSI_1252
  9
$EXTMAX
 10
22.0
 20
17.0
 30
0.0
  9
$EXTMIN
 10
0.0
 20
0.0
 30
0.0
  9
$LIMMIN
 10
0.0
 20
0.0
  9
$LIMMAX
 10
22.0
 20
17.0
  9
$VIEWCTR
 10
11.0
 20
8.5
  9
$VIEWSIZE
 40
17.0
  9
$CLAYER
  8
0
  9
$LTSCALE
 40
1.21
  9
$CELTYPE
  6
BYLAYER
  9
$DIMSCALE
 40
1.0
  9
$DIMASZ
 40
0.1
  9
$DIMEXO
 40
0.0625
  9
$DIMDLI
 40
0.836
  9
$DIMEXE
 40
0.125
  9
$DIMCEN
 40
0.198
  9
$DIMLFAC
 40
1.0
  9
$DIMBLK
  1
_FILLED
  9
$DIMALT
 70
1
  9
$DIMALTD
 70
2
  9
$DIMALTTD
 70
2
  9
$DIMALTF
 40
25.4
  9
$DIMTXT
 40
0.08
  9
$DIMTOL
 70
1
  9
$DIMLIM
 70
0
  9
$DIMTFAC
 40
1.0
  9
$DIMTP
 40
0.001
  9
$DIMTM
 40
0.001
  9
$DIMGAP
 40
0.09
  9
$DIMDSEP
 70
46
  9
$AUNITS
 70
0
  9
$PDMODE
 70
3
  9
$PDSIZE
 40
0.06
  9
$HANDSEED
  5
2CA
  9
$TILEMODE
 70
1
  9
$MEASUREMENT
 70
0
  9
$INSUNITS
 70
1
  0
ENDSEC
  0
SECTION
  2
CLASSES
  0
CLASS
  1
ACDBDICTIONARYWDFLT
  2
AcDbDictionaryWithDefault
  3
AutoCAD 2000
 90
0
 91
1
280
0
281
0
  0
CLASS
  1
ACDBPLACEHOLDER
  2
AcDbPlaceHolder
  3
AutoCAD 2000
 90
0
 91
1
280
0
281
0
  0
CLASS
  1
LAYOUT
  2
AcDbLayout
  3
AutoCAD 2000
 90
0
 91
0
280
0
281
0
  0
ENDSEC
  0
SECTION
  2
TABLES
  0
TABLE
  2
VPORT
  5
8
100
AcDbSymbolTable
 70
2
  0
VPORT
  5
1F4
100
AcDbSymbolTableRecord
100
AcDbViewportTableRecord
  2
*ACTIVE
 70
0
 10
0.0
 20
0.0
 11
1.0
 21
1.0
 12
11.0
 22
8.5
 13
0.0
 23
0.0
 14
1.0
 24
1.0
 15
0.0
 25
0.0
 16
0.0
 26
0.0
 36
1.0
 17
0.0
 27
0.0
 37
0.0
 40
17.0
 41
1.2941176471
 42
50.0
 43
0.0
 44
0.0
 50
0.0
 51
0.0
 71
0
 72
100
 73
1
 74
1
 75
0
 76
0
 77
0
 78
0
  0
ENDTAB
  0
TABLE
  2
LTYPE
  5
5
100
AcDbSymbolTable
 70
6
  0
LTYPE
  5
14
100
AcDbSymbolTableRecord
100
AcDbLinetypeTableRecord
  2
BYBLOCK
 70
0
  3

 72
65
 73
0
 40
0.0
  0
LTYPE
  5
15
100
AcDbSymbolTableRecord
100
AcDbLinetypeTableRecord
  2
BYLAYER
 70
0
  3

 72
65
 73
0
 40
0.0
  0
LTYPE
  5
16
100
AcDbSymbolTableRecord
100
AcDbLinetypeTableRecord
  2
CONTINUOUS
 70
64
  3
Solid line
 72
65
 73
0
 40
0.0
  0
LTYPE
  5
1F5
100
AcDbSymbolTableRecord
100
AcDbLinetypeTableRecord
  2
CENTER
 70
64
  3
____ _ ____ _ ____ _ ____ _ ____ _ ____ _ ____
 72
65
 73
4
 40
0.6
 49
0.375
 74
0
 49
-0.075
 74
0
 49
0.075
 74
0
 49
-0.075
 74
0
  0
LTYPE
  5
1F6
100
AcDbSymbolTableRecord
100
AcDbLinetypeTableRecord
  2
HIDDEN
 70
64
  3
- - - - - - - - - - - - - - - - - - - -
 72
65
 73
2
 40
0.2
 49
0.1
 74
0
 49
-0.1
 74
0
  0
LTYPE
  5
1F7
100
AcDbSymbolTableRecord
100
AcDbLinetypeTableRecord
  2
PHANTOM
 70
64
  3
_____ _ _ _____ _ _ _____ _ _ _____
 72
65
 73
6
 40
0.8
 49
0.45
 74
0
 49
-0.05
 74
0
 49
0.1
 74
0
 49
-0.05
 74
0
 49
0.1
 74
0
 49
-0.05
 74
0
  0
LTYPE
  5
1F8
100
AcDbSymbolTableRecord
100
AcDbLinetypeTableRecord
  2
DOT
 70
64
  3
. . . . . . . . . . . . . . . . . . . .
 72
65
 73
2
 40
0.2
 49
0.1
 74
0
 49
-0.1
 74
0
  0
LTYPE
  5
1F9
100
AcDbSymbolTableRecord
100
AcDbLinetypeTableRecord
  2
DASHED
 70
64
  3
- - - - - - - - - - - - - - - - - - - -
 72
65
 73
2
 40
0.2
 49
0.1
 74
0
 49
-0.1
 74
0
  0
ENDTAB
  0
TABLE
  2
LAYER
  5
2
100
AcDbSymbolTable
 70
36
  0
LAYER
  5
10
100
AcDbSymbolTableRecord
100
AcDbLayerTableRecord
  2
0
 70
0
 62
7
  6
CONTINUOUS
370
-3
390
F
  0
LAYER
  5
1FA
100
AcDbSymbolTableRecord
100
AcDbLayerTableRecord
  2
DEFAULT_1
 70
0
 62
7
  6
CENTER
370
-3
390
F
  0
LAYER
  5
1FB
100
AcDbSymbolTableRecord
100
AcDbLayerTableRecord
  2
DEFAULT_2
 70
0
 62
8
  6
HIDDEN
370
-3
390
F
  0
LAYER
  5
1FC
100
AcDbSymbolTableRecord
100
AcDbLayerTableRecord
  2
DEFAULT_3
 70
0
 62
7
  6
PHANTOM
370
-3
390
F
  0
LAYER
  5
1FD
100
AcDbSymbolTableRecord
100
AcDbLayerTableRecord
  2
ALL_FEATURES
 70
0
 62
7
  6
CONTINUOUS
370
-3
390
F
  0
LAYER
  5
1FE
100
AcDbSymbolTableRecord
100
AcDbLayerTableRecord
  2
AXES_FEATURES
 70
0
 62
7
  6
CONTINUOUS
370
-3
390
F
  0
LAYER
  5
1FF
100
AcDbSymbolTableRecord
100
AcDbLayerTableRecord
  2
DEFAULT_COORDINATE_SYSTEM
 70
0
 62
7
  6
CONTINUOUS
370
-3
390
F
  0
LAYER
  5
200
100
AcDbSymbolTableRecord
100
AcDbLayerTableRecord
  2
DEFAULT_DATUM_AXES
 70
0
 62
7
  6
CONTINUOUS
370
-3
390
F
  0
LAYER
  5
201
100
AcDbSymbolTableRecord
100
AcDbLayerTableRecord
  2
DEFAULT_DATUM_PLANES
 70
0
 62
7
  6
CONTINUOUS
370
-3
390
F
  0
LAYER
  5
202
100
AcDbSymbolTableRecord
100
AcDbLayerTableRecord
  2
DIMENSIONS
 70
0
 62
7
  6
CONTINUOUS
370
-3
390
F
  0
ENDTAB
  0
TABLE
  2
STYLE
  5
3
100
AcDbSymbolTable
 70
1
  0
STYLE
  5
11
100
AcDbSymbolTableRecord
100
AcDbTextStyleTableRecord
  2
STANDARD
 70
0
 40
0.0
 41
0.8
 50
0.0
 71
0
 42
0.2
  3
txt
  4

  0
STYLE
  5
203
100
AcDbSymbolTableRecord
100
AcDbTextStyleTableRecord
  2
TEXTSTYLE_1
 70
0
 40
0.0
 41
0.8
 50
0.0
 71
0
 42
0.2
  3
gdt
  4

  0
ENDTAB
  0
TABLE
  2
VIEW
  5
6
100
AcDbSymbolTable
 70
0
  0
ENDTAB
  0
TABLE
  2
UCS
  5
7
100
AcDbSymbolTable
 70
0
  0
ENDTAB
  0
TABLE
  2
APPID
  5
9
100
AcDbSymbolTable
 70
1
  0
APPID
  5
204
100
AcDbSymbolTableRecord
100
AcDbRegAppTableRecord
  2
ACAD
 70
0
  0
ENDTAB
  0
TABLE
  2
BLOCK_RECORD
  5
1
100
AcDbSymbolTable
 70
0
  0
BLOCK_RECORD
  5
205
100
AcDbSymbolTableRecord
100
AcDbBlockTableRecord
  2
*Model_Space
  0
BLOCK_RECORD
  5
206
100
AcDbSymbolTableRecord
100
AcDbBlockTableRecord
  2
*Paper_Space
  0
BLOCK_RECORD
  5
207
100
AcDbSymbolTableRecord
100
AcDbBlockTableRecord
  2
_FILLED
  0
ENDTAB
  0
TABLE
  2
DIMSTYLE
  5
A
100
AcDbSymbolTable
 70
1
100
AcDbDimStyleTable
 71
0
  0
DIMSTYLE
105
208
100
AcDbSymbolTableRecord
100
AcDbDimStyleTableRecord
  2
STANDARD
 70
0
  3

  4

 40
1.0
 41
0.1
 42
0.0625
 43
0.38
 44
0.125
 45
0.0
 46
0.0
 47
0.001
 48
0.001
140
0.08
141
0.09
142
0.0
143
25.4
144
1.0
145
0.0
146
1.0
147
0.09
 71
1.0
 72
0.0
 73
1
 74
1
 75
0
 76
0
 77
0
 78
4
 79
1
170
1
171
2
172
0
173
0
174
0
175
0
176
0
177
0
178
0
270
2
179
3
271
3
272
3
273
2
274
2
275
0
280
0
281
0
282
0
283
1
284
4
285
0
286
0
287
3
288
0
340
11
278
46
341
207
342
207
343
207
344
207
  0
ENDTAB
  0
ENDSEC
  0
SECTION
  2
BLOCKS
  0
BLOCK
  5
20
100
AcDbEntity
  8
0
100
AcDbBlockBegin
  2
*Model_Space
 70
0
 10
0.0
 20
0.0
 30
0.0
  3
*Model_Space
  1

  0
ENDBLK
  5
21
100
AcDbEntity
  8
0
100
AcDbBlockEnd
  0
BLOCK
  5
1C
100
AcDbEntity
  8
0
100
AcDbBlockBegin
  2
*Paper_Space
 70
0
 10
0.0
 20
0.0
 30
0.0
  3
*Paper_Space
  1

  0
ENDBLK
  5
1D
100
AcDbEntity
  8
0
100
AcDbBlockEnd
  0
BLOCK
  5
209
100
AcDbEntity
  8
0
100
AcDbBlockBegin
  2
_FILLED
 70
64
 10
0.0
 20
0.0
  3
_FILLED
  1

  0
SOLID
  5
20A
100
AcDbEntity
  8
0
  6
BYBLOCK
 62
0
100
AcDbTrace
 10
0.0
 20
0.0
 11
-1.0
 21
0.2
 12
-1.0
 22
-0.2
 13
-1.0
 23
-0.2
  0
ENDBLK
  5
20B
100
AcDbEntity
  8
0
  6
BYBLOCK
 62
0
100
AcDbBlockEnd
  0
ENDSEC
  0
SECTION
  2
ENTITIES
  0
LINE
  5
20C
100
AcDbEntity
  8
0
100
AcDbLine
 62
7
  6
CONTINUOUS
 10
11.7771154657
 20
4.2974410273
 11
13.7071146869
 21
4.2974410273
  0
LINE
  5
20D
100
AcDbEntity
  8
0
100
AcDbLine
 62
9
  6
CONTINUOUS
 10
13.7071150763
 20
4.3628347422
 11
11.7771150763
 21
4.3628343944
  0
LINE
  5
20E
100
AcDbEntity
  8
0
100
AcDbLine
 62
9
  6
CONTINUOUS
 10
13.6909612301
 20
4.3894483482
 11
13.6189144069
 21
4.3894483403
  0
LINE
  5
20F
100
AcDbEntity
  8
0
100
AcDbLine
 62
9
  6
CONTINUOUS
 10
13.6075489451
 20
4.389447995
 11
11.8766818911
 21
4.3894479925
  0
LINE
  5
210
100
AcDbEntity
  8
0
100
AcDbLine
 62
9
  6
CONTINUOUS
 10
11.8653158654
 20
4.389447995
 11
11.7932689225
 21
4.3894480003
  0
LINE
  5
211
100
AcDbEntity
  8
0
100
AcDbLine
 62
9
  6
CONTINUOUS
 10
11.8471150763
 20
4.4781600203
 11
11.8970933056
 21
4.4781600203
  0
LINE
  5
212
100
AcDbEntity
  8
0
100
AcDbLine
 62
9
  6
CONTINUOUS
 10
12.0242873587
 20
4.4781600203
 11
13.4599427939
 21
4.4781600203
  0
LINE
  5
213
100
AcDbEntity
  8
0
100
AcDbLine
 62
9
  6
CONTINUOUS
 10
13.587137101
 20
4.4781603682
 11
13.6371150763
 21
4.4781603682
  0
LINE
  5
214
100
AcDbEntity
  8
0
100
AcDbLine
 62
9
  6
CONTINUOUS
 10
13.6103668032
 20
4.5707023129
 11
12.9838346805
 21
4.5707023129
  0
LINE
  5
215
100
AcDbEntity
  8
0
100
AcDbLine
 62
9
  6
CONTINUOUS
 10
12.5003954721
 20
4.5707023129
 11
11.8738633494
 21
4.5707023129
  0
LINE
  5
216
100
AcDbEntity
  8
0
100
AcDbLine
 62
9
  6
CONTINUOUS
 10
11.8606844885
 20
4.6069984099
 11
13.6235456641
 21
4.6069984099
  0
LINE
  5
217
100
AcDbEntity
  8
0
100
AcDbLine
 62
9
  6
CONTINUOUS
 10
11.8668465365
 20
4.644671108
 11
13.6173836161
 21
4.644671108
  0
LINE
  5
218
100
AcDbEntity
  8
0
100
AcDbLine
 62
9
  6
CONTINUOUS
 10
11.8732188587
 20
4.6860387473
 11
13.6110112939
 21
4.6860387473
  0
LINE
  5
219
100
AcDbEntity
  8
0
100
AcDbLine
 62
7
  6
CONTINUOUS
 10
13.5835723851
 20
4.7224410273
 11
11.900656743
 21
4.7224410273
  0
LINE
  5
21A
100
AcDbEntity
  8
0
100
AcDbLine
 62
7
  6
CONTINUOUS
 10
7.8113862474
 20
11.4454141098
 11
7.8108817967
 21
11.4445474512
  0
LINE
  5
21B
100
AcDbEntity
  8
0
100
AcDbLine
 62
7
  6
CONTINUOUS
 10
8.1428835243
 20
12.0774913856
 11
7.9137300283
 21
11.4478973297
  0
LINE
  5
21C
100
AcDbEntity
  8
0
100
AcDbLine
 62
7
  6
CONTINUOUS
 10
7.7787896591
 20
11.1763852118
 11
7.7882321503
 21
11.2008298956
  0
LINE
  5
21D
100
AcDbEntity
  8
0
100
AcDbLine
 62
7
  6
CONTINUOUS
 10
8.6127298347
 20
11.906481314
 11
8.3835763387
 21
11.276887258
  0
LINE
  5
21E
100
AcDbEntity
  8
0
100
AcDbLine
 62
7
  6
CONTINUOUS
 10
8.4183348814
 20
11.1578761635
 11
8.4281153227
 21
11.1638385022
  0
LINE
  5
21F
100
AcDbEntity
  8
0
100
AcDbLine
 62
7
  6
CONTINUOUS
 10
8.4307973795
 20
11.1654121387
 11
8.4281153229
 21
11.1638385019
  0
LINE
  5
220
100
AcDbEntity
  8
0
100
AcDbLine
 62
7
  6
CONTINUOUS
 10
8.4603800404
 20
11.2091996869
 11
8.4602093946
 21
11.2082115333
  0
LINE
  5
221
100
AcDbEntity
  8
0
100
AcDbLine
 62
7
  6
CONTINUOUS
 10
8.3124220334
 20
10.9821589115
 11
8.3209014054
 21
11.0069541421
  0
LINE
  5
222
100
AcDbEntity
  8
0
100
AcDbLine
 62
7
  6
CONTINUOUS
 10
13.6271150763
 20
7.0724410273
 11
11.8571150763
 21
7.0724410273
  0
LINE
  5
223
100
AcDbEntity
  8
0
100
AcDbLine
 62
9
  6
CONTINUOUS
 10
11.8271150763
 20
7.1024410273
 11
13.6571150763
 21
7.1024410273
  0
LINE
  5
224
100
AcDbEntity
  8
0
100
AcDbLine
 62
9
  6
CONTINUOUS
 10
11.8271150763
 20
7.1735117192
 11
13.6571150763
 21
7.1735117192
  0
LINE
  5
225
100
AcDbEntity
  8
0
100
AcDbLine
 62
7
  6
CONTINUOUS
 10
7.8059017869
 20
11.3928555339
 11
7.8069448472
 21
11.3899260655
  0
LINE
  5
226
100
AcDbEntity
  8
0
100
AcDbLine
 62
7
  6
CONTINUOUS
 10
7.8106045828
 20
11.3790719026
 11
7.8069448475
 21
11.3899260656
  0
LINE
  5
227
100
AcDbEntity
  8
0
100
AcDbLine
 62
9
  6
CONTINUOUS
 10
11.841235986
 20
7.1989647051
 11
13.6429941666
 21
7.1989647051
  0
LINE
  5
228
100
AcDbEntity
  8
0
100
AcDbLine
 62
9
  6
CONTINUOUS
 10
12.0283272853
 20
7.3913236939
 11
13.4559028673
 21
7.3913236939
  0
LINE
  5
229
100
AcDbEntity
  8
0
100
AcDbLine
 62
9
  6
CONTINUOUS
 10
12.0456985595
 20
7.404924175
 11
13.4385315931
 21
7.404924175
  0
LINE
  5
22A
100
AcDbEntity
  8
0
100
AcDbLine
 62
9
  6
CONTINUOUS
 10
12.1752990339
 20
7.4365415949
 11
13.3089311187
 21
7.4365415949
  0
LINE
  5
22B
100
AcDbEntity
  8
0
100
AcDbLine
 62
9
  6
CONTINUOUS
 10
12.1978343723
 20
7.4761586136
 11
13.2863957803
 21
7.4761586136
  0
LINE
  5
22C
100
AcDbEntity
  8
0
100
AcDbLine
 62
9
  6
CONTINUOUS
 10
12.2015744308
 20
7.5152461471
 11
13.2826557218
 21
7.5152461471
  0
LINE
  5
22D
100
AcDbEntity
  8
0
100
AcDbLine
 62
9
  6
CONTINUOUS
 10
12.2052940274
 20
7.5586636871
 11
13.2789361252
 21
7.5586636871
  0
LINE
  5
22E
100
AcDbEntity
  8
0
100
AcDbLine
 62
7
  6
CONTINUOUS
 10
13.2481150763
 20
7.6034561823
 11
12.2361150763
 21
7.6034561823
  0
LINE
  5
22F
100
AcDbEntity
  8
0
100
AcDbLine
 62
9
  6
CONTINUOUS
 10
12.4661798151
 20
8.5978408518
 11
12.4921150763
 21
8.5978408595
  0
LINE
  5
230
100
AcDbEntity
  8
0
100
AcDbLine
 62
9
  6
CONTINUOUS
 10
12.9921150763
 20
8.5978408624
 11
13.0180503375
 21
8.5978408518
  0
LINE
  5
231
100
AcDbEntity
  8
0
100
AcDbLine
 62
9
  6
CONTINUOUS
 10
12.4621150763
 20
8.6099266885
 11
12.4921150763
 21
8.6099266885
  0
LINE
  5
232
100
AcDbEntity
  8
0
100
AcDbLine
 62
9
  6
CONTINUOUS
 10
12.9921150763
 20
8.6099266885
 11
13.0221150763
 21
8.6099266885
  0
LINE
  5
233
100
AcDbEntity
  8
0
100
AcDbLine
 62
9
  6
CONTINUOUS
 10
13.0221150763
 20
8.6502410273
 11
12.9921150763
 21
8.6502410273
  0
LINE
  5
234
100
AcDbEntity
  8
0
100
AcDbLine
 62
9
  6
CONTINUOUS
 10
12.4921150763
 20
8.6502410273
 11
12.4621150763
 21
8.6502410273
  0
LINE
  5
235
100
AcDbEntity
  8
0
100
AcDbLine
 62
9
  6
CONTINUOUS
 10
13.0099296759
 20
8.6686511341
 11
12.9921150763
 21
8.6686511341
  0
LINE
  5
236
100
AcDbEntity
  8
0
100
AcDbLine
 62
9
  6
CONTINUOUS
 10
12.4921150763
 20
8.6686511341
 11
12.4743004767
 21
8.6686511341
  0
LINE
  5
237
100
AcDbEntity
  8
0
100
AcDbLine
 62
9
  6
CONTINUOUS
 10
12.9951535426
 20
8.6790410273
 11
12.9921150763
 21
8.6790410273
  0
LINE
  5
238
100
AcDbEntity
  8
0
100
AcDbLine
 62
9
  6
CONTINUOUS
 10
12.4921150763
 20
8.6790410273
 11
12.48907661
 21
8.6790410273
  0
LINE
  5
239
100
AcDbEntity
  8
0
100
AcDbLine
 62
7
  6
CONTINUOUS
 10
11.7771150763
 20
4.2974410273
 11
11.7771150763
 21
4.3628343944
  0
LINE
  5
23A
100
AcDbEntity
  8
0
100
AcDbLine
 62
7
  6
CONTINUOUS
 10
11.8271150763
 20
7.1735117192
 11
11.8271150763
 21
7.1024410273
  0
LINE
  5
23B
100
AcDbEntity
  8
0
100
AcDbLine
 62
7
  6
CONTINUOUS
 10
11.8471150763
 20
4.4781600203
 11
11.8471150763
 21
4.5600657577
  0
LINE
  5
23C
100
AcDbEntity
  8
0
100
AcDbLine
 62
9
  6
CONTINUOUS
 10
11.849384394
 20
4.3628343944
 11
11.849384394
 21
4.2974410273
  0
LINE
  5
23D
100
AcDbEntity
  8
0
100
AcDbLine
 62
9
  6
CONTINUOUS
 10
11.8740108307
 20
4.3628343944
 11
11.8740108307
 21
4.2974410273
  0
LINE
  5
23E
100
AcDbEntity
  8
0
100
AcDbLine
 62
7
  6
CONTINUOUS
 10
8.2518813276
 20
10.8565821022
 11
7.7444473133
 21
11.0412729793
  0
LINE
  5
23F
100
AcDbEntity
  8
0
100
AcDbLine
 62
9
  6
CONTINUOUS
 10
7.7305583588
 20
11.0479035829
 11
8.2667829538
 21
10.8527337914
  0
LINE
  5
240
100
AcDbEntity
  8
0
100
AcDbLine
 62
9
  6
CONTINUOUS
 10
7.7168514312
 20
11.064132149
 11
8.2877145908
 21
10.856354951
  0
LINE
  5
241
100
AcDbEntity
  8
0
100
AcDbLine
 62
9
  6
CONTINUOUS
 10
7.7199372827
 20
11.1033375344
 11
8.3105514274
 21
10.8883715658
  0
LINE
  5
242
100
AcDbEntity
  8
0
100
AcDbLine
 62
9
  6
CONTINUOUS
 10
7.7346964064
 20
11.1197394849
 11
8.3097882533
 21
10.9104231707
  0
LINE
  5
243
100
AcDbEntity
  8
0
100
AcDbLine
 62
9
  6
CONTINUOUS
 10
7.7787896591
 20
11.1763852118
 11
8.3124220334
 21
10.9821589115
  0
LINE
  5
244
100
AcDbEntity
  8
0
100
AcDbLine
 62
9
  6
CONTINUOUS
 10
7.7882321521
 20
11.200829895
 11
8.3209014036
 21
11.0069541427
  0
LINE
  5
245
100
AcDbEntity
  8
0
100
AcDbLine
 62
9
  6
CONTINUOUS
 10
7.8136741928
 20
11.2864179975
 11
8.3564266416
 21
11.0888722616
  0
LINE
  5
246
100
AcDbEntity
  8
0
100
AcDbLine
 62
7
  6
CONTINUOUS
 10
11.9371150763
 20
4.7224410273
 11
11.9371150763
 21
7.0724410273
  0
LINE
  5
247
100
AcDbEntity
  8
0
100
AcDbLine
 62
9
  6
CONTINUOUS
 10
7.8106045828
 20
11.3790719026
 11
8.4183348814
 21
11.1578761635
  0
LINE
  5
248
100
AcDbEntity
  8
0
100
AcDbLine
 62
9
  6
CONTINUOUS
 10
7.8069448472
 20
11.3899260655
 11
8.4281153229
 21
11.1638385019
  0
LINE
  5
249
100
AcDbEntity
  8
0
100
AcDbLine
 62
9
  6
CONTINUOUS
 10
7.8059017866
 20
11.3928555338
 11
8.4307973796
 21
11.1654121384
  0
LINE
  5
24A
100
AcDbEntity
  8
0
100
AcDbLine
 62
9
  6
CONTINUOUS
 10
7.8108817967
 20
11.4445474512
 11
8.4602093946
 21
11.2082115333
  0
LINE
  5
24B
100
AcDbEntity
  8
0
100
AcDbLine
 62
9
  6
CONTINUOUS
 10
7.8113862526
 20
11.4454141067
 11
8.4603800344
 21
11.2091996879
  0
LINE
  5
24C
100
AcDbEntity
  8
0
100
AcDbLine
 62
9
  6
CONTINUOUS
 10
7.824431141
 20
11.4588707407
 11
8.4590368277
 21
11.2278931603
  0
LINE
  5
24D
100
AcDbEntity
  8
0
100
AcDbLine
 62
7
  6
CONTINUOUS
 10
8.4272720469
 20
11.2609833209
 11
7.8700345949
 21
11.4638011668
  0
LINE
  5
24E
100
AcDbEntity
  8
0
100
AcDbLine
 62
7
  6
CONTINUOUS
 10
12.4621150763
 20
8.6502410273
 11
12.4621150763
 21
8.6099266885
  0
LINE
  5
24F
100
AcDbEntity
  8
0
100
AcDbLine
 62
7
  6
CONTINUOUS
 10
12.4921150763
 20
7.6034410273
 11
12.4921150763
 21
11.2224410273
  0
LINE
  5
250
100
AcDbEntity
  8
0
100
AcDbLine
 62
7
  6
CONTINUOUS
 10
12.9921150763
 20
7.6034410273
 11
12.9921150763
 21
11.2224410273
  0
LINE
  5
251
100
AcDbEntity
  8
0
100
AcDbLine
 62
9
  6
CONTINUOUS
 10
12.4921150763
 20
11.2224410273
 11
12.9921150763
 21
11.2224410273
  0
LINE
  5
252
100
AcDbEntity
  8
0
100
AcDbLine
 62
9
  6
CONTINUOUS
 10
8.6127298347
 20
11.906481314
 11
8.1428835243
 21
12.0774913856
  0
LINE
  5
253
100
AcDbEntity
  8
0
100
AcDbLine
 62
7
  6
CONTINUOUS
 10
13.0221150763
 20
8.6502410273
 11
13.0221150763
 21
8.6099266885
  0
LINE
  5
254
100
AcDbEntity
  8
0
100
AcDbLine
 62
7
  6
CONTINUOUS
 10
13.5471150763
 20
4.7224410273
 11
13.5471150763
 21
7.0724410273
  0
LINE
  5
255
100
AcDbEntity
  8
0
100
AcDbLine
 62
9
  6
CONTINUOUS
 10
13.6102193219
 20
4.3628343944
 11
13.6102193219
 21
4.2974410273
  0
LINE
  5
256
100
AcDbEntity
  8
0
100
AcDbLine
 62
9
  6
CONTINUOUS
 10
13.6348457586
 20
4.3628347422
 11
13.6348457586
 21
4.2974410273
  0
LINE
  5
257
100
AcDbEntity
  8
0
100
AcDbLine
 62
7
  6
CONTINUOUS
 10
13.6371150763
 20
4.4781603682
 11
13.6371150763
 21
4.5600674502
  0
LINE
  5
258
100
AcDbEntity
  8
0
100
AcDbLine
 62
7
  6
CONTINUOUS
 10
13.6571150763
 20
7.1735117192
 11
13.6571150763
 21
7.1024410273
  0
LINE
  5
259
100
AcDbEntity
  8
0
100
AcDbLine
 62
7
  6
CONTINUOUS
 10
13.7071150763
 20
4.2974410273
 11
13.7071150763
 21
4.3628347422
  0
LWPOLYLINE
  5
25A
100
AcDbEntity
  8
0
100
AcDbPolyline
 62
7
  6
CONTINUOUS
 90
7
 70
0
 10
11.8544056398
 20
4.5796694307
 10
11.8529551021
 20
4.5778511248
 10
11.8507773529
 20
4.5744306289
 10
11.8490807462
 20
4.5707476387
 10
11.8478963246
 20
4.5668695348
 10
11.8472457182
 20
4.5628672788
 10
11.8471146245
 20
4.5600657576
  0
ARC
  5
25B
100
AcDbEntity
  8
0
100
AcDbCircle
 62
7
  6
CONTINUOUS
 10
10.4921150763
 20
11.2224410273
 40
2.5
100
AcDbArc
 50
0.0
 51
160.0
  0
ARC
  5
25C
100
AcDbEntity
  8
0
100
AcDbCircle
 62
7
  6
CONTINUOUS
 10
10.4921150763
 20
11.2224410273
 40
2.0
100
AcDbArc
 50
0.0
 51
160.0
  0
ARC
  5
25D
100
AcDbEntity
  8
0
100
AcDbCircle
 62
7
  6
CONTINUOUS
 10
9.0190930204
 20
10.7528331752
 40
0.743
100
AcDbArc
 50
153.1103674819
 51
159.9999999124
  0
ARC
  5
25E
100
AcDbEntity
  8
0
100
AcDbCircle
 62
7
  6
CONTINUOUS
 10
7.0900405345
 20
11.4549508604
 40
0.743
100
AcDbArc
 50
340.0000000876
 51
346.8896325181
  0
ARC
  5
25F
100
AcDbEntity
  8
0
100
AcDbCircle
 62
7
  6
CONTINUOUS
 10
8.5160730515
 20
11.0079153344
 40
0.1790000008
100
AcDbArc
 50
123.0946198465
 51
153.1103674819
  0
ARC
  5
260
100
AcDbEntity
  8
0
100
AcDbCircle
 62
7
  6
CONTINUOUS
 10
7.6393398378
 20
11.3270201276
 40
0.1790000008
100
AcDbArc
 50
346.8896325181
 51
16.9053801535
  0
ARC
  5
261
100
AcDbEntity
  8
0
100
AcDbCircle
 62
7
  6
CONTINUOUS
 10
8.4390843763
 20
10.9415922687
 40
0.1330000004
100
AcDbArc
 50
162.2410938151
 51
193.553553377
  0
ARC
  5
262
100
AcDbEntity
  8
0
100
AcDbCircle
 62
7
  6
CONTINUOUS
 10
7.6556849398
 20
11.2267263451
 40
0.1330000004
100
AcDbArc
 50
306.446446623
 51
337.7589061849
  0
ARC
  5
263
100
AcDbEntity
  8
0
100
AcDbCircle
 62
7
  6
CONTINUOUS
 10
8.2792429391
 20
10.9317575118
 40
0.08
100
AcDbArc
 50
250.0
 51
261.0397140499
  0
ARC
  5
264
100
AcDbEntity
  8
0
100
AcDbCircle
 62
7
  6
CONTINUOUS
 10
7.7718089247
 20
11.1164483889
 40
0.08
100
AcDbArc
 50
238.9602859501
 51
250.0
  0
ARC
  5
265
100
AcDbEntity
  8
0
100
AcDbCircle
 62
7
  6
CONTINUOUS
 10
8.3981967181
 20
11.2193212879
 40
0.0629999962
100
AcDbArc
 50
301.1627534366
 51
349.8430419522
  0
ARC
  5
266
100
AcDbEntity
  8
0
100
AcDbCircle
 62
7
  6
CONTINUOUS
 10
7.8655274755
 20
11.4131970369
 40
0.0629999962
100
AcDbArc
 50
150.1569580478
 51
198.8372465634
  0
ARC
  5
267
100
AcDbEntity
  8
0
100
AcDbCircle
 62
7
  6
CONTINUOUS
 10
8.2563199303
 20
10.8975336938
 40
0.0549999988
100
AcDbArc
 50
350.4107267091
 51
13.553553377
  0
ARC
  5
268
100
AcDbEntity
  8
0
100
AcDbCircle
 62
7
  6
CONTINUOUS
 10
7.767370322
 20
11.0754967973
 40
0.0549999988
100
AcDbArc
 50
126.446446623
 51
149.5892732909
  0
ARC
  5
269
100
AcDbEntity
  8
0
100
AcDbCircle
 62
7
  6
CONTINUOUS
 10
8.4094869995
 20
11.2121193046
 40
0.052
100
AcDbArc
 50
17.6585253029
 51
70.0
  0
ARC
  5
26A
100
AcDbEntity
  8
0
100
AcDbCircle
 62
7
  6
CONTINUOUS
 10
7.8522492726
 20
11.4149372506
 40
0.052
100
AcDbArc
 50
70.0
 51
122.3414746971
  0
ARC
  5
26B
100
AcDbEntity
  8
0
100
AcDbCircle
 62
7
  6
CONTINUOUS
 10
8.2661801883
 20
10.8958678547
 40
0.0450000005
100
AcDbArc
 50
298.5902386693
 51
350.4107267091
  0
ARC
  5
26C
100
AcDbEntity
  8
0
100
AcDbCircle
 62
7
  6
CONTINUOUS
 10
7.7587461454
 20
11.0805587422
 40
0.0450000005
100
AcDbArc
 50
149.5892732909
 51
201.4097613307
  0
ARC
  5
26D
100
AcDbEntity
  8
0
100
AcDbCircle
 62
7
  6
CONTINUOUS
 10
8.4209215749
 20
11.215759425
 40
0.0400000021
100
AcDbArc
 50
350.561234851
 51
17.6585253029
  0
ARC
  5
26E
100
AcDbEntity
  8
0
100
AcDbCircle
 62
7
  6
CONTINUOUS
 10
7.845829704
 20
11.425075748
 40
0.0400000021
100
AcDbArc
 50
122.3414746971
 51
149.438765149
  0
ARC
  5
26F
100
AcDbEntity
  8
0
100
AcDbCircle
 62
7
  6
CONTINUOUS
 10
8.2719226978
 20
10.8853310765
 40
0.0329999994
100
AcDbArc
 50
261.0397140499
 51
298.5902386693
  0
ARC
  5
270
100
AcDbEntity
  8
0
100
AcDbCircle
 62
7
  6
CONTINUOUS
 10
7.7475742175
 20
11.0761783157
 40
0.0329999994
100
AcDbArc
 50
201.4097613307
 51
238.9602859501
  0
ARC
  5
271
100
AcDbEntity
  8
0
100
AcDbCircle
 62
9
  6
CONTINUOUS
 10
12.818625247
 20
0.1237771066
 40
4.4013558692
100
AcDbArc
 50
80.4340980129
 51
81.6216581312
  0
ARC
  5
272
100
AcDbEntity
  8
0
100
AcDbCircle
 62
9
  6
CONTINUOUS
 10
12.6648013734
 20
0.1292216726
 40
4.3958524138
100
AcDbArc
 50
98.3783205738
 51
99.5673640028
  0
ARC
  5
273
100
AcDbEntity
  8
0
100
AcDbCircle
 62
9
  6
CONTINUOUS
 10
12.799439866
 20
1.0553307853
 40
3.514237775
100
AcDbArc
 50
77.6256105206
 51
79.1279070665
  0
ARC
  5
274
100
AcDbEntity
  8
0
100
AcDbCircle
 62
9
  6
CONTINUOUS
 10
12.6797391086
 20
1.079916476
 40
3.4891406565
100
AcDbArc
 50
100.8667851143
 51
102.3798757687
  0
ARC
  5
275
100
AcDbEntity
  8
0
100
AcDbCircle
 62
9
  6
CONTINUOUS
 10
13.3125152496
 20
5.5422172918
 40
1.7359610146
100
AcDbArc
 50
214.0309749596
 51
216.6289359365
  0
ARC
  5
276
100
AcDbEntity
  8
0
100
AcDbCircle
 62
9
  6
CONTINUOUS
 10
12.1717247878
 20
5.5422103015
 40
1.7359489107
100
AcDbArc
 50
323.3710689128
 51
325.9690336599
  0
ARC
  5
277
100
AcDbEntity
  8
0
100
AcDbCircle
 62
7
  6
CONTINUOUS
 10
13.7371150763
 20
4.4781603682
 40
0.1
100
AcDbArc
 50
180.0
 51
242.5135737496
  0
ARC
  5
278
100
AcDbEntity
  8
0
100
AcDbCircle
 62
7
  6
CONTINUOUS
 10
11.7471150763
 20
4.4781600203
 40
0.1
100
AcDbArc
 50
297.4864262504
 51
360.0
  0
ARC
  5
279
100
AcDbEntity
  8
0
100
AcDbCircle
 62
7
  6
CONTINUOUS
 10
11.825152492
 20
4.6722683298
 40
0.05
100
AcDbArc
 50
326.4994880157
 51
15.9863506381
  0
ARC
  5
27A
100
AcDbEntity
  8
0
100
AcDbCircle
 62
7
  6
CONTINUOUS
 10
13.6590776606
 20
4.6722683298
 40
0.05
100
AcDbArc
 50
164.0136493619
 51
213.5005119843
  0
ARC
  5
27B
100
AcDbEntity
  8
0
100
AcDbCircle
 62
7
  6
CONTINUOUS
 10
11.905656743
 20
4.618982694
 40
0.0465416667
100
AcDbArc
 50
146.4994880157
 51
194.921523935
  0
ARC
  5
27C
100
AcDbEntity
  8
0
100
AcDbCircle
 62
7
  6
CONTINUOUS
 10
13.5785734096
 20
4.618982694
 40
0.0465416667
100
AcDbArc
 50
345.078476065
 51
33.5005119843
  0
ARC
  5
27D
100
AcDbEntity
  8
0
100
AcDbCircle
 62
9
  6
CONTINUOUS
 10
13.6014710514
 20
4.541993634
 40
0.0300533825
100
AcDbArc
 50
0.2620784941
 51
72.7837357547
  0
ARC
  5
27E
100
AcDbEntity
  8
0
100
AcDbCircle
 62
9
  6
CONTINUOUS
 10
11.8827588793
 20
4.5419938144
 40
0.0300531518
100
AcDbArc
 50
107.2159621408
 51
179.7382633844
  0
ARC
  5
27F
100
AcDbEntity
  8
0
100
AcDbCircle
 62
7
  6
CONTINUOUS
 10
13.6525340466
 20
4.5992735357
 40
0.03
100
AcDbArc
 50
165.078476065
 51
220.8010713068
  0
ARC
  5
280
100
AcDbEntity
  8
0
100
AcDbCircle
 62
7
  6
CONTINUOUS
 10
13.6071150763
 20
4.5600674502
 40
0.03
100
AcDbArc
 50
0.0
 51
40.8010713068
  0
ARC
  5
281
100
AcDbEntity
  8
0
100
AcDbCircle
 62
7
  6
CONTINUOUS
 10
11.831696106
 20
4.5992735357
 40
0.03
100
AcDbArc
 50
319.1974536684
 51
14.921523935
  0
ARC
  5
282
100
AcDbEntity
  8
0
100
AcDbCircle
 62
7
  6
CONTINUOUS
 10
13.6771150763
 20
4.3628347422
 40
0.03
100
AcDbArc
 50
0.0
 51
62.5135737496
  0
ARC
  5
283
100
AcDbEntity
  8
0
100
AcDbCircle
 62
7
  6
CONTINUOUS
 10
11.8071150763
 20
4.3628343944
 40
0.03
100
AcDbArc
 50
117.4864262504
 51
180.0
  0
ARC
  5
284
100
AcDbEntity
  8
0
100
AcDbCircle
 62
7
  6
CONTINUOUS
 10
11.900656743
 20
4.6938993606
 40
0.0285416667
100
AcDbArc
 50
90.0
 51
195.9863506381
  0
ARC
  5
285
100
AcDbEntity
  8
0
100
AcDbCircle
 62
7
  6
CONTINUOUS
 10
13.5835734096
 20
4.6938993606
 40
0.0285416667
100
AcDbArc
 50
344.0136493619
 51
90.0
  0
ARC
  5
286
100
AcDbEntity
  8
0
100
AcDbCircle
 62
7
  6
CONTINUOUS
 10
13.0475149752
 20
6.0835650246
 40
1.378
100
AcDbArc
 50
73.5154600742
 51
79.0643187881
  0
ARC
  5
287
100
AcDbEntity
  8
0
100
AcDbCircle
 62
7
  6
CONTINUOUS
 10
12.4367151774
 20
6.0835650246
 40
1.378
100
AcDbArc
 50
100.9356812119
 51
106.4845399258
  0
ARC
  5
288
100
AcDbEntity
  8
0
100
AcDbCircle
 62
7
  6
CONTINUOUS
 10
13.9399331557
 20
7.6749355412
 40
0.561
100
AcDbArc
 50
210.367667842
 51
238.0416258379
  0
ARC
  5
289
100
AcDbEntity
  8
0
100
AcDbCircle
 62
7
  6
CONTINUOUS
 10
11.5442969969
 20
7.6749355412
 40
0.561
100
AcDbArc
 50
301.9583741621
 51
329.632332158
  0
ARC
  5
28A
100
AcDbEntity
  8
0
100
AcDbCircle
 62
7
  6
CONTINUOUS
 10
12.2857926579
 20
8.46102918
 40
0.2264
100
AcDbArc
 50
24.2754875968
 51
37.1779001706
  0
ARC
  5
28B
100
AcDbEntity
  8
0
100
AcDbCircle
 62
7
  6
CONTINUOUS
 10
13.1984374947
 20
8.46102918
 40
0.2264
100
AcDbArc
 50
142.8220998294
 51
155.7245124032
  0
ARC
  5
28C
100
AcDbEntity
  8
0
100
AcDbCircle
 62
7
  6
CONTINUOUS
 10
12.5677658723
 20
8.6062410273
 40
0.1072
100
AcDbArc
 50
134.9571614705
 51
137.2262966616
  0
ARC
  5
28D
100
AcDbEntity
  8
0
100
AcDbCircle
 62
7
  6
CONTINUOUS
 10
12.9164642803
 20
8.6062410273
 40
0.1072
100
AcDbArc
 50
42.7737033384
 51
45.0428385295
  0
ARC
  5
28E
100
AcDbEntity
  8
0
100
AcDbCircle
 62
7
  6
CONTINUOUS
 10
13.3256346842
 20
7.5407962701
 40
0.05
100
AcDbArc
 50
159.0625625014
 51
210.7306262285
  0
ARC
  5
28F
100
AcDbEntity
  8
0
100
AcDbCircle
 62
7
  6
CONTINUOUS
 10
12.1585954684
 20
7.5407962701
 40
0.05
100
AcDbArc
 50
329.2693737715
 51
20.9374374986
  0
ARC
  5
290
100
AcDbEntity
  8
0
100
AcDbCircle
 62
7
  6
CONTINUOUS
 10
13.2431150763
 20
7.4917400339
 40
0.046
100
AcDbArc
 50
340.2006937409
 51
30.7306262285
  0
ARC
  5
291
100
AcDbEntity
  8
0
100
AcDbCircle
 62
7
  6
CONTINUOUS
 10
12.2411150763
 20
7.4917400339
 40
0.046
100
AcDbArc
 50
149.2693737715
 51
199.7993062591
  0
ARC
  5
292
100
AcDbEntity
  8
0
100
AcDbCircle
 62
7
  6
CONTINUOUS
 10
12.4574834584
 20
8.708269684
 40
0.04304
100
AcDbArc
 50
292.9999284612
 51
317.2262966616
  0
ARC
  5
293
100
AcDbEntity
  8
0
100
AcDbCircle
 62
7
  6
CONTINUOUS
 10
13.0267466942
 20
8.708269684
 40
0.04304
100
AcDbArc
 50
222.7737033384
 51
247.0000715388
  0
ARC
  5
294
100
AcDbEntity
  8
0
100
AcDbCircle
 62
7
  6
CONTINUOUS
 10
13.2481150763
 20
7.5704561823
 40
0.033
100
AcDbArc
 50
339.0625625014
 51
90.0
  0
ARC
  5
295
100
AcDbEntity
  8
0
100
AcDbCircle
 62
7
  6
CONTINUOUS
 10
12.2361150763
 20
7.5704561823
 40
0.033
100
AcDbArc
 50
90.0
 51
200.9374374986
  0
ARC
  5
296
100
AcDbEntity
  8
0
100
AcDbCircle
 62
7
  6
CONTINUOUS
 10
13.3146223264
 20
7.4659968178
 40
0.03
100
AcDbArc
 50
160.2006937409
 51
259.0643187881
  0
ARC
  5
297
100
AcDbEntity
  8
0
100
AcDbCircle
 62
7
  6
CONTINUOUS
 10
12.1696078262
 20
7.4659968178
 40
0.03
100
AcDbArc
 50
280.9356812119
 51
19.7993062591
  0
ARC
  5
298
100
AcDbEntity
  8
0
100
AcDbCircle
 62
7
  6
CONTINUOUS
 10
13.4300188946
 20
7.376157285
 40
0.03
100
AcDbArc
 50
30.367667842
 51
73.5154600742
  0
ARC
  5
299
100
AcDbEntity
  8
0
100
AcDbCircle
 62
7
  6
CONTINUOUS
 10
12.054211258
 20
7.376157285
 40
0.03
100
AcDbArc
 50
106.4845399258
 51
149.632332158
  0
ARC
  5
29A
100
AcDbEntity
  8
0
100
AcDbCircle
 62
7
  6
CONTINUOUS
 10
13.6271150763
 20
7.1735117192
 40
0.03
100
AcDbArc
 50
0.0
 51
58.0416258379
  0
ARC
  5
29B
100
AcDbEntity
  8
0
100
AcDbCircle
 62
7
  6
CONTINUOUS
 10
11.8571150763
 20
7.1735117192
 40
0.03
100
AcDbArc
 50
121.9583741621
 51
180.0
  0
ARC
  5
29C
100
AcDbEntity
  8
0
100
AcDbCircle
 62
7
  6
CONTINUOUS
 10
13.6271150763
 20
7.1024410273
 40
0.03
100
AcDbArc
 50
270.0
 51
360.0
  0
ARC
  5
29D
100
AcDbEntity
  8
0
100
AcDbCircle
 62
7
  6
CONTINUOUS
 10
11.8571150763
 20
7.1024410273
 40
0.03
100
AcDbArc
 50
180.0
 51
270.0
  0
ARC
  5
29E
100
AcDbEntity
  8
0
100
AcDbCircle
 62
7
  6
CONTINUOUS
 10
13.0021150763
 20
8.6099266885
 40
0.02
100
AcDbArc
 50
322.8220998294
 51
360.0
  0
ARC
  5
29F
100
AcDbEntity
  8
0
100
AcDbCircle
 62
7
  6
CONTINUOUS
 10
12.4821150763
 20
8.6099266885
 40
0.02
100
AcDbArc
 50
180.0
 51
217.1779001706
  0
ARC
  5
2A0
100
AcDbEntity
  8
0
100
AcDbCircle
 62
7
  6
CONTINUOUS
 10
12.4821150763
 20
8.6502410273
 40
0.02
100
AcDbArc
 50
112.9999284612
 51
180.0
  0
ARC
  5
2A1
100
AcDbEntity
  8
0
100
AcDbCircle
 62
7
  6
CONTINUOUS
 10
13.0021150763
 20
8.6502410273
 40
0.02
100
AcDbArc
 50
0.0
 51
67.0000715388
  0
SPLINE
  5
2A2
100
AcDbEntity
  8
0
100
AcDbSpline
 62
9
  6
CONTINUOUS
 70
0
 71
3
 72
17
 73
13
 74
0
 42
0.0000001
 43
0.0000001
 44
0.0000000001
 40
0.0
 40
0.0
 40
0.0
 40
0.0
 40
0.1520456528
 40
0.3014038479
 40
0.4452760184
 40
0.5811514512
 40
0.7065945874
 40
0.819410067
 40
0.8704909612
 40
0.9177407093
 40
0.9609683638
 40
1.0
 40
1.0
 40
1.0
 40
1.0
 10
13.6102193219
 20
4.3628343944
 30
0.0
 10
13.610219324
 20
4.3641938786
 30
0.0
 10
13.6101893266
 20
4.3668889194
 30
0.0
 10
13.6100542266
 20
4.3708683166
 30
0.0
 10
13.6098315903
 20
4.3746990116
 30
0.0
 10
13.6095263305
 20
4.3783095452
 30
0.0
 10
13.6091441411
 20
4.3816334247
 30
0.0
 10
13.6087563583
 20
4.3841921041
 30
0.0
 10
13.6084072871
 20
4.3860476536
 30
0.0
 10
13.6081399323
 20
4.3872849996
 30
0.0
 10
13.6078597279
 20
4.3884087725
 30
0.0
 10
13.6076546525
 20
4.3891153957
 30
0.0
 10
13.6075489458
 20
4.389447995
 30
0.0
  0
SPLINE
  5
2A3
100
AcDbEntity
  8
0
100
AcDbSpline
 62
9
  6
CONTINUOUS
 70
0
 71
3
 72
9
 73
5
 74
0
 42
0.0000001
 43
0.0000001
 44
0.0000000001
 40
0.0
 40
0.0
 40
0.0
 40
0.0
 40
0.4933063534
 40
1.0
 40
1.0
 40
1.0
 40
1.0
 10
11.8970933056
 20
4.4781600203
 30
0.0
 10
11.8992294138
 20
4.475909625
 30
0.0
 10
11.9034721471
 20
4.471263793
 30
0.0
 10
11.9075038726
 20
4.4664323107
 30
0.0
 10
11.9094809189
 20
4.4639326825
 30
0.0
  0
SPLINE
  5
2A4
100
AcDbEntity
  8
0
100
AcDbSpline
 62
9
  6
CONTINUOUS
 70
0
 71
3
 72
16
 73
12
 74
0
 42
0.0000001
 43
0.0000001
 44
0.0000000001
 40
0.0
 40
0.0
 40
0.0
 40
0.0
 40
0.0278159798
 40
0.0617239425
 40
0.1015097172
 40
0.1469241972
 40
0.2535197433
 40
0.3788802829
 40
0.5198806066
 40
0.672981803
 40
1.0
 40
1.0
 40
1.0
 40
1.0
 10
12.9838346805
 20
4.5707023129
 30
0.0
 10
12.9838553691
 20
4.5704379056
 30
0.0
 10
12.983888323
 20
4.5698501823
 30
0.0
 10
12.9839182392
 20
4.5688827366
 30
0.0
 10
12.9839327079
 20
4.5677471207
 30
0.0
 10
12.9839309409
 20
4.565918377
 30
0.0
 10
12.9838844075
 20
4.5632739912
 30
0.0
 10
12.9837712047
 20
4.5597197142
 30
0.0
 10
12.9835994692
 20
4.5557239053
 30
0.0
 10
12.983290943
 20
4.5498097389
 30
0.0
 10
12.9829969656
 20
4.5452411817
 30
0.0
 10
12.982774993
 20
4.5421310902
 30
0.0
  0
SPLINE
  5
2A5
100
AcDbEntity
  8
0
100
AcDbSpline
 62
9
  6
CONTINUOUS
 70
0
 71
3
 72
18
 73
14
 74
0
 42
0.0000001
 43
0.0000001
 44
0.0000000001
 40
0.0
 40
0.0
 40
0.0
 40
0.0
 40
0.0268546332
 40
0.0596309391
 40
0.0982808306
 40
0.1426538299
 40
0.1925420798
 40
0.2476768324
 40
0.3723353307
 40
0.5136083191
 40
0.6679480881
 40
0.8314844422
 40
1.0
 40
1.0
 40
1.0
 40
1.0
 10
12.0219448161
 20
4.5064904486
 30
0.0
 10
12.0218704885
 20
4.5062458557
 30
0.0
 10
12.0217453672
 20
4.5056907409
 30
0.0
 10
12.0216169798
 20
4.5047634901
 30
0.0
 10
12.0215316545
 20
4.5036639147
 30
0.0
 10
12.0214901906
 20
4.502399082
 30
0.0
 10
12.0214931705
 20
4.500976702
 30
0.0
 10
12.0215596174
 20
4.4987910831
 30
0.0
 10
12.0217628132
 20
4.4957405585
 30
0.0
 10
12.0221655619
 20
4.4917596458
 30
0.0
 10
12.0227279473
 20
4.4874246783
 30
0.0
 10
12.0234359168
 20
4.4828486251
 30
0.0
 10
12.0239893686
 20
4.4797362476
 30
0.0
 10
12.0242873587
 20
4.4781600203
 30
0.0
  0
SPLINE
  5
2A6
100
AcDbEntity
  8
0
100
AcDbSpline
 62
9
  6
CONTINUOUS
 70
0
 71
3
 72
15
 73
11
 74
0
 42
0.0000001
 43
0.0000001
 44
0.0000000001
 40
0.0
 40
0.0
 40
0.0
 40
0.0
 40
0.147579896
 40
0.2895208889
 40
0.4245562245
 40
0.5523182269
 40
0.6730601544
 40
0.7873890413
 40
0.8961067973
 40
1.0
 40
1.0
 40
1.0
 40
1.0
 10
11.9094809189
 20
4.4639326825
 30
0.0
 10
11.9089537831
 20
4.4595650213
 30
0.0
 10
11.9074394887
 20
4.4510462016
 30
0.0
 10
11.9038371038
 20
4.4388875685
 30
0.0
 10
11.8991386277
 20
4.4277476075
 30
0.0
 10
11.893550099
 20
4.4177467133
 30
0.0
 10
11.8872556708
 20
4.408924067
 30
0.0
 10
11.8804066503
 20
4.4012719275
 30
0.0
 10
11.8731256899
 20
4.3947642055
 30
0.0
 10
11.8679423163
 20
4.3910891873
 30
0.0
 10
11.8653158654
 20
4.389447995
 30
0.0
  0
SPLINE
  5
2A7
100
AcDbEntity
  8
0
100
AcDbSpline
 62
9
  6
CONTINUOUS
 70
0
 71
3
 72
15
 73
11
 74
0
 42
0.0000001
 43
0.0000001
 44
0.0000000001
 40
0.0
 40
0.0
 40
0.0
 40
0.0
 40
0.1253583958
 40
0.2509489787
 40
0.376563999
 40
0.5020549281
 40
0.6272537241
 40
0.7520218393
 40
0.8762952989
 40
1.0
 40
1.0
 40
1.0
 40
1.0
 10
13.5648521079
 20
4.5064907978
 30
0.0
 10
13.5664016338
 20
4.5060542208
 30
0.0
 10
13.569439591
 20
4.5049322737
 30
0.0
 10
13.57367388
 20
4.5025573555
 30
0.0
 10
13.5774867937
 20
4.4995475403
 30
0.0
 10
13.5807783823
 20
4.4959821877
 30
0.0
 10
13.5834630091
 20
4.491952919
 30
0.0
 10
13.5854714725
 20
4.4875640548
 30
0.0
 10
13.586750161
 20
4.4829308325
 30
0.0
 10
13.5870950913
 20
4.4797484299
 30
0.0
 10
13.587137101
 20
4.4781603682
 30
0.0
  0
SPLINE
  5
2A8
100
AcDbEntity
  8
0
100
AcDbSpline
 62
9
  6
CONTINUOUS
 70
0
 71
3
 72
11
 73
7
 74
0
 42
0.0000001
 43
0.0000001
 44
0.0000000001
 40
0.0
 40
0.0
 40
0.0
 40
0.0
 40
0.2704109865
 40
0.5254081646
 40
0.7673281887
 40
1.0
 40
1.0
 40
1.0
 40
1.0
 10
11.8766822693
 20
4.3894478829
 30
0.0
 10
11.8756892617
 20
4.38977226
 30
0.0
 10
11.8737133258
 20
4.3902726824
 30
0.0
 10
11.8707477265
 20
4.3905430264
 30
0.0
 10
11.8679241854
 20
4.3902989876
 30
0.0
 10
11.8661486329
 20
4.3897862074
 30
0.0
 10
11.8653158446
 20
4.3894479775
 30
0.0
  0
SPLINE
  5
2A9
100
AcDbEntity
  8
0
100
AcDbSpline
 62
9
  6
CONTINUOUS
 70
0
 71
3
 72
22
 73
18
 74
0
 42
0.0000001
 43
0.0000001
 44
0.0000000001
 40
0.0
 40
0.0
 40
0.0
 40
0.0
 40
0.0099695547
 40
0.0214351861
 40
0.0344508828
 40
0.0490465414
 40
0.0830182699
 40
0.1233345516
 40
0.1698678833
 40
0.2224131357
 40
0.280695961
 40
0.3444083815
 40
0.4866450491
 40
0.6458471755
 40
0.7306681219
 40
0.8183398873
 40
1.0
 40
1.0
 40
1.0
 40
1.0
 10
11.9094804112
 20
4.4639317915
 30
0.0
 10
11.9095512528
 20
4.4639742157
 30
0.0
 10
11.9097095334
 20
4.4640555246
 30
0.0
 10
11.9099742515
 20
4.4641626823
 30
0.0
 10
11.9102821083
 20
4.4642632593
 30
0.0
 10
11.9107750483
 20
4.4643950516
 30
0.0
 10
11.9114982271
 20
4.4645367979
 30
0.0
 10
11.9124901125
 20
4.4646718645
 30
0.0
 10
11.9136400993
 20
4.4647776864
 30
0.0
 10
11.9149414321
 20
4.4648534346
 30
0.0
 10
11.9163865148
 20
4.4648985449
 30
0.0
 10
11.9185750861
 20
4.464917693
 30
0.0
 10
11.9215994785
 20
4.4648568102
 30
0.0
 10
11.924795213
 20
4.4647003161
 30
0.0
 10
11.9275364153
 20
4.4645169994
 30
0.0
 10
11.9304610138
 20
4.4642910571
 30
0.0
 10
11.9326826031
 20
4.4640866376
 30
0.0
 10
11.9341791937
 20
4.4639315246
 30
0.0
  0
SPLINE
  5
2AA
100
AcDbEntity
  8
0
100
AcDbSpline
 62
9
  6
CONTINUOUS
 70
0
 71
3
 72
11
 73
7
 74
0
 42
0.0000001
 43
0.0000001
 44
0.0000000001
 40
0.0
 40
0.0
 40
0.0
 40
0.0
 40
0.2326704235
 40
0.4745913907
 40
0.7295897189
 40
1.0
 40
1.0
 40
1.0
 40
1.0
 10
13.6189148549
 20
4.3894480284
 30
0.0
 10
13.6180820956
 20
4.3897862607
 30
0.0
 10
13.6163066045
 20
4.3902990875
 30
0.0
 10
13.6134831309
 20
4.3905432005
 30
0.0
 10
13.6105175853
 20
4.3902729441
 30
0.0
 10
13.6085416872
 20
4.3897725461
 30
0.0
 10
13.607548704
 20
4.3894481799
 30
0.0
  0
SPLINE
  5
2AB
100
AcDbEntity
  8
0
100
AcDbSpline
 62
9
  6
CONTINUOUS
 70
0
 71
3
 72
21
 73
17
 74
0
 42
0.0000001
 43
0.0000001
 44
0.0000000001
 40
0.0
 40
0.0
 40
0.0
 40
0.0
 40
0.1816530921
 40
0.354143317
 40
0.5133523707
 40
0.6555984841
 40
0.7193175659
 40
0.7776073056
 40
0.8301611062
 40
0.8767076421
 40
0.9170373019
 40
0.9510054084
 40
0.9655879167
 40
0.9785864601
 40
0.9900363775
 40
1.0
 40
1.0
 40
1.0
 40
1.0
 10
13.5500512793
 20
4.4639317825
 30
0.0
 10
13.5515478666
 20
4.464086794
 30
0.0
 10
13.5544686274
 20
4.4643601745
 30
0.0
 10
13.5587098037
 20
4.4646680271
 30
0.0
 10
13.5626311778
 20
4.4648583312
 30
0.0
 10
13.5656558822
 20
4.4649181268
 30
0.0
 10
13.5678446978
 20
4.4648977619
 30
0.0
 10
13.5692899853
 20
4.4648520339
 30
0.0
 10
13.5705915624
 20
4.4647756646
 30
0.0
 10
13.571741776
 20
4.4646686766
 30
0.0
 10
13.5727337132
 20
4.4645323956
 30
0.0
 10
13.5734568974
 20
4.4643909846
 30
0.0
 10
13.5739499423
 20
4.4642606614
 30
0.0
 10
13.5742577844
 20
4.4641612443
 30
0.0
 10
13.5745225439
 20
4.4640550165
 30
0.0
 10
13.574680804
 20
4.4639740084
 30
0.0
 10
13.574751598
 20
4.4639315957
 30
0.0
  0
SPLINE
  5
2AC
100
AcDbEntity
  8
0
100
AcDbSpline
 62
9
  6
CONTINUOUS
 70
0
 71
3
 72
18
 73
14
 74
0
 42
0.0000001
 43
0.0000001
 44
0.0000000001
 40
0.0
 40
0.0
 40
0.0
 40
0.0
 40
0.1363721353
 40
0.2035401325
 40
0.2698582253
 40
0.3997002557
 40
0.463261393
 40
0.5259220708
 40
0.6486227676
 40
0.7682316186
 40
0.8270451236
 40
0.8852558726
 40
1.0
 40
1.0
 40
1.0
 40
1.0
 10
11.9341795932
 20
4.4639312386
 30
0.0
 10
11.9334892887
 20
4.4595387564
 30
0.0
 10
11.9319772862
 20
4.4530456868
 30
0.0
 10
11.9290785154
 20
4.4447329278
 30
0.0
 10
11.925698362
 20
4.4368342511
 30
0.0
 10
11.9215920686
 20
4.4293957082
 30
0.0
 10
11.9168748052
 20
4.4225021821
 30
0.0
 10
11.9118863688
 20
4.4160943417
 30
0.0
 10
11.9050894149
 20
4.4088039632
 30
0.0
 10
11.8976138997
 20
4.4024073074
 30
0.0
 10
11.8913630844
 20
4.3978791411
 30
0.0
 10
11.8850182523
 20
4.3937699491
 30
0.0
 10
11.8800534023
 20
4.3910695994
 30
0.0
 10
11.8766818911
 20
4.3894479925
 30
0.0
  0
SPLINE
  5
2AD
100
AcDbEntity
  8
0
100
AcDbSpline
 62
9
  6
CONTINUOUS
 70
0
 71
3
 72
16
 73
12
 74
0
 42
0.0000001
 43
0.0000001
 44
0.0000000001
 40
0.0
 40
0.0
 40
0.0
 40
0.0
 40
0.1520454196
 40
0.3014034702
 40
0.4452753848
 40
0.5811508225
 40
0.7065942199
 40
0.8194091957
 40
0.9177339472
 40
0.9609657837
 40
1.0
 40
1.0
 40
1.0
 40
1.0
 10
11.8740108307
 20
4.3628343899
 30
0.0
 10
11.8740108307
 20
4.3641938651
 30
0.0
 10
11.8740410296
 20
4.3668888879
 30
0.0
 10
11.8741762188
 20
4.3708682508
 30
0.0
 10
11.8743987562
 20
4.3746989365
 30
0.0
 10
11.874704049
 20
4.3783094216
 30
0.0
 10
11.8750862415
 20
4.3816333724
 30
0.0
 10
11.8755374237
 20
4.3846095192
 30
0.0
 10
11.8759800686
 20
4.3868417594
 30
0.0
 10
11.876371261
 20
4.3884086475
 30
0.0
 10
11.8765765538
 20
4.389115264
 30
0.0
 10
11.8766822693
 20
4.3894478829
 30
0.0
  0
SPLINE
  5
2AE
100
AcDbEntity
  8
0
100
AcDbSpline
 62
9
  6
CONTINUOUS
 70
0
 71
3
 72
15
 73
11
 74
0
 42
0.0000001
 43
0.0000001
 44
0.0000000001
 40
0.0
 40
0.0
 40
0.0
 40
0.0
 40
0.1255101074
 40
0.2510050084
 40
0.3763382599
 40
0.5015157335
 40
0.6264853451
 40
0.7512108971
 40
0.8757405936
 40
1.0
 40
1.0
 40
1.0
 40
1.0
 10
13.6348459235
 20
4.3628345639
 30
0.0
 10
13.6348459238
 20
4.3641970313
 30
0.0
 10
13.6346621151
 20
4.3669253277
 30
0.0
 10
13.6338412394
 20
4.3709393473
 30
0.0
 10
13.6324890543
 20
4.3748038686
 30
0.0
 10
13.630631818
 20
4.3784461044
 30
0.0
 10
13.6283030299
 20
4.3817985035
 30
0.0
 10
13.6255461443
 20
4.3847995319
 30
0.0
 10
13.622412788
 20
4.3873918734
 30
0.0
 10
13.6201079126
 20
4.3888186485
 30
0.0
 10
13.6189148549
 20
4.3894480284
 30
0.0
  0
SPLINE
  5
2AF
100
AcDbEntity
  8
0
100
AcDbSpline
 62
9
  6
CONTINUOUS
 70
0
 71
3
 72
28
 73
24
 74
0
 42
0.0000001
 43
0.0000001
 44
0.0000000001
 40
0.0
 40
0.0
 40
0.0
 40
0.0
 40
0.0620623436
 40
0.1243000722
 40
0.1866890726
 40
0.2492032109
 40
0.3118147224
 40
0.3431488198
 40
0.3744980962
 40
0.4058604028
 40
0.4372338015
 40
0.4686149093
 40
0.499999837
 40
0.5313847029
 40
0.5627656344
 40
0.5941387714
 40
0.6255009093
 40
0.656850176
 40
0.6881843778
 40
0.7507962751
 40
0.813310799
 40
0.8757001559
 40
1.0
 40
1.0
 40
1.0
 40
1.0
 10
12.5003954721
 20
4.5707023129
 30
0.0
 10
12.5103977767
 20
4.5710674459
 30
0.0
 10
12.5304269905
 20
4.5718998024
 30
0.0
 10
12.5605004104
 20
4.5733409189
 30
0.0
 10
12.590642613
 20
4.5748654519
 30
0.0
 10
12.6208464905
 20
4.5763638372
 30
0.0
 10
12.646054198
 20
4.5774918643
 30
0.0
 10
12.6662462946
 20
4.5782609106
 30
0.0
 10
12.6814053129
 20
4.5787558501
 30
0.0
 10
12.69657357
 20
4.5791536242
 30
0.0
 10
12.7117495228
 20
4.5794384794
 30
0.0
 10
12.726930828
 20
4.5796096215
 30
0.0
 10
12.74211484
 20
4.5796670265
 30
0.0
 10
12.7572988268
 20
4.5796104191
 30
0.0
 10
12.7724800587
 20
4.5794397444
 30
0.0
 10
12.7876559047
 20
4.5791543139
 30
0.0
 10
12.8028240706
 20
4.5787557896
 30
0.0
 10
12.8179830647
 20
4.5782605071
 30
0.0
 10
12.8381752321
 20
4.5774912559
 30
0.0
 10
12.8633830778
 20
4.5763634202
 30
0.0
 10
12.8935872081
 20
4.5748655849
 30
0.0
 10
12.9337254809
 20
4.5728356478
 30
0.0
 10
12.9638018418
 20
4.5714336026
 30
0.0
 10
12.9838346805
 20
4.5707023129
 30
0.0
  0
SPLINE
  5
2B0
100
AcDbEntity
  8
0
100
AcDbSpline
 62
9
  6
CONTINUOUS
 70
0
 71
3
 72
39
 73
35
 74
0
 42
0.0000001
 43
0.0000001
 44
0.0000000001
 40
0.0
 40
0.0
 40
0.0
 40
0.0
 40
0.2164407793
 40
0.3161790601
 40
0.4101303934
 40
0.4981550765
 40
0.5800741532
 40
0.6556667631
 40
0.7246669724
 40
0.7867703674
 40
0.8416376835
 40
0.866243504
 40
0.8888988635
 40
0.9095552864
 40
0.9281768633
 40
0.9447322407
 40
0.9591894167
 40
0.9715157501
 40
0.9768694942
 40
0.9816780052
 40
0.9859370317
 40
0.9896422853
 40
0.9927894421
 40
0.9953741427
 40
0.9964542005
 40
0.9973919936
 40
0.9981869674
 40
0.9988385652
 40
0.9993462281
 40
0.9997093955
 40
0.9998366177
 40
0.9999275051
 40
0.9999819878
 40
1.0
 40
1.0
 40
1.0
 40
1.0
 10
13.6103668032
 20
4.5707023129
 30
0.0
 10
13.6118859004
 20
4.5710487934
 30
0.0
 10
13.614085907
 20
4.5716461575
 30
0.0
 10
13.6168816054
 20
4.5725969812
 30
0.0
 10
13.61877489
 20
4.5733253413
 30
0.0
 10
13.6205210377
 20
4.5740747196
 30
0.0
 10
13.6221188458
 20
4.5748314677
 30
0.0
 10
13.6235671978
 20
4.575581271
 30
0.0
 10
13.624865443
 20
4.5763088308
 30
0.0
 10
13.6260128149
 20
4.5769990024
 30
0.0
 10
13.6268711994
 20
4.5775486958
 30
0.0
 10
13.6274825898
 20
4.5779570368
 30
0.0
 10
13.6278860554
 20
4.5782332101
 30
0.0
 10
13.628251409
 20
4.5784887494
 30
0.0
 10
13.6285785128
 20
4.5787223254
 30
0.0
 10
13.6288672812
 20
4.5789327623
 30
0.0
 10
13.6291176722
 20
4.5791188889
 30
0.0
 10
13.6293020552
 20
4.5792586277
 30
0.0
 10
13.6294303735
 20
4.5793573347
 30
0.0
 10
13.6295123721
 20
4.5794210057
 30
0.0
 10
13.6295847438
 20
4.5794777235
 30
0.0
 10
13.6296474831
 20
4.5795273425
 30
0.0
 10
13.6297005842
 20
4.579569716
 30
0.0
 10
13.6297387834
 20
4.5796004663
 30
0.0
 10
13.6297645239
 20
4.5796213262
 30
0.0
 10
13.6297802302
 20
4.5796341103
 30
0.0
 10
13.6297935192
 20
4.5796449625
 30
0.0
 10
13.6298044044
 20
4.579653907
 30
0.0
 10
13.6298128465
 20
4.5796608124
 30
0.0
 10
13.6298184297
 20
4.5796655083
 30
0.0
 10
13.6298215998
 20
4.5796680079
 30
0.0
 10
13.6298232062
 20
4.5796695278
 30
0.0
 10
13.6298239516
 20
4.5796697962
 30
0.0
 10
13.6298245257
 20
4.5796706176
 30
0.0
 10
13.6298245614
 20
4.579670493
 30
0.0
  0
SPLINE
  5
2B1
100
AcDbEntity
  8
0
100
AcDbSpline
 62
9
  6
CONTINUOUS
 70
0
 71
3
 72
17
 73
13
 74
0
 42
0.0000001
 43
0.0000001
 44
0.0000000001
 40
0.0
 40
0.0
 40
0.0
 40
0.0
 40
0.1363827877
 40
0.2697993028
 40
0.3996519433
 40
0.4632179923
 40
0.5258833561
 40
0.6485940268
 40
0.7682126862
 40
0.8270309418
 40
0.885246465
 40
1.0
 40
1.0
 40
1.0
 40
1.0
 10
13.5500510653
 20
4.4639326736
 30
0.0
 10
13.5507406365
 20
4.4595400019
 30
0.0
 10
13.5527443062
 20
4.450937338
 30
0.0
 10
13.5574714524
 20
4.4387541045
 30
0.0
 10
13.5626378532
 20
4.4293966631
 30
0.0
 10
13.56735517
 20
4.4225026045
 30
0.0
 10
13.5723435286
 20
4.416094621
 30
0.0
 10
13.5791407331
 20
4.4088041613
 30
0.0
 10
13.5866164323
 20
4.4024074427
 30
0.0
 10
13.5928673972
 20
4.3978792155
 30
0.0
 10
13.5992123889
 20
4.3937699905
 30
0.0
 10
13.6041773601
 20
4.3910696245
 30
0.0
 10
13.6075489451
 20
4.389447995
 30
0.0
  0
SPLINE
  5
2B2
100
AcDbEntity
  8
0
100
AcDbSpline
 62
9
  6
CONTINUOUS
 70
0
 71
3
 72
10
 73
6
 74
0
 42
0.0000001
 43
0.0000001
 44
0.0000000001
 40
0.0
 40
0.0
 40
0.0
 40
0.0
 40
0.3864415783
 40
0.666686679
 40
1.0
 40
1.0
 40
1.0
 40
1.0
 10
11.8527085592
 20
4.5421310902
 30
0.0
 10
11.8581988616
 20
4.5337365778
 30
0.0
 10
11.8678445783
 20
4.519367453
 30
0.0
 10
11.8826913693
 20
4.4980760738
 30
0.0
 10
11.8919915309
 20
4.4851471935
 30
0.0
 10
11.8970933056
 20
4.4781600203
 30
0.0
  0
SPLINE
  5
2B3
100
AcDbEntity
  8
0
100
AcDbSpline
 62
9
  6
CONTINUOUS
 70
0
 71
3
 72
15
 73
11
 74
0
 42
0.0000001
 43
0.0000001
 44
0.0000000001
 40
0.0
 40
0.0
 40
0.0
 40
0.0
 40
0.1255214607
 40
0.2512251725
 40
0.3768560488
 40
0.5023219595
 40
0.6274661792
 40
0.7521550928
 40
0.8763774878
 40
1.0
 40
1.0
 40
1.0
 40
1.0
 10
13.5525383159
 20
4.4879254841
 30
0.0
 10
13.553931386
 20
4.4875512147
 30
0.0
 10
13.5566705956
 20
4.4866043516
 30
0.0
 10
13.5605380275
 20
4.4846254907
 30
0.0
 10
13.5640910477
 20
4.4821253595
 30
0.0
 10
13.5672552547
 20
4.4791579767
 30
0.0
 10
13.5699642547
 20
4.4757836629
 30
0.0
 10
13.5721629713
 20
4.4720728503
 30
0.0
 10
13.5738031562
 20
4.4681032267
 30
0.0
 10
13.5745043893
 20
4.4653305702
 30
0.0
 10
13.574751598
 20
4.4639315957
 30
0.0
  0
SPLINE
  5
2B4
100
AcDbEntity
  8
0
100
AcDbSpline
 62
9
  6
CONTINUOUS
 70
0
 71
3
 72
18
 73
14
 74
0
 42
0.0000001
 43
0.0000001
 44
0.0000000001
 40
0.0
 40
0.0
 40
0.0
 40
0.0
 40
0.0266703622
 40
0.0590318443
 40
0.097048206
 40
0.1406068679
 40
0.1895352437
 40
0.2436362381
 40
0.366306456
 40
0.5062432384
 40
0.6606136077
 40
0.8263740837
 40
1.0
 40
1.0
 40
1.0
 40
1.0
 10
13.5525383159
 20
4.4879254841
 30
0.0
 10
13.5525901638
 20
4.4877165485
 30
0.0
 10
13.5526743343
 20
4.4872465807
 30
0.0
 10
13.5527527752
 20
4.4864667973
 30
0.0
 10
13.5527941287
 20
4.4855476849
 30
0.0
 10
13.552797789
 20
4.4844941074
 30
0.0
 10
13.5527636746
 20
4.4833112277
 30
0.0
 10
13.5526631633
 20
4.4814920819
 30
0.0
 10
13.5524366956
 20
4.4789451037
 30
0.0
 10
13.5520331942
 20
4.4756033159
 30
0.0
 10
13.5514939886
 20
4.4719288287
 30
0.0
 10
13.5508307691
 20
4.4679987387
 30
0.0
 10
13.550323401
 20
4.4653065488
 30
0.0
 10
13.5500512793
 20
4.4639317825
 30
0.0
  0
SPLINE
  5
2B5
100
AcDbEntity
  8
0
100
AcDbSpline
 62
9
  6
CONTINUOUS
 70
0
 71
3
 72
18
 73
14
 74
0
 42
0.0000001
 43
0.0000001
 44
0.0000000001
 40
0.0
 40
0.0
 40
0.0
 40
0.0
 40
0.0268546331
 40
0.0596309392
 40
0.0982808308
 40
0.1426538304
 40
0.1925420805
 40
0.2476768333
 40
0.3723353318
 40
0.5136083201
 40
0.6679480889
 40
0.8314844426
 40
1.0
 40
1.0
 40
1.0
 40
1.0
 10
13.4622853365
 20
4.5064904486
 30
0.0
 10
13.4623596641
 20
4.5062458557
 30
0.0
 10
13.4624847854
 20
4.5056907409
 30
0.0
 10
13.4626131728
 20
4.5047634901
 30
0.0
 10
13.4626984982
 20
4.5036639147
 30
0.0
 10
13.4627399621
 20
4.502399082
 30
0.0
 10
13.4627369822
 20
4.500976702
 30
0.0
 10
13.4626705354
 20
4.4987910831
 30
0.0
 10
13.4624673397
 20
4.4957405585
 30
0.0
 10
13.4620645911
 20
4.4917596458
 30
0.0
 10
13.4615022056
 20
4.4874246783
 30
0.0
 10
13.460794236
 20
4.4828486251
 30
0.0
 10
13.4602407841
 20
4.4797362476
 30
0.0
 10
13.4599427939
 20
4.4781600203
 30
0.0
  0
SPLINE
  5
2B6
100
AcDbEntity
  8
0
100
AcDbSpline
 62
9
  6
CONTINUOUS
 70
0
 71
3
 72
16
 73
12
 74
0
 42
0.0000001
 43
0.0000001
 44
0.0000000001
 40
0.0
 40
0.0
 40
0.0
 40
0.0
 40
0.0278159802
 40
0.0617239431
 40
0.1015097179
 40
0.1469241979
 40
0.2535197439
 40
0.3788802834
 40
0.5198806069
 40
0.6729818032
 40
1.0
 40
1.0
 40
1.0
 40
1.0
 10
12.5003954721
 20
4.5707023129
 30
0.0
 10
12.5003747835
 20
4.5704379056
 30
0.0
 10
12.5003418295
 20
4.5698501823
 30
0.0
 10
12.5003119132
 20
4.5688827366
 30
0.0
 10
12.5002974445
 20
4.5677471207
 30
0.0
 10
12.5002992115
 20
4.565918377
 30
0.0
 10
12.5003457449
 20
4.5632739912
 30
0.0
 10
12.5004589478
 20
4.5597197141
 30
0.0
 10
12.5006306834
 20
4.5557239053
 30
0.0
 10
12.5009392097
 20
4.5498097389
 30
0.0
 10
12.501233187
 20
4.5452411817
 30
0.0
 10
12.5014551595
 20
4.5421310902
 30
0.0
  0
SPLINE
  5
2B7
100
AcDbEntity
  8
0
100
AcDbSpline
 62
9
  6
CONTINUOUS
 70
0
 71
3
 72
18
 73
14
 74
0
 42
0.0000001
 43
0.0000001
 44
0.0000000001
 40
0.0
 40
0.0
 40
0.0
 40
0.0
 40
0.0266631843
 40
0.0590134735
 40
0.0970226112
 40
0.1405797098
 40
0.1895088861
 40
0.2436106438
 40
0.3662823047
 40
0.5062227556
 40
0.6605973631
 40
0.8263653264
 40
1.0
 40
1.0
 40
1.0
 40
1.0
 10
11.9316925083
 20
4.4879254959
 30
0.0
 10
11.9316406713
 20
4.4877166191
 30
0.0
 10
11.9315568282
 20
4.4872467319
 30
0.0
 10
11.931479115
 20
4.486467096
 30
0.0
 10
11.9314382343
 20
4.4855481389
 30
0.0
 10
11.9314345528
 20
4.4844946395
 30
0.0
 10
11.9314684902
 20
4.4833117639
 30
0.0
 10
11.9315688992
 20
4.4814926013
 30
0.0
 10
11.9317955284
 20
4.4789456122
 30
0.0
 10
11.9321987698
 20
4.4756037438
 30
0.0
 10
11.9327386297
 20
4.4719292553
 30
0.0
 10
11.9334012216
 20
4.467998944
 30
0.0
 10
11.9339070749
 20
4.4653063517
 30
0.0
 10
11.9341791937
 20
4.4639315246
 30
0.0
  0
SPLINE
  5
2B8
100
AcDbEntity
  8
0
100
AcDbSpline
 62
9
  6
CONTINUOUS
 70
0
 71
3
 72
15
 73
11
 74
0
 42
0.0000001
 43
0.0000001
 44
0.0000000001
 40
0.0
 40
0.0
 40
0.0
 40
0.0
 40
0.1255214337
 40
0.2512263988
 40
0.3768584082
 40
0.50232573
 40
0.6274711282
 40
0.7521624267
 40
0.876382987
 40
1.0
 40
1.0
 40
1.0
 40
1.0
 10
11.9316925083
 20
4.4879254959
 30
0.0
 10
11.9302995054
 20
4.4875512109
 30
0.0
 10
11.9275605324
 20
4.486603954
 30
0.0
 10
11.9236934017
 20
4.4846249089
 30
0.0
 10
11.920140493
 20
4.482124855
 30
0.0
 10
11.9169765151
 20
4.4791574308
 30
0.0
 10
11.9142676233
 20
4.4757831896
 30
0.0
 10
11.9120691645
 20
4.4720724095
 30
0.0
 10
11.9104290216
 20
4.4681030483
 30
0.0
 10
11.9097276248
 20
4.4653306405
 30
0.0
 10
11.9094804112
 20
4.4639317915
 30
0.0
  0
SPLINE
  5
2B9
100
AcDbEntity
  8
0
100
AcDbSpline
 62
9
  6
CONTINUOUS
 70
0
 71
3
 72
15
 73
11
 74
0
 42
0.0000001
 43
0.0000001
 44
0.0000000001
 40
0.0
 40
0.0
 40
0.0
 40
0.0
 40
0.1253583963
 40
0.2509489813
 40
0.3765640043
 40
0.5020549362
 40
0.6272537338
 40
0.7520218486
 40
0.8762953051
 40
1.0
 40
1.0
 40
1.0
 40
1.0
 10
11.9193783036
 20
4.5064904486
 30
0.0
 10
11.9178287775
 20
4.5060538717
 30
0.0
 10
11.9147908201
 20
4.5049319249
 30
0.0
 10
11.9105565306
 20
4.5025570069
 30
0.0
 10
11.9067436163
 20
4.4995471919
 30
0.0
 10
11.9034520271
 20
4.4959818394
 30
0.0
 10
11.9007673996
 20
4.4919525709
 30
0.0
 10
11.8987589355
 20
4.4875637068
 30
0.0
 10
11.8974802463
 20
4.4829304846
 30
0.0
 10
11.8971353155
 20
4.479748082
 30
0.0
 10
11.8970933056
 20
4.4781600203
 30
0.0
  0
SPLINE
  5
2BA
100
AcDbEntity
  8
0
100
AcDbSpline
 62
9
  6
CONTINUOUS
 70
0
 71
3
 72
17
 73
13
 74
0
 42
0.0000001
 43
0.0000001
 44
0.0000000001
 40
0.0
 40
0.0
 40
0.0
 40
0.0
 40
0.0743698043
 40
0.1476213835
 40
0.289544543
 40
0.3579835791
 40
0.4246173127
 40
0.55236404
 40
0.6730932535
 40
0.7874104679
 40
0.8961172446
 40
1.0
 40
1.0
 40
1.0
 40
1.0
 10
13.5747495534
 20
4.4639313058
 30
0.0
 10
13.5750149686
 20
4.4617300822
 30
0.0
 10
13.5756661236
 20
4.4573744907
 30
0.0
 10
13.5774211024
 20
4.4489194873
 30
0.0
 10
13.5798288724
 20
4.4407921273
 30
0.0
 10
13.5828355616
 20
4.4330972446
 30
0.0
 10
13.5860879006
 20
4.4259650007
 30
0.0
 10
13.5906805381
 20
4.4177462371
 30
0.0
 10
13.5969746991
 20
4.4089242261
 30
0.0
 10
13.6038237335
 20
4.4012720959
 30
0.0
 10
13.6111046385
 20
4.3947644932
 30
0.0
 10
13.6162879763
 20
4.3910895141
 30
0.0
 10
13.6189144069
 20
4.3894483403
 30
0.0
  0
SPLINE
  5
2BB
100
AcDbEntity
  8
0
100
AcDbSpline
 62
9
  6
CONTINUOUS
 70
0
 71
3
 72
11
 73
7
 74
0
 42
0.0000001
 43
0.0000001
 44
0.0000000001
 40
0.0
 40
0.0
 40
0.0
 40
0.0
 40
0.2549084867
 40
0.5067312477
 40
0.7551737648
 40
1.0
 40
1.0
 40
1.0
 40
1.0
 10
13.5747495534
 20
4.4639313058
 30
0.0
 10
13.5757442768
 20
4.4651890103
 30
0.0
 10
13.5777539422
 20
4.4676638628
 30
0.0
 10
13.5808389453
 20
4.4712768886
 30
0.0
 10
13.5839622991
 20
4.4747721052
 30
0.0
 10
13.5860768159
 20
4.4770433581
 30
0.0
 10
13.587137101
 20
4.4781603682
 30
0.0
  0
SPLINE
  5
2BC
100
AcDbEntity
  8
0
100
AcDbSpline
 62
9
  6
CONTINUOUS
 70
0
 71
3
 72
36
 73
32
 74
0
 42
0.0000001
 43
0.0000001
 44
0.0000000001
 40
0.0
 40
0.0
 40
0.0
 40
0.0
 40
0.0000681296
 40
0.0002750807
 40
0.000620877
 40
0.0011055314
 40
0.0017290551
 40
0.0024914595
 40
0.0044329536
 40
0.0069301011
 40
0.0099829892
 40
0.0135917046
 40
0.0177563344
 40
0.0224769653
 40
0.0277536843
 40
0.0399754625
 40
0.0544022689
 40
0.0709820082
 40
0.0896603046
 40
0.1103839715
 40
0.1331012308
 40
0.15776187
 40
0.212719742
 40
0.2748925836
 40
0.3439468355
 40
0.4195852138
 40
0.5015521779
 40
0.5896297636
 40
0.6836374001
 40
0.7834344123
 40
1.0
 40
1.0
 40
1.0
 40
1.0
 10
11.8544059453
 20
4.5796480202
 30
0.0
 10
11.8544059508
 20
4.5796485103
 30
0.0
 10
11.8544085493
 20
4.5796454912
 30
0.0
 10
11.8544111963
 20
4.5796446774
 30
0.0
 10
11.8544177706
 20
4.579639231
 30
0.0
 10
11.8544259588
 20
4.5796335019
 30
0.0
 10
11.8544368959
 20
4.5796253525
 30
0.0
 10
11.8544561292
 20
4.5796112478
 30
0.0
 10
11.8544862791
 20
4.5795889933
 30
0.0
 10
11.8545296359
 20
4.5795570227
 30
0.0
 10
11.8545826485
 20
4.5795178798
 30
0.0
 10
11.854645293
 20
4.5794716067
 30
0.0
 10
11.854717578
 20
4.5794181845
 30
0.0
 10
11.8547994998
 20
4.5793576144
 30
0.0
 10
11.854928017
 20
4.5792625667
 30
0.0
 10
11.8551126006
 20
4.5791258978
 30
0.0
 10
11.8553627423
 20
4.5789411205
 30
0.0
 10
11.8556513813
 20
4.5787302891
 30
0.0
 10
11.8559784018
 20
4.5784952191
 30
0.0
 10
11.8563437245
 20
4.5782378155
 30
0.0
 10
11.8567472577
 20
4.5779599656
 30
0.0
 10
11.8573585782
 20
4.577549703
 30
0.0
 10
11.8582168967
 20
4.5769982633
 30
0.0
 10
11.8593643726
 20
4.5763069611
 30
0.0
 10
11.8606628389
 20
4.5755792722
 30
0.0
 10
11.862111703
 20
4.5748304575
 30
0.0
 10
11.8637098113
 20
4.5740746039
 30
0.0
 10
11.8654559815
 20
4.5733255826
 30
0.0
 10
11.8673491616
 20
4.5725972923
 30
0.0
 10
11.8701445813
 20
4.5716463056
 30
0.0
 10
11.8723443709
 20
4.571048764
 30
0.0
 10
11.8738633494
 20
4.5707023129
 30
0.0
  0
SPLINE
  5
2BD
100
AcDbEntity
  8
0
100
AcDbSpline
 62
9
  6
CONTINUOUS
 70
0
 71
3
 72
13
 73
9
 74
0
 42
0.0000001
 43
0.0000001
 44
0.0000000001
 40
0.0
 40
0.0
 40
0.0
 40
0.0
 40
0.24915626
 40
0.3739875018
 40
0.4989613988
 40
0.6240649575
 40
0.7492881368
 40
1.0
 40
1.0
 40
1.0
 40
1.0
 10
12.0242873587
 20
4.4781600203
 30
0.0
 10
12.0635791443
 20
4.4856898161
 30
0.0
 10
12.122702091
 20
4.4962566342
 30
0.0
 10
12.2018423878
 20
4.5087453953
 30
0.0
 10
12.2614342307
 20
4.5172870222
 30
0.0
 10
12.3212085747
 20
4.5249550425
 30
0.0
 10
12.4011562808
 20
4.5339603442
 30
0.0
 10
12.4613000029
 20
4.5392755782
 30
0.0
 10
12.5014551595
 20
4.5421310902
 30
0.0
  0
SPLINE
  5
2BE
100
AcDbEntity
  8
0
100
AcDbSpline
 62
9
  6
CONTINUOUS
 70
0
 71
3
 72
29
 73
25
 74
0
 42
0.0000001
 43
0.0000001
 44
0.0000000001
 40
0.0
 40
0.0
 40
0.0
 40
0.0
 40
0.0624554404
 40
0.1249307889
 40
0.1874240059
 40
0.249925491
 40
0.2811772477
 40
0.312429947
 40
0.3436853528
 40
0.3749463516
 40
0.4062113925
 40
0.4374768101
 40
0.5000003366
 40
0.5625233315
 40
0.5937885074
 40
0.6250535851
 40
0.6563150069
 40
0.6875706953
 40
0.7188233852
 40
0.7500749437
 40
0.8125758853
 40
0.8750689366
 40
0.937544434
 40
1.0
 40
1.0
 40
1.0
 40
1.0
 10
12.5014551595
 20
4.5421310902
 30
0.0
 10
12.5114817152
 20
4.5428441324
 30
0.0
 10
12.5315238202
 20
4.5444721304
 30
0.0
 10
12.5615552836
 20
4.5473100516
 30
0.0
 10
12.5915755066
 20
4.5503358386
 30
0.0
 10
12.6165976682
 20
4.552840236
 30
0.0
 10
12.636630101
 20
4.5547064256
 30
0.0
 10
12.6516643825
 20
4.5560055432
 30
0.0
 10
12.6667110848
 20
4.5571726709
 30
0.0
 10
12.6817717642
 20
4.5581746551
 30
0.0
 10
12.6968455251
 20
4.5589886863
 30
0.0
 10
12.7169564878
 20
4.559798116
 30
0.0
 10
12.7421151464
 20
4.5602437535
 30
0.0
 10
12.7672738162
 20
4.5597993158
 30
0.0
 10
12.7873846163
 20
4.5589886914
 30
0.0
 10
12.8024583698
 20
4.5581739363
 30
0.0
 10
12.8175191736
 20
4.5571720582
 30
0.0
 10
12.8325660155
 20
4.5560052803
 30
0.0
 10
12.8476003335
 20
4.5547064427
 30
0.0
 10
12.8676326749
 20
4.5528405711
 30
0.0
 10
12.8926546767
 20
4.5503360336
 30
0.0
 10
12.9226747638
 20
4.5473097964
 30
0.0
 10
12.9527062583
 20
4.5444720031
 30
0.0
 10
12.9727484151
 20
4.5428441038
 30
0.0
 10
12.982774993
 20
4.5421310902
 30
0.0
  0
SPLINE
  5
2BF
100
AcDbEntity
  8
0
100
AcDbSpline
 62
9
  6
CONTINUOUS
 70
0
 71
3
 72
13
 73
9
 74
0
 42
0.0000001
 43
0.0000001
 44
0.0000000001
 40
0.0
 40
0.0
 40
0.0
 40
0.0
 40
0.2507118615
 40
0.3759350403
 40
0.5010386003
 40
0.6260124988
 40
0.7508437408
 40
1.0
 40
1.0
 40
1.0
 40
1.0
 10
12.982774993
 20
4.5421310902
 30
0.0
 10
13.0229301497
 20
4.5392755814
 30
0.0
 10
13.0830738716
 20
4.5339603486
 30
0.0
 10
13.1630215776
 20
4.5249550467
 30
0.0
 10
13.2227959219
 20
4.5172870262
 30
0.0
 10
13.2823877651
 20
4.508745398
 30
0.0
 10
13.3615280613
 20
4.4962566315
 30
0.0
 10
13.4206510074
 20
4.4856898108
 30
0.0
 10
13.4599427939
 20
4.4781600203
 30
0.0
  0
SPLINE
  5
2C0
100
AcDbEntity
  8
0
100
AcDbSpline
 62
9
  6
CONTINUOUS
 70
0
 71
3
 72
11
 73
7
 74
0
 42
0.0000001
 43
0.0000001
 44
0.0000000001
 40
0.0
 40
0.0
 40
0.0
 40
0.0
 40
0.2491387068
 40
0.4989294152
 40
0.7492574481
 40
1.0
 40
1.0
 40
1.0
 40
1.0
 10
12.0219448161
 20
4.5064904486
 30
0.0
 10
12.0613364451
 20
4.5140577517
 30
0.0
 10
12.1404178625
 20
4.528219451
 30
0.0
 10
12.2597129222
 20
4.5462375997
 30
0.0
 10
12.3797487722
 20
4.5607391507
 30
0.0
 10
12.460126987
 20
4.5678394636
 30
0.0
 10
12.5003954721
 20
4.5707023129
 30
0.0
  0
SPLINE
  5
2C1
100
AcDbEntity
  8
0
100
AcDbSpline
 62
9
  6
CONTINUOUS
 70
0
 71
3
 72
9
 73
5
 74
0
 42
0.0000001
 43
0.0000001
 44
0.0000000001
 40
0.0
 40
0.0
 40
0.0
 40
0.0
 40
0.4927901943
 40
1.0
 40
1.0
 40
1.0
 40
1.0
 10
11.9193783036
 20
4.5064904486
 30
0.0
 10
11.9215583833
 20
4.5035495711
 30
0.0
 10
11.9258421014
 20
4.4974763167
 30
0.0
 10
11.9297929115
 20
4.4911793701
 30
0.0
 10
11.9316943113
 20
4.4879263795
 30
0.0
  0
SPLINE
  5
2C2
100
AcDbEntity
  8
0
100
AcDbSpline
 62
9
  6
CONTINUOUS
 70
0
 71
3
 72
33
 73
29
 74
0
 42
0.0000001
 43
0.0000001
 44
0.0000000001
 40
0.0
 40
0.0
 40
0.0
 40
0.0
 40
0.0004366983
 40
0.0009865549
 40
0.0017546602
 40
0.0039373496
 40
0.0069682352
 40
0.0108307922
 40
0.0155085023
 40
0.0209848543
 40
0.027243344
 40
0.0420407534
 40
0.0597688584
 40
0.0802959189
 40
0.1034903425
 40
0.1292206976
 40
0.1573547357
 40
0.2201380766
 40
0.2902514271
 40
0.36606738
 40
0.4459712733
 40
0.5283658562
 40
0.6117153213
 40
0.6947074258
 40
0.7761326294
 40
0.8548407504
 40
0.9297707247
 40
1.0
 40
1.0
 40
1.0
 40
1.0
 10
11.8471150764
 20
4.5600657453
 30
0.0
 10
11.8471150542
 20
4.5600684949
 30
0.0
 10
11.8471168546
 20
4.5600537309
 30
0.0
 10
11.8471182837
 20
4.5600473262
 30
0.0
 10
11.8471221724
 20
4.5600230353
 30
0.0
 10
11.8471282932
 20
4.5599877876
 30
0.0
 10
11.8471379931
 20
4.559930551
 30
0.0
 10
11.8471503305
 20
4.5598590959
 30
0.0
 10
11.8471654573
 20
4.5597720174
 30
0.0
 10
11.8471833145
 20
4.5596702694
 30
0.0
 10
11.8472124586
 20
4.5595057474
 30
0.0
 10
11.847255693
 20
4.5592654039
 30
0.0
 10
11.8473159814
 20
4.5589368279
 30
0.0
 10
11.8473872038
 20
4.5585565101
 30
0.0
 10
11.8474693441
 20
4.5581269744
 30
0.0
 10
11.847562393
 20
4.5576507621
 30
0.0
 10
11.8477062282
 20
4.5569304856
 30
0.0
 10
11.8479118976
 20
4.5559375807
 30
0.0
 10
11.8481937545
 20
4.5546539216
 30
0.0
 10
11.8485188398
 20
4.5532695131
 30
0.0
 10
11.8488870568
 20
4.5518160017
 30
0.0
 10
11.8492983166
 20
4.550324762
 30
0.0
 10
11.8497530639
 20
4.5488258067
 30
0.0
 10
11.8502509369
 20
4.5473469683
 30
0.0
 10
11.8507918184
 20
4.5459143906
 30
0.0
 10
11.8513757785
 20
4.5445536482
 30
0.0
 10
11.8520028304
 20
4.5432902938
 30
0.0
 10
11.8524665111
 20
4.5425011778
 30
0.0
 10
11.8527085592
 20
4.5421310902
 30
0.0
  0
SPLINE
  5
2C3
100
AcDbEntity
  8
0
100
AcDbSpline
 62
9
  6
CONTINUOUS
 70
0
 71
3
 72
10
 73
6
 74
0
 42
0.0000001
 43
0.0000001
 44
0.0000000001
 40
0.0
 40
0.0
 40
0.0
 40
0.0
 40
0.3333131537
 40
0.6135581568
 40
1.0
 40
1.0
 40
1.0
 40
1.0
 10
13.587137101
 20
4.4781603682
 30
0.0
 10
13.5922388414
 20
4.4851475018
 30
0.0
 10
13.601538948
 20
4.4980763046
 30
0.0
 10
13.616385661
 20
4.5193675635
 30
0.0
 10
13.6260313091
 20
4.5337366241
 30
0.0
 10
13.6315215934
 20
4.5421310902
 30
0.0
  0
SPLINE
  5
2C4
100
AcDbEntity
  8
0
100
AcDbSpline
 62
9
  6
CONTINUOUS
 70
0
 71
3
 72
35
 73
31
 74
0
 42
0.0000001
 43
0.0000001
 44
0.0000000001
 40
0.0
 40
0.0
 40
0.0
 40
0.0
 40
0.0702274543
 40
0.1451576016
 40
0.223864439
 40
0.3052832637
 40
0.388260173
 40
0.4715819003
 40
0.5539496447
 40
0.6338421173
 40
0.7096625684
 40
0.7797968077
 40
0.8426178771
 40
0.87077554
 40
0.8965213568
 40
0.9197227421
 40
0.9402502893
 40
0.9579744357
 40
0.9727654748
 40
0.9790205113
 40
0.9844935711
 40
0.9891684052
 40
0.9930287576
 40
0.9960583654
 40
0.9972565562
 40
0.9982409594
 40
0.9990095403
 40
0.9995602639
 40
0.9998910951
 40
1.0
 40
1.0
 40
1.0
 40
1.0
 10
13.6315215934
 20
4.5421310902
 30
0.0
 10
13.6317636454
 20
4.5425012079
 30
0.0
 10
13.6322273222
 20
4.5432904079
 30
0.0
 10
13.6328543577
 20
4.5445538873
 30
0.0
 10
13.6334383075
 20
4.5459147234
 30
0.0
 10
13.6339791838
 20
4.5473472919
 30
0.0
 10
13.6344770471
 20
4.5488259494
 30
0.0
 10
13.6349318361
 20
4.5503245758
 30
0.0
 10
13.6353431368
 20
4.5518155142
 30
0.0
 10
13.6357113616
 20
4.5532689405
 30
0.0
 10
13.6360364612
 20
4.5546535644
 30
0.0
 10
13.6363183248
 20
4.5559377472
 30
0.0
 10
13.6365239777
 20
4.5569312756
 30
0.0
 10
13.636667757
 20
4.5576521221
 30
0.0
 10
13.6367607923
 20
4.5581286759
 30
0.0
 10
13.6368429206
 20
4.5585583994
 30
0.0
 10
13.6369141321
 20
4.5589387773
 30
0.0
 10
13.6369744115
 20
4.5592673179
 30
0.0
 10
13.637017644
 20
4.5595076049
 30
0.0
 10
13.6370467866
 20
4.5596720423
 30
0.0
 10
13.6370646481
 20
4.5597737747
 30
0.0
 10
13.6370797666
 20
4.5598606979
 30
0.0
 10
13.6370921388
 20
4.5599324241
 30
0.0
 10
13.6371007225
 20
4.5599827251
 30
0.0
 10
13.6371062152
 20
4.5600149365
 30
0.0
 10
13.6371093224
 20
4.5600335726
 30
0.0
 10
13.6371117183
 20
4.5600470673
 30
0.0
 10
13.6371134816
 20
4.5600591547
 30
0.0
 10
13.6371144495
 20
4.5600620765
 30
0.0
 10
13.6371149824
 20
4.5600681296
 30
0.0
 10
13.6371150763
 20
4.5600674502
 30
0.0
  0
SPLINE
  5
2C5
100
AcDbEntity
  8
0
100
AcDbSpline
 62
9
  6
CONTINUOUS
 70
0
 71
3
 72
9
 73
5
 74
0
 42
0.0000001
 43
0.0000001
 44
0.0000000001
 40
0.0
 40
0.0
 40
0.0
 40
0.0
 40
0.5072049307
 40
1.0
 40
1.0
 40
1.0
 40
1.0
 10
13.5525366109
 20
4.4879263677
 30
0.0
 10
13.5544378936
 20
4.4911793922
 30
0.0
 10
13.5583880134
 20
4.4974767914
 30
0.0
 10
13.5626719795
 20
4.5035499037
 30
0.0
 10
13.5648521079
 20
4.5064907978
 30
0.0
  0
SPLINE
  5
2C6
100
AcDbEntity
  8
0
100
AcDbSpline
 62
9
  6
CONTINUOUS
 70
0
 71
3
 72
11
 73
7
 74
0
 42
0.0000001
 43
0.0000001
 44
0.0000000001
 40
0.0
 40
0.0
 40
0.0
 40
0.0
 40
0.2507425666
 40
0.501070608
 40
0.7508613171
 40
1.0
 40
1.0
 40
1.0
 40
1.0
 10
12.9838346805
 20
4.5707023129
 30
0.0
 10
13.0241031681
 20
4.5678394653
 30
0.0
 10
13.1044813864
 20
4.5607391492
 30
0.0
 10
13.2245172401
 20
4.5462375977
 30
0.0
 10
13.343812298
 20
4.528219452
 30
0.0
 10
13.4228937108
 20
4.5140577483
 30
0.0
 10
13.4622853365
 20
4.5064904486
 30
0.0
  0
SPLINE
  5
2C7
100
AcDbEntity
  8
0
100
AcDbSpline
 62
9
  6
CONTINUOUS
 70
0
 71
3
 72
15
 73
11
 74
0
 42
0.0000001
 43
0.0000001
 44
0.0000000001
 40
0.0
 40
0.0
 40
0.0
 40
0.0
 40
0.1255098191
 40
0.2510044676
 40
0.3763372998
 40
0.5015144436
 40
0.6264837584
 40
0.7512086121
 40
0.8757389101
 40
1.0
 40
1.0
 40
1.0
 40
1.0
 10
11.849384394
 20
4.3628343944
 30
0.0
 10
11.849384394
 20
4.3641968747
 30
0.0
 10
11.8495682407
 20
4.3669251959
 30
0.0
 10
11.8503891441
 20
4.3709392459
 30
0.0
 10
11.8517413399
 20
4.3748038032
 30
0.0
 10
11.8535986117
 20
4.3784460636
 30
0.0
 10
11.8559274466
 20
4.3817984697
 30
0.0
 10
11.8586843582
 20
4.3847995335
 30
0.0
 10
11.8618178113
 20
4.3873918681
 30
0.0
 10
11.864122774
 20
4.3888186051
 30
0.0
 10
11.865315865
 20
4.389447995
 30
0.0
  0
ENDSEC
  0
SECTION
  2
OBJECTS
  0
DICTIONARY
  5
C
100
AcDbDictionary
280
0
281
1
  3
ACAD_GROUP
350
D
  3
ACAD_MLINESTYLE
350
17
  3
ACAD_LAYOUT
350
1A
  3
ACAD_PLOTSETTINGS
350
19
  3
ACAD_PLOTSTYLENAME
350
E
  0
DICTIONARY
  5
D
102
{ACAD_REACTORS
330
C
102
}
100
AcDbDictionary
280
0
281
1
  0
ACDBDICTIONARYWDFLT
  5
E
102
{ACAD_REACTORS
330
C
102
}
100
AcDbDictionary
281
1
  3
Normal
350
F
100
AcDbDictionaryWithDefault
340
F
  0
DICTIONARY
  5
17
102
{ACAD_REACTORS
330
C
102
}
100
AcDbDictionary
280
0
281
1
  3
Standard
350
18
  0
DICTIONARY
  5
19
102
{ACAD_REACTORS
330
C
102
}
100
AcDbDictionary
281
1
  0
DICTIONARY
  5
1A
102
{ACAD_REACTORS
330
C
102
}
100
AcDbDictionary
281
1
  3
Model
350
2C8
  3
Layout1
350
2C9
  0
ACDBPLACEHOLDER
  5
F
102
{ACAD_REACTORS
330
E
102
}
  0
MLINESTYLE
  5
18
102
{ACAD_REACTORS
330
17
102
}
100
AcDbMlineStyle
  2
STANDARD
 70
0
  3

 62
256
 51
90.0
 52
90.0
 71
2
 49
0.5
 62
256
  6
BYLAYER
 49
-0.5
 62
256
  6
BYLAYER
  0
LAYOUT
  5
2C8
102
{ACAD_REACTORS
330
1A
102
}
100
AcDbPlotSettings
  1

  2
none_device
  4
ANSI_C_(22.00_x_17.00_Inches)
  6

 40
0.0
 41
0.0
 42
0.0
 43
0.0
 44
558.8
 45
431.8
 46
0.0
 47
0.0
 48
0.0
 49
0.0
140
0.0
141
0.0
142
1.0
143
1.0
 70
1024
 72
0
 73
0
 74
0
  7

 75
0
147
1.0
148
0.0
149
0.0
100
AcDbLayout
  1
Model
 70
0
 71
0
 10
0.0
 20
0.0
 11
22.0
 21
17.0
 12
0.0
 22
0.0
 32
0.0
 14
0.0
 24
0.0
 34
0.0
 15
0.0
 25
0.0
 35
0.0
146
0.0
 13
0.0
 23
0.0
 33
0.0
 16
1.0
 26
0.0
 36
0.0
 17
0.0
 27
1.0
 37
0.0
 76
0
330
205
345
0
346
0
  0
LAYOUT
  5
2C9
102
{ACAD_REACTORS
330
1A
102
}
100
AcDbPlotSettings
  1

  2
none_device
  4
ANSI_C_(22.00_x_17.00_Inches)
  6

 40
0.0
 41
0.0
 42
0.0
 43
0.0
 44
558.8
 45
431.8
 46
0.0
 47
0.0
 48
0.0
 49
0.0
140
0.0
141
0.0
142
1.0
143
1.0
 70
0
 72
0
 73
0
 74
0
  7

 75
0
147
1.0
148
0.0
149
0.0
100
AcDbLayout
  1
Layout1
 70
0
 71
1
 10
0.0
 20
0.0
 11
22.0
 21
17.0
 12
0.0
 22
0.0
 32
0.0
 14
0.0
 24
0.0
 34
0.0
 15
0.0
 25
0.0
 35
0.0
146
0.0
 13
0.0
 23
0.0
 33
0.0
 16
1.0
 26
0.0
 36
0.0
 17
0.0
 27
1.0
 37
0.0
 76
0
330
206
345
0
346
0
  0
ENDSEC
  0
EOF
