999
DXF file: E:\BT Custom\CADOUTPUT\_TOP.dxf
999
Pro/ENGINEER 2018400 by Parametric Technology Corporation
  0
SECTION
  2
HEADER
  9
$ACADVER
  1
AC1018
  9
$DWGCODEPAGE
  3
ANSI_1252
  9
$EXTMAX
 10
22.0
 20
17.0
 30
0.0
  9
$EXTMIN
 10
0.0
 20
0.0
 30
0.0
  9
$LIMMIN
 10
0.0
 20
0.0
  9
$LIMMAX
 10
22.0
 20
17.0
  9
$VIEWCTR
 10
11.0
 20
8.5
  9
$VIEWSIZE
 40
17.0
  9
$CLAYER
  8
0
  9
$LTSCALE
 40
1.21
  9
$CELTYPE
  6
BYLAYER
  9
$DIMSCALE
 40
1.0
  9
$DIMASZ
 40
0.1
  9
$DIMEXO
 40
0.0625
  9
$DIMDLI
 40
0.836
  9
$DIMEXE
 40
0.125
  9
$DIMCEN
 40
0.198
  9
$DIMLFAC
 40
1.0
  9
$DIMBLK
  1
_FILLED
  9
$DIMALT
 70
1
  9
$DIMALTD
 70
2
  9
$DIMALTTD
 70
2
  9
$DIMALTF
 40
25.4
  9
$DIMTXT
 40
0.08
  9
$DIMTOL
 70
1
  9
$DIMLIM
 70
0
  9
$DIMTFAC
 40
1.0
  9
$DIMTP
 40
0.001
  9
$DIMTM
 40
0.001
  9
$DIMGAP
 40
0.09
  9
$DIMDSEP
 70
46
  9
$AUNITS
 70
0
  9
$PDMODE
 70
3
  9
$PDSIZE
 40
0.06
  9
$HANDSEED
  5
303
  9
$TILEMODE
 70
1
  9
$MEASUREMENT
 70
0
  9
$INSUNITS
 70
1
  0
ENDSEC
  0
SECTION
  2
CLASSES
  0
CLASS
  1
ACDBDICTIONARYWDFLT
  2
AcDbDictionaryWithDefault
  3
AutoCAD 2000
 90
0
 91
1
280
0
281
0
  0
CLASS
  1
ACDBPLACEHOLDER
  2
AcDbPlaceHolder
  3
AutoCAD 2000
 90
0
 91
1
280
0
281
0
  0
CLASS
  1
LAYOUT
  2
AcDbLayout
  3
AutoCAD 2000
 90
0
 91
0
280
0
281
0
  0
ENDSEC
  0
SECTION
  2
TABLES
  0
TABLE
  2
VPORT
  5
8
100
AcDbSymbolTable
 70
2
  0
VPORT
  5
1F4
100
AcDbSymbolTableRecord
100
AcDbViewportTableRecord
  2
*ACTIVE
 70
0
 10
0.0
 20
0.0
 11
1.0
 21
1.0
 12
11.0
 22
8.5
 13
0.0
 23
0.0
 14
1.0
 24
1.0
 15
0.0
 25
0.0
 16
0.0
 26
0.0
 36
1.0
 17
0.0
 27
0.0
 37
0.0
 40
17.0
 41
1.2941176471
 42
50.0
 43
0.0
 44
0.0
 50
0.0
 51
0.0
 71
0
 72
100
 73
1
 74
1
 75
0
 76
0
 77
0
 78
0
  0
ENDTAB
  0
TABLE
  2
LTYPE
  5
5
100
AcDbSymbolTable
 70
6
  0
LTYPE
  5
14
100
AcDbSymbolTableRecord
100
AcDbLinetypeTableRecord
  2
BYBLOCK
 70
0
  3

 72
65
 73
0
 40
0.0
  0
LTYPE
  5
15
100
AcDbSymbolTableRecord
100
AcDbLinetypeTableRecord
  2
BYLAYER
 70
0
  3

 72
65
 73
0
 40
0.0
  0
LTYPE
  5
16
100
AcDbSymbolTableRecord
100
AcDbLinetypeTableRecord
  2
CONTINUOUS
 70
64
  3
Solid line
 72
65
 73
0
 40
0.0
  0
LTYPE
  5
1F5
100
AcDbSymbolTableRecord
100
AcDbLinetypeTableRecord
  2
CENTER
 70
64
  3
____ _ ____ _ ____ _ ____ _ ____ _ ____ _ ____
 72
65
 73
4
 40
0.6
 49
0.375
 74
0
 49
-0.075
 74
0
 49
0.075
 74
0
 49
-0.075
 74
0
  0
LTYPE
  5
1F6
100
AcDbSymbolTableRecord
100
AcDbLinetypeTableRecord
  2
HIDDEN
 70
64
  3
- - - - - - - - - - - - - - - - - - - -
 72
65
 73
2
 40
0.2
 49
0.1
 74
0
 49
-0.1
 74
0
  0
LTYPE
  5
1F7
100
AcDbSymbolTableRecord
100
AcDbLinetypeTableRecord
  2
PHANTOM
 70
64
  3
_____ _ _ _____ _ _ _____ _ _ _____
 72
65
 73
6
 40
0.8
 49
0.45
 74
0
 49
-0.05
 74
0
 49
0.1
 74
0
 49
-0.05
 74
0
 49
0.1
 74
0
 49
-0.05
 74
0
  0
LTYPE
  5
1F8
100
AcDbSymbolTableRecord
100
AcDbLinetypeTableRecord
  2
DOT
 70
64
  3
. . . . . . . . . . . . . . . . . . . .
 72
65
 73
2
 40
0.2
 49
0.1
 74
0
 49
-0.1
 74
0
  0
LTYPE
  5
1F9
100
AcDbSymbolTableRecord
100
AcDbLinetypeTableRecord
  2
DASHED
 70
64
  3
- - - - - - - - - - - - - - - - - - - -
 72
65
 73
2
 40
0.2
 49
0.1
 74
0
 49
-0.1
 74
0
  0
ENDTAB
  0
TABLE
  2
LAYER
  5
2
100
AcDbSymbolTable
 70
36
  0
LAYER
  5
10
100
AcDbSymbolTableRecord
100
AcDbLayerTableRecord
  2
0
 70
0
 62
7
  6
CONTINUOUS
370
-3
390
F
  0
LAYER
  5
1FA
100
AcDbSymbolTableRecord
100
AcDbLayerTableRecord
  2
DEFAULT_1
 70
0
 62
7
  6
CENTER
370
-3
390
F
  0
LAYER
  5
1FB
100
AcDbSymbolTableRecord
100
AcDbLayerTableRecord
  2
DEFAULT_2
 70
0
 62
8
  6
HIDDEN
370
-3
390
F
  0
LAYER
  5
1FC
100
AcDbSymbolTableRecord
100
AcDbLayerTableRecord
  2
DEFAULT_3
 70
0
 62
7
  6
PHANTOM
370
-3
390
F
  0
LAYER
  5
1FD
100
AcDbSymbolTableRecord
100
AcDbLayerTableRecord
  2
ALL_FEATURES
 70
0
 62
7
  6
CONTINUOUS
370
-3
390
F
  0
LAYER
  5
1FE
100
AcDbSymbolTableRecord
100
AcDbLayerTableRecord
  2
AXES_FEATURES
 70
0
 62
7
  6
CONTINUOUS
370
-3
390
F
  0
LAYER
  5
1FF
100
AcDbSymbolTableRecord
100
AcDbLayerTableRecord
  2
DEFAULT_COORDINATE_SYSTEM
 70
0
 62
7
  6
CONTINUOUS
370
-3
390
F
  0
LAYER
  5
200
100
AcDbSymbolTableRecord
100
AcDbLayerTableRecord
  2
DEFAULT_DATUM_AXES
 70
0
 62
7
  6
CONTINUOUS
370
-3
390
F
  0
LAYER
  5
201
100
AcDbSymbolTableRecord
100
AcDbLayerTableRecord
  2
DEFAULT_DATUM_PLANES
 70
0
 62
7
  6
CONTINUOUS
370
-3
390
F
  0
LAYER
  5
202
100
AcDbSymbolTableRecord
100
AcDbLayerTableRecord
  2
DIMENSIONS
 70
0
 62
7
  6
CONTINUOUS
370
-3
390
F
  0
ENDTAB
  0
TABLE
  2
STYLE
  5
3
100
AcDbSymbolTable
 70
1
  0
STYLE
  5
11
100
AcDbSymbolTableRecord
100
AcDbTextStyleTableRecord
  2
STANDARD
 70
0
 40
0.0
 41
0.8
 50
0.0
 71
0
 42
0.2
  3
txt
  4

  0
STYLE
  5
203
100
AcDbSymbolTableRecord
100
AcDbTextStyleTableRecord
  2
TEXTSTYLE_1
 70
0
 40
0.0
 41
0.8
 50
0.0
 71
0
 42
0.2
  3
gdt
  4

  0
ENDTAB
  0
TABLE
  2
VIEW
  5
6
100
AcDbSymbolTable
 70
0
  0
ENDTAB
  0
TABLE
  2
UCS
  5
7
100
AcDbSymbolTable
 70
0
  0
ENDTAB
  0
TABLE
  2
APPID
  5
9
100
AcDbSymbolTable
 70
1
  0
APPID
  5
204
100
AcDbSymbolTableRecord
100
AcDbRegAppTableRecord
  2
ACAD
 70
0
  0
ENDTAB
  0
TABLE
  2
BLOCK_RECORD
  5
1
100
AcDbSymbolTable
 70
0
  0
BLOCK_RECORD
  5
205
100
AcDbSymbolTableRecord
100
AcDbBlockTableRecord
  2
*Model_Space
  0
BLOCK_RECORD
  5
206
100
AcDbSymbolTableRecord
100
AcDbBlockTableRecord
  2
*Paper_Space
  0
BLOCK_RECORD
  5
207
100
AcDbSymbolTableRecord
100
AcDbBlockTableRecord
  2
_FILLED
  0
ENDTAB
  0
TABLE
  2
DIMSTYLE
  5
A
100
AcDbSymbolTable
 70
1
100
AcDbDimStyleTable
 71
0
  0
DIMSTYLE
105
208
100
AcDbSymbolTableRecord
100
AcDbDimStyleTableRecord
  2
STANDARD
 70
0
  3

  4

 40
1.0
 41
0.1
 42
0.0625
 43
0.38
 44
0.125
 45
0.0
 46
0.0
 47
0.001
 48
0.001
140
0.08
141
0.09
142
0.0
143
25.4
144
1.0
145
0.0
146
1.0
147
0.09
 71
1.0
 72
0.0
 73
1
 74
1
 75
0
 76
0
 77
0
 78
4
 79
1
170
1
171
2
172
0
173
0
174
0
175
0
176
0
177
0
178
0
270
2
179
3
271
3
272
3
273
2
274
2
275
0
280
0
281
0
282
0
283
1
284
4
285
0
286
0
287
3
288
0
340
11
278
46
341
207
342
207
343
207
344
207
  0
ENDTAB
  0
ENDSEC
  0
SECTION
  2
BLOCKS
  0
BLOCK
  5
20
100
AcDbEntity
  8
0
100
AcDbBlockBegin
  2
*Model_Space
 70
0
 10
0.0
 20
0.0
 30
0.0
  3
*Model_Space
  1

  0
ENDBLK
  5
21
100
AcDbEntity
  8
0
100
AcDbBlockEnd
  0
BLOCK
  5
1C
100
AcDbEntity
  8
0
100
AcDbBlockBegin
  2
*Paper_Space
 70
0
 10
0.0
 20
0.0
 30
0.0
  3
*Paper_Space
  1

  0
ENDBLK
  5
1D
100
AcDbEntity
  8
0
100
AcDbBlockEnd
  0
BLOCK
  5
209
100
AcDbEntity
  8
0
100
AcDbBlockBegin
  2
_FILLED
 70
64
 10
0.0
 20
0.0
  3
_FILLED
  1

  0
SOLID
  5
20A
100
AcDbEntity
  8
0
  6
BYBLOCK
 62
0
100
AcDbTrace
 10
0.0
 20
0.0
 11
-1.0
 21
0.2
 12
-1.0
 22
-0.2
 13
-1.0
 23
-0.2
  0
ENDBLK
  5
20B
100
AcDbEntity
  8
0
  6
BYBLOCK
 62
0
100
AcDbBlockEnd
  0
ENDSEC
  0
SECTION
  2
ENTITIES
  0
LINE
  5
20C
100
AcDbEntity
  8
0
100
AcDbLine
 62
9
  6
CONTINUOUS
 10
9.970819778
 20
9.7466844325
 11
9.9591590456
 21
9.7431473004
  0
LINE
  5
20D
100
AcDbEntity
  8
0
100
AcDbLine
 62
9
  6
CONTINUOUS
 10
9.4797111415
 20
9.2822424627
 11
9.4913718739
 21
9.2857795948
  0
LINE
  5
20E
100
AcDbEntity
  8
0
100
AcDbLine
 62
9
  6
CONTINUOUS
 10
9.4930444748
 20
9.2689091293
 11
9.496581607
 21
9.2805698617
  0
LINE
  5
20F
100
AcDbEntity
  8
0
100
AcDbLine
 62
7
  6
CONTINUOUS
 10
9.2852654597
 20
9.8719231145
 11
9.2852654597
 21
9.1570037806
  0
LINE
  5
210
100
AcDbEntity
  8
0
100
AcDbLine
 62
7
  6
CONTINUOUS
 10
9.3852654597
 20
9.8944634476
 11
9.3852654597
 21
9.1344634476
  0
LINE
  5
211
100
AcDbEntity
  8
0
100
AcDbLine
 62
9
  6
CONTINUOUS
 10
9.9574864447
 20
9.7600177658
 11
9.9539493125
 21
9.7483570334
  0
LINE
  5
212
100
AcDbEntity
  8
0
100
AcDbLine
 62
9
  6
CONTINUOUS
 10
10.1602654597
 20
9.8944634476
 11
10.1602654597
 21
9.1344634476
  0
LINE
  5
213
100
AcDbEntity
  8
0
100
AcDbLine
 62
7
  6
CONTINUOUS
 10
10.2202654597
 20
9.9620634476
 11
10.2202654597
 21
9.0668634476
  0
LINE
  5
214
100
AcDbEntity
  8
0
100
AcDbLine
 62
9
  6
CONTINUOUS
 10
10.2521135562
 20
9.9846031406
 11
10.2521135562
 21
9.0443237545
  0
LINE
  5
215
100
AcDbEntity
  8
0
100
AcDbLine
 62
9
  6
CONTINUOUS
 10
10.2811698508
 20
9.9897446447
 11
10.2811698508
 21
9.0391822504
  0
LINE
  5
216
100
AcDbEntity
  8
0
100
AcDbLine
 62
9
  6
CONTINUOUS
 10
10.3262352687
 20
9.9903270839
 11
10.3262352687
 21
9.0385998112
  0
LINE
  5
217
100
AcDbEntity
  8
0
100
AcDbLine
 62
9
  6
CONTINUOUS
 10
10.3558447915
 20
9.9861063047
 11
10.3558447915
 21
9.0428205904
  0
LINE
  5
218
100
AcDbEntity
  8
0
100
AcDbLine
 62
9
  6
CONTINUOUS
 10
10.3607515965
 20
9.9869548957
 11
10.3607515965
 21
9.0419719995
  0
LINE
  5
219
100
AcDbEntity
  8
0
100
AcDbLine
 62
9
  6
CONTINUOUS
 10
9.4930444748
 20
9.7600177658
 11
9.496581607
 21
9.7483570334
  0
LINE
  5
21A
100
AcDbEntity
  8
0
100
AcDbLine
 62
9
  6
CONTINUOUS
 10
10.6056207239
 20
10.1046034105
 11
10.6056207239
 21
8.9243234846
  0
LINE
  5
21B
100
AcDbEntity
  8
0
100
AcDbLine
 62
9
  6
CONTINUOUS
 10
9.9574864447
 20
9.2689091293
 11
9.9539493125
 21
9.2805698617
  0
LINE
  5
21C
100
AcDbEntity
  8
0
100
AcDbLine
 62
9
  6
CONTINUOUS
 10
10.6152654597
 20
10.1094634476
 11
10.6152654597
 21
8.9194634476
  0
LINE
  5
21D
100
AcDbEntity
  8
0
100
AcDbLine
 62
7
  6
CONTINUOUS
 10
10.7752654597
 20
8.9194634476
 11
10.7752654597
 21
10.1094634476
  0
LINE
  5
21E
100
AcDbEntity
  8
0
100
AcDbLine
 62
9
  6
CONTINUOUS
 10
10.9771612418
 20
8.6217329301
 11
10.9798322327
 21
8.6376642562
  0
LINE
  5
21F
100
AcDbEntity
  8
0
100
AcDbLine
 62
9
  6
CONTINUOUS
 10
12.1418448038
 20
5.0744488701
 11
12.1418403322
 21
5.0744559153
  0
LINE
  5
220
100
AcDbEntity
  8
0
100
AcDbLine
 62
7
  6
CONTINUOUS
 10
12.141844809
 20
5.0744488734
 11
12.148558612
 21
5.0633940172
  0
LINE
  5
221
100
AcDbEntity
  8
0
100
AcDbLine
 62
7
  6
CONTINUOUS
 10
12.148983583
 20
5.0626598025
 11
12.148568021
 21
5.0633777616
  0
LINE
  5
222
100
AcDbEntity
  8
0
100
AcDbLine
 62
9
  6
CONTINUOUS
 10
10.9771612142
 20
10.4071941299
 11
10.9798322894
 21
10.3912626588
  0
LINE
  5
223
100
AcDbEntity
  8
0
100
AcDbLine
 62
7
  6
CONTINUOUS
 10
11.5952654597
 20
9.5144634476
 11
11.5952654597
 21
4.9210015548
  0
LINE
  5
224
100
AcDbEntity
  8
0
100
AcDbLine
 62
7
  6
CONTINUOUS
 10
12.0952654597
 20
9.5144634476
 11
12.0952654597
 21
4.9210015548
  0
LINE
  5
225
100
AcDbEntity
  8
0
100
AcDbLine
 62
9
  6
CONTINUOUS
 10
12.7133697329
 20
10.4071942947
 11
12.7106978395
 21
10.3912632262
  0
LINE
  5
226
100
AcDbEntity
  8
0
100
AcDbLine
 62
9
  6
CONTINUOUS
 10
10.9525347774
 20
8.646359202
 11
10.9684661283
 21
8.6490309646
  0
LINE
  5
227
100
AcDbEntity
  8
0
100
AcDbLine
 62
9
  6
CONTINUOUS
 10
9.970819778
 20
9.2822424627
 11
9.9591590456
 21
9.2857795948
  0
LINE
  5
228
100
AcDbEntity
  8
0
100
AcDbLine
 62
7
  6
CONTINUOUS
 10
11.5419628685
 20
5.0633777099
 11
11.5415473807
 21
5.062659879
  0
LINE
  5
229
100
AcDbEntity
  8
0
100
AcDbLine
 62
7
  6
CONTINUOUS
 10
10.6152654597
 20
8.9194634476
 11
10.7752654597
 21
8.9194634476
  0
LINE
  5
22A
100
AcDbEntity
  8
0
100
AcDbLine
 62
7
  6
CONTINUOUS
 10
10.7752654597
 20
9.0294634476
 11
11.0697487657
 21
9.0294634476
  0
LINE
  5
22B
100
AcDbEntity
  8
0
100
AcDbLine
 62
7
  6
CONTINUOUS
 10
9.3852654597
 20
9.1344634476
 11
10.1602654597
 21
9.1344634476
  0
LINE
  5
22C
100
AcDbEntity
  8
0
100
AcDbLine
 62
9
  6
CONTINUOUS
 10
12.7379961421
 20
8.646359202
 11
12.7220649419
 21
8.6490306406
  0
LINE
  5
22D
100
AcDbEntity
  8
0
100
AcDbLine
 62
7
  6
CONTINUOUS
 10
11.5419722775
 20
5.0633939655
 11
11.5486859166
 21
5.0744485678
  0
LINE
  5
22E
100
AcDbEntity
  8
0
100
AcDbLine
 62
9
  6
CONTINUOUS
 10
11.5486905874
 20
5.0744559153
 11
11.5486859218
 21
5.0744485645
  0
LINE
  5
22F
100
AcDbEntity
  8
0
100
AcDbLine
 62
9
  6
CONTINUOUS
 10
9.4797111415
 20
9.7466844325
 11
9.4913718739
 21
9.7431473004
  0
LINE
  5
230
100
AcDbEntity
  8
0
100
AcDbLine
 62
9
  6
CONTINUOUS
 10
12.7133697053
 20
8.6217327652
 11
12.7106986301
 21
8.6376642363
  0
LINE
  5
231
100
AcDbEntity
  8
0
100
AcDbLine
 62
7
  6
CONTINUOUS
 10
9.3852654597
 20
9.8944634476
 11
10.1602654597
 21
9.8944634476
  0
LINE
  5
232
100
AcDbEntity
  8
0
100
AcDbLine
 62
7
  6
CONTINUOUS
 10
10.7752654597
 20
9.9994634476
 11
11.0697487657
 21
9.9994634476
  0
LINE
  5
233
100
AcDbEntity
  8
0
100
AcDbLine
 62
9
  6
CONTINUOUS
 10
12.7379961421
 20
10.3825676931
 11
12.7220645537
 21
10.3798973171
  0
LINE
  5
234
100
AcDbEntity
  8
0
100
AcDbLine
 62
7
  6
CONTINUOUS
 10
10.6152654597
 20
10.1094634476
 11
10.7752654597
 21
10.1094634476
  0
LINE
  5
235
100
AcDbEntity
  8
0
100
AcDbLine
 62
9
  6
CONTINUOUS
 10
10.9525347774
 20
10.3825676931
 11
10.9684659776
 21
10.3798962545
  0
ARC
  5
236
100
AcDbEntity
  8
0
100
AcDbCircle
 62
9
  6
CONTINUOUS
 10
-3.0855925391
 20
6.8143230976
 40
14.2246386829
100
AcDbArc
 50
7.6443181307
 51
8.0106870021
  0
ARC
  5
237
100
AcDbEntity
  8
0
100
AcDbCircle
 62
9
  6
CONTINUOUS
 10
9.1415363623
 20
-5.4422003705
 40
14.25069281
100
AcDbArc
 50
81.989491296
 51
82.3551850829
  0
ARC
  5
238
100
AcDbEntity
  8
0
100
AcDbCircle
 62
9
  6
CONTINUOUS
 10
4.4025290328
 20
5.3424831627
 40
6.7398642809
100
AcDbArc
 50
39.9574564077
 51
40.7003207963
  0
ARC
  5
239
100
AcDbEntity
  8
0
100
AcDbCircle
 62
9
  6
CONTINUOUS
 10
5.5545545237
 20
4.1932219863
 40
6.7379031155
100
AcDbArc
 50
49.2995725802
 51
50.0426531888
  0
ARC
  5
23A
100
AcDbEntity
  8
0
100
AcDbCircle
 62
9
  6
CONTINUOUS
 10
4.4707251702
 20
7.8542935278
 40
6.6188918036
100
AcDbArc
 50
7.3761268928
 51
8.1646334655
  0
ARC
  5
23B
100
AcDbEntity
  8
0
100
AcDbCircle
 62
9
  6
CONTINUOUS
 10
7.5727952927
 20
9.5084096936
 40
5.1467013784
100
AcDbArc
 50
3.3698743705
 51
8.1117784344
  0
ARC
  5
23C
100
AcDbEntity
  8
0
100
AcDbCircle
 62
9
  6
CONTINUOUS
 10
7.2735825197
 20
8.2022308901
 40
2.7005578596
100
AcDbArc
 50
34.3882734574
 51
34.7915092366
  0
ARC
  5
23D
100
AcDbEntity
  8
0
100
AcDbCircle
 62
9
  6
CONTINUOUS
 10
10.1828549306
 20
2.1238621043
 40
6.635108269
100
AcDbArc
 50
81.8359269222
 51
82.6224979506
  0
ARC
  5
23E
100
AcDbEntity
  8
0
100
AcDbCircle
 62
7
  6
CONTINUOUS
 10
11.8452654597
 20
5.2294634476
 40
5.25
100
AcDbArc
 50
80.4822474196
 51
99.5177525804
  0
ARC
  5
23F
100
AcDbEntity
  8
0
100
AcDbCircle
 62
9
  6
CONTINUOUS
 10
11.8452654597
 20
5.2294634476
 40
5.2338461538
100
AcDbArc
 50
80.4822548546
 51
99.5177527473
  0
ARC
  5
240
100
AcDbEntity
  8
0
100
AcDbCircle
 62
7
  6
CONTINUOUS
 10
11.8452654597
 20
5.2294634476
 40
5.18
100
AcDbArc
 50
82.0345212979
 51
87.7043944699
  0
ARC
  5
241
100
AcDbEntity
  8
0
100
AcDbCircle
 62
7
  6
CONTINUOUS
 10
11.8452654597
 20
5.2294634476
 40
5.18
100
AcDbArc
 50
92.2974514375
 51
97.9654787021
  0
ARC
  5
242
100
AcDbEntity
  8
0
100
AcDbCircle
 62
9
  6
CONTINUOUS
 10
11.8513193406
 20
5.2419921157
 40
5.1467025492
100
AcDbArc
 50
93.3698765358
 51
98.1117575632
  0
ARC
  5
243
100
AcDbEntity
  8
0
100
AcDbCircle
 62
9
  6
CONTINUOUS
 10
11.8392118036
 20
5.2419944081
 40
5.146700248
100
AcDbArc
 50
81.888241313
 51
86.6301240187
  0
ARC
  5
244
100
AcDbEntity
  8
0
100
AcDbCircle
 62
7
  6
CONTINUOUS
 10
11.8272352576
 20
4.8973985339
 40
0.330055222
100
AcDbArc
 50
134.667243614
 51
147.5578523548
  0
ARC
  5
245
100
AcDbEntity
  8
0
100
AcDbCircle
 62
7
  6
CONTINUOUS
 10
11.8188853664
 20
4.9026017549
 40
0.3202108022
100
AcDbArc
 50
147.6796580631
 51
149.8613613073
  0
ARC
  5
246
100
AcDbEntity
  8
0
100
AcDbCircle
 62
9
  6
CONTINUOUS
 10
11.818883823
 20
4.9029514347
 40
0.3200283867
100
AcDbArc
 50
147.6776491395
 51
149.9178006328
  0
ARC
  5
247
100
AcDbEntity
  8
0
100
AcDbCircle
 62
9
  6
CONTINUOUS
 10
11.8172081243
 20
4.9039268873
 40
0.3180894457
100
AcDbArc
 50
150.0680424014
 51
152.0026637387
  0
ARC
  5
248
100
AcDbEntity
  8
0
100
AcDbCircle
 62
9
  6
CONTINUOUS
 10
11.8161140199
 20
4.9045172483
 40
0.3168462515
100
AcDbArc
 50
152.0040497529
 51
152.308376868
  0
ARC
  5
249
100
AcDbEntity
  8
0
100
AcDbCircle
 62
9
  6
CONTINUOUS
 10
11.8150151888
 20
4.9050854607
 40
0.3156092234
100
AcDbArc
 50
152.3070134252
 51
156.1729740019
  0
ARC
  5
24A
100
AcDbEntity
  8
0
100
AcDbCircle
 62
7
  6
CONTINUOUS
 10
11.8119445854
 20
4.9042101942
 40
0.3131065059
100
AcDbArc
 50
179.2568738994
 51
179.9999498816
  0
ARC
  5
24B
100
AcDbEntity
  8
0
100
AcDbCircle
 62
9
  6
CONTINUOUS
 10
11.8075402072
 20
4.9079679497
 40
0.3076016131
100
AcDbArc
 50
156.1016526014
 51
179.9509060272
  0
ARC
  5
24C
100
AcDbEntity
  8
0
100
AcDbCircle
 62
9
  6
CONTINUOUS
 10
11.8044165874
 20
4.9078872478
 40
0.3046511254
100
AcDbArc
 50
179.9987360771
 51
180.6835300549
  0
ARC
  5
24D
100
AcDbEntity
  8
0
100
AcDbCircle
 62
9
  6
CONTINUOUS
 10
11.0382024028
 20
7.0617543658
 40
2.7018024967
100
AcDbArc
 50
124.3883098602
 51
124.7913602503
  0
ARC
  5
24E
100
AcDbEntity
  8
0
100
AcDbCircle
 62
9
  6
CONTINUOUS
 10
8.4161510623
 20
7.0673005377
 40
2.6950666658
100
AcDbArc
 50
55.2081001931
 51
55.6121579376
  0
ARC
  5
24F
100
AcDbEntity
  8
0
100
AcDbCircle
 62
7
  6
CONTINUOUS
 10
9.7252654597
 20
8.9944634476
 40
0.8
100
AcDbArc
 50
73.1255057021
 51
106.8744942979
  0
ARC
  5
250
100
AcDbEntity
  8
0
100
AcDbCircle
 62
9
  6
CONTINUOUS
 10
9.7252654597
 20
8.9944634476
 40
0.7878145996
100
AcDbArc
 50
73.1255077407
 51
106.8744942979
  0
ARC
  5
251
100
AcDbEntity
  8
0
100
AcDbCircle
 62
9
  6
CONTINUOUS
 10
9.7252654597
 20
8.9944634476
 40
0.7730384663
100
AcDbArc
 50
74.0031486957
 51
105.9968513043
  0
ARC
  5
252
100
AcDbEntity
  8
0
100
AcDbCircle
 62
9
  6
CONTINUOUS
 10
9.7252654597
 20
8.9944634476
 40
0.694349204
100
AcDbArc
 50
76.9753274976
 51
103.0246719638
  0
ARC
  5
253
100
AcDbEntity
  8
0
100
AcDbCircle
 62
7
  6
CONTINUOUS
 10
10.3717358799
 20
8.7511793835
 40
0.291
100
AcDbArc
 50
36.5124119026
 51
92.1632392682
  0
ARC
  5
254
100
AcDbEntity
  8
0
100
AcDbCircle
 62
7
  6
CONTINUOUS
 10
10.1602654597
 20
9.0744634476
 40
0.06
100
AcDbArc
 50
0.0
 51
90.0
  0
ARC
  5
255
100
AcDbEntity
  8
0
100
AcDbCircle
 62
9
  6
CONTINUOUS
 10
9.9166048807
 20
9.3231240266
 40
0.0566168132
100
AcDbArc
 50
311.2693491969
 51
318.730650803
  0
ARC
  5
256
100
AcDbEntity
  8
0
100
AcDbCircle
 62
9
  6
CONTINUOUS
 10
9.5339260388
 20
9.3231240266
 40
0.0566168132
100
AcDbArc
 50
221.2693491969
 51
228.7306508031
  0
ARC
  5
257
100
AcDbEntity
  8
0
100
AcDbCircle
 62
7
  6
CONTINUOUS
 10
9.3378057928
 20
9.1570037806
 40
0.0525403331
100
AcDbArc
 50
180.0
 51
334.5952455743
  0
ARC
  5
258
100
AcDbEntity
  8
0
100
AcDbCircle
 62
7
  6
CONTINUOUS
 10
10.3040653763
 20
9.0669634476
 40
0.036
100
AcDbArc
 50
230.5067866396
 51
308.0122795444
  0
ARC
  5
259
100
AcDbEntity
  8
0
100
AcDbCircle
 62
7
  6
CONTINUOUS
 10
10.9821218099
 20
8.6513197977
 40
0.03
100
AcDbArc
 50
189.5177525804
 51
260.4822474196
  0
ARC
  5
25A
100
AcDbEntity
  8
0
100
AcDbCircle
 62
7
  6
CONTINUOUS
 10
10.2620902463
 20
9.0160312528
 40
0.03
100
AcDbArc
 50
50.5067866393
 51
109.4240083989
  0
ARC
  5
25B
100
AcDbEntity
  8
0
100
AcDbCircle
 62
7
  6
CONTINUOUS
 10
10.3447101791
 20
9.0149634476
 40
0.03
100
AcDbArc
 50
68.2132107017
 51
128.0122795444
  0
ARC
  5
25C
100
AcDbEntity
  8
0
100
AcDbCircle
 62
7
  6
CONTINUOUS
 10
10.2441654597
 20
9.0668634476
 40
0.0239
100
AcDbArc
 50
180.0
 51
289.4240083987
  0
ARC
  5
25D
100
AcDbEntity
  8
0
100
AcDbCircle
 62
7
  6
CONTINUOUS
 10
9.95168092
 20
9.2880479873
 40
0.02
100
AcDbArc
 50
286.8744942979
 51
343.1255057021
  0
ARC
  5
25E
100
AcDbEntity
  8
0
100
AcDbCircle
 62
7
  6
CONTINUOUS
 10
9.4988499995
 20
9.2880479873
 40
0.02
100
AcDbArc
 50
196.8744942979
 51
253.125505702
  0
ARC
  5
25F
100
AcDbEntity
  8
0
100
AcDbCircle
 62
7
  6
CONTINUOUS
 10
10.6152654597
 20
8.9314634476
 40
0.012
100
AcDbArc
 50
216.5124119026
 51
270.0
  0
ARC
  5
260
100
AcDbEntity
  8
0
100
AcDbCircle
 62
7
  6
CONTINUOUS
 10
10.3602986364
 20
9.0539634476
 40
0.012
100
AcDbArc
 50
248.2132107017
 51
272.1632392682
  0
ARC
  5
261
100
AcDbEntity
  8
0
100
AcDbCircle
 62
9
  6
CONTINUOUS
 10
-3.085669787
 20
12.2146144003
 40
14.2247166546
100
AcDbArc
 50
351.9893140685
 51
352.3556811169
  0
ARC
  5
262
100
AcDbEntity
  8
0
100
AcDbCircle
 62
9
  6
CONTINUOUS
 10
4.4697891478
 20
11.1747608649
 40
6.6198364456
100
AcDbArc
 50
351.8354247555
 51
352.6238192425
  0
ARC
  5
263
100
AcDbEntity
  8
0
100
AcDbCircle
 62
7
  6
CONTINUOUS
 10
7.5602654597
 20
9.5144634476
 40
5.25
100
AcDbArc
 50
350.4822474196
 51
9.5177525804
  0
ARC
  5
264
100
AcDbEntity
  8
0
100
AcDbCircle
 62
9
  6
CONTINUOUS
 10
7.5602654597
 20
9.5144634476
 40
5.2338461538
100
AcDbArc
 50
350.4822471187
 51
9.5177604782
  0
ARC
  5
265
100
AcDbEntity
  8
0
100
AcDbCircle
 62
7
  6
CONTINUOUS
 10
7.5602654597
 20
9.5144634476
 40
5.18
100
AcDbArc
 50
352.0345010231
 51
357.7036208044
  0
ARC
  5
266
100
AcDbEntity
  8
0
100
AcDbCircle
 62
7
  6
CONTINUOUS
 10
7.5602654597
 20
9.5144634476
 40
5.18
100
AcDbArc
 50
2.2972506269
 51
7.9654989769
  0
ARC
  5
267
100
AcDbEntity
  8
0
100
AcDbCircle
 62
9
  6
CONTINUOUS
 10
7.5727934222
 20
9.5205173997
 40
5.1467032581
100
AcDbArc
 50
351.8882223201
 51
356.6301382875
  0
ARC
  5
268
100
AcDbEntity
  8
0
100
AcDbCircle
 62
9
  6
CONTINUOUS
 10
7.2781025459
 20
10.8235778392
 40
2.6950666658
100
AcDbArc
 50
325.2081003416
 51
325.6121580862
  0
ARC
  5
269
100
AcDbEntity
  8
0
100
AcDbCircle
 62
9
  6
CONTINUOUS
 10
5.5532851744
 20
14.8371998743
 40
6.739864281
100
AcDbArc
 50
309.9574564117
 51
310.7003208003
  0
ARC
  5
26A
100
AcDbEntity
  8
0
100
AcDbCircle
 62
9
  6
CONTINUOUS
 10
4.404024004
 20
13.6851743901
 40
6.7379031156
100
AcDbArc
 50
319.2995725078
 51
320.0426531164
  0
ARC
  5
26B
100
AcDbEntity
  8
0
100
AcDbCircle
 62
7
  6
CONTINUOUS
 10
9.2052654597
 20
9.5144634476
 40
0.8
100
AcDbArc
 50
343.1255057021
 51
16.8744942979
  0
ARC
  5
26C
100
AcDbEntity
  8
0
100
AcDbCircle
 62
7
  6
CONTINUOUS
 10
9.7252654597
 20
10.0344634476
 40
0.8
100
AcDbArc
 50
253.1255057021
 51
286.8744942979
  0
ARC
  5
26D
100
AcDbEntity
  8
0
100
AcDbCircle
 62
9
  6
CONTINUOUS
 10
9.2052654597
 20
9.5144634476
 40
0.7878145996
100
AcDbArc
 50
343.1255057021
 51
16.8744942979
  0
ARC
  5
26E
100
AcDbEntity
  8
0
100
AcDbCircle
 62
9
  6
CONTINUOUS
 10
9.7252654597
 20
10.0344634476
 40
0.7878145996
100
AcDbArc
 50
253.1255057021
 51
286.8744942979
  0
ARC
  5
26F
100
AcDbEntity
  8
0
100
AcDbCircle
 62
9
  6
CONTINUOUS
 10
9.2052654597
 20
9.5144634476
 40
0.7730384663
100
AcDbArc
 50
344.0031486957
 51
15.9968513043
  0
ARC
  5
270
100
AcDbEntity
  8
0
100
AcDbCircle
 62
9
  6
CONTINUOUS
 10
9.7252654597
 20
10.0344634476
 40
0.7730384663
100
AcDbArc
 50
254.0031486957
 51
285.9968513043
  0
ARC
  5
271
100
AcDbEntity
  8
0
100
AcDbCircle
 62
9
  6
CONTINUOUS
 10
9.7252654597
 20
10.0344634476
 40
0.694349204
100
AcDbArc
 50
256.9753274976
 51
283.0246719638
  0
ARC
  5
272
100
AcDbEntity
  8
0
100
AcDbCircle
 62
9
  6
CONTINUOUS
 10
9.2052654597
 20
9.5144634476
 40
0.694349204
100
AcDbArc
 50
346.9753278663
 51
13.0246716099
  0
ARC
  5
273
100
AcDbEntity
  8
0
100
AcDbCircle
 62
9
  6
CONTINUOUS
 10
9.5339260388
 20
9.7058028685
 40
0.0566168133
100
AcDbArc
 50
131.2693492027
 51
138.7306507973
  0
ARC
  5
274
100
AcDbEntity
  8
0
100
AcDbCircle
 62
9
  6
CONTINUOUS
 10
9.9166048807
 20
9.7058028685
 40
0.0566168133
100
AcDbArc
 50
41.2693492026
 51
48.7306507974
  0
ARC
  5
275
100
AcDbEntity
  8
0
100
AcDbCircle
 62
7
  6
CONTINUOUS
 10
9.3378057928
 20
9.8719231145
 40
0.0525403331
100
AcDbArc
 50
25.4047544257
 51
180.0
  0
ARC
  5
276
100
AcDbEntity
  8
0
100
AcDbCircle
 62
7
  6
CONTINUOUS
 10
9.4988499995
 20
9.7408789078
 40
0.02
100
AcDbArc
 50
106.8744942979
 51
163.1255057021
  0
ARC
  5
277
100
AcDbEntity
  8
0
100
AcDbCircle
 62
7
  6
CONTINUOUS
 10
9.95168092
 20
9.7408789078
 40
0.02
100
AcDbArc
 50
16.8744942979
 51
73.1255057021
  0
ARC
  5
278
100
AcDbEntity
  8
0
100
AcDbCircle
 62
9
  6
CONTINUOUS
 10
8.4152260669
 20
11.9629720398
 40
2.6966995713
100
AcDbArc
 50
304.3879118201
 51
304.7917250227
  0
ARC
  5
279
100
AcDbEntity
  8
0
100
AcDbCircle
 62
7
  6
CONTINUOUS
 10
10.2452654597
 20
9.5144634476
 40
0.8
100
AcDbArc
 50
163.1255057021
 51
196.8744942979
  0
ARC
  5
27A
100
AcDbEntity
  8
0
100
AcDbCircle
 62
9
  6
CONTINUOUS
 10
10.2452654597
 20
9.5144634476
 40
0.7878145996
100
AcDbArc
 50
163.1255077407
 51
196.8744942979
  0
ARC
  5
27B
100
AcDbEntity
  8
0
100
AcDbCircle
 62
9
  6
CONTINUOUS
 10
10.2452654597
 20
9.5144634476
 40
0.7730384663
100
AcDbArc
 50
164.0031486957
 51
195.9968513043
  0
ARC
  5
27C
100
AcDbEntity
  8
0
100
AcDbCircle
 62
9
  6
CONTINUOUS
 10
10.2452654597
 20
9.5144634476
 40
0.694349204
100
AcDbArc
 50
166.9753278663
 51
193.0246716099
  0
ARC
  5
27D
100
AcDbEntity
  8
0
100
AcDbCircle
 62
7
  6
CONTINUOUS
 10
10.3717358799
 20
10.2777475116
 40
0.291
100
AcDbArc
 50
267.8367607318
 51
323.4875880974
  0
ARC
  5
27E
100
AcDbEntity
  8
0
100
AcDbCircle
 62
7
  6
CONTINUOUS
 10
10.1602654597
 20
9.9544634476
 40
0.06
100
AcDbArc
 50
270.0
 51
360.0
  0
ARC
  5
27F
100
AcDbEntity
  8
0
100
AcDbCircle
 62
7
  6
CONTINUOUS
 10
10.3040653763
 20
9.9619634476
 40
0.036
100
AcDbArc
 50
51.9877204556
 51
129.4932133604
  0
ARC
  5
280
100
AcDbEntity
  8
0
100
AcDbCircle
 62
7
  6
CONTINUOUS
 10
10.9821218099
 20
10.3776070974
 40
0.03
100
AcDbArc
 50
99.5177525804
 51
170.4822474196
  0
ARC
  5
281
100
AcDbEntity
  8
0
100
AcDbCircle
 62
7
  6
CONTINUOUS
 10
10.2620902463
 20
10.0128956424
 40
0.03
100
AcDbArc
 50
250.5759916011
 51
309.4932133607
  0
ARC
  5
282
100
AcDbEntity
  8
0
100
AcDbCircle
 62
7
  6
CONTINUOUS
 10
10.3447101791
 20
10.0139634476
 40
0.03
100
AcDbArc
 50
231.9877204556
 51
291.7867892983
  0
ARC
  5
283
100
AcDbEntity
  8
0
100
AcDbCircle
 62
7
  6
CONTINUOUS
 10
10.2441654597
 20
9.9620634476
 40
0.0239
100
AcDbArc
 50
70.5759916013
 51
180.0
  0
ARC
  5
284
100
AcDbEntity
  8
0
100
AcDbCircle
 62
7
  6
CONTINUOUS
 10
10.6152654597
 20
10.0974634476
 40
0.012
100
AcDbArc
 50
90.0
 51
143.4875880974
  0
ARC
  5
285
100
AcDbEntity
  8
0
100
AcDbCircle
 62
7
  6
CONTINUOUS
 10
10.3602986364
 20
9.9749634476
 40
0.012
100
AcDbArc
 50
87.8367607318
 51
111.7867892983
  0
ARC
  5
286
100
AcDbEntity
  8
0
100
AcDbCircle
 62
7
  6
CONTINUOUS
 10
11.8452654597
 20
9.5144634476
 40
0.915
100
AcDbArc
 50
285.8633462386
 51
254.1366537614
  0
ARC
  5
287
100
AcDbEntity
  8
0
100
AcDbCircle
 62
9
  6
CONTINUOUS
 10
11.8452654597
 20
9.5144634476
 40
0.9008790903
100
AcDbArc
 50
286.1181203939
 51
253.8818796061
  0
ARC
  5
288
100
AcDbEntity
  8
0
100
AcDbCircle
 62
9
  6
CONTINUOUS
 10
11.8452654597
 20
9.5144634476
 40
0.713787791
100
AcDbArc
 50
290.5057264335
 51
249.4942735664
  0
ARC
  5
289
100
AcDbEntity
  8
0
100
AcDbCircle
 62
9
  6
CONTINUOUS
 10
11.8452654597
 20
9.5144634476
 40
0.6964165168
100
AcDbArc
 50
291.0486615533
 51
248.9513384468
  0
ARC
  5
28A
100
AcDbEntity
  8
0
100
AcDbCircle
 62
9
  6
CONTINUOUS
 10
11.8452654597
 20
9.5144634476
 40
0.5668160424
100
AcDbArc
 50
296.1853041108
 51
243.8146958891
  0
ARC
  5
28B
100
AcDbEntity
  8
0
100
AcDbCircle
 62
7
  6
CONTINUOUS
 10
11.8452654597
 20
9.5144634476
 40
0.547
100
AcDbArc
 50
297.1992407551
 51
242.8007592449
  0
ARC
  5
28C
100
AcDbEntity
  8
0
100
AcDbCircle
 62
9
  6
CONTINUOUS
 10
11.8452654597
 20
9.5144634476
 40
0.5405406455
100
AcDbArc
 50
297.5660692739
 51
242.4339307231
  0
ARC
  5
28D
100
AcDbEntity
  8
0
100
AcDbCircle
 62
7
  6
CONTINUOUS
 10
11.8452654597
 20
9.5144634476
 40
0.539
100
AcDbArc
 50
297.6382970274
 51
242.3617029726
  0
ARC
  5
28E
100
AcDbEntity
  8
0
100
AcDbCircle
 62
7
  6
CONTINUOUS
 10
11.8452654597
 20
9.5144634476
 40
0.505
100
AcDbArc
 50
299.6787839862
 51
240.3212160138
  0
ARC
  5
28F
100
AcDbEntity
  8
0
100
AcDbCircle
 62
7
  6
CONTINUOUS
 10
11.8452654597
 20
9.5144634476
 40
0.25
100
AcDbArc
 50
0.0
 51
180.0
  0
ARC
  5
290
100
AcDbEntity
  8
0
100
AcDbCircle
 62
9
  6
CONTINUOUS
 10
11.0343798549
 20
11.9616263589
 40
2.6950666657
100
AcDbArc
 50
235.208100251
 51
235.6121579956
  0
ARC
  5
291
100
AcDbEntity
  8
0
100
AcDbCircle
 62
9
  6
CONTINUOUS
 10
10.1828748311
 20
16.9049466033
 40
6.6349884551
100
AcDbArc
 50
277.3774627588
 51
278.164063759
  0
ARC
  5
292
100
AcDbEntity
  8
0
100
AcDbCircle
 62
7
  6
CONTINUOUS
 10
11.8452654597
 20
13.7994634476
 40
5.25
100
AcDbArc
 50
272.7296645494
 51
279.5177525804
  0
ARC
  5
293
100
AcDbEntity
  8
0
100
AcDbCircle
 62
7
  6
CONTINUOUS
 10
11.8452654597
 20
13.7994634476
 40
5.25
100
AcDbArc
 50
260.4822474196
 51
267.2703354506
  0
ARC
  5
294
100
AcDbEntity
  8
0
100
AcDbCircle
 62
9
  6
CONTINUOUS
 10
11.8452654597
 20
13.7994634476
 40
5.2338461538
100
AcDbArc
 50
272.7380916461
 51
279.5177527473
  0
ARC
  5
295
100
AcDbEntity
  8
0
100
AcDbCircle
 62
9
  6
CONTINUOUS
 10
11.8452654597
 20
13.7994634476
 40
5.2338461538
100
AcDbArc
 50
260.4822395218
 51
267.2619083498
  0
ARC
  5
296
100
AcDbEntity
  8
0
100
AcDbCircle
 62
7
  6
CONTINUOUS
 10
11.8452654597
 20
13.7994634476
 40
5.18
100
AcDbArc
 50
272.7648015975
 51
277.9654989769
  0
ARC
  5
297
100
AcDbEntity
  8
0
100
AcDbCircle
 62
7
  6
CONTINUOUS
 10
11.8452654597
 20
13.7994634476
 40
5.18
100
AcDbArc
 50
262.0345010231
 51
267.2352059233
  0
ARC
  5
298
100
AcDbEntity
  8
0
100
AcDbCircle
 62
9
  6
CONTINUOUS
 10
11.8392115609
 20
13.7869349854
 40
5.1467027559
100
AcDbArc
 50
273.3698766623
 51
278.1117778782
  0
ARC
  5
299
100
AcDbEntity
  8
0
100
AcDbCircle
 62
9
  6
CONTINUOUS
 10
11.8513191339
 20
13.7869326936
 40
5.1467004553
100
AcDbArc
 50
261.8882209981
 51
266.6301238904
  0
ARC
  5
29A
100
AcDbEntity
  8
0
100
AcDbCircle
 62
9
  6
CONTINUOUS
 10
9.1415449183
 20
24.4711128219
 40
14.2506773163
100
AcDbArc
 50
277.6447885128
 51
278.010490102
  0
ARC
  5
29B
100
AcDbEntity
  8
0
100
AcDbCircle
 62
9
  6
CONTINUOUS
 10
14.5489971601
 20
-5.4422192528
 40
14.2507118707
100
AcDbArc
 50
97.6448153149
 51
98.0105084879
  0
ARC
  5
29C
100
AcDbEntity
  8
0
100
AcDbCircle
 62
9
  6
CONTINUOUS
 10
26.7762342591
 20
6.814301314
 40
14.2247514366
100
AcDbArc
 50
171.9892956894
 51
172.3556542991
  0
ARC
  5
29D
100
AcDbEntity
  8
0
100
AcDbCircle
 62
9
  6
CONTINUOUS
 10
13.8972457446
 20
4.1917270205
 40
6.7398642809
100
AcDbArc
 50
129.9574564074
 51
130.700320796
  0
ARC
  5
29E
100
AcDbEntity
  8
0
100
AcDbCircle
 62
9
  6
CONTINUOUS
 10
15.0465069207
 20
5.343752511
 40
6.7379031157
100
AcDbArc
 50
139.299572575
 51
140.0426531836
  0
ARC
  5
29F
100
AcDbEntity
  8
0
100
AcDbCircle
 62
9
  6
CONTINUOUS
 10
13.5076612093
 20
2.123972052
 40
6.6349973367
100
AcDbArc
 50
97.377497826
 51
98.1640815722
  0
ARC
  5
2A0
100
AcDbEntity
  8
0
100
AcDbCircle
 62
9
  6
CONTINUOUS
 10
19.2207485777
 20
7.8541611153
 40
6.6198438786
100
AcDbArc
 50
171.8354069047
 51
172.6237842679
  0
ARC
  5
2A1
100
AcDbEntity
  8
0
100
AcDbCircle
 62
9
  6
CONTINUOUS
 10
16.1432476048
 20
9.5053331151
 40
5.1723922501
100
AcDbArc
 50
171.8943794094
 51
174.5178768061
  0
ARC
  5
2A2
100
AcDbEntity
  8
0
100
AcDbCircle
 62
9
  6
CONTINUOUS
 10
12.1724283727
 20
8.2053490549
 40
2.6950666657
100
AcDbArc
 50
145.2081003149
 51
145.6121580595
  0
ARC
  5
2A3
100
AcDbEntity
  8
0
100
AcDbCircle
 62
7
  6
CONTINUOUS
 10
11.8632955018
 20
4.8973984156
 40
0.3300554207
100
AcDbArc
 50
32.4421500704
 51
45.3331760221
  0
ARC
  5
2A4
100
AcDbEntity
  8
0
100
AcDbCircle
 62
9
  6
CONTINUOUS
 10
11.8718998202
 20
4.9031045035
 40
0.3197329786
100
AcDbArc
 50
30.0811749792
 51
32.3234185776
  0
ARC
  5
2A5
100
AcDbEntity
  8
0
100
AcDbCircle
 62
9
  6
CONTINUOUS
 10
11.8735797874
 20
4.9040690991
 40
0.3177957719
100
AcDbArc
 50
28.0174482022
 51
29.9328409048
  0
ARC
  5
2A6
100
AcDbEntity
  8
0
100
AcDbCircle
 62
9
  6
CONTINUOUS
 10
11.8744116142
 20
4.9045144717
 40
0.3168522219
100
AcDbArc
 50
27.6806493644
 51
28.0170080211
  0
ARC
  5
2A7
100
AcDbEntity
  8
0
100
AcDbCircle
 62
9
  6
CONTINUOUS
 10
11.875934074
 20
4.9052871327
 40
0.3151450733
100
AcDbArc
 50
23.8743306953
 51
27.6848341599
  0
ARC
  5
2A8
100
AcDbEntity
  8
0
100
AcDbCircle
 62
7
  6
CONTINUOUS
 10
11.8785863367
 20
4.9042101942
 40
0.3131065033
100
AcDbArc
 50
0.0000501272
 51
0.7431248818
  0
ARC
  5
2A9
100
AcDbEntity
  8
0
100
AcDbCircle
 62
9
  6
CONTINUOUS
 10
11.8861143321
 20
4.9078872478
 40
0.3046511254
100
AcDbArc
 50
359.3164699451
 51
0.0012639229
  0
ARC
  5
2AA
100
AcDbEntity
  8
0
100
AcDbCircle
 62
7
  6
CONTINUOUS
 10
12.7084091096
 20
8.6513197977
 40
0.03
100
AcDbArc
 50
279.5177525804
 51
350.4822474196
  0
ARC
  5
2AB
100
AcDbEntity
  8
0
100
AcDbCircle
 62
9
  6
CONTINUOUS
 10
26.8019412503
 20
12.2181941904
 40
14.2507048949
100
AcDbArc
 50
187.6448149802
 51
188.0105085468
  0
ARC
  5
2AC
100
AcDbEntity
  8
0
100
AcDbCircle
 62
9
  6
CONTINUOUS
 10
14.5454180626
 20
24.4454105848
 40
14.2247286591
100
AcDbArc
 50
261.9893141609
 51
262.3556807915
  0
ARC
  5
2AD
100
AcDbEntity
  8
0
100
AcDbCircle
 62
9
  6
CONTINUOUS
 10
15.0480018817
 20
13.6864437385
 40
6.739864281
100
AcDbArc
 50
219.9574564744
 51
220.700320863
  0
ARC
  5
2AE
100
AcDbEntity
  8
0
100
AcDbCircle
 62
9
  6
CONTINUOUS
 10
13.8959763958
 20
14.8357049088
 40
6.7379031156
100
AcDbArc
 50
229.2995725801
 51
230.0426531887
  0
ARC
  5
2AF
100
AcDbEntity
  8
0
100
AcDbCircle
 62
9
  6
CONTINUOUS
 10
19.2357547083
 20
11.1768588996
 40
6.6349951692
100
AcDbArc
 50
187.377497191
 51
188.1640816625
  0
ARC
  5
2B0
100
AcDbEntity
  8
0
100
AcDbCircle
 62
9
  6
CONTINUOUS
 10
13.5055628779
 20
16.8899397847
 40
6.6198364705
100
AcDbArc
 50
261.8354247799
 51
262.6238187948
  0
ARC
  5
2B1
100
AcDbEntity
  8
0
100
AcDbCircle
 62
7
  6
CONTINUOUS
 10
16.1302654597
 20
9.5144634476
 40
5.25
100
AcDbArc
 50
185.3006214015
 51
189.5177525804
  0
ARC
  5
2B2
100
AcDbEntity
  8
0
100
AcDbCircle
 62
7
  6
CONTINUOUS
 10
16.1302654597
 20
9.5144634476
 40
5.25
100
AcDbArc
 50
170.4822474196
 51
174.6993785985
  0
ARC
  5
2B3
100
AcDbEntity
  8
0
100
AcDbCircle
 62
9
  6
CONTINUOUS
 10
16.1302654597
 20
9.5144634476
 40
5.2338461538
100
AcDbArc
 50
185.3170595761
 51
189.5177451454
  0
ARC
  5
2B4
100
AcDbEntity
  8
0
100
AcDbCircle
 62
9
  6
CONTINUOUS
 10
16.1302654597
 20
9.5144634476
 40
5.2338461538
100
AcDbArc
 50
170.4822471187
 51
174.6829404384
  0
ARC
  5
2B5
100
AcDbEntity
  8
0
100
AcDbCircle
 62
7
  6
CONTINUOUS
 10
16.1302654597
 20
9.5144634476
 40
5.18
100
AcDbArc
 50
172.0345212979
 51
174.6341860603
  0
ARC
  5
2B6
100
AcDbEntity
  8
0
100
AcDbCircle
 62
7
  6
CONTINUOUS
 10
16.1302654597
 20
9.5144634476
 40
5.18
100
AcDbArc
 50
185.3658136535
 51
187.9654787021
  0
ARC
  5
2B7
100
AcDbEntity
  8
0
100
AcDbCircle
 62
9
  6
CONTINUOUS
 10
16.1356090182
 20
9.5226837745
 40
5.164701668
100
AcDbArc
 50
185.4801658922
 51
188.1075743476
  0
ARC
  5
2B8
100
AcDbEntity
  8
0
100
AcDbCircle
 62
9
  6
CONTINUOUS
 10
12.17479727
 20
10.8252052076
 40
2.6979406556
100
AcDbArc
 50
214.3879481371
 51
214.7915759506
  0
ARC
  5
2B9
100
AcDbEntity
  8
0
100
AcDbCircle
 62
7
  6
CONTINUOUS
 10
12.7084091096
 20
10.3776070974
 40
0.03
100
AcDbArc
 50
9.5177525804
 51
80.4822474196
  0
LINE
  5
2BA
100
AcDbEntity
  8
0
100
AcDbLine
 62
7
  6
CONTINUOUS
 10
12.1907654575
 20
4.9078939683
 11
12.1907652708
 21
4.9082381856
  0
SPLINE
  5
2BB
100
AcDbEntity
  8
0
100
AcDbSpline
 62
7
  6
CONTINUOUS
 70
0
 71
3
 72
15
 73
11
 74
0
 42
0.0000001
 43
0.0000001
 44
0.0000000001
 40
0.0
 40
0.0
 40
0.0
 40
0.0
 40
0.1243649184
 40
0.2488000418
 40
0.373355153
 40
0.4980989086
 40
0.6230845742
 40
0.7483657886
 40
0.8739902195
 40
1.0
 40
1.0
 40
1.0
 40
1.0
 10
12.1907652708
 20
4.9082381856
 30
0.0
 10
12.1907578426
 20
4.9149448954
 30
0.0
 10
12.1902996718
 20
4.9283658064
 30
0.0
 10
12.1882872494
 20
4.9484130948
 30
0.0
 10
12.184956749
 20
4.9683055496
 30
0.0
 10
12.1803214017
 20
4.9879652086
 30
0.0
 10
12.1743988636
 20
5.0073170158
 30
0.0
 10
12.167211928
 20
5.0262866151
 30
0.0
 10
12.1587888276
 20
5.0448002157
 30
0.0
 10
12.1523800538
 20
5.0567740855
 30
0.0
 10
12.1489835556
 20
5.0626597885
 30
0.0
  0
SPLINE
  5
2BC
100
AcDbEntity
  8
0
100
AcDbSpline
 62
7
  6
CONTINUOUS
 70
0
 71
3
 72
39
 73
35
 74
0
 42
0.0000001
 43
0.0000001
 44
0.0000000001
 40
0.0
 40
0.0
 40
0.0
 40
0.0
 40
0.03053989
 40
0.0611197534
 40
0.0917624661
 40
0.1224885373
 40
0.1533154907
 40
0.1842573772
 40
0.2153242228
 40
0.2465216397
 40
0.2778506333
 40
0.3093074964
 40
0.34088398
 40
0.3725675218
 40
0.4043417468
 40
0.4361869889
 40
0.4680810523
 40
0.4999999716
 40
0.5319188915
 40
0.563812957
 40
0.5956582023
 40
0.6274324313
 40
0.6591159782
 40
0.6906924675
 40
0.7221493362
 40
0.7534783354
 40
0.784675758
 40
0.8157426086
 40
0.8466844994
 40
0.8775114564
 40
0.9082375306
 40
0.9388802455
 40
0.9694601106
 40
1.0
 40
1.0
 40
1.0
 40
1.0
 10
12.1596408984
 20
4.766005724
 30
0.0
 10
12.1590154585
 20
4.7565974542
 30
0.0
 10
12.1568218357
 20
4.7378177366
 30
0.0
 10
12.1507447368
 20
4.7101005844
 30
0.0
 10
12.1419373846
 20
4.6830634271
 30
0.0
 10
12.1304846301
 20
4.656954381
 30
0.0
 10
12.1164952374
 20
4.63200653
 30
0.0
 10
12.1001007725
 20
4.6084415928
 30
0.0
 10
12.081453619
 20
4.586466466
 30
0.0
 10
12.0607251516
 20
4.5662720967
 30
0.0
 10
12.0381037258
 20
4.5480321921
 30
0.0
 10
12.0137927733
 20
4.531902237
 30
0.0
 10
11.9880089361
 20
4.5180186557
 30
0.0
 10
11.9609802002
 20
4.506498096
 30
0.0
 10
11.9329440762
 20
4.4974367825
 30
0.0
 10
11.9041456804
 20
4.4909101001
 30
0.0
 10
11.8748358836
 20
4.4869721934
 30
0.0
 10
11.8452694002
 20
4.4856556826
 30
0.0
 10
11.8157028848
 20
4.4869714904
 30
0.0
 10
11.7863929928
 20
4.4909087029
 30
0.0
 10
11.7575944391
 20
4.4974347007
 30
0.0
 10
11.7295580943
 20
4.5064953428
 30
0.0
 10
11.7025290744
 20
4.5180152469
 30
0.0
 10
11.6767448907
 20
4.5318981949
 30
0.0
 10
11.6524335335
 20
4.5480275492
 30
0.0
 10
11.6298116451
 20
4.5662668879
 30
0.0
 10
11.6090826588
 20
4.5864607312
 30
0.0
 10
11.5904349321
 20
4.6084353771
 30
0.0
 10
11.574039844
 20
4.6319998852
 30
0.0
 10
11.5600497855
 20
4.6569473665
 30
0.0
 10
11.5485963268
 20
4.6830561063
 30
0.0
 10
11.5397882384
 20
4.7100930257
 30
0.0
 10
11.5337103794
 20
4.7378100122
 30
0.0
 10
11.5315162391
 20
4.7565896697
 30
0.0
 10
11.5308905399
 20
4.7659979221
 30
0.0
  0
SPLINE
  5
2BD
100
AcDbEntity
  8
0
100
AcDbSpline
 62
7
  6
CONTINUOUS
 70
0
 71
3
 72
15
 73
11
 74
0
 42
0.0000001
 43
0.0000001
 44
0.0000000001
 40
0.0
 40
0.0
 40
0.0
 40
0.0
 40
0.1256269086
 40
0.2510153897
 40
0.3761917096
 40
0.5011850761
 40
0.6260279824
 40
0.7507524814
 40
0.8753974008
 40
1.0
 40
1.0
 40
1.0
 40
1.0
 10
12.1489835676
 20
5.0626597824
 30
0.0
 10
12.1523723621
 20
5.0567874037
 30
0.0
 10
12.1587777011
 20
5.0448381722
 30
0.0
 10
12.1672278541
 20
5.0263631584
 30
0.0
 10
12.1744785683
 20
5.0074209384
 30
0.0
 10
12.1805001553
 20
4.9880838448
 30
0.0
 10
12.1852682464
 20
4.9684251603
 30
0.0
 10
12.1887635349
 20
4.9485195796
 30
0.0
 10
12.1909715352
 20
4.9284442898
 30
0.0
 10
12.1915792926
 20
4.9149952436
 30
0.0
 10
12.191666505
 20
4.9082710641
 30
0.0
  0
SPLINE
  5
2BE
100
AcDbEntity
  8
0
100
AcDbSpline
 62
7
  6
CONTINUOUS
 70
0
 71
3
 72
15
 73
11
 74
0
 42
0.0000001
 43
0.0000001
 44
0.0000000001
 40
0.0
 40
0.0
 40
0.0
 40
0.0
 40
0.1260097815
 40
0.251634213
 40
0.3769154277
 40
0.5019010933
 40
0.6266448487
 40
0.7511999594
 40
0.8756350822
 40
1.0
 40
1.0
 40
1.0
 40
1.0
 10
11.5415474081
 20
5.062659865
 30
0.0
 10
11.5381509064
 20
5.0567741597
 30
0.0
 10
11.5317421259
 20
5.044800285
 30
0.0
 10
11.5233190167
 20
5.026286676
 30
0.0
 10
11.5161320734
 20
5.0073170677
 30
0.0
 10
11.510209529
 20
4.9879652509
 30
0.0
 10
11.5055741767
 20
4.9683055818
 30
0.0
 10
11.5022436728
 20
4.9484131164
 30
0.0
 10
11.5002312483
 20
4.9283658172
 30
0.0
 10
11.4997730769
 20
4.9149448991
 30
0.0
 10
11.4997656487
 20
4.9082381856
 30
0.0
  0
LINE
  5
2BF
100
AcDbEntity
  8
0
100
AcDbLine
 62
7
  6
CONTINUOUS
 10
11.4997656487
 20
4.9082381856
 11
11.4997654621
 21
4.9078939683
  0
SPLINE
  5
2C0
100
AcDbEntity
  8
0
100
AcDbSpline
 62
7
  6
CONTINUOUS
 70
0
 71
3
 72
15
 73
11
 74
0
 42
0.0000001
 43
0.0000001
 44
0.0000000001
 40
0.0
 40
0.0
 40
0.0
 40
0.0
 40
0.1246025321
 40
0.2492474127
 40
0.3739718855
 40
0.4988147884
 40
0.6238081676
 40
0.7489845148
 40
0.874373038
 40
1.0
 40
1.0
 40
1.0
 40
1.0
 10
11.4988644147
 20
4.9082710709
 30
0.0
 10
11.4989516272
 20
4.9149952501
 30
0.0
 10
11.499559385
 20
4.9284442975
 30
0.0
 10
11.5017673861
 20
4.9485195905
 30
0.0
 10
11.5052626769
 20
4.9684251774
 30
0.0
 10
11.5100307712
 20
4.9880838709
 30
0.0
 10
11.5160523635
 20
5.0074209757
 30
0.0
 10
11.523303086
 20
5.0263632086
 30
0.0
 10
11.531753251
 20
5.0448382355
 30
0.0
 10
11.5381585971
 20
5.056787477
 30
0.0
 10
11.5415473972
 20
5.0626598598
 30
0.0
  0
SPLINE
  5
2C1
100
AcDbEntity
  8
0
100
AcDbSpline
 62
7
  6
CONTINUOUS
 70
0
 71
3
 72
39
 73
35
 74
0
 42
0.0000001
 43
0.0000001
 44
0.0000000001
 40
0.0
 40
0.0
 40
0.0
 40
0.0
 40
0.0306220592
 40
0.061267399
 40
0.0919596761
 40
0.1227197494
 40
0.1535664661
 40
0.184515412
 40
0.2155784229
 40
0.2467629975
 40
0.2780720499
 40
0.30950364
 40
0.3410510935
 40
0.3727031244
 40
0.4044443408
 40
0.4362557632
 40
0.4681156265
 40
0.5000001987
 40
0.5318847673
 40
0.56374462
 40
0.5955560247
 40
0.6272972174
 40
0.6589492193
 40
0.6904966396
 40
0.7219281928
 40
0.7532372067
 40
0.7844217425
 40
0.8154847156
 40
0.8464336262
 40
0.8772803117
 40
0.9080403594
 40
0.9387326168
 40
0.9693779447
 40
1.0
 40
1.0
 40
1.0
 40
1.0
 10
12.19169284
 20
4.9042104681
 30
0.0
 10
12.19169284
 20
4.893377745
 30
0.0
 10
12.190566366
 20
4.8716872619
 30
0.0
 10
12.1855158524
 20
4.8394944167
 30
0.0
 10
12.177158589
 20
4.8079439398
 30
0.0
 10
12.1655829014
 20
4.7773525182
 30
0.0
 10
12.1509104749
 20
4.7480188235
 30
0.0
 10
12.133293549
 20
4.7202272793
 30
0.0
 10
12.112912349
 20
4.6942435942
 30
0.0
 10
12.0899724238
 20
4.6703130579
 30
0.0
 10
12.0647020691
 20
4.6486585518
 30
0.0
 10
12.037349405
 20
4.6294793976
 30
0.0
 10
12.0081798274
 20
4.6129503576
 30
0.0
 10
11.9774735504
 20
4.599220645
 30
0.0
 10
11.9455231265
 20
4.588413235
 30
0.0
 10
11.9126309147
 20
4.5806244393
 30
0.0
 10
11.879106699
 20
4.575923465
 30
0.0
 10
11.8452652495
 20
4.5743518715
 30
0.0
 10
11.8114238061
 20
4.5759235084
 30
0.0
 10
11.7778996063
 20
4.5806245129
 30
0.0
 10
11.7450074203
 20
4.588413339
 30
0.0
 10
11.7130570328
 20
4.5992207789
 30
0.0
 10
11.6823507984
 20
4.6129505113
 30
0.0
 10
11.6531812628
 20
4.629479554
 30
0.0
 10
11.6258286467
 20
4.6486587099
 30
0.0
 10
11.6005583399
 20
4.6703132095
 30
0.0
 10
11.5776184564
 20
4.6942437288
 30
0.0
 10
11.557237291
 20
4.7202273907
 30
0.0
 10
11.5396203967
 20
4.748018911
 30
0.0
 10
11.5249479928
 20
4.7773525803
 30
0.0
 10
11.5133723186
 20
4.8079439779
 30
0.0
 10
11.5050150634
 20
4.839494436
 30
0.0
 10
11.4999645531
 20
4.8716872689
 30
0.0
 10
11.4988380795
 20
4.8933777463
 30
0.0
 10
11.4988380795
 20
4.9042104681
 30
0.0
  0
SPLINE
  5
2C2
100
AcDbEntity
  8
0
100
AcDbSpline
 62
9
  6
CONTINUOUS
 70
0
 71
3
 72
23
 73
19
 74
0
 42
0.0000001
 43
0.0000001
 44
0.0000000001
 40
0.0
 40
0.0
 40
0.0
 40
0.0
 40
0.1965909345
 40
0.3793720535
 40
0.4641415856
 40
0.5438288583
 40
0.6179663526
 40
0.6861257437
 40
0.7479625996
 40
0.803183318
 40
0.8516048332
 40
0.8931521931
 40
0.927954833
 40
0.9564702411
 40
0.9686904381
 40
0.9798099947
 40
0.9901228108
 40
1.0
 40
1.0
 40
1.0
 40
1.0
 10
11.0225284281
 20
8.7942950051
 30
0.0
 10
11.0210201341
 20
8.7941658675
 30
0.0
 10
11.0181053175
 20
8.7939625906
 30
0.0
 10
11.0145322724
 20
8.7938424516
 30
0.0
 10
11.0118582106
 20
8.7938414269
 30
0.0
 10
11.0100212831
 20
8.7938856519
 30
0.0
 10
11.0083139778
 20
8.7939742455
 30
0.0
 10
11.0067473547
 20
8.7941067991
 30
0.0
 10
11.0053314983
 20
8.7942820103
 30
0.0
 10
11.0040752212
 20
8.7944988792
 30
0.0
 10
11.0029862158
 20
8.7947554569
 30
0.0
 10
11.0020701725
 20
8.7950502366
 30
0.0
 10
11.0013317695
 20
8.7953814278
 30
0.0
 10
11.0008417378
 20
8.7957035293
 30
0.0
 10
11.0005557766
 20
8.7959840172
 30
0.0
 10
11.0003999957
 20
8.7961926495
 30
0.0
 10
11.0002926537
 20
8.7964101758
 30
0.0
 10
11.0002539748
 20
8.7965622216
 30
0.0
 10
11.000243435
 20
8.7966375453
 30
0.0
  0
SPLINE
  5
2C3
100
AcDbEntity
  8
0
100
AcDbSpline
 62
9
  6
CONTINUOUS
 70
0
 71
3
 72
20
 73
16
 74
0
 42
0.0000001
 43
0.0000001
 44
0.0000000001
 40
0.0
 40
0.0
 40
0.0
 40
0.0
 40
0.1802331053
 40
0.3500460469
 40
0.5060075071
 40
0.5779085736
 40
0.6453129283
 40
0.7079185589
 40
0.7654900605
 40
0.8178288111
 40
0.8647975751
 40
0.9063508034
 40
0.9425330455
 40
0.9735777787
 40
1.0
 40
1.0
 40
1.0
 40
1.0
 10
11.0348422273
 20
10.3248860623
 30
0.0
 10
11.0334802219
 20
10.3249768727
 30
0.0
 10
11.0308317628
 20
10.3251094344
 30
0.0
 10
11.0269990124
 20
10.3251645403
 30
0.0
 10
11.0239869989
 20
10.3250842288
 30
0.0
 10
11.0217553207
 20
10.3249372892
 30
0.0
 10
11.0202326809
 20
10.3247930779
 30
0.0
 10
11.0188232137
 20
10.3246125693
 30
0.0
 10
11.017534172
 20
10.324396887
 30
0.0
 10
11.0163720685
 20
10.3241470472
 30
0.0
 10
11.0153426721
 20
10.3238642555
 30
0.0
 10
11.0144507682
 20
10.3235507406
 30
0.0
 10
11.0136999218
 20
10.3232078444
 30
0.0
 10
11.0130931973
 20
10.3228367813
 30
0.0
 10
11.0127622172
 20
10.3225486532
 30
0.0
 10
11.0126289448
 20
10.3223993751
 30
0.0
  0
SPLINE
  5
2C4
100
AcDbEntity
  8
0
100
AcDbSpline
 62
9
  6
CONTINUOUS
 70
0
 71
3
 72
20
 73
16
 74
0
 42
0.0000001
 43
0.0000001
 44
0.0000000001
 40
0.0
 40
0.0
 40
0.0
 40
0.0
 40
0.1802229337
 40
0.3500257355
 40
0.5059814524
 40
0.5778789031
 40
0.6452796827
 40
0.707882476
 40
0.7654512453
 40
0.8177859102
 40
0.8647495857
 40
0.9063021737
 40
0.9424963435
 40
0.973563163
 40
1.0
 40
1.0
 40
1.0
 40
1.0
 10
11.0348422273
 20
10.3248860623
 30
0.0
 10
11.0347514211
 20
10.3262479779
 30
0.0
 10
11.034617698
 20
10.3288961901
 30
0.0
 10
11.0345620816
 20
10.3327287253
 30
0.0
 10
11.0346428224
 20
10.3357405497
 30
0.0
 10
11.0347896975
 20
10.3379721107
 30
0.0
 10
11.0349338749
 20
10.3394946639
 30
0.0
 10
11.035114425
 20
10.3409040432
 30
0.0
 10
11.0353301411
 20
10.3421929916
 30
0.0
 10
11.0355798721
 20
10.3433550119
 30
0.0
 10
11.0358624456
 20
10.3443843793
 30
0.0
 10
11.0361759694
 20
10.3452763331
 30
0.0
 10
11.0365194843
 20
10.3460271889
 30
0.0
 10
11.0368914234
 20
10.346633808
 30
0.0
 10
11.037179911
 20
10.346964797
 30
0.0
 10
11.0373292656
 20
10.3470981471
 30
0.0
  0
LINE
  5
2C5
100
AcDbEntity
  8
0
100
AcDbLine
 62
9
  6
CONTINUOUS
 10
12.6532013959
 20
8.6818292901
 11
12.710698632
 21
8.6376642366
  0
LINE
  5
2C6
100
AcDbEntity
  8
0
100
AcDbLine
 62
9
  6
CONTINUOUS
 10
12.6778998988
 20
8.7065279645
 11
12.7220646734
 21
8.6490302624
  0
SPLINE
  5
2C7
100
AcDbEntity
  8
0
100
AcDbSpline
 62
7
  6
CONTINUOUS
 70
0
 71
3
 72
23
 73
19
 74
0
 42
0.0000001
 43
0.0000001
 44
0.0000000001
 40
0.0
 40
0.0
 40
0.0
 40
0.0
 40
0.0644190997
 40
0.1287648207
 40
0.1929698107
 40
0.256968282
 40
0.3207033396
 40
0.3841271814
 40
0.4472034251
 40
0.5099085553
 40
0.5722330284
 40
0.6341818863
 40
0.6957748238
 40
0.7570456723
 40
0.8180412704
 40
0.8788197326
 40
0.9394481771
 40
1.0
 40
1.0
 40
1.0
 40
1.0
 10
11.8452654597
 20
4.6860783996
 30
0.0
 10
11.8370885972
 20
4.6860783996
 30
0.0
 10
11.8207341344
 20
4.6868327404
 30
0.0
 10
11.7964414577
 20
4.6902173217
 30
0.0
 10
11.7726155234
 20
4.695822135
 30
0.0
 10
11.7494878318
 20
4.7035938932
 30
0.0
 10
11.7272800446
 20
4.7134582062
 30
0.0
 10
11.7062059594
 20
4.7253208501
 30
0.0
 10
11.6864684155
 20
4.7390683121
 30
0.0
 10
11.6682576469
 20
4.7545689471
 30
0.0
 10
11.6517493988
 20
4.7716741854
 30
0.0
 10
11.6371032404
 20
4.7902198969
 30
0.0
 10
11.6244609983
 20
4.81002788
 30
0.0
 10
11.613945304
 20
4.830907603
 30
0.0
 10
11.6056582976
 20
4.8526576139
 30
0.0
 10
11.5996806132
 20
4.8750689431
 30
0.0
 10
11.5960705017
 20
4.8979218104
 30
0.0
 10
11.5952654597
 20
4.9133155745
 30
0.0
 10
11.5952654597
 20
4.9210015548
 30
0.0
  0
SPLINE
  5
2C8
100
AcDbEntity
  8
0
100
AcDbSpline
 62
9
  6
CONTINUOUS
 70
0
 71
3
 72
23
 73
19
 74
0
 42
0.0000001
 43
0.0000001
 44
0.0000000001
 40
0.0
 40
0.0
 40
0.0
 40
0.0
 40
0.0644190997
 40
0.1287648207
 40
0.1929698107
 40
0.256968282
 40
0.3207033396
 40
0.3841271814
 40
0.4472034251
 40
0.5099085553
 40
0.5722330284
 40
0.6341818863
 40
0.6957748238
 40
0.7570456723
 40
0.8180412704
 40
0.8788197326
 40
0.9394481771
 40
1.0
 40
1.0
 40
1.0
 40
1.0
 10
11.8452654597
 20
4.9152318956
 30
0.0
 10
11.8370885972
 20
4.9152318956
 30
0.0
 10
11.8207341344
 20
4.9159862364
 30
0.0
 10
11.7964414577
 20
4.9193708178
 30
0.0
 10
11.7726155234
 20
4.924975631
 30
0.0
 10
11.7494878318
 20
4.9327473892
 30
0.0
 10
11.7272800446
 20
4.9426117023
 30
0.0
 10
11.7062059594
 20
4.9544743461
 30
0.0
 10
11.6864684155
 20
4.9682218081
 30
0.0
 10
11.6682576469
 20
4.9837224431
 30
0.0
 10
11.6517493988
 20
5.0008276815
 30
0.0
 10
11.6371032404
 20
5.019373393
 30
0.0
 10
11.6244609983
 20
5.039181376
 30
0.0
 10
11.613945304
 20
5.060061099
 30
0.0
 10
11.6056582976
 20
5.0818111099
 30
0.0
 10
11.5996806132
 20
5.1042224391
 30
0.0
 10
11.5960705017
 20
5.1270753064
 30
0.0
 10
11.5952654597
 20
5.1424690705
 30
0.0
 10
11.5952654597
 20
5.1501550508
 30
0.0
  0
SPLINE
  5
2C9
100
AcDbEntity
  8
0
100
AcDbSpline
 62
9
  6
CONTINUOUS
 70
0
 71
3
 72
45
 73
41
 74
0
 42
0.0000001
 43
0.0000001
 44
0.0000000001
 40
0.0
 40
0.0
 40
0.0
 40
0.0
 40
0.0302505319
 40
0.0605644531
 40
0.0757594363
 40
0.0909815938
 40
0.1062342289
 40
0.1215203647
 40
0.1521948199
 40
0.1830316552
 40
0.214042707
 40
0.2452336362
 40
0.260900772
 40
0.2766121345
 40
0.3081548617
 40
0.3398575557
 40
0.3717023483
 40
0.4036667209
 40
0.4357242899
 40
0.4678456884
 40
0.4999995196
 40
0.532153359
 40
0.5642747816
 40
0.59633239
 40
0.6282968158
 40
0.6601416741
 40
0.6918444437
 40
0.7233872543
 40
0.7390986605
 40
0.7547658407
 40
0.78595686
 40
0.8169680006
 40
0.8478049203
 40
0.8784794525
 40
0.8937656231
 40
0.9090182902
 40
0.9242404765
 40
0.939435485
 40
0.9697494458
 40
1.0
 40
1.0
 40
1.0
 40
1.0
 10
12.1585093609
 20
4.7638737399
 30
0.0
 10
12.1577254696
 20
4.7547318208
 30
0.0
 10
12.1552467134
 20
4.7364947037
 30
0.0
 10
12.1499114077
 20
4.714103936
 30
0.0
 10
12.144333521
 20
4.6965414608
 30
0.0
 10
12.1394974521
 20
4.6835546339
 30
0.0
 10
12.1340231745
 20
4.6707935783
 30
0.0
 10
12.1258812235
 20
4.6541003601
 30
0.0
 10
12.1141583843
 20
4.6339258712
 30
0.0
 10
12.0977795009
 20
4.6110866922
 30
0.0
 10
12.0792128528
 20
4.5897799695
 30
0.0
 10
12.0620728626
 20
4.5734759999
 30
0.0
 10
12.0474452369
 20
4.5613753208
 30
0.0
 10
12.0321916035
 20
4.5498954669
 30
0.0
 10
12.0120830257
 20
4.5368219307
 30
0.0
 10
11.9865463577
 20
4.5233327624
 30
0.0
 10
11.9597863995
 20
4.5121334046
 30
0.0
 10
11.9320360884
 20
4.5033212417
 30
0.0
 10
11.9035352587
 20
4.4969718659
 30
0.0
 10
11.8745305455
 20
4.4931399922
 30
0.0
 10
11.8452727643
 20
4.4918585887
 30
0.0
 10
11.8160149198
 20
4.4931387159
 30
0.0
 10
11.7870100177
 20
4.4969693244
 30
0.0
 10
11.7585088749
 20
4.5033174568
 30
0.0
 10
11.7307581292
 20
4.5121284089
 30
0.0
 10
11.7039976185
 20
4.5233265989
 30
0.0
 10
11.678460285
 20
4.5368146524
 30
0.0
 10
11.6583510629
 20
4.54988731
 30
0.0
 10
11.6430968631
 20
4.5613664978
 30
0.0
 10
11.6284686393
 20
4.5734665384
 30
0.0
 10
11.6113278441
 20
4.5897697594
 30
0.0
 10
11.5927601437
 20
4.6110756706
 30
0.0
 10
11.5763801321
 20
4.6339141335
 30
0.0
 10
11.5646562951
 20
4.6540881111
 30
0.0
 10
11.5565135187
 20
4.6707809752
 30
0.0
 10
11.5510386102
 20
4.6835417916
 30
0.0
 10
11.5462018996
 20
4.6965284073
 30
0.0
 10
11.5406231454
 20
4.7140906368
 30
0.0
 10
11.5352867334
 20
4.7364811678
 30
0.0
 10
11.5328070749
 20
4.7547181812
 30
0.0
 10
11.5320227313
 20
4.7638600682
 30
0.0
  0
SPLINE
  5
2CA
100
AcDbEntity
  8
0
100
AcDbSpline
 62
9
  6
CONTINUOUS
 70
0
 71
3
 72
45
 73
41
 74
0
 42
0.0000001
 43
0.0000001
 44
0.0000000001
 40
0.0
 40
0.0
 40
0.0
 40
0.0
 40
0.0151189556
 40
0.0302571944
 40
0.0454179193
 40
0.0606042169
 40
0.091056775
 40
0.1216422819
 40
0.1369936676
 40
0.1523837206
 40
0.1832770111
 40
0.2143356738
 40
0.245560777
 40
0.276948471
 40
0.3084901758
 40
0.3401728974
 40
0.3719796545
 40
0.4038900015
 40
0.4358806293
 40
0.4679260282
 40
0.4999991957
 40
0.5320723752
 40
0.5641178098
 40
0.5961084962
 40
0.6280189229
 40
0.6598257786
 40
0.691508615
 40
0.7230504477
 40
0.7544382789
 40
0.7856635247
 40
0.8167223312
 40
0.8476157625
 40
0.8630058833
 40
0.8783573346
 40
0.9089429634
 40
0.9393956283
 40
0.9545819725
 40
0.969742739
 40
0.9848810138
 40
1.0
 40
1.0
 40
1.0
 40
1.0
 10
12.145715528
 20
4.740074638
 30
0.0
 10
12.1448811471
 20
4.736014126
 30
0.0
 10
12.1430254143
 20
4.7279248448
 30
0.0
 10
12.1396896229
 20
4.715922958
 30
0.0
 10
12.1358062415
 20
4.7040669697
 30
0.0
 10
12.1299034573
 20
4.6884717686
 30
0.0
 10
12.121186114
 20
4.6694440574
 30
0.0
 10
12.1107790015
 20
4.6512341217
 30
0.0
 10
12.1014818609
 20
4.6372176796
 30
0.0
 10
12.0915258831
 20
4.6235567684
 30
0.0
 10
12.0779147625
 20
4.6072572973
 30
0.0
 10
12.0598770349
 20
4.5891215787
 30
0.0
 10
12.0402447813
 20
4.5725138839
 30
0.0
 10
12.0191649265
 20
4.5575582541
 30
0.0
 10
11.9967941062
 20
4.5443651067
 30
0.0
 10
11.9732986781
 20
4.5330321099
 30
0.0
 10
11.9488531772
 20
4.5236430365
 30
0.0
 10
11.9236391171
 20
4.5162672861
 30
0.0
 10
11.8978436359
 20
4.510959356
 30
0.0
 10
11.8716581302
 20
4.5077584599
 30
0.0
 10
11.8452768527
 20
4.5066882436
 30
0.0
 10
11.8188954907
 20
4.5077566161
 30
0.0
 10
11.7927097321
 20
4.5109556821
 30
0.0
 10
11.7669138314
 20
4.5162618093
 30
0.0
 10
11.7416991885
 20
4.5236357972
 30
0.0
 10
11.7172529454
 20
4.5330231617
 30
0.0
 10
11.6937566215
 20
4.5443545157
 30
0.0
 10
11.6713847581
 20
4.5575460986
 30
0.0
 10
11.6503037207
 20
4.5725002538
 30
0.0
 10
11.6306701536
 20
4.5891065749
 30
0.0
 10
11.6126309912
 20
4.6072410311
 30
0.0
 10
11.5990185802
 20
4.6235395499
 30
0.0
 10
11.5890615206
 20
4.6371997655
 30
0.0
 10
11.5797632709
 20
4.6512155559
 30
0.0
 10
11.5693547181
 20
4.6694247609
 30
0.0
 10
11.5606358669
 20
4.6884518639
 30
0.0
 10
11.5547318472
 20
4.7040466544
 30
0.0
 10
11.5508475269
 20
4.7159023709
 30
0.0
 10
11.5475107852
 20
4.7279040243
 30
0.0
 10
11.5456544114
 20
4.7359931771
 30
0.0
 10
11.544819709
 20
4.7400536316
 30
0.0
  0
SPLINE
  5
2CB
100
AcDbEntity
  8
0
100
AcDbSpline
 62
9
  6
CONTINUOUS
 70
0
 71
3
 72
29
 73
25
 74
0
 42
0.0000001
 43
0.0000001
 44
0.0000000001
 40
0.0
 40
0.0
 40
0.0
 40
0.0
 40
0.0305870649
 40
0.0612806173
 40
0.0920808817
 40
0.1229867676
 40
0.1539958921
 40
0.1851045928
 40
0.2475773678
 40
0.3103762793
 40
0.3734339584
 40
0.4366710346
 40
0.4999999106
 40
0.5633287902
 40
0.626565877
 40
0.6896235733
 40
0.7524225077
 40
0.8148953103
 40
0.8460040262
 40
0.8770131664
 40
0.9079190686
 40
0.9387193496
 40
0.9694129186
 40
1.0
 40
1.0
 40
1.0
 40
1.0
 10
12.0667433812
 20
4.6509918183
 30
0.0
 10
12.063426289
 20
4.6471063896
 30
0.0
 10
12.0565584545
 20
4.6395085768
 30
0.0
 10
12.0456152973
 20
4.6286910647
 30
0.0
 10
12.0340457489
 20
4.6184649998
 30
0.0
 10
12.0218865966
 20
4.6088628116
 30
0.0
 10
12.0091751686
 20
4.599914167
 30
0.0
 10
11.991522919
 20
4.5888781327
 30
0.0
 10
11.9682714969
 20
4.5768574189
 30
0.0
 10
11.9388868785
 20
4.5654698975
 30
0.0
 10
11.9083349594
 20
4.5572329372
 30
0.0
 10
11.8769983679
 20
4.5522498136
 30
0.0
 10
11.8452666966
 20
4.5505818444
 30
0.0
 10
11.81353501
 20
4.5522495544
 30
0.0
 10
11.7821983725
 20
4.5572324219
 30
0.0
 10
11.7516463774
 20
4.5654691326
 30
0.0
 10
11.7222616538
 20
4.5768564137
 30
0.0
 10
11.6990101211
 20
4.5888769372
 30
0.0
 10
11.6813577696
 20
4.599912827
 30
0.0
 10
11.6686462588
 20
4.6088613676
 30
0.0
 10
11.6564870176
 20
4.6184634564
 30
0.0
 10
11.6449173746
 20
4.6286894267
 30
0.0
 10
11.6339741173
 20
4.6395068494
 30
0.0
 10
11.6271062124
 20
4.6471046059
 30
0.0
 10
11.6237890843
 20
4.6509900076
 30
0.0
  0
SPLINE
  5
2CC
100
AcDbEntity
  8
0
100
AcDbSpline
 62
9
  6
CONTINUOUS
 70
0
 71
3
 72
39
 73
35
 74
0
 42
0.0000001
 43
0.0000001
 44
0.0000000001
 40
0.0
 40
0.0
 40
0.0
 40
0.0
 40
0.0302721677
 40
0.0605853705
 40
0.0909768146
 40
0.1214788794
 40
0.1521197832
 40
0.1829221094
 40
0.2139020236
 40
0.2450687503
 40
0.276424331
 40
0.3079636819
 40
0.3396749077
 40
0.3715398413
 40
0.4035347901
 40
0.4356314527
 40
0.4677979579
 40
0.5
 40
0.5322020421
 40
0.5643685473
 40
0.5964652099
 40
0.6284601587
 40
0.6603250923
 40
0.6920363181
 40
0.723575669
 40
0.7549312497
 40
0.7860979764
 40
0.8170778906
 40
0.8478802168
 40
0.8785211206
 40
0.9090231854
 40
0.9394146295
 40
0.9697278323
 40
1.0
 40
1.0
 40
1.0
 40
1.0
 10
12.1907437786
 20
4.9042528918
 30
0.0
 10
12.1906179619
 20
4.893706321
 30
0.0
 10
12.1892687725
 20
4.8725956599
 30
0.0
 10
12.1839763381
 20
4.8412882096
 30
0.0
 10
12.1754650481
 20
4.8106123051
 30
0.0
 10
12.1638166046
 20
4.7808641729
 30
0.0
 10
12.1491427881
 20
4.7523255967
 30
0.0
 10
12.1315841415
 20
4.7252679153
 30
0.0
 10
12.1113084601
 20
4.6999476909
 30
0.0
 10
12.0885091874
 20
4.6766048122
 30
0.0
 10
12.0634036016
 20
4.6554600197
 30
0.0
 10
12.0362305281
 20
4.6367130831
 30
0.0
 10
12.0072480833
 20
4.6205410147
 30
0.0
 10
11.9767313265
 20
4.6070963378
 30
0.0
 10
11.9449696398
 20
4.5965057027
 30
0.0
 10
11.9122639603
 20
4.5888688861
 30
0.0
 10
11.8789240131
 20
4.5842578903
 30
0.0
 10
11.8452654598
 20
4.582716067
 30
0.0
 10
11.8116069065
 20
4.5842578903
 30
0.0
 10
11.7782669593
 20
4.5888688861
 30
0.0
 10
11.7455612797
 20
4.5965057027
 30
0.0
 10
11.7137995931
 20
4.6070963378
 30
0.0
 10
11.6832828362
 20
4.6205410147
 30
0.0
 10
11.6543003914
 20
4.6367130831
 30
0.0
 10
11.6271273179
 20
4.6554600197
 30
0.0
 10
11.6020217321
 20
4.6766048122
 30
0.0
 10
11.5792224595
 20
4.6999476909
 30
0.0
 10
11.5589467781
 20
4.7252679153
 30
0.0
 10
11.5413881315
 20
4.7523255967
 30
0.0
 10
11.526714315
 20
4.7808641729
 30
0.0
 10
11.5150658715
 20
4.8106123051
 30
0.0
 10
11.5065545815
 20
4.8412882096
 30
0.0
 10
11.5012621471
 20
4.8725956599
 30
0.0
 10
11.4999129577
 20
4.893706321
 30
0.0
 10
11.4997871409
 20
4.9042528918
 30
0.0
  0
LINE
  5
2CD
100
AcDbEntity
  8
0
100
AcDbLine
 62
9
  6
CONTINUOUS
 10
12.1905878383
 20
4.9082315148
 11
12.1905876598
 21
4.9079017495
  0
SPLINE
  5
2CE
100
AcDbEntity
  8
0
100
AcDbSpline
 62
9
  6
CONTINUOUS
 70
0
 71
3
 72
39
 73
35
 74
0
 42
0.0000001
 43
0.0000001
 44
0.0000000001
 40
0.0
 40
0.0
 40
0.0
 40
0.0
 40
0.0302758135
 40
0.0605896451
 40
0.0909791246
 40
0.1214772995
 40
0.1521132169
 40
0.1829102146
 40
0.2138851388
 40
0.2450477849
 40
0.276400628
 40
0.307938865
 40
0.3396507259
 40
0.3715180198
 40
0.4035168913
 40
0.435618758
 40
0.4677913752
 40
0.5
 40
0.5322086248
 40
0.564381242
 40
0.5964831087
 40
0.6284819802
 40
0.6603492741
 40
0.692061135
 40
0.723599372
 40
0.7549522151
 40
0.7861148612
 40
0.8170897854
 40
0.8478867831
 40
0.8785227005
 40
0.9090208754
 40
0.9394103549
 40
0.9697241865
 40
1.0
 40
1.0
 40
1.0
 40
1.0
 10
12.1905876598
 20
4.9079017495
 30
0.0
 10
12.1905761748
 20
4.8972918733
 30
0.0
 10
12.1894426702
 20
4.8760433442
 30
0.0
 10
12.1844282631
 20
4.8445017457
 30
0.0
 10
12.1761485886
 20
4.8135720595
 30
0.0
 10
12.1646838607
 20
4.7835570599
 30
0.0
 10
12.1501456251
 20
4.7547448651
 30
0.0
 10
12.1326749923
 20
4.7274130194
 30
0.0
 10
12.1124411695
 20
4.7018240867
 30
0.0
 10
12.0896397348
 20
4.6782237127
 30
0.0
 10
12.0644908614
 20
4.6568380158
 30
0.0
 10
12.0372369645
 20
4.6378716718
 30
0.0
 10
12.0081403421
 20
4.621506094
 30
0.0
 10
11.97748075
 20
4.6078976766
 30
0.0
 10
11.9455527486
 20
4.5971762693
 30
0.0
 10
11.9126628153
 20
4.5894441895
 30
0.0
 10
11.8791264944
 20
4.5847752899
 30
0.0
 10
11.8452654598
 20
4.5832140436
 30
0.0
 10
11.8114044251
 20
4.5847752899
 30
0.0
 10
11.7778681043
 20
4.5894441895
 30
0.0
 10
11.7449781709
 20
4.5971762693
 30
0.0
 10
11.7130501696
 20
4.6078976766
 30
0.0
 10
11.6823905774
 20
4.621506094
 30
0.0
 10
11.6532939551
 20
4.6378716718
 30
0.0
 10
11.6260400582
 20
4.6568380158
 30
0.0
 10
11.6008911848
 20
4.6782237127
 30
0.0
 10
11.57808975
 20
4.7018240867
 30
0.0
 10
11.5578559272
 20
4.7274130194
 30
0.0
 10
11.5403852944
 20
4.7547448651
 30
0.0
 10
11.5258470588
 20
4.7835570599
 30
0.0
 10
11.514382331
 20
4.8135720595
 30
0.0
 10
11.5061026565
 20
4.8445017457
 30
0.0
 10
11.5010882494
 20
4.8760433442
 30
0.0
 10
11.4999547447
 20
4.8972918733
 30
0.0
 10
11.4999432598
 20
4.9079017495
 30
0.0
  0
LINE
  5
2CF
100
AcDbEntity
  8
0
100
AcDbLine
 62
9
  6
CONTINUOUS
 10
11.4999432598
 20
4.9079017495
 11
11.4999430813
 21
4.9082315148
  0
SPLINE
  5
2D0
100
AcDbEntity
  8
0
100
AcDbSpline
 62
9
  6
CONTINUOUS
 70
0
 71
3
 72
39
 73
35
 74
0
 42
0.0000001
 43
0.0000001
 44
0.0000000001
 40
0.0
 40
0.0
 40
0.0
 40
0.0
 40
0.0302760905
 40
0.0605899731
 40
0.0909793086
 40
0.1214770944
 40
0.1521125234
 40
0.1829090008
 40
0.2138834338
 40
0.2450456743
 40
0.2763982453
 40
0.3079363751
 40
0.3396483028
 40
0.3715158328
 40
0.4035150969
 40
0.4356174858
 40
0.467790716
 40
0.5
 40
0.532209284
 40
0.5643825142
 40
0.5964849031
 40
0.6284841672
 40
0.6603516972
 40
0.6920636249
 40
0.7236017547
 40
0.7549543257
 40
0.7861165662
 40
0.8170909992
 40
0.8478874766
 40
0.8785229056
 40
0.9090206914
 40
0.9394100269
 40
0.9697239095
 40
1.0
 40
1.0
 40
1.0
 40
1.0
 10
12.1417654612
 20
4.9210015548
 30
0.0
 10
12.1417654612
 20
4.9118859281
 30
0.0
 10
12.1408107272
 20
4.8936289671
 30
0.0
 10
12.1365290479
 20
4.8665254984
 30
0.0
 10
12.1294396086
 20
4.8399457164
 30
0.0
 10
12.1196112029
 20
4.8141501753
 30
0.0
 10
12.107139581
 20
4.7893868281
 30
0.0
 10
12.0921458649
 20
4.7658945648
 30
0.0
 10
12.0747755353
 20
4.7438993343
 30
0.0
 10
12.0551967724
 20
4.7236124968
 30
0.0
 10
12.0335988074
 20
4.7052287243
 30
0.0
 10
12.0101900545
 20
4.6889242614
 30
0.0
 10
11.9851961628
 20
4.6748551888
 30
0.0
 10
11.9588577706
 20
4.6631560748
 30
0.0
 10
11.9314282117
 20
4.6539387637
 30
0.0
 10
11.9031711211
 20
4.6472913637
 30
0.0
 10
11.8743579629
 20
4.6432773943
 30
0.0
 10
11.8452654598
 20
4.6419351353
 30
0.0
 10
11.8161729567
 20
4.6432773943
 30
0.0
 10
11.7873597985
 20
4.6472913637
 30
0.0
 10
11.7591027078
 20
4.6539387637
 30
0.0
 10
11.731673149
 20
4.6631560748
 30
0.0
 10
11.7053347567
 20
4.6748551888
 30
0.0
 10
11.6803408651
 20
4.6889242614
 30
0.0
 10
11.6569321121
 20
4.7052287243
 30
0.0
 10
11.6353341472
 20
4.7236124968
 30
0.0
 10
11.6157553843
 20
4.7438993343
 30
0.0
 10
11.5983850546
 20
4.7658945648
 30
0.0
 10
11.5833913386
 20
4.7893868281
 30
0.0
 10
11.5709197167
 20
4.8141501753
 30
0.0
 10
11.5610913109
 20
4.8399457164
 30
0.0
 10
11.5540018717
 20
4.8665254984
 30
0.0
 10
11.5497201924
 20
4.8936289671
 30
0.0
 10
11.5487654583
 20
4.9118859281
 30
0.0
 10
11.5487654583
 20
4.9210015548
 30
0.0
  0
SPLINE
  5
2D1
100
AcDbEntity
  8
0
100
AcDbSpline
 62
9
  6
CONTINUOUS
 70
0
 71
3
 72
39
 73
35
 74
0
 42
0.0000001
 43
0.0000001
 44
0.0000000001
 40
0.0
 40
0.0
 40
0.0
 40
0.0
 40
0.0302761661
 40
0.0605900661
 40
0.0909793753
 40
0.121477165
 40
0.1521125905
 40
0.1829090597
 40
0.2138834863
 40
0.2450457215
 40
0.2763982887
 40
0.3079364125
 40
0.3396483326
 40
0.3715158561
 40
0.4035151157
 40
0.4356174989
 40
0.4677907222
 40
0.5
 40
0.5322092778
 40
0.5643825011
 40
0.5964848843
 40
0.6284841439
 40
0.6603516674
 40
0.6920635875
 40
0.7236017113
 40
0.7549542785
 40
0.7861165137
 40
0.8170909403
 40
0.8478874095
 40
0.878522835
 40
0.9090206247
 40
0.9394099339
 40
0.9697238339
 40
1.0
 40
1.0
 40
1.0
 40
1.0
 10
12.1829320928
 20
4.9140823556
 30
0.0
 10
12.1829320928
 20
4.9037010718
 30
0.0
 10
12.1818447938
 20
4.8829092474
 30
0.0
 10
12.1769686341
 20
4.8520426582
 30
0.0
 10
12.1688948795
 20
4.8217724908
 30
0.0
 10
12.1577018789
 20
4.7923954553
 30
0.0
 10
12.1434986354
 20
4.7641939391
 30
0.0
 10
12.1264231739
 20
4.7374399667
 30
0.0
 10
12.1066411359
 20
4.7123908675
 30
0.0
 10
12.0843440264
 20
4.6892873642
 30
0.0
 10
12.0597473203
 20
4.6683512054
 30
0.0
 10
12.0330884572
 20
4.6497830049
 30
0.0
 10
12.0046243912
 20
4.6337605242
 30
0.0
 10
11.9746291395
 20
4.6204370618
 30
0.0
 10
11.9433911927
 20
4.6099400595
 30
0.0
 10
11.9112108339
 20
4.6023697539
 30
0.0
 10
11.8783972157
 20
4.597798431
 30
0.0
 10
11.8452654598
 20
4.5962697677
 30
0.0
 10
11.8121337038
 20
4.597798431
 30
0.0
 10
11.7793200856
 20
4.6023697539
 30
0.0
 10
11.7471397268
 20
4.6099400595
 30
0.0
 10
11.71590178
 20
4.6204370618
 30
0.0
 10
11.6859065283
 20
4.6337605242
 30
0.0
 10
11.6574424623
 20
4.6497830049
 30
0.0
 10
11.6307835993
 20
4.6683512054
 30
0.0
 10
11.6061868931
 20
4.6892873642
 30
0.0
 10
11.5838897837
 20
4.7123908675
 30
0.0
 10
11.5641077456
 20
4.7374399667
 30
0.0
 10
11.5470322842
 20
4.7641939391
 30
0.0
 10
11.5328290406
 20
4.7923954553
 30
0.0
 10
11.52163604
 20
4.8217724908
 30
0.0
 10
11.5135622855
 20
4.8520426582
 30
0.0
 10
11.5086861257
 20
4.8829092474
 30
0.0
 10
11.5075988267
 20
4.9037010718
 30
0.0
 10
11.5075988267
 20
4.9140823556
 30
0.0
  0
LINE
  5
2D2
100
AcDbEntity
  8
0
100
AcDbLine
 62
9
  6
CONTINUOUS
 10
12.6778996101
 20
10.3223994366
 11
12.7220645538
 21
10.3798973163
  0
LINE
  5
2D3
100
AcDbEntity
  8
0
100
AcDbLine
 62
9
  6
CONTINUOUS
 10
12.6532009608
 20
10.3470979247
 11
12.710697948
 21
10.3912627781
  0
SPLINE
  5
2D4
100
AcDbEntity
  8
0
100
AcDbSpline
 62
9
  6
CONTINUOUS
 70
0
 71
3
 72
11
 73
7
 74
0
 42
0.0000001
 43
0.0000001
 44
0.0000000001
 40
0.0
 40
0.0
 40
0.0
 40
0.0
 40
0.249227981
 40
0.4987690468
 40
0.7489349149
 40
1.0
 40
1.0
 40
1.0
 40
1.0
 10
12.1905878383
 20
4.9082315148
 30
0.0
 10
12.1905878383
 20
4.9188865128
 30
0.0
 10
12.1894678784
 20
4.9402266107
 30
0.0
 10
12.1844448177
 20
4.9719056559
 30
0.0
 10
12.1761298069
 20
5.0029649205
 30
0.0
 10
12.1684578203
 20
5.0230211693
 30
0.0
 10
12.1641138766
 20
5.032836412
 30
0.0
  0
LINE
  5
2D5
100
AcDbEntity
  8
0
100
AcDbLine
 62
9
  6
CONTINUOUS
 10
12.1489850617
 20
5.0626442786
 11
12.1485699302
 21
5.0633631316
  0
LINE
  5
2D6
100
AcDbEntity
  8
0
100
AcDbLine
 62
9
  6
CONTINUOUS
 10
12.1420880495
 20
5.0740650204
 11
12.1418448037
 21
5.0744488701
  0
SPLINE
  5
2D7
100
AcDbEntity
  8
0
100
AcDbSpline
 62
9
  6
CONTINUOUS
 70
0
 71
3
 72
15
 73
11
 74
0
 42
0.0000001
 43
0.0000001
 44
0.0000000001
 40
0.0
 40
0.0
 40
0.0
 40
0.0
 40
0.1241885713
 40
0.2484632103
 40
0.3728977202
 40
0.4975736821
 40
0.6225606924
 40
0.7479244649
 40
0.8737216812
 40
1.0
 40
1.0
 40
1.0
 40
1.0
 10
12.1417654612
 20
4.9210015548
 30
0.0
 10
12.1417654612
 20
4.9275877555
 30
0.0
 10
12.1412676448
 20
4.9407701266
 30
0.0
 10
12.1390317582
 20
4.9604374792
 30
0.0
 10
12.1353176179
 20
4.9799073455
 30
0.0
 10
12.1301443595
 20
4.9990800144
 30
0.0
 10
12.1235379623
 20
5.0178593617
 30
0.0
 10
12.1155317685
 20
5.0361510036
 30
0.0
 10
12.1061669393
 20
5.0538617904
 30
0.0
 10
12.0990618611
 20
5.065202475
 30
0.0
 10
12.0953027895
 20
5.0707449985
 30
0.0
  0
SPLINE
  5
2D8
100
AcDbEntity
  8
0
100
AcDbSpline
 62
9
  6
CONTINUOUS
 70
0
 71
3
 72
15
 73
11
 74
0
 42
0.0000001
 43
0.0000001
 44
0.0000000001
 40
0.0
 40
0.0
 40
0.0
 40
0.0
 40
0.1262783188
 40
0.2520755351
 40
0.3774393076
 40
0.5024263179
 40
0.6271022798
 40
0.7515367897
 40
0.8758114287
 40
1.0
 40
1.0
 40
1.0
 40
1.0
 10
11.59522813
 20
5.0707449984
 30
0.0
 10
11.5914690584
 20
5.0652024749
 30
0.0
 10
11.5843639802
 20
5.0538617903
 30
0.0
 10
11.574999151
 20
5.0361510035
 30
0.0
 10
11.5669929572
 20
5.0178593617
 30
0.0
 10
11.56038656
 20
4.9990800143
 30
0.0
 10
11.5552133017
 20
4.9799073455
 30
0.0
 10
11.5514991614
 20
4.9604374792
 30
0.0
 10
11.5492632747
 20
4.9407701265
 30
0.0
 10
11.5487654583
 20
4.9275877555
 30
0.0
 10
11.5487654583
 20
4.9210015548
 30
0.0
  0
SPLINE
  5
2D9
100
AcDbEntity
  8
0
100
AcDbSpline
 62
9
  6
CONTINUOUS
 70
0
 71
3
 72
15
 73
11
 74
0
 42
0.0000001
 43
0.0000001
 44
0.0000000001
 40
0.0
 40
0.0
 40
0.0
 40
0.0
 40
0.1237058352
 40
0.2475472991
 40
0.3716607814
 40
0.496166865
 40
0.6211744662
 40
0.7467736602
 40
0.8730335522
 40
1.0
 40
1.0
 40
1.0
 40
1.0
 10
12.1829320928
 20
4.9140823556
 30
0.0
 10
12.1829320928
 20
4.9238158702
 30
0.0
 10
12.1819765739
 20
4.9433070246
 30
0.0
 10
12.177689559
 20
4.9722792001
 30
0.0
 10
12.1705856009
 20
5.0007597273
 30
0.0
 10
12.1607251586
 20
5.0285032976
 30
0.0
 10
12.1481928261
 20
5.0552753044
 30
0.0
 10
12.1330948896
 20
5.0808492807
 30
0.0
 10
12.1155623387
 20
5.1050064213
 30
0.0
 10
12.1023821768
 20
5.1199938514
 30
0.0
 10
12.0954464158
 20
5.1271838923
 30
0.0
  0
SPLINE
  5
2DA
100
AcDbEntity
  8
0
100
AcDbSpline
 62
9
  6
CONTINUOUS
 70
0
 71
3
 72
15
 73
11
 74
0
 42
0.0000001
 43
0.0000001
 44
0.0000000001
 40
0.0
 40
0.0
 40
0.0
 40
0.0
 40
0.1269664477
 40
0.2532263398
 40
0.3788255338
 40
0.503833135
 40
0.6283392186
 40
0.7524527009
 40
0.8762941648
 40
1.0
 40
1.0
 40
1.0
 40
1.0
 10
11.5950845037
 20
5.1271838923
 30
0.0
 10
11.5881487427
 20
5.1199938514
 30
0.0
 10
11.5749685808
 20
5.1050064213
 30
0.0
 10
11.5574360299
 20
5.0808492807
 30
0.0
 10
11.5423380934
 20
5.0552753044
 30
0.0
 10
11.5298057609
 20
5.0285032976
 30
0.0
 10
11.5199453186
 20
5.0007597273
 30
0.0
 10
11.5128413606
 20
4.9722792001
 30
0.0
 10
11.5085543457
 20
4.9433070245
 30
0.0
 10
11.5075988267
 20
4.9238158702
 30
0.0
 10
11.5075988267
 20
4.9140823556
 30
0.0
  0
LINE
  5
2DB
100
AcDbEntity
  8
0
100
AcDbLine
 62
9
  6
CONTINUOUS
 10
11.0373294788
 20
10.3470976395
 11
10.9798322874
 21
10.3912626585
  0
LINE
  5
2DC
100
AcDbEntity
  8
0
100
AcDbLine
 62
9
  6
CONTINUOUS
 10
11.0126309862
 20
10.3223989754
 11
10.9684662461
 21
10.3798966327
  0
LINE
  5
2DD
100
AcDbEntity
  8
0
100
AcDbLine
 62
9
  6
CONTINUOUS
 10
11.0126309801
 20
8.7065279653
 11
10.9684661292
 21
8.6490309593
  0
LINE
  5
2DE
100
AcDbEntity
  8
0
100
AcDbLine
 62
9
  6
CONTINUOUS
 10
11.0373294929
 20
8.6818292942
 11
10.979831591
 21
8.6376643535
  0
LINE
  5
2DF
100
AcDbEntity
  8
0
100
AcDbLine
 62
9
  6
CONTINUOUS
 10
11.5486859219
 20
5.0744485645
 11
11.5484427723
 21
5.074064866
  0
LINE
  5
2E0
100
AcDbEntity
  8
0
100
AcDbLine
 62
9
  6
CONTINUOUS
 10
11.5419609596
 20
5.0633630803
 11
11.5415459022
 21
5.0626443556
  0
SPLINE
  5
2E1
100
AcDbEntity
  8
0
100
AcDbSpline
 62
9
  6
CONTINUOUS
 70
0
 71
3
 72
22
 73
18
 74
0
 42
0.0000001
 43
0.0000001
 44
0.0000000001
 40
0.0
 40
0.0
 40
0.0
 40
0.0
 40
0.2200726088
 40
0.4148077211
 40
0.5827344767
 40
0.6562825829
 40
0.7227103736
 40
0.7819125639
 40
0.8338356279
 40
0.8784552096
 40
0.9157896931
 40
0.9459538808
 40
0.9692818835
 40
0.9786207573
 40
0.9866285324
 40
0.9936049058
 40
1.0
 40
1.0
 40
1.0
 40
1.0
 10
11.6035502527
 20
10.3965650939
 30
0.0
 10
11.603570194
 20
10.397114779
 30
0.0
 10
11.6036149207
 20
10.3981506351
 30
0.0
 10
11.6037040997
 20
10.3996044648
 30
0.0
 10
11.6037963128
 20
10.4006909839
 30
0.0
 10
11.6038809451
 20
10.4014559245
 30
0.0
 10
11.6039456374
 20
10.4019495687
 30
0.0
 10
11.6040142262
 20
10.4023880648
 30
0.0
 10
11.6040865076
 20
10.402770654
 30
0.0
 10
11.6041622593
 20
10.4030966839
 30
0.0
 10
11.6042412202
 20
10.4033658444
 30
0.0
 10
11.6043232332
 20
10.4035777496
 30
0.0
 10
11.6043986764
 20
10.403716666
 30
0.0
 10
11.6044630547
 20
10.4037957598
 30
0.0
 10
11.6045089074
 20
10.4038362375
 30
0.0
 10
11.6045562701
 20
10.4038621589
 30
0.0
 10
11.6045895764
 20
10.4038692221
 30
0.0
 10
11.604605543
 20
10.4038699647
 30
0.0
  0
SPLINE
  5
2E2
100
AcDbEntity
  8
0
100
AcDbSpline
 62
9
  6
CONTINUOUS
 70
0
 71
3
 72
22
 73
18
 74
0
 42
0.0000001
 43
0.0000001
 44
0.0000000001
 40
0.0
 40
0.0
 40
0.0
 40
0.0
 40
0.2200725924
 40
0.4148076914
 40
0.5827344371
 40
0.6562825398
 40
0.7227103279
 40
0.7819125169
 40
0.8338355806
 40
0.8784551636
 40
0.9157896501
 40
0.9459538429
 40
0.9692818536
 40
0.9786207331
 40
0.986628515
 40
0.9936048966
 40
1.0
 40
1.0
 40
1.0
 40
1.0
 10
12.7273671056
 20
9.7561786562
 30
0.0
 10
12.7279167908
 20
9.7561587149
 30
0.0
 10
12.7289526469
 20
9.7561139881
 30
0.0
 10
12.7304064767
 20
9.7560248091
 30
0.0
 10
12.7314929958
 20
9.7559325958
 30
0.0
 10
12.7322579365
 20
9.7558479634
 30
0.0
 10
12.7327515808
 20
9.755783271
 30
0.0
 10
12.7331900768
 20
9.7557146821
 30
0.0
 10
12.7335726661
 20
9.7556424006
 30
0.0
 10
12.7338986961
 20
9.7555666488
 30
0.0
 10
12.7341678565
 20
9.7554876877
 30
0.0
 10
12.7343797618
 20
9.7554056746
 30
0.0
 10
12.7345186781
 20
9.7553302312
 30
0.0
 10
12.734597772
 20
9.7552658528
 30
0.0
 10
12.7346382497
 20
9.7552200001
 30
0.0
 10
12.7346641711
 20
9.7551726373
 30
0.0
 10
12.7346712343
 20
9.7551393309
 30
0.0
 10
12.7346719769
 20
9.7551233643
 30
0.0
  0
SPLINE
  5
2E3
100
AcDbEntity
  8
0
100
AcDbSpline
 62
9
  6
CONTINUOUS
 70
0
 71
3
 72
23
 73
19
 74
0
 42
0.0000001
 43
0.0000001
 44
0.0000000001
 40
0.0
 40
0.0
 40
0.0
 40
0.0
 40
0.1965908988
 40
0.3793719891
 40
0.4641415097
 40
0.5438287731
 40
0.6179662606
 40
0.6861256472
 40
0.7479625014
 40
0.8031832212
 40
0.8516047411
 40
0.8931521097
 40
0.9279547627
 40
0.9564701891
 40
0.9686903975
 40
0.9798099668
 40
0.9901227966
 40
1.0
 40
1.0
 40
1.0
 40
1.0
 10
12.6680022325
 20
8.7942931873
 30
0.0
 10
12.6695105266
 20
8.7941640494
 30
0.0
 10
12.6724253436
 20
8.7939607717
 30
0.0
 10
12.6759983891
 20
8.7938406322
 30
0.0
 10
12.6786724513
 20
8.7938396072
 30
0.0
 10
12.6805093791
 20
8.7938838322
 30
0.0
 10
12.6822166847
 20
8.7939724259
 30
0.0
 10
12.6837833082
 20
8.7941049796
 30
0.0
 10
12.685199165
 20
8.794280191
 30
0.0
 10
12.6864554424
 20
8.7944970603
 30
0.0
 10
12.6875444482
 20
8.7947536385
 30
0.0
 10
12.6884604918
 20
8.7950484186
 30
0.0
 10
12.6891988951
 20
8.7953796104
 30
0.0
 10
12.6896889271
 20
8.7957017124
 30
0.0
 10
12.6899748885
 20
8.7959822008
 30
0.0
 10
12.6901306695
 20
8.7961908334
 30
0.0
 10
12.6902380116
 20
8.7964083601
 30
0.0
 10
12.6902766906
 20
8.7965604062
 30
0.0
 10
12.6902872304
 20
8.79663573
 30
0.0
  0
SPLINE
  5
2E4
100
AcDbEntity
  8
0
100
AcDbSpline
 62
9
  6
CONTINUOUS
 70
0
 71
3
 72
23
 73
19
 74
0
 42
0.0000001
 43
0.0000001
 44
0.0000000001
 40
0.0
 40
0.0
 40
0.0
 40
0.0
 40
0.0616186898
 40
0.1235602945
 40
0.1857995778
 40
0.2483020835
 40
0.3110253081
 40
0.3739200761
 40
0.436932075
 40
0.5000035055
 40
0.5630748073
 40
0.6260864241
 40
0.6889805677
 40
0.7517029444
 40
0.8142044041
 40
0.8764424752
 40
0.9383827385
 40
1.0
 40
1.0
 40
1.0
 40
1.0
 10
12.0323173636
 20
4.6268187475
 30
0.0
 10
12.0259053705
 20
4.6215259106
 30
0.0
 10
12.0125654002
 20
4.6114823721
 30
0.0
 10
11.9912595741
 20
4.5982115411
 30
0.0
 10
11.9687693764
 20
4.5867955368
 30
0.0
 10
11.9452792531
 20
4.5773281496
 30
0.0
 10
11.920979063
 20
4.5698852865
 30
0.0
 10
11.8960658333
 20
4.5645270643
 30
0.0
 10
11.8707412937
 20
4.561296632
 30
0.0
 10
11.8452105054
 20
4.5602200276
 30
0.0
 10
11.8196801621
 20
4.5613059224
 30
0.0
 10
11.7943569536
 20
4.5645455704
 30
0.0
 10
11.7694459306
 20
4.5699128594
 30
0.0
 10
11.7451488054
 20
4.5773645673
 30
0.0
 10
11.7216625806
 20
4.5868405058
 30
0.0
 10
11.6991770839
 20
4.5982646984
 30
0.0
 10
11.6778767227
 20
4.6115432875
 30
0.0
 10
11.6645408824
 20
4.6215916912
 30
0.0
 10
11.6581310685
 20
4.6268868642
 30
0.0
  0
SPLINE
  5
2E5
100
AcDbEntity
  8
0
100
AcDbSpline
 62
7
  6
CONTINUOUS
 70
0
 71
3
 72
23
 73
19
 74
0
 42
0.0000001
 43
0.0000001
 44
0.0000000001
 40
0.0
 40
0.0
 40
0.0
 40
0.0
 40
0.0605518229
 40
0.1211802674
 40
0.1819587296
 40
0.2429543277
 40
0.3042251762
 40
0.3658181137
 40
0.4277669716
 40
0.4900914447
 40
0.5527965749
 40
0.6158728186
 40
0.6792966604
 40
0.743031718
 40
0.8070301893
 40
0.8712351793
 40
0.9355809003
 40
1.0
 40
1.0
 40
1.0
 40
1.0
 10
12.0952654597
 20
4.9210015548
 30
0.0
 10
12.0952654597
 20
4.9133155745
 30
0.0
 10
12.0944604178
 20
4.8979218104
 30
0.0
 10
12.0908503063
 20
4.8750689431
 30
0.0
 10
12.0848726219
 20
4.8526576139
 30
0.0
 10
12.0765856155
 20
4.830907603
 30
0.0
 10
12.0660699212
 20
4.81002788
 30
0.0
 10
12.0534276791
 20
4.7902198969
 30
0.0
 10
12.0387815207
 20
4.7716741854
 30
0.0
 10
12.0222732726
 20
4.7545689471
 30
0.0
 10
12.004062504
 20
4.7390683121
 30
0.0
 10
11.9843249601
 20
4.7253208501
 30
0.0
 10
11.9632508749
 20
4.7134582062
 30
0.0
 10
11.9410430877
 20
4.7035938932
 30
0.0
 10
11.9179153961
 20
4.695822135
 30
0.0
 10
11.8940894618
 20
4.6902173217
 30
0.0
 10
11.8697967851
 20
4.6868327404
 30
0.0
 10
11.8534423223
 20
4.6860783996
 30
0.0
 10
11.8452654597
 20
4.6860783996
 30
0.0
  0
SPLINE
  5
2E6
100
AcDbEntity
  8
0
100
AcDbSpline
 62
9
  6
CONTINUOUS
 70
0
 71
3
 72
23
 73
19
 74
0
 42
0.0000001
 43
0.0000001
 44
0.0000000001
 40
0.0
 40
0.0
 40
0.0
 40
0.0
 40
0.1965909363
 40
0.3793720573
 40
0.4641415905
 40
0.5438288642
 40
0.6179663596
 40
0.6861257517
 40
0.7479626085
 40
0.8031833277
 40
0.8516048434
 40
0.8931522035
 40
0.9279548428
 40
0.9564702493
 40
0.9686904449
 40
0.9798099997
 40
0.9901228135
 40
1.0
 40
1.0
 40
1.0
 40
1.0
 10
11.0225284281
 20
10.2346318901
 30
0.0
 10
11.0210201341
 20
10.2347610276
 30
0.0
 10
11.0181053175
 20
10.2349643046
 30
0.0
 10
11.0145322724
 20
10.2350844435
 30
0.0
 10
11.0118582106
 20
10.2350854681
 30
0.0
 10
11.0100212831
 20
10.2350412431
 30
0.0
 10
11.0083139778
 20
10.2349526494
 30
0.0
 10
11.0067473547
 20
10.2348200958
 30
0.0
 10
11.0053314982
 20
10.2346448846
 30
0.0
 10
11.0040752212
 20
10.2344280156
 30
0.0
 10
11.0029862157
 20
10.2341714379
 30
0.0
 10
11.0020701724
 20
10.2338766583
 30
0.0
 10
11.0013317695
 20
10.2335454671
 30
0.0
 10
11.0008417378
 20
10.2332233657
 30
0.0
 10
11.0005557766
 20
10.2329428778
 30
0.0
 10
11.0003999957
 20
10.2327342455
 30
0.0
 10
11.0002926537
 20
10.2325167193
 30
0.0
 10
11.0002539748
 20
10.2323646735
 30
0.0
 10
11.000243435
 20
10.2322893499
 30
0.0
  0
SPLINE
  5
2E7
100
AcDbEntity
  8
0
100
AcDbSpline
 62
9
  6
CONTINUOUS
 70
0
 71
3
 72
23
 73
19
 74
0
 42
0.0000001
 43
0.0000001
 44
0.0000000001
 40
0.0
 40
0.0
 40
0.0
 40
0.0
 40
0.196590939
 40
0.3793720626
 40
0.4641415969
 40
0.5438288716
 40
0.6179663678
 40
0.6861257605
 40
0.7479626177
 40
0.803183337
 40
0.8516048524
 40
0.8931522118
 40
0.92795485
 40
0.9564702548
 40
0.9686904493
 40
0.9798100028
 40
0.9901228151
 40
1.0
 40
1.0
 40
1.0
 40
1.0
 10
12.5654339022
 20
10.3372004792
 30
0.0
 10
12.5655630397
 20
10.3387087732
 30
0.0
 10
12.5657663165
 20
10.3416235899
 30
0.0
 10
12.5658864553
 20
10.3451966349
 30
0.0
 10
12.5658874799
 20
10.3478706968
 30
0.0
 10
12.5658432548
 20
10.3497076243
 30
0.0
 10
12.5657546611
 20
10.3514149296
 30
0.0
 10
12.5656221075
 20
10.3529815527
 30
0.0
 10
12.5654468963
 20
10.3543974091
 30
0.0
 10
12.5652300274
 20
10.3556536862
 30
0.0
 10
12.5649734497
 20
10.3567426916
 30
0.0
 10
12.5646786702
 20
10.3576587349
 30
0.0
 10
12.564347479
 20
10.3583971378
 30
0.0
 10
12.5640253777
 20
10.3588871695
 30
0.0
 10
12.5637448898
 20
10.3591731307
 30
0.0
 10
12.5635362576
 20
10.3593289116
 30
0.0
 10
12.5633187314
 20
10.3594362536
 30
0.0
 10
12.5631666857
 20
10.3594749325
 30
0.0
 10
12.563091362
 20
10.3594854723
 30
0.0
  0
SPLINE
  5
2E8
100
AcDbEntity
  8
0
100
AcDbSpline
 62
9
  6
CONTINUOUS
 70
0
 71
3
 72
23
 73
19
 74
0
 42
0.0000001
 43
0.0000001
 44
0.0000000001
 40
0.0
 40
0.0
 40
0.0
 40
0.0
 40
0.1965909016
 40
0.3793719944
 40
0.4641415162
 40
0.5438287805
 40
0.6179662688
 40
0.686125656
 40
0.7479625106
 40
0.8031832305
 40
0.8516047501
 40
0.893152118
 40
0.9279547699
 40
0.9564701946
 40
0.9686904018
 40
0.9798099699
 40
0.9901227982
 40
1.0
 40
1.0
 40
1.0
 40
1.0
 10
11.1250951995
 20
8.6917266748
 30
0.0
 10
11.1249660616
 20
8.6902183807
 30
0.0
 10
11.1247627841
 20
8.6873035637
 30
0.0
 10
11.1246426447
 20
8.6837305182
 30
0.0
 10
11.1246416198
 20
8.6810564559
 30
0.0
 10
11.1246858448
 20
8.6792195281
 30
0.0
 10
11.1247744385
 20
8.6775122225
 30
0.0
 10
11.1249069923
 20
8.6759455991
 30
0.0
 10
11.1250822036
 20
8.6745297423
 30
0.0
 10
11.1252990729
 20
8.6732734649
 30
0.0
 10
11.125555651
 20
8.6721844591
 30
0.0
 10
11.125850431
 20
8.6712684154
 30
0.0
 10
11.1261816228
 20
8.6705300122
 30
0.0
 10
11.1265037247
 20
8.6700399802
 30
0.0
 10
11.1267842131
 20
8.6697540188
 30
0.0
 10
11.1269928457
 20
8.6695982378
 30
0.0
 10
11.1272103723
 20
8.6694908957
 30
0.0
 10
11.1273624184
 20
8.6694522167
 30
0.0
 10
11.1274377421
 20
8.6694416769
 30
0.0
  0
SPLINE
  5
2E9
100
AcDbEntity
  8
0
100
AcDbSpline
 62
9
  6
CONTINUOUS
 70
0
 71
3
 72
11
 73
7
 74
0
 42
0.0000001
 43
0.0000001
 44
0.0000000001
 40
0.0
 40
0.0
 40
0.0
 40
0.0
 40
0.2480103189
 40
0.4999996884
 40
0.7519893454
 40
1.0
 40
1.0
 40
1.0
 40
1.0
 10
12.7220649419
 20
8.6490306406
 30
0.0
 10
12.7212306209
 20
8.6479932849
 30
0.0
 10
12.719488809
 20
8.645949376
 30
0.0
 10
12.7167095759
 20
8.6430196627
 30
0.0
 10
12.7137798701
 20
8.6402404227
 30
0.0
 10
12.7117360144
 20
8.6384985424
 30
0.0
 10
12.7106986608
 20
8.6376642159
 30
0.0
  0
SPLINE
  5
2EA
100
AcDbEntity
  8
0
100
AcDbSpline
 62
9
  6
CONTINUOUS
 70
0
 71
3
 72
15
 73
11
 74
0
 42
0.0000001
 43
0.0000001
 44
0.0000000001
 40
0.0
 40
0.0
 40
0.0
 40
0.0
 40
0.1247065871
 40
0.2496682568
 40
0.3747846423
 40
0.4999974712
 40
0.6252097835
 40
0.7503241054
 40
0.8752852887
 40
1.0
 40
1.0
 40
1.0
 40
1.0
 10
12.6532016091
 20
8.6818287825
 30
0.0
 10
12.6547245386
 20
8.6820921755
 30
0.0
 10
12.6577377528
 20
8.6828569606
 30
0.0
 10
12.6620274735
 20
8.6846832363
 30
0.0
 10
12.6659939523
 20
8.6871473615
 30
0.0
 10
12.6695408447
 20
8.6901888533
 30
0.0
 10
12.6725827197
 20
8.6937353827
 30
0.0
 10
12.6750473547
 20
8.6977014822
 30
0.0
 10
12.6768741742
 20
8.7019911109
 30
0.0
 10
12.6776384614
 20
8.7050045481
 30
0.0
 10
12.6779019403
 20
8.7065275649
 30
0.0
  0
SPLINE
  5
2EB
100
AcDbEntity
  8
0
100
AcDbSpline
 62
9
  6
CONTINUOUS
 70
0
 71
3
 72
11
 73
7
 74
0
 42
0.0000001
 43
0.0000001
 44
0.0000000001
 40
0.0
 40
0.0
 40
0.0
 40
0.0
 40
0.2480101927
 40
0.4999994316
 40
0.7519892191
 40
1.0
 40
1.0
 40
1.0
 40
1.0
 10
12.7106978395
 20
10.3912632262
 30
0.0
 10
12.7117352046
 20
10.3904289179
 30
0.0
 10
12.7137791325
 20
10.3886871303
 30
0.0
 10
12.7167088772
 20
10.3859079312
 30
0.0
 10
12.7194881512
 20
10.3829782565
 30
0.0
 10
12.7212300557
 20
10.3809344196
 30
0.0
 10
12.722064395
 20
10.3798970753
 30
0.0
  0
SPLINE
  5
2EC
100
AcDbEntity
  8
0
100
AcDbSpline
 62
9
  6
CONTINUOUS
 70
0
 71
3
 72
15
 73
11
 74
0
 42
0.0000001
 43
0.0000001
 44
0.0000000001
 40
0.0
 40
0.0
 40
0.0
 40
0.0
 40
0.1247065593
 40
0.2496682104
 40
0.3747845871
 40
0.4999974162
 40
0.6252097365
 40
0.7503240723
 40
0.8752852723
 40
1.0
 40
1.0
 40
1.0
 40
1.0
 10
12.6779001177
 20
10.3223996506
 30
0.0
 10
12.6776367242
 20
10.3239225791
 30
0.0
 10
12.6768719381
 20
10.3269357913
 30
0.0
 10
12.6750456617
 20
10.331225509
 30
0.0
 10
12.6725815362
 20
10.3351919853
 30
0.0
 10
12.6695400445
 20
10.3387388755
 30
0.0
 10
12.6659935157
 20
10.341780749
 30
0.0
 10
12.6620274172
 20
10.3442453831
 30
0.0
 10
12.6577377897
 20
10.3460722024
 30
0.0
 10
12.6547243533
 20
10.3468364899
 30
0.0
 10
12.653201337
 20
10.3470999693
 30
0.0
  0
SPLINE
  5
2ED
100
AcDbEntity
  8
0
100
AcDbSpline
 62
9
  6
CONTINUOUS
 70
0
 71
3
 72
11
 73
7
 74
0
 42
0.0000001
 43
0.0000001
 44
0.0000000001
 40
0.0
 40
0.0
 40
0.0
 40
0.0
 40
0.2480103189
 40
0.4999996884
 40
0.7519893454
 40
1.0
 40
1.0
 40
1.0
 40
1.0
 10
10.9684659776
 20
10.3798962545
 30
0.0
 10
10.9693002986
 20
10.3809336103
 30
0.0
 10
10.9710421105
 20
10.3829775192
 30
0.0
 10
10.9738213436
 20
10.3859072324
 30
0.0
 10
10.9767510494
 20
10.3886864725
 30
0.0
 10
10.9787949051
 20
10.3904283527
 30
0.0
 10
10.9798322587
 20
10.3912626792
 30
0.0
  0
SPLINE
  5
2EE
100
AcDbEntity
  8
0
100
AcDbSpline
 62
9
  6
CONTINUOUS
 70
0
 71
3
 72
15
 73
11
 74
0
 42
0.0000001
 43
0.0000001
 44
0.0000000001
 40
0.0
 40
0.0
 40
0.0
 40
0.0
 40
0.1247065759
 40
0.2496682437
 40
0.374784634
 40
0.4999974711
 40
0.6252097915
 40
0.750324118
 40
0.8752852993
 40
1.0
 40
1.0
 40
1.0
 40
1.0
 10
11.0373292656
 20
10.3470981471
 30
0.0
 10
11.0358063372
 20
10.3468347534
 30
0.0
 10
11.0327931252
 20
10.3460699671
 30
0.0
 10
11.0285034078
 20
10.3442436907
 30
0.0
 10
11.0245369317
 20
10.3417795658
 30
0.0
 10
11.0209900414
 20
10.3387380753
 30
0.0
 10
11.0179481676
 20
10.3351915479
 30
0.0
 10
11.0154835329
 20
10.3312254512
 30
0.0
 10
11.0136567128
 20
10.3269358258
 30
0.0
 10
11.0128924245
 20
10.3239223908
 30
0.0
 10
11.0126289448
 20
10.3223993751
 30
0.0
  0
SPLINE
  5
2EF
100
AcDbEntity
  8
0
100
AcDbSpline
 62
9
  6
CONTINUOUS
 70
0
 71
3
 72
23
 73
19
 74
0
 42
0.0000001
 43
0.0000001
 44
0.0000000001
 40
0.0
 40
0.0
 40
0.0
 40
0.0
 40
0.0605518229
 40
0.1211802674
 40
0.1819587296
 40
0.2429543277
 40
0.3042251762
 40
0.3658181137
 40
0.4277669716
 40
0.4900914447
 40
0.5527965749
 40
0.6158728186
 40
0.6792966604
 40
0.743031718
 40
0.8070301893
 40
0.8712351793
 40
0.9355809003
 40
1.0
 40
1.0
 40
1.0
 40
1.0
 10
12.0952654597
 20
5.1501550508
 30
0.0
 10
12.0952654597
 20
5.1424690705
 30
0.0
 10
12.0944604178
 20
5.1270753064
 30
0.0
 10
12.0908503063
 20
5.1042224391
 30
0.0
 10
12.0848726219
 20
5.0818111099
 30
0.0
 10
12.0765856155
 20
5.060061099
 30
0.0
 10
12.0660699212
 20
5.039181376
 30
0.0
 10
12.0534276791
 20
5.019373393
 30
0.0
 10
12.0387815207
 20
5.0008276815
 30
0.0
 10
12.0222732726
 20
4.9837224431
 30
0.0
 10
12.004062504
 20
4.9682218081
 30
0.0
 10
11.9843249601
 20
4.9544743461
 30
0.0
 10
11.9632508749
 20
4.9426117023
 30
0.0
 10
11.9410430877
 20
4.9327473892
 30
0.0
 10
11.9179153961
 20
4.924975631
 30
0.0
 10
11.8940894618
 20
4.9193708178
 30
0.0
 10
11.8697967851
 20
4.9159862364
 30
0.0
 10
11.8534423223
 20
4.9152318956
 30
0.0
 10
11.8452654597
 20
4.9152318956
 30
0.0
  0
SPLINE
  5
2F0
100
AcDbEntity
  8
0
100
AcDbSpline
 62
9
  6
CONTINUOUS
 70
0
 71
3
 72
11
 73
7
 74
0
 42
0.0000001
 43
0.0000001
 44
0.0000000001
 40
0.0
 40
0.0
 40
0.0
 40
0.0
 40
0.2480104286
 40
0.4999999553
 40
0.7519894873
 40
1.0
 40
1.0
 40
1.0
 40
1.0
 10
10.9798322327
 20
8.6376642562
 30
0.0
 10
10.9787948841
 20
8.6384985867
 30
0.0
 10
10.9767510032
 20
8.6402404335
 30
0.0
 10
10.9738213186
 20
8.6430196962
 30
0.0
 10
10.9710420967
 20
8.6459494179
 30
0.0
 10
10.9693002367
 20
8.6479932886
 30
0.0
 10
10.96846592
 20
8.6490306489
 30
0.0
  0
SPLINE
  5
2F1
100
AcDbEntity
  8
0
100
AcDbSpline
 62
9
  6
CONTINUOUS
 70
0
 71
3
 72
15
 73
11
 74
0
 42
0.0000001
 43
0.0000001
 44
0.0000000001
 40
0.0
 40
0.0
 40
0.0
 40
0.0
 40
0.124709104
 40
0.2496695978
 40
0.3747846329
 40
0.499997279
 40
0.6252105846
 40
0.7503272409
 40
0.8752898698
 40
1.0
 40
1.0
 40
1.0
 40
1.0
 10
11.0126289131
 20
8.7065271833
 30
0.0
 10
11.0128923285
 20
8.7050041746
 30
0.0
 10
11.0136567901
 20
8.7019907586
 30
0.0
 10
11.0154832773
 20
8.697700927
 30
0.0
 10
11.0179476765
 20
8.6937344828
 30
0.0
 10
11.0209894608
 20
8.690187647
 30
0.0
 10
11.0245363022
 20
8.6871458396
 30
0.0
 10
11.0285027809
 20
8.6846813896
 30
0.0
 10
11.0327926149
 20
8.6828547978
 30
0.0
 10
11.0358060078
 20
8.6820900659
 30
0.0
 10
11.0373290256
 20
8.6818266286
 30
0.0
  0
SPLINE
  5
2F2
100
AcDbEntity
  8
0
100
AcDbSpline
 62
9
  6
CONTINUOUS
 70
0
 71
3
 72
23
 73
19
 74
0
 42
0.0000001
 43
0.0000001
 44
0.0000000001
 40
0.0
 40
0.0
 40
0.0
 40
0.0
 40
0.1965909344
 40
0.3793720535
 40
0.4641415855
 40
0.5438288582
 40
0.6179663525
 40
0.6861257436
 40
0.7479625994
 40
0.8031833178
 40
0.851604833
 40
0.8931521929
 40
0.9279548328
 40
0.9564702409
 40
0.968690438
 40
0.9798099946
 40
0.9901228107
 40
1.0
 40
1.0
 40
1.0
 40
1.0
 10
11.1250970173
 20
10.3372004792
 30
0.0
 10
11.1249678797
 20
10.3387087732
 30
0.0
 10
11.1247646027
 20
10.3416235898
 30
0.0
 10
11.1246444638
 20
10.3451966349
 30
0.0
 10
11.124643439
 20
10.3478706967
 30
0.0
 10
11.124687664
 20
10.3497076242
 30
0.0
 10
11.1247762577
 20
10.3514149295
 30
0.0
 10
11.1249088113
 20
10.3529815526
 30
0.0
 10
11.1250840224
 20
10.354397409
 30
0.0
 10
11.1253008914
 20
10.3556536861
 30
0.0
 10
11.1255574691
 20
10.3567426915
 30
0.0
 10
11.1258522487
 20
10.3576587349
 30
0.0
 10
11.12618344
 20
10.3583971378
 30
0.0
 10
11.1265055414
 20
10.3588871695
 30
0.0
 10
11.1267860294
 20
10.3591731307
 30
0.0
 10
11.1269946617
 20
10.3593289116
 30
0.0
 10
11.127212188
 20
10.3594362536
 30
0.0
 10
11.1273642338
 20
10.3594749325
 30
0.0
 10
11.1274395575
 20
10.3594854723
 30
0.0
  0
SPLINE
  5
2F3
100
AcDbEntity
  8
0
100
AcDbSpline
 62
9
  6
CONTINUOUS
 70
0
 71
3
 72
22
 73
18
 74
0
 42
0.0000001
 43
0.0000001
 44
0.0000000001
 40
0.0
 40
0.0
 40
0.0
 40
0.0
 40
0.2200651646
 40
0.4147942577
 40
0.5827165507
 40
0.6562630703
 40
0.7226897459
 40
0.7818913331
 40
0.8338143582
 40
0.8784345427
 40
0.915770388
 40
0.9459368936
 40
0.9692685397
 40
0.9786099243
 40
0.9866207731
 40
0.9936008068
 40
1.0
 40
1.0
 40
1.0
 40
1.0
 10
12.0869813826
 20
10.3965648789
 30
0.0
 10
12.08696144
 20
10.3971145778
 30
0.0
 10
12.0869167017
 20
10.398150461
 30
0.0
 10
12.086827477
 20
10.3996043292
 30
0.0
 10
12.0867352038
 20
10.4006908777
 30
0.0
 10
12.0866505111
 20
10.4014558393
 30
0.0
 10
12.0865857709
 20
10.4019494986
 30
0.0
 10
12.0865171301
 20
10.4023880086
 30
0.0
 10
12.0864447933
 20
10.4027706107
 30
0.0
 10
12.0863689836
 20
10.4030966526
 30
0.0
 10
12.0862899624
 20
10.403365824
 30
0.0
 10
12.0862078877
 20
10.4035777397
 30
0.0
 10
12.0861323883
 20
10.4037166611
 30
0.0
 10
12.086067965
 20
10.403795756
 30
0.0
 10
12.0860220785
 20
10.4038362359
 30
0.0
 10
12.0859746819
 20
10.4038621581
 30
0.0
 10
12.0859413542
 20
10.4038692216
 30
0.0
 10
12.0859253765
 20
10.4038699647
 30
0.0
  0
SPLINE
  5
2F4
100
AcDbEntity
  8
0
100
AcDbSpline
 62
9
  6
CONTINUOUS
 70
0
 71
3
 72
20
 73
16
 74
0
 42
0.0000001
 43
0.0000001
 44
0.0000000001
 40
0.0
 40
0.0
 40
0.0
 40
0.0
 40
0.18023313
 40
0.3500460935
 40
0.5060075721
 40
0.5779086465
 40
0.6453130076
 40
0.7079186428
 40
0.7654901484
 40
0.8178289052
 40
0.8647976763
 40
0.9063509025
 40
0.9425331182
 40
0.9735778067
 40
1.0
 40
1.0
 40
1.0
 40
1.0
 10
12.6556880209
 20
10.3248866871
 30
0.0
 10
12.6557788313
 20
10.3262486926
 30
0.0
 10
12.6559113929
 20
10.3288971518
 30
0.0
 10
12.6559664989
 20
10.3327299023
 30
0.0
 10
12.6558861874
 20
10.335741916
 30
0.0
 10
12.6557392478
 20
10.3379735943
 30
0.0
 10
12.6555950366
 20
10.3394962341
 30
0.0
 10
12.655414528
 20
10.3409057013
 30
0.0
 10
12.6551988458
 20
10.342194743
 30
0.0
 10
12.6549490058
 20
10.3433568465
 30
0.0
 10
12.6546662138
 20
10.3443862428
 30
0.0
 10
12.6543526989
 20
10.3452781464
 30
0.0
 10
12.6540098038
 20
10.3460289926
 30
0.0
 10
12.6536387423
 20
10.3466357171
 30
0.0
 10
12.6533506149
 20
10.3469666971
 30
0.0
 10
12.653201337
 20
10.3470999693
 30
0.0
  0
SPLINE
  5
2F5
100
AcDbEntity
  8
0
100
AcDbSpline
 62
9
  6
CONTINUOUS
 70
0
 71
3
 72
20
 73
16
 74
0
 42
0.0000001
 43
0.0000001
 44
0.0000000001
 40
0.0
 40
0.0
 40
0.0
 40
0.0
 40
0.180223207
 40
0.3500262288
 40
0.5059820915
 40
0.5778795824
 40
0.6452803782
 40
0.7078831623
 40
0.7654518967
 40
0.8177865008
 40
0.8647500903
 40
0.9063025696
 40
0.9424966121
 40
0.9735632945
 40
1.0
 40
1.0
 40
1.0
 40
1.0
 10
12.6556880209
 20
10.3248866871
 30
0.0
 10
12.6570499395
 20
10.3249774944
 30
0.0
 10
12.6596981572
 20
10.3251112195
 30
0.0
 10
12.6635307001
 20
10.3251668382
 30
0.0
 10
12.6665425299
 20
10.3250860987
 30
0.0
 10
12.6687740941
 20
10.3249392241
 30
0.0
 10
12.6702966488
 20
10.3247950469
 30
0.0
 10
12.671706029
 20
10.3246144968
 30
0.0
 10
12.6729949775
 20
10.3243987805
 30
0.0
 10
12.6741569972
 20
10.3241490491
 30
0.0
 10
12.6751863633
 20
10.3238664749
 30
0.0
 10
12.6760783149
 20
10.3235529504
 30
0.0
 10
12.6768291679
 20
10.3232094345
 30
0.0
 10
12.6774357834
 20
10.3228374943
 30
0.0
 10
12.6777667694
 20
10.3225490057
 30
0.0
 10
12.6779001177
 20
10.3223996506
 30
0.0
  0
SPLINE
  5
2F6
100
AcDbEntity
  8
0
100
AcDbSpline
 62
9
  6
CONTINUOUS
 70
0
 71
3
 72
23
 73
19
 74
0
 42
0.0000001
 43
0.0000001
 44
0.0000000001
 40
0.0
 40
0.0
 40
0.0
 40
0.0
 40
0.196590897
 40
0.3793719853
 40
0.4641415049
 40
0.5438287672
 40
0.6179662536
 40
0.6861256392
 40
0.7479624925
 40
0.8031832114
 40
0.8516047309
 40
0.8931520993
 40
0.9279547528
 40
0.9564701809
 40
0.9686903907
 40
0.9798099618
 40
0.9901227939
 40
1.0
 40
1.0
 40
1.0
 40
1.0
 10
12.6680022325
 20
10.2346337078
 30
0.0
 10
12.6695105266
 20
10.2347628458
 30
0.0
 10
12.6724253436
 20
10.2349661234
 30
0.0
 10
12.6759983891
 20
10.235086263
 30
0.0
 10
12.6786724513
 20
10.235087288
 30
0.0
 10
12.6805093791
 20
10.2350430631
 30
0.0
 10
12.6822166847
 20
10.2349544694
 30
0.0
 10
12.6837833081
 20
10.2348219158
 30
0.0
 10
12.6851991649
 20
10.2346467044
 30
0.0
 10
12.6864554423
 20
10.2344298351
 30
0.0
 10
12.6875444481
 20
10.234173257
 30
0.0
 10
12.6884604918
 20
10.2338784769
 30
0.0
 10
12.6891988951
 20
10.233547285
 30
0.0
 10
12.689688927
 20
10.233225183
 30
0.0
 10
12.6899748884
 20
10.2329446945
 30
0.0
 10
12.6901306695
 20
10.2327360618
 30
0.0
 10
12.6902380116
 20
10.2325185351
 30
0.0
 10
12.6902766906
 20
10.232366489
 30
0.0
 10
12.6902872304
 20
10.2322911652
 30
0.0
  0
SPLINE
  5
2F7
100
AcDbEntity
  8
0
100
AcDbSpline
 62
9
  6
CONTINUOUS
 70
0
 71
3
 72
11
 73
7
 74
0
 42
0.0000001
 43
0.0000001
 44
0.0000000001
 40
0.0
 40
0.0
 40
0.0
 40
0.0
 40
0.2478348608
 40
0.5000000014
 40
0.7521651414
 40
1.0
 40
1.0
 40
1.0
 40
1.0
 10
9.9383029016
 20
9.2913594717
 30
0.0
 10
9.9393280761
 20
9.2919594592
 30
0.0
 10
9.9413165004
 20
9.2933112648
 30
0.0
 10
9.9440253429
 20
9.2957035644
 30
0.0
 10
9.9464176427
 20
9.2984124068
 30
0.0
 10
9.9477694482
 20
9.3004008312
 30
0.0
 10
9.9483694356
 20
9.3014260058
 30
0.0
  0
SPLINE
  5
2F8
100
AcDbEntity
  8
0
100
AcDbSpline
 62
9
  6
CONTINUOUS
 70
0
 71
3
 72
22
 73
18
 74
0
 42
0.0000001
 43
0.0000001
 44
0.0000000001
 40
0.0
 40
0.0
 40
0.0
 40
0.0
 40
0.220072593
 40
0.4148076928
 40
0.5827344394
 40
0.6562825425
 40
0.7227103312
 40
0.7819125206
 40
0.8338355847
 40
0.878455168
 40
0.9157896547
 40
0.9459538473
 40
0.9692818574
 40
0.9786207363
 40
0.9866285174
 40
0.9936048979
 40
1.0
 40
1.0
 40
1.0
 40
1.0
 10
12.7273671056
 20
9.2727482388
 30
0.0
 10
12.7279167907
 20
9.2727681801
 30
0.0
 10
12.7289526469
 20
9.2728129069
 30
0.0
 10
12.7304064766
 20
9.272902086
 30
0.0
 10
12.7314929958
 20
9.2729942993
 30
0.0
 10
12.7322579365
 20
9.2730789318
 30
0.0
 10
12.7327515807
 20
9.2731436242
 30
0.0
 10
12.7331900768
 20
9.2732122131
 30
0.0
 10
12.7335726661
 20
9.2732844946
 30
0.0
 10
12.7338986961
 20
9.2733602464
 30
0.0
 10
12.7341678565
 20
9.2734392075
 30
0.0
 10
12.7343797618
 20
9.2735212206
 30
0.0
 10
12.7345186781
 20
9.2735966639
 30
0.0
 10
12.734597772
 20
9.2736610423
 30
0.0
 10
12.7346382497
 20
9.2737068951
 30
0.0
 10
12.7346641711
 20
9.2737542579
 30
0.0
 10
12.7346712343
 20
9.2737875642
 30
0.0
 10
12.7346719769
 20
9.2738035308
 30
0.0
  0
SPLINE
  5
2F9
100
AcDbEntity
  8
0
100
AcDbSpline
 62
9
  6
CONTINUOUS
 70
0
 71
3
 72
20
 73
16
 74
0
 42
0.0000001
 43
0.0000001
 44
0.0000000001
 40
0.0
 40
0.0
 40
0.0
 40
0.0
 40
0.1802333884
 40
0.3500465578
 40
0.5060081689
 40
0.5779092772
 40
0.6453136488
 40
0.7079192701
 40
0.7654907356
 40
0.8178294234
 40
0.8647980986
 40
0.9063512145
 40
0.9425333247
 40
0.9735779154
 40
1.0
 40
1.0
 40
1.0
 40
1.0
 10
12.6556886455
 20
8.7040408795
 30
0.0
 10
12.657050654
 20
8.7039500681
 30
0.0
 10
12.6596991189
 20
8.7038175044
 30
0.0
 10
12.6635318771
 20
8.7037623961
 30
0.0
 10
12.6665438962
 20
8.7038427063
 30
0.0
 10
12.6687755777
 20
8.7039896453
 30
0.0
 10
12.670298219
 20
8.7041338564
 30
0.0
 10
12.6717076871
 20
8.7043143651
 30
0.0
 10
12.672996729
 20
8.7045300476
 30
0.0
 10
12.6741588319
 20
8.7047798878
 30
0.0
 10
12.6751882269
 20
8.7050626801
 30
0.0
 10
12.6760801286
 20
8.7053761958
 30
0.0
 10
12.6768309721
 20
8.7057190929
 30
0.0
 10
12.6774376928
 20
8.7060901572
 30
0.0
 10
12.6777686698
 20
8.7063782863
 30
0.0
 10
12.6779019403
 20
8.7065275649
 30
0.0
  0
SPLINE
  5
2FA
100
AcDbEntity
  8
0
100
AcDbSpline
 62
9
  6
CONTINUOUS
 70
0
 71
3
 72
11
 73
7
 74
0
 42
0.0000001
 43
0.0000001
 44
0.0000000001
 40
0.0
 40
0.0
 40
0.0
 40
0.0
 40
0.2478348599
 40
0.4999999996
 40
0.7521651388
 40
1.0
 40
1.0
 40
1.0
 40
1.0
 10
9.5021614839
 20
9.3014260058
 30
0.0
 10
9.5027614713
 20
9.3004008313
 30
0.0
 10
9.504113277
 20
9.2984124069
 30
0.0
 10
9.5065055766
 20
9.2957035644
 30
0.0
 10
9.509214419
 20
9.2933112647
 30
0.0
 10
9.5112028434
 20
9.2919594591
 30
0.0
 10
9.5122280179
 20
9.2913594717
 30
0.0
  0
SPLINE
  5
2FB
100
AcDbEntity
  8
0
100
AcDbSpline
 62
9
  6
CONTINUOUS
 70
0
 71
3
 72
20
 73
16
 74
0
 42
0.0000001
 43
0.0000001
 44
0.0000000001
 40
0.0
 40
0.0
 40
0.0
 40
0.0
 40
0.1802232165
 40
0.3500262459
 40
0.5059821137
 40
0.577879606
 40
0.6452804023
 40
0.7078831862
 40
0.7654519193
 40
0.8177865213
 40
0.8647501077
 40
0.9063025833
 40
0.9424966215
 40
0.9735632993
 40
1.0
 40
1.0
 40
1.0
 40
1.0
 10
12.6556886455
 20
8.7040408795
 30
0.0
 10
12.6557794528
 20
8.7026789608
 30
0.0
 10
12.6559131779
 20
8.7000307429
 30
0.0
 10
12.6559687967
 20
8.6961981998
 30
0.0
 10
12.6558880572
 20
8.6931863699
 30
0.0
 10
12.6557411827
 20
8.6909548056
 30
0.0
 10
12.6555970055
 20
8.6894322509
 30
0.0
 10
12.6554164554
 20
8.6880228706
 30
0.0
 10
12.655200739
 20
8.6867339221
 30
0.0
 10
12.6549510076
 20
8.6855719025
 30
0.0
 10
12.6546684335
 20
8.6845425364
 30
0.0
 10
12.654354909
 20
8.6836505848
 30
0.0
 10
12.6540113931
 20
8.682899732
 30
0.0
 10
12.6536394528
 20
8.6822931166
 30
0.0
 10
12.6533509642
 20
8.6819621307
 30
0.0
 10
12.6532016091
 20
8.6818287825
 30
0.0
  0
SPLINE
  5
2FC
100
AcDbEntity
  8
0
100
AcDbSpline
 62
9
  6
CONTINUOUS
 70
0
 71
3
 72
23
 73
19
 74
0
 42
0.0000001
 43
0.0000001
 44
0.0000000001
 40
0.0
 40
0.0
 40
0.0
 40
0.0
 40
0.196590897
 40
0.3793719852
 40
0.4641415048
 40
0.5438287671
 40
0.6179662535
 40
0.6861256391
 40
0.7479624923
 40
0.8031832113
 40
0.8516047307
 40
0.8931520991
 40
0.9279547527
 40
0.9564701808
 40
0.9686903905
 40
0.9798099617
 40
0.9901227938
 40
1.0
 40
1.0
 40
1.0
 40
1.0
 10
12.56543572
 20
8.6917266748
 30
0.0
 10
12.565564858
 20
8.6902183807
 30
0.0
 10
12.5657681356
 20
8.6873035637
 30
0.0
 10
12.5658882752
 20
8.6837305183
 30
0.0
 10
12.5658893002
 20
8.681056456
 30
0.0
 10
12.5658450753
 20
8.6792195282
 30
0.0
 10
12.5657564816
 20
8.6775122226
 30
0.0
 10
12.5656239279
 20
8.6759455992
 30
0.0
 10
12.5654487166
 20
8.6745297424
 30
0.0
 10
12.5652318473
 20
8.673273465
 30
0.0
 10
12.5649752692
 20
8.6721844592
 30
0.0
 10
12.5646804891
 20
8.6712684155
 30
0.0
 10
12.5643492972
 20
8.6705300122
 30
0.0
 10
12.5640271951
 20
8.6700399803
 30
0.0
 10
12.5637467067
 20
8.6697540189
 30
0.0
 10
12.563538074
 20
8.6695982378
 30
0.0
 10
12.5633205473
 20
8.6694908957
 30
0.0
 10
12.5631685012
 20
8.6694522167
 30
0.0
 10
12.5630931774
 20
8.6694416769
 30
0.0
  0
SPLINE
  5
2FD
100
AcDbEntity
  8
0
100
AcDbSpline
 62
9
  6
CONTINUOUS
 70
0
 71
3
 72
11
 73
7
 74
0
 42
0.0000001
 43
0.0000001
 44
0.0000000001
 40
0.0
 40
0.0
 40
0.0
 40
0.0
 40
0.2478348599
 40
0.4999999996
 40
0.7521651388
 40
1.0
 40
1.0
 40
1.0
 40
1.0
 10
9.5122280179
 20
9.7375674234
 30
0.0
 10
9.5112028434
 20
9.736967436
 30
0.0
 10
9.5092144191
 20
9.7356156304
 30
0.0
 10
9.5065055766
 20
9.7332233307
 30
0.0
 10
9.5041132768
 20
9.7305144883
 30
0.0
 10
9.5027614713
 20
9.7285260639
 30
0.0
 10
9.5021614839
 20
9.7275008894
 30
0.0
  0
SPLINE
  5
2FE
100
AcDbEntity
  8
0
100
AcDbSpline
 62
9
  6
CONTINUOUS
 70
0
 71
3
 72
20
 73
16
 74
0
 42
0.0000001
 43
0.0000001
 44
0.0000000001
 40
0.0
 40
0.0
 40
0.0
 40
0.0
 40
0.1802212623
 40
0.3500245318
 40
0.5059782211
 40
0.5778762994
 40
0.6452784556
 40
0.7078827634
 40
0.7654532659
 40
0.8177903553
 40
0.8647571687
 40
0.9063120906
 40
0.9425052348
 40
0.9735673976
 40
1.0
 40
1.0
 40
1.0
 40
1.0
 10
11.0348417558
 20
8.7040408506
 30
0.0
 10
11.0347509294
 20
8.7026788522
 30
0.0
 10
11.0346183215
 20
8.7000303958
 30
0.0
 10
11.0345631495
 20
8.696197633
 30
0.0
 10
11.0346433901
 20
8.6931855879
 30
0.0
 10
11.0347902624
 20
8.6909538661
 30
0.0
 10
11.0349344426
 20
8.6894311784
 30
0.0
 10
11.0351149515
 20
8.6880216575
 30
0.0
 10
11.0353306153
 20
8.6867325629
 30
0.0
 10
11.0355803416
 20
8.6855703982
 30
0.0
 10
11.0358629555
 20
8.6845409012
 30
0.0
 10
11.0361764517
 20
8.6836488357
 30
0.0
 10
11.0365197386
 20
8.6828978476
 30
0.0
 10
11.0368913555
 20
8.6822910643
 30
0.0
 10
11.037179703
 20
8.6819599876
 30
0.0
 10
11.0373290256
 20
8.6818266286
 30
0.0
  0
SPLINE
  5
2FF
100
AcDbEntity
  8
0
100
AcDbSpline
 62
9
  6
CONTINUOUS
 70
0
 71
3
 72
11
 73
7
 74
0
 42
0.0000001
 43
0.0000001
 44
0.0000000001
 40
0.0
 40
0.0
 40
0.0
 40
0.0
 40
0.2478348608
 40
0.5000000014
 40
0.7521651414
 40
1.0
 40
1.0
 40
1.0
 40
1.0
 10
9.9483694356
 20
9.7275008894
 30
0.0
 10
9.9477694482
 20
9.7285260639
 30
0.0
 10
9.9464176425
 20
9.7305144883
 30
0.0
 10
9.9440253429
 20
9.7332233307
 30
0.0
 10
9.9413165005
 20
9.7356156305
 30
0.0
 10
9.9393280761
 20
9.7369674361
 30
0.0
 10
9.9383029016
 20
9.7375674234
 30
0.0
  0
SPLINE
  5
300
100
AcDbEntity
  8
0
100
AcDbSpline
 62
9
  6
CONTINUOUS
 70
0
 71
3
 72
20
 73
16
 74
0
 42
0.0000001
 43
0.0000001
 44
0.0000000001
 40
0.0
 40
0.0
 40
0.0
 40
0.0
 40
0.1802309221
 40
0.3500406963
 40
0.5060047607
 40
0.5779044761
 40
0.6453062814
 40
0.7079092548
 40
0.7654775759
 40
0.817811305
 40
0.8647732572
 40
0.9063221408
 40
0.9425093056
 40
0.9735677533
 40
1.0
 40
1.0
 40
1.0
 40
1.0
 10
11.0348417558
 20
8.7040408506
 30
0.0
 10
11.03347972
 20
8.7039500458
 30
0.0
 10
11.0308313439
 20
8.7038152251
 30
0.0
 10
11.0269984479
 20
8.7037591339
 30
0.0
 10
11.0239863725
 20
8.7038403438
 30
0.0
 10
11.0217546294
 20
8.7039872412
 30
0.0
 10
11.0202319834
 20
8.7041314266
 30
0.0
 10
11.0188225404
 20
8.7043120135
 30
0.0
 10
11.0175335545
 20
8.7045277974
 30
0.0
 10
11.0163715253
 20
8.7047776229
 30
0.0
 10
11.0153421876
 20
8.7050602993
 30
0.0
 10
11.0144503147
 20
8.7053738901
 30
0.0
 10
11.0136995742
 20
8.7057173922
 30
0.0
 10
11.0130930761
 20
8.7060893022
 30
0.0
 10
11.0127622026
 20
8.7063778096
 30
0.0
 10
11.0126289131
 20
8.7065271833
 30
0.0
  0
ENDSEC
  0
SECTION
  2
OBJECTS
  0
DICTIONARY
  5
C
100
AcDbDictionary
280
0
281
1
  3
ACAD_GROUP
350
D
  3
ACAD_MLINESTYLE
350
17
  3
ACAD_LAYOUT
350
1A
  3
ACAD_PLOTSETTINGS
350
19
  3
ACAD_PLOTSTYLENAME
350
E
  0
DICTIONARY
  5
D
102
{ACAD_REACTORS
330
C
102
}
100
AcDbDictionary
280
0
281
1
  0
ACDBDICTIONARYWDFLT
  5
E
102
{ACAD_REACTORS
330
C
102
}
100
AcDbDictionary
281
1
  3
Normal
350
F
100
AcDbDictionaryWithDefault
340
F
  0
DICTIONARY
  5
17
102
{ACAD_REACTORS
330
C
102
}
100
AcDbDictionary
280
0
281
1
  3
Standard
350
18
  0
DICTIONARY
  5
19
102
{ACAD_REACTORS
330
C
102
}
100
AcDbDictionary
281
1
  0
DICTIONARY
  5
1A
102
{ACAD_REACTORS
330
C
102
}
100
AcDbDictionary
281
1
  3
Model
350
301
  3
Layout1
350
302
  0
ACDBPLACEHOLDER
  5
F
102
{ACAD_REACTORS
330
E
102
}
  0
MLINESTYLE
  5
18
102
{ACAD_REACTORS
330
17
102
}
100
AcDbMlineStyle
  2
STANDARD
 70
0
  3

 62
256
 51
90.0
 52
90.0
 71
2
 49
0.5
 62
256
  6
BYLAYER
 49
-0.5
 62
256
  6
BYLAYER
  0
LAYOUT
  5
301
102
{ACAD_REACTORS
330
1A
102
}
100
AcDbPlotSettings
  1

  2
none_device
  4
ANSI_C_(22.00_x_17.00_Inches)
  6

 40
0.0
 41
0.0
 42
0.0
 43
0.0
 44
558.8
 45
431.8
 46
0.0
 47
0.0
 48
0.0
 49
0.0
140
0.0
141
0.0
142
1.0
143
1.0
 70
1024
 72
0
 73
0
 74
0
  7

 75
0
147
1.0
148
0.0
149
0.0
100
AcDbLayout
  1
Model
 70
0
 71
0
 10
0.0
 20
0.0
 11
22.0
 21
17.0
 12
0.0
 22
0.0
 32
0.0
 14
0.0
 24
0.0
 34
0.0
 15
0.0
 25
0.0
 35
0.0
146
0.0
 13
0.0
 23
0.0
 33
0.0
 16
1.0
 26
0.0
 36
0.0
 17
0.0
 27
1.0
 37
0.0
 76
0
330
205
345
0
346
0
  0
LAYOUT
  5
302
102
{ACAD_REACTORS
330
1A
102
}
100
AcDbPlotSettings
  1

  2
none_device
  4
ANSI_C_(22.00_x_17.00_Inches)
  6

 40
0.0
 41
0.0
 42
0.0
 43
0.0
 44
558.8
 45
431.8
 46
0.0
 47
0.0
 48
0.0
 49
0.0
140
0.0
141
0.0
142
1.0
143
1.0
 70
0
 72
0
 73
0
 74
0
  7

 75
0
147
1.0
148
0.0
149
0.0
100
AcDbLayout
  1
Layout1
 70
0
 71
1
 10
0.0
 20
0.0
 11
22.0
 21
17.0
 12
0.0
 22
0.0
 32
0.0
 14
0.0
 24
0.0
 34
0.0
 15
0.0
 25
0.0
 35
0.0
146
0.0
 13
0.0
 23
0.0
 33
0.0
 16
1.0
 26
0.0
 36
0.0
 17
0.0
 27
1.0
 37
0.0
 76
0
330
206
345
0
346
0
  0
ENDSEC
  0
EOF
