999
DXF file: E:\BT Custom\CADOUTPUT\_FRONT.dxf
999
Pro/ENGINEER 2018400 by Parametric Technology Corporation
  0
SECTION
  2
HEADER
  9
$ACADVER
  1
AC1018
  9
$DWGCODEPAGE
  3
ANSI_1252
  9
$EXTMAX
 10
22.0
 20
17.0
 30
0.0
  9
$EXTMIN
 10
0.0
 20
0.0
 30
0.0
  9
$LIMMIN
 10
0.0
 20
0.0
  9
$LIMMAX
 10
22.0
 20
17.0
  9
$VIEWCTR
 10
11.0
 20
8.5
  9
$VIEWSIZE
 40
17.0
  9
$CLAYER
  8
0
  9
$LTSCALE
 40
1.21
  9
$CELTYPE
  6
BYLAYER
  9
$DIMSCALE
 40
1.0
  9
$DIMASZ
 40
0.1
  9
$DIMEXO
 40
0.0625
  9
$DIMDLI
 40
0.836
  9
$DIMEXE
 40
0.125
  9
$DIMCEN
 40
0.198
  9
$DIMLFAC
 40
1.0
  9
$DIMBLK
  1
_FILLED
  9
$DIMALT
 70
1
  9
$DIMALTD
 70
2
  9
$DIMALTTD
 70
2
  9
$DIMALTF
 40
25.4
  9
$DIMTXT
 40
0.08
  9
$DIMTOL
 70
1
  9
$DIMLIM
 70
0
  9
$DIMTFAC
 40
1.0
  9
$DIMTP
 40
0.001
  9
$DIMTM
 40
0.001
  9
$DIMGAP
 40
0.09
  9
$DIMDSEP
 70
46
  9
$AUNITS
 70
0
  9
$PDMODE
 70
3
  9
$PDSIZE
 40
0.06
  9
$HANDSEED
  5
377
  9
$TILEMODE
 70
1
  9
$MEASUREMENT
 70
0
  9
$INSUNITS
 70
1
  0
ENDSEC
  0
SECTION
  2
CLASSES
  0
CLASS
  1
ACDBDICTIONARYWDFLT
  2
AcDbDictionaryWithDefault
  3
AutoCAD 2000
 90
0
 91
1
280
0
281
0
  0
CLASS
  1
ACDBPLACEHOLDER
  2
AcDbPlaceHolder
  3
AutoCAD 2000
 90
0
 91
1
280
0
281
0
  0
CLASS
  1
LAYOUT
  2
AcDbLayout
  3
AutoCAD 2000
 90
0
 91
0
280
0
281
0
  0
ENDSEC
  0
SECTION
  2
TABLES
  0
TABLE
  2
VPORT
  5
8
100
AcDbSymbolTable
 70
2
  0
VPORT
  5
1F4
100
AcDbSymbolTableRecord
100
AcDbViewportTableRecord
  2
*ACTIVE
 70
0
 10
0.0
 20
0.0
 11
1.0
 21
1.0
 12
11.0
 22
8.5
 13
0.0
 23
0.0
 14
1.0
 24
1.0
 15
0.0
 25
0.0
 16
0.0
 26
0.0
 36
1.0
 17
0.0
 27
0.0
 37
0.0
 40
17.0
 41
1.2941176471
 42
50.0
 43
0.0
 44
0.0
 50
0.0
 51
0.0
 71
0
 72
100
 73
1
 74
1
 75
0
 76
0
 77
0
 78
0
  0
ENDTAB
  0
TABLE
  2
LTYPE
  5
5
100
AcDbSymbolTable
 70
6
  0
LTYPE
  5
14
100
AcDbSymbolTableRecord
100
AcDbLinetypeTableRecord
  2
BYBLOCK
 70
0
  3

 72
65
 73
0
 40
0.0
  0
LTYPE
  5
15
100
AcDbSymbolTableRecord
100
AcDbLinetypeTableRecord
  2
BYLAYER
 70
0
  3

 72
65
 73
0
 40
0.0
  0
LTYPE
  5
16
100
AcDbSymbolTableRecord
100
AcDbLinetypeTableRecord
  2
CONTINUOUS
 70
64
  3
Solid line
 72
65
 73
0
 40
0.0
  0
LTYPE
  5
1F5
100
AcDbSymbolTableRecord
100
AcDbLinetypeTableRecord
  2
CENTER
 70
64
  3
____ _ ____ _ ____ _ ____ _ ____ _ ____ _ ____
 72
65
 73
4
 40
0.6
 49
0.375
 74
0
 49
-0.075
 74
0
 49
0.075
 74
0
 49
-0.075
 74
0
  0
LTYPE
  5
1F6
100
AcDbSymbolTableRecord
100
AcDbLinetypeTableRecord
  2
HIDDEN
 70
64
  3
- - - - - - - - - - - - - - - - - - - -
 72
65
 73
2
 40
0.2
 49
0.1
 74
0
 49
-0.1
 74
0
  0
LTYPE
  5
1F7
100
AcDbSymbolTableRecord
100
AcDbLinetypeTableRecord
  2
PHANTOM
 70
64
  3
_____ _ _ _____ _ _ _____ _ _ _____
 72
65
 73
6
 40
0.8
 49
0.45
 74
0
 49
-0.05
 74
0
 49
0.1
 74
0
 49
-0.05
 74
0
 49
0.1
 74
0
 49
-0.05
 74
0
  0
LTYPE
  5
1F8
100
AcDbSymbolTableRecord
100
AcDbLinetypeTableRecord
  2
DOT
 70
64
  3
. . . . . . . . . . . . . . . . . . . .
 72
65
 73
2
 40
0.2
 49
0.1
 74
0
 49
-0.1
 74
0
  0
LTYPE
  5
1F9
100
AcDbSymbolTableRecord
100
AcDbLinetypeTableRecord
  2
DASHED
 70
64
  3
- - - - - - - - - - - - - - - - - - - -
 72
65
 73
2
 40
0.2
 49
0.1
 74
0
 49
-0.1
 74
0
  0
ENDTAB
  0
TABLE
  2
LAYER
  5
2
100
AcDbSymbolTable
 70
36
  0
LAYER
  5
10
100
AcDbSymbolTableRecord
100
AcDbLayerTableRecord
  2
0
 70
0
 62
7
  6
CONTINUOUS
370
-3
390
F
  0
LAYER
  5
1FA
100
AcDbSymbolTableRecord
100
AcDbLayerTableRecord
  2
DEFAULT_1
 70
0
 62
7
  6
CENTER
370
-3
390
F
  0
LAYER
  5
1FB
100
AcDbSymbolTableRecord
100
AcDbLayerTableRecord
  2
DEFAULT_2
 70
0
 62
8
  6
HIDDEN
370
-3
390
F
  0
LAYER
  5
1FC
100
AcDbSymbolTableRecord
100
AcDbLayerTableRecord
  2
DEFAULT_3
 70
0
 62
7
  6
PHANTOM
370
-3
390
F
  0
LAYER
  5
1FD
100
AcDbSymbolTableRecord
100
AcDbLayerTableRecord
  2
ALL_FEATURES
 70
0
 62
7
  6
CONTINUOUS
370
-3
390
F
  0
LAYER
  5
1FE
100
AcDbSymbolTableRecord
100
AcDbLayerTableRecord
  2
AXES_FEATURES
 70
0
 62
7
  6
CONTINUOUS
370
-3
390
F
  0
LAYER
  5
1FF
100
AcDbSymbolTableRecord
100
AcDbLayerTableRecord
  2
DEFAULT_COORDINATE_SYSTEM
 70
0
 62
7
  6
CONTINUOUS
370
-3
390
F
  0
LAYER
  5
200
100
AcDbSymbolTableRecord
100
AcDbLayerTableRecord
  2
DEFAULT_DATUM_AXES
 70
0
 62
7
  6
CONTINUOUS
370
-3
390
F
  0
LAYER
  5
201
100
AcDbSymbolTableRecord
100
AcDbLayerTableRecord
  2
DEFAULT_DATUM_PLANES
 70
0
 62
7
  6
CONTINUOUS
370
-3
390
F
  0
LAYER
  5
202
100
AcDbSymbolTableRecord
100
AcDbLayerTableRecord
  2
DIMENSIONS
 70
0
 62
7
  6
CONTINUOUS
370
-3
390
F
  0
ENDTAB
  0
TABLE
  2
STYLE
  5
3
100
AcDbSymbolTable
 70
1
  0
STYLE
  5
11
100
AcDbSymbolTableRecord
100
AcDbTextStyleTableRecord
  2
STANDARD
 70
0
 40
0.0
 41
0.8
 50
0.0
 71
0
 42
0.2
  3
txt
  4

  0
STYLE
  5
203
100
AcDbSymbolTableRecord
100
AcDbTextStyleTableRecord
  2
TEXTSTYLE_1
 70
0
 40
0.0
 41
0.8
 50
0.0
 71
0
 42
0.2
  3
gdt
  4

  0
ENDTAB
  0
TABLE
  2
VIEW
  5
6
100
AcDbSymbolTable
 70
0
  0
ENDTAB
  0
TABLE
  2
UCS
  5
7
100
AcDbSymbolTable
 70
0
  0
ENDTAB
  0
TABLE
  2
APPID
  5
9
100
AcDbSymbolTable
 70
1
  0
APPID
  5
204
100
AcDbSymbolTableRecord
100
AcDbRegAppTableRecord
  2
ACAD
 70
0
  0
ENDTAB
  0
TABLE
  2
BLOCK_RECORD
  5
1
100
AcDbSymbolTable
 70
0
  0
BLOCK_RECORD
  5
205
100
AcDbSymbolTableRecord
100
AcDbBlockTableRecord
  2
*Model_Space
  0
BLOCK_RECORD
  5
206
100
AcDbSymbolTableRecord
100
AcDbBlockTableRecord
  2
*Paper_Space
  0
BLOCK_RECORD
  5
207
100
AcDbSymbolTableRecord
100
AcDbBlockTableRecord
  2
_FILLED
  0
ENDTAB
  0
TABLE
  2
DIMSTYLE
  5
A
100
AcDbSymbolTable
 70
1
100
AcDbDimStyleTable
 71
0
  0
DIMSTYLE
105
208
100
AcDbSymbolTableRecord
100
AcDbDimStyleTableRecord
  2
STANDARD
 70
0
  3

  4

 40
1.0
 41
0.1
 42
0.0625
 43
0.38
 44
0.125
 45
0.0
 46
0.0
 47
0.001
 48
0.001
140
0.08
141
0.09
142
0.0
143
25.4
144
1.0
145
0.0
146
1.0
147
0.09
 71
1.0
 72
0.0
 73
1
 74
1
 75
0
 76
0
 77
0
 78
4
 79
1
170
1
171
2
172
0
173
0
174
0
175
0
176
0
177
0
178
0
270
2
179
3
271
3
272
3
273
2
274
2
275
0
280
0
281
0
282
0
283
1
284
4
285
0
286
0
287
3
288
0
340
11
278
46
341
207
342
207
343
207
344
207
  0
ENDTAB
  0
ENDSEC
  0
SECTION
  2
BLOCKS
  0
BLOCK
  5
20
100
AcDbEntity
  8
0
100
AcDbBlockBegin
  2
*Model_Space
 70
0
 10
0.0
 20
0.0
 30
0.0
  3
*Model_Space
  1

  0
ENDBLK
  5
21
100
AcDbEntity
  8
0
100
AcDbBlockEnd
  0
BLOCK
  5
1C
100
AcDbEntity
  8
0
100
AcDbBlockBegin
  2
*Paper_Space
 70
0
 10
0.0
 20
0.0
 30
0.0
  3
*Paper_Space
  1

  0
ENDBLK
  5
1D
100
AcDbEntity
  8
0
100
AcDbBlockEnd
  0
BLOCK
  5
209
100
AcDbEntity
  8
0
100
AcDbBlockBegin
  2
_FILLED
 70
64
 10
0.0
 20
0.0
  3
_FILLED
  1

  0
SOLID
  5
20A
100
AcDbEntity
  8
0
  6
BYBLOCK
 62
0
100
AcDbTrace
 10
0.0
 20
0.0
 11
-1.0
 21
0.2
 12
-1.0
 22
-0.2
 13
-1.0
 23
-0.2
  0
ENDBLK
  5
20B
100
AcDbEntity
  8
0
  6
BYBLOCK
 62
0
100
AcDbBlockEnd
  0
ENDSEC
  0
SECTION
  2
ENTITIES
  0
LINE
  5
20C
100
AcDbEntity
  8
0
100
AcDbLine
 62
7
  6
CONTINUOUS
 10
9.1722456107
 20
4.5812187254
 11
11.1022448319
 21
4.5812187254
  0
LINE
  5
20D
100
AcDbEntity
  8
0
100
AcDbLine
 62
9
  6
CONTINUOUS
 10
11.1022452213
 20
4.6466120924
 11
9.1722452213
 21
4.6466124403
  0
LINE
  5
20E
100
AcDbEntity
  8
0
100
AcDbLine
 62
9
  6
CONTINUOUS
 10
11.0860913751
 20
4.6732256984
 11
11.0140444349
 21
4.6732256906
  0
LINE
  5
20F
100
AcDbEntity
  8
0
100
AcDbLine
 62
9
  6
CONTINUOUS
 10
11.0026783936
 20
4.6732256931
 11
9.2718113525
 21
4.6732256931
  0
LINE
  5
210
100
AcDbEntity
  8
0
100
AcDbLine
 62
9
  6
CONTINUOUS
 10
9.2604458907
 20
4.6732260384
 11
9.1883990674
 21
4.6732260463
  0
LINE
  5
211
100
AcDbEntity
  8
0
100
AcDbLine
 62
9
  6
CONTINUOUS
 10
9.4194175037
 20
4.7619377184
 11
10.8550729389
 21
4.7619377184
  0
LINE
  5
212
100
AcDbEntity
  8
0
100
AcDbLine
 62
9
  6
CONTINUOUS
 10
10.982266992
 20
4.7619377184
 11
11.0322452213
 21
4.7619377184
  0
LINE
  5
213
100
AcDbEntity
  8
0
100
AcDbLine
 62
9
  6
CONTINUOUS
 10
9.2422452213
 20
4.7619380663
 11
9.2922231966
 21
4.7619380663
  0
LINE
  5
214
100
AcDbEntity
  8
0
100
AcDbLine
 62
9
  6
CONTINUOUS
 10
11.0054969482
 20
4.854480011
 11
10.3789648254
 21
4.854480011
  0
LINE
  5
215
100
AcDbEntity
  8
0
100
AcDbLine
 62
9
  6
CONTINUOUS
 10
9.8955256171
 20
4.854480011
 11
9.2689934943
 21
4.854480011
  0
LINE
  5
216
100
AcDbEntity
  8
0
100
AcDbLine
 62
9
  6
CONTINUOUS
 10
9.2558146335
 20
4.890776108
 11
11.0186758091
 21
4.890776108
  0
LINE
  5
217
100
AcDbEntity
  8
0
100
AcDbLine
 62
9
  6
CONTINUOUS
 10
9.2619766815
 20
4.9284488061
 11
11.012513761
 21
4.9284488061
  0
LINE
  5
218
100
AcDbEntity
  8
0
100
AcDbLine
 62
9
  6
CONTINUOUS
 10
9.2683490037
 20
4.9698164454
 11
11.0061414389
 21
4.9698164454
  0
LINE
  5
219
100
AcDbEntity
  8
0
100
AcDbLine
 62
7
  6
CONTINUOUS
 10
9.2957868879
 20
5.0062187254
 11
10.9787035546
 21
5.0062187254
  0
LINE
  5
21A
100
AcDbEntity
  8
0
100
AcDbLine
 62
7
  6
CONTINUOUS
 10
11.3722452213
 20
5.7702187254
 11
11.2122452213
 21
5.7702187254
  0
LINE
  5
21B
100
AcDbEntity
  8
0
100
AcDbLine
 62
7
  6
CONTINUOUS
 10
10.933016791
 20
5.8802187254
 11
11.2122452213
 21
5.8802187254
  0
LINE
  5
21C
100
AcDbEntity
  8
0
100
AcDbLine
 62
7
  6
CONTINUOUS
 10
12.6022452213
 20
5.9852187254
 11
11.8272452213
 21
5.9852187254
  0
LINE
  5
21D
100
AcDbEntity
  8
0
100
AcDbLine
 62
7
  6
CONTINUOUS
 10
12.6022452213
 20
6.7452187254
 11
12.5072452213
 21
6.7452187254
  0
LINE
  5
21E
100
AcDbEntity
  8
0
100
AcDbLine
 62
7
  6
CONTINUOUS
 10
12.0172452213
 20
6.7452187254
 11
11.8272452213
 21
6.7452187254
  0
LINE
  5
21F
100
AcDbEntity
  8
0
100
AcDbLine
 62
7
  6
CONTINUOUS
 10
10.9330167916
 20
6.8502187254
 11
11.2122452213
 21
6.8502187254
  0
LINE
  5
220
100
AcDbEntity
  8
0
100
AcDbLine
 62
9
  6
CONTINUOUS
 10
12.0872452213
 20
6.9225686602
 11
12.4372452213
 21
6.9225686602
  0
LINE
  5
221
100
AcDbEntity
  8
0
100
AcDbLine
 62
9
  6
CONTINUOUS
 10
12.0711127097
 20
6.9491711557
 11
12.4533777328
 21
6.9491711557
  0
LINE
  5
222
100
AcDbEntity
  8
0
100
AcDbLine
 62
7
  6
CONTINUOUS
 10
11.3722452213
 20
6.9602187254
 11
11.2122452213
 21
6.9602187254
  0
LINE
  5
223
100
AcDbEntity
  8
0
100
AcDbLine
 62
9
  6
CONTINUOUS
 10
12.467776665
 20
6.9970255566
 11
12.0567137775
 21
6.9970255566
  0
LINE
  5
224
100
AcDbEntity
  8
0
100
AcDbLine
 62
9
  6
CONTINUOUS
 10
12.4710040654
 20
7.0307992207
 11
12.0534863772
 21
7.0307992207
  0
LINE
  5
225
100
AcDbEntity
  8
0
100
AcDbLine
 62
9
  6
CONTINUOUS
 10
12.4330277803
 20
7.0866601994
 11
12.3831256532
 21
7.0866601914
  0
LINE
  5
226
100
AcDbEntity
  8
0
100
AcDbLine
 62
9
  6
CONTINUOUS
 10
12.1413648965
 20
7.0866602123
 11
12.0914626148
 21
7.0866602104
  0
LINE
  5
227
100
AcDbEntity
  8
0
100
AcDbLine
 62
9
  6
CONTINUOUS
 10
12.1406293104
 20
7.1258291146
 11
12.0904235079
 21
7.1258291221
  0
LINE
  5
228
100
AcDbEntity
  8
0
100
AcDbLine
 62
9
  6
CONTINUOUS
 10
12.4340669039
 20
7.1258290719
 11
12.3838613168
 21
7.1258291435
  0
LINE
  5
229
100
AcDbEntity
  8
0
100
AcDbLine
 62
7
  6
CONTINUOUS
 10
9.2522452213
 20
7.3042187254
 11
11.0222452213
 21
7.3042187254
  0
LINE
  5
22A
100
AcDbEntity
  8
0
100
AcDbLine
 62
7
  6
CONTINUOUS
 10
9.1722452213
 20
4.5812187254
 11
9.1722452213
 21
4.6466124403
  0
LINE
  5
22B
100
AcDbEntity
  8
0
100
AcDbLine
 62
7
  6
CONTINUOUS
 10
9.2222452213
 20
7.3342187254
 11
9.2222452213
 21
7.4052894173
  0
LINE
  5
22C
100
AcDbEntity
  8
0
100
AcDbLine
 62
7
  6
CONTINUOUS
 10
9.2422452213
 20
4.7619380663
 11
9.2422452213
 21
4.8438451483
  0
LINE
  5
22D
100
AcDbEntity
  8
0
100
AcDbLine
 62
9
  6
CONTINUOUS
 10
9.2445145389
 20
4.6466124403
 11
9.2445145389
 21
4.5812187254
  0
LINE
  5
22E
100
AcDbEntity
  8
0
100
AcDbLine
 62
9
  6
CONTINUOUS
 10
9.2691409757
 20
4.6466120924
 11
9.2691409757
 21
4.5812187254
  0
LINE
  5
22F
100
AcDbEntity
  8
0
100
AcDbLine
 62
9
  6
CONTINUOUS
 10
10.4483001776
 20
11.4700245568
 11
10.4482980635
 21
11.4700220121
  0
LINE
  5
230
100
AcDbEntity
  8
0
100
AcDbLine
 62
7
  6
CONTINUOUS
 10
10.4515552078
 20
11.4736946841
 11
10.4482980635
 21
11.4700220121
  0
LINE
  5
231
100
AcDbEntity
  8
0
100
AcDbLine
 62
7
  6
CONTINUOUS
 10
10.4515577973
 20
11.4736974081
 11
10.455138877
 21
11.4775757551
  0
LINE
  5
232
100
AcDbEntity
  8
0
100
AcDbLine
 62
9
  6
CONTINUOUS
 10
10.4515621478
 20
11.4737019822
 11
10.4515508578
 21
11.4736901099
  0
LINE
  5
233
100
AcDbEntity
  8
0
100
AcDbLine
 62
7
  6
CONTINUOUS
 10
10.4249661776
 20
11.1587191644
 11
10.4248612741
 21
11.1586133306
  0
LINE
  5
234
100
AcDbEntity
  8
0
100
AcDbLine
 62
9
  6
CONTINUOUS
 10
9.2222452213
 20
7.3342187254
 11
11.0522452213
 21
7.3342187254
  0
LINE
  5
235
100
AcDbEntity
  8
0
100
AcDbLine
 62
9
  6
CONTINUOUS
 10
9.2222452213
 20
7.4052894173
 11
11.0522452213
 21
7.4052894173
  0
LINE
  5
236
100
AcDbEntity
  8
0
100
AcDbLine
 62
9
  6
CONTINUOUS
 10
9.2363661309
 20
7.4307424032
 11
11.0381243116
 21
7.4307424032
  0
LINE
  5
237
100
AcDbEntity
  8
0
100
AcDbLine
 62
9
  6
CONTINUOUS
 10
9.4234574303
 20
7.623101392
 11
10.8510330123
 21
7.623101392
  0
LINE
  5
238
100
AcDbEntity
  8
0
100
AcDbLine
 62
9
  6
CONTINUOUS
 10
9.4408287044
 20
7.6367018731
 11
10.8336617381
 21
7.6367018731
  0
LINE
  5
239
100
AcDbEntity
  8
0
100
AcDbLine
 62
7
  6
CONTINUOUS
 10
9.3322452213
 20
5.0062187254
 11
9.3322452213
 21
7.3042187254
  0
LINE
  5
23A
100
AcDbEntity
  8
0
100
AcDbLine
 62
7
  6
CONTINUOUS
 10
9.7927182731
 20
11.5670964228
 11
9.792434829
 21
11.5656195198
  0
LINE
  5
23B
100
AcDbEntity
  8
0
100
AcDbLine
 62
9
  6
CONTINUOUS
 10
9.5704291789
 20
7.668319293
 11
10.7040612636
 21
7.668319293
  0
LINE
  5
23C
100
AcDbEntity
  8
0
100
AcDbLine
 62
9
  6
CONTINUOUS
 10
9.5929645172
 20
7.7079363117
 11
10.6815259253
 21
7.7079363117
  0
LINE
  5
23D
100
AcDbEntity
  8
0
100
AcDbLine
 62
9
  6
CONTINUOUS
 10
9.5967045758
 20
7.7470238452
 11
10.6777858667
 21
7.7470238452
  0
LINE
  5
23E
100
AcDbEntity
  8
0
100
AcDbLine
 62
9
  6
CONTINUOUS
 10
9.6004241723
 20
7.7904413852
 11
10.6740662702
 21
7.7904413852
  0
LINE
  5
23F
100
AcDbEntity
  8
0
100
AcDbLine
 62
7
  6
CONTINUOUS
 10
10.6432452213
 20
7.8352338804
 11
9.6312452213
 21
7.8352338804
  0
LINE
  5
240
100
AcDbEntity
  8
0
100
AcDbLine
 62
7
  6
CONTINUOUS
 10
9.8872452213
 20
13.7041301235
 11
9.8872452213
 21
11.6572067672
  0
LINE
  5
241
100
AcDbEntity
  8
0
100
AcDbLine
 62
7
  6
CONTINUOUS
 10
9.8872452213
 20
7.8352187254
 11
9.8872452213
 21
11.131769172
  0
LINE
  5
242
100
AcDbEntity
  8
0
100
AcDbLine
 62
7
  6
CONTINUOUS
 10
9.8533341163
 20
11.312431713
 11
9.8538178306
 21
11.335669716
  0
LINE
  5
243
100
AcDbEntity
  8
0
100
AcDbLine
 62
9
  6
CONTINUOUS
 10
9.8487320348
 20
11.4150793622
 11
9.8484526753
 21
11.4194228276
  0
LINE
  5
244
100
AcDbEntity
  8
0
100
AcDbLine
 62
9
  6
CONTINUOUS
 10
10.4260377673
 20
11.4194228276
 11
10.4257583886
 21
11.4150792138
  0
LINE
  5
245
100
AcDbEntity
  8
0
100
AcDbLine
 62
7
  6
CONTINUOUS
 10
10.4206726119
 20
11.335669716
 11
10.4211563344
 21
11.312431517
  0
LINE
  5
246
100
AcDbEntity
  8
0
100
AcDbLine
 62
7
  6
CONTINUOUS
 10
10.3872452213
 20
13.7041301235
 11
10.3872452213
 21
11.6571692197
  0
LINE
  5
247
100
AcDbEntity
  8
0
100
AcDbLine
 62
7
  6
CONTINUOUS
 10
10.3872452213
 20
7.8352187254
 11
10.3872452213
 21
11.1317491787
  0
LINE
  5
248
100
AcDbEntity
  8
0
100
AcDbLine
 62
9
  6
CONTINUOUS
 10
12.4922452213
 20
8.6987333392
 11
12.4675106169
 21
8.6987333392
  0
LINE
  5
249
100
AcDbEntity
  8
0
100
AcDbLine
 62
9
  6
CONTINUOUS
 10
12.4532690572
 20
8.6987333392
 11
12.0712213853
 21
8.6987333392
  0
LINE
  5
24A
100
AcDbEntity
  8
0
100
AcDbLine
 62
9
  6
CONTINUOUS
 10
12.0569798256
 20
8.6987333392
 11
12.0322452213
 21
8.6987333392
  0
LINE
  5
24B
100
AcDbEntity
  8
0
100
AcDbLine
 62
9
  6
CONTINUOUS
 10
11.98630996
 20
8.8296185499
 11
12.0205806299
 21
8.8296185739
  0
LINE
  5
24C
100
AcDbEntity
  8
0
100
AcDbLine
 62
9
  6
CONTINUOUS
 10
12.0312040535
 20
8.8296185828
 11
12.4932863851
 21
8.8296185739
  0
LINE
  5
24D
100
AcDbEntity
  8
0
100
AcDbLine
 62
9
  6
CONTINUOUS
 10
12.5039098185
 20
8.8296185828
 11
12.5381804825
 21
8.8296185499
  0
LINE
  5
24E
100
AcDbEntity
  8
0
100
AcDbLine
 62
9
  6
CONTINUOUS
 10
11.9822452213
 20
8.8417043866
 11
12.5422452213
 21
8.8417043866
  0
LINE
  5
24F
100
AcDbEntity
  8
0
100
AcDbLine
 62
9
  6
CONTINUOUS
 10
11.9822452213
 20
8.8820187254
 11
12.5422452213
 21
8.8820187254
  0
LINE
  5
250
100
AcDbEntity
  8
0
100
AcDbLine
 62
9
  6
CONTINUOUS
 10
12.5300598209
 20
8.9004288322
 11
12.4961388153
 21
8.9004288322
  0
LINE
  5
251
100
AcDbEntity
  8
0
100
AcDbLine
 62
9
  6
CONTINUOUS
 10
12.4909290741
 20
8.9004288322
 11
12.0335613953
 21
8.9004288322
  0
LINE
  5
252
100
AcDbEntity
  8
0
100
AcDbLine
 62
9
  6
CONTINUOUS
 10
12.0283516354
 20
8.9004288322
 11
11.9944306217
 21
8.9004288322
  0
LINE
  5
253
100
AcDbEntity
  8
0
100
AcDbLine
 62
9
  6
CONTINUOUS
 10
12.5152836876
 20
8.9108187254
 11
12.485349197
 21
8.9108187254
  0
LINE
  5
254
100
AcDbEntity
  8
0
100
AcDbLine
 62
9
  6
CONTINUOUS
 10
12.475282663
 20
8.9108187254
 11
12.0492077795
 21
8.9108187254
  0
LINE
  5
255
100
AcDbEntity
  8
0
100
AcDbLine
 62
9
  6
CONTINUOUS
 10
12.0391412455
 20
8.9108187254
 11
12.009206755
 21
8.9108187254
  0
LINE
  5
256
100
AcDbEntity
  8
0
100
AcDbLine
 62
7
  6
CONTINUOUS
 10
12.4365944253
 20
8.9452187254
 11
12.0878960173
 21
8.9452187254
  0
LWPOLYLINE
  5
257
100
AcDbEntity
  8
0
100
AcDbPolyline
 62
7
  6
CONTINUOUS
 90
7
 70
0
 10
11.0322456739
 20
4.8438434525
 10
11.0321150717
 20
4.8466397283
 10
11.0314650832
 20
4.8506424638
 10
11.0302807863
 20
4.8545220944
 10
11.0285837599
 20
4.8582068311
 10
11.0264053786
 20
4.8616285726
 10
11.0249546576
 20
4.8634471272
  0
LINE
  5
258
100
AcDbEntity
  8
0
100
AcDbLine
 62
7
  6
CONTINUOUS
 10
10.9422452213
 20
5.0062187254
 11
10.9422452213
 21
5.8652187254
  0
LINE
  5
259
100
AcDbEntity
  8
0
100
AcDbLine
 62
7
  6
CONTINUOUS
 10
10.9422452213
 20
6.8652187254
 11
10.9422452213
 21
7.3042187254
  0
LINE
  5
25A
100
AcDbEntity
  8
0
100
AcDbLine
 62
7
  6
CONTINUOUS
 10
10.4820556136
 20
11.5656195198
 11
10.4817724085
 21
11.5670952201
  0
LINE
  5
25B
100
AcDbEntity
  8
0
100
AcDbLine
 62
9
  6
CONTINUOUS
 10
11.0053494668
 20
4.6466120924
 11
11.0053494668
 21
4.5812187254
  0
LINE
  5
25C
100
AcDbEntity
  8
0
100
AcDbLine
 62
9
  6
CONTINUOUS
 10
11.0299759036
 20
4.6466120924
 11
11.0299759036
 21
4.5812187254
  0
LINE
  5
25D
100
AcDbEntity
  8
0
100
AcDbLine
 62
7
  6
CONTINUOUS
 10
11.0322452213
 20
4.7619377184
 11
11.0322452213
 21
4.843843453
  0
LINE
  5
25E
100
AcDbEntity
  8
0
100
AcDbLine
 62
7
  6
CONTINUOUS
 10
11.0522452213
 20
7.3342187254
 11
11.0522452213
 21
7.4052894173
  0
LINE
  5
25F
100
AcDbEntity
  8
0
100
AcDbLine
 62
7
  6
CONTINUOUS
 10
11.1022452213
 20
4.5812187254
 11
11.1022452213
 21
4.6466120924
  0
LINE
  5
260
100
AcDbEntity
  8
0
100
AcDbLine
 62
7
  6
CONTINUOUS
 10
11.2122452213
 20
5.7702194659
 11
11.2122452213
 21
6.9602179849
  0
LINE
  5
261
100
AcDbEntity
  8
0
100
AcDbLine
 62
9
  6
CONTINUOUS
 10
11.3722452213
 20
5.7702187254
 11
11.3722452213
 21
6.9602187254
  0
LINE
  5
262
100
AcDbEntity
  8
0
100
AcDbLine
 62
9
  6
CONTINUOUS
 10
11.3818899571
 20
5.7750787625
 11
11.3818899571
 21
6.9553586883
  0
LINE
  5
263
100
AcDbEntity
  8
0
100
AcDbLine
 62
9
  6
CONTINUOUS
 10
11.6267590845
 20
5.8927272773
 11
11.6267590845
 21
6.8377101735
  0
LINE
  5
264
100
AcDbEntity
  8
0
100
AcDbLine
 62
9
  6
CONTINUOUS
 10
11.6316658895
 20
5.8935758683
 11
11.6316658895
 21
6.8368615825
  0
LINE
  5
265
100
AcDbEntity
  8
0
100
AcDbLine
 62
7
  6
CONTINUOUS
 10
9.8496290948
 20
11.1586134048
 11
9.849526524
 21
11.1587168815
  0
LINE
  5
266
100
AcDbEntity
  8
0
100
AcDbLine
 62
9
  6
CONTINUOUS
 10
9.8229397159
 20
11.473689972
 11
9.8229228367
 21
11.4737077234
  0
LINE
  5
267
100
AcDbEntity
  8
0
100
AcDbLine
 62
7
  6
CONTINUOUS
 10
9.8193515387
 20
11.477575785
 11
9.8229271873
 21
11.4737031492
  0
LINE
  5
268
100
AcDbEntity
  8
0
100
AcDbLine
 62
9
  6
CONTINUOUS
 10
9.8193457653
 20
11.4775822267
 11
9.8193269115
 21
11.4776032701
  0
LINE
  5
269
100
AcDbEntity
  8
0
100
AcDbLine
 62
7
  6
CONTINUOUS
 10
9.8261923791
 20
11.4700220121
 11
9.8229353658
 21
11.4736945462
  0
LINE
  5
26A
100
AcDbEntity
  8
0
100
AcDbLine
 62
9
  6
CONTINUOUS
 10
11.6612754123
 20
5.889355089
 11
11.6612754123
 21
6.8410823618
  0
LINE
  5
26B
100
AcDbEntity
  8
0
100
AcDbLine
 62
9
  6
CONTINUOUS
 10
11.7063408302
 20
5.8899375283
 11
11.7063408302
 21
6.8404999226
  0
LINE
  5
26C
100
AcDbEntity
  8
0
100
AcDbLine
 62
9
  6
CONTINUOUS
 10
11.7353971248
 20
5.8950790324
 11
11.7353971248
 21
6.8353584185
  0
LINE
  5
26D
100
AcDbEntity
  8
0
100
AcDbLine
 62
7
  6
CONTINUOUS
 10
11.7672452213
 20
5.9176187254
 11
11.7672452213
 21
6.8128187254
  0
LINE
  5
26E
100
AcDbEntity
  8
0
100
AcDbLine
 62
9
  6
CONTINUOUS
 10
11.8272452213
 20
5.9852187254
 11
11.8272452213
 21
6.7452187254
  0
LINE
  5
26F
100
AcDbEntity
  8
0
100
AcDbLine
 62
7
  6
CONTINUOUS
 10
11.9822452213
 20
8.8820187254
 11
11.9822452213
 21
8.8417043866
  0
LINE
  5
270
100
AcDbEntity
  8
0
100
AcDbLine
 62
9
  6
CONTINUOUS
 10
10.4341952101
 20
11.2721238575
 11
10.4341930923
 21
11.2721267691
  0
LINE
  5
271
100
AcDbEntity
  8
0
100
AcDbLine
 62
7
  6
CONTINUOUS
 10
12.0322452213
 20
8.6987333392
 11
12.0735971191
 21
7.119568074
  0
LINE
  5
272
100
AcDbEntity
  8
0
100
AcDbLine
 62
9
  6
CONTINUOUS
 10
12.016690903
 20
8.8417043866
 11
12.016690903
 21
8.8820187254
  0
LINE
  5
273
100
AcDbEntity
  8
0
100
AcDbLine
 62
9
  6
CONTINUOUS
 10
12.0300242364
 20
8.8417043866
 11
12.0300242364
 21
8.8820187254
  0
LINE
  5
274
100
AcDbEntity
  8
0
100
AcDbLine
 62
7
  6
CONTINUOUS
 10
12.0872452213
 20
6.9225686602
 11
12.0872452213
 21
6.8152187254
  0
LINE
  5
275
100
AcDbEntity
  8
0
100
AcDbLine
 62
7
  6
CONTINUOUS
 10
12.4372452213
 20
6.9225686602
 11
12.4372452213
 21
6.8152187254
  0
LINE
  5
276
100
AcDbEntity
  8
0
100
AcDbLine
 62
9
  6
CONTINUOUS
 10
12.4944662062
 20
8.8417043866
 11
12.4944662062
 21
8.8820187254
  0
LINE
  5
277
100
AcDbEntity
  8
0
100
AcDbLine
 62
9
  6
CONTINUOUS
 10
12.5077995395
 20
8.8417043866
 11
12.5077995395
 21
8.8820187254
  0
LINE
  5
278
100
AcDbEntity
  8
0
100
AcDbLine
 62
7
  6
CONTINUOUS
 10
12.5422452213
 20
8.8820187254
 11
12.5422452213
 21
8.8417043866
  0
LINE
  5
279
100
AcDbEntity
  8
0
100
AcDbLine
 62
7
  6
CONTINUOUS
 10
12.6022452213
 20
5.9852187254
 11
12.6022452213
 21
6.7452187254
  0
LINE
  5
27A
100
AcDbEntity
  8
0
100
AcDbLine
 62
7
  6
CONTINUOUS
 10
12.4922452213
 20
8.6987333392
 11
12.4508933235
 21
7.119568074
  0
LINE
  5
27B
100
AcDbEntity
  8
0
100
AcDbLine
 62
7
  6
CONTINUOUS
 10
12.7022452213
 20
6.7226783923
 11
12.7022452213
 21
6.0077590585
  0
ARC
  5
27C
100
AcDbEntity
  8
0
100
AcDbCircle
 62
9
  6
CONTINUOUS
 10
10.2137553428
 20
0.4075544887
 40
4.401356189
100
AcDbArc
 50
80.4340987634
 51
81.6216580969
  0
ARC
  5
27D
100
AcDbEntity
  8
0
100
AcDbCircle
 62
9
  6
CONTINUOUS
 10
10.0592515987
 20
0.4171147568
 40
4.3916823925
100
AcDbArc
 50
98.3773679798
 51
99.5675438056
  0
ARC
  5
27E
100
AcDbEntity
  8
0
100
AcDbCircle
 62
9
  6
CONTINUOUS
 10
10.1945700062
 20
1.3391084587
 40
3.5142378001
100
AcDbArc
 50
77.6256114286
 51
79.1279070658
  0
ARC
  5
27F
100
AcDbEntity
  8
0
100
AcDbCircle
 62
9
  6
CONTINUOUS
 10
10.0751134078
 20
1.3624784856
 40
3.4903805749
100
AcDbArc
 50
100.866958903
 51
102.3795243748
  0
ARC
  5
280
100
AcDbEntity
  8
0
100
AcDbCircle
 62
9
  6
CONTINUOUS
 10
9.5668471022
 20
5.8259935338
 40
1.7359584972
100
AcDbArc
 50
323.3710621795
 51
325.9690269244
  0
ARC
  5
281
100
AcDbEntity
  8
0
100
AcDbCircle
 62
9
  6
CONTINUOUS
 10
10.707640466
 20
5.8259915127
 40
1.7359549842
100
AcDbArc
 50
214.0309708855
 51
216.6289265417
  0
ARC
  5
282
100
AcDbEntity
  8
0
100
AcDbCircle
 62
9
  6
CONTINUOUS
 10
11.0574279254
 20
6.5936995588
 40
1.4759053817
100
AcDbArc
 50
21.1336371087
 51
22.0535331006
  0
ARC
  5
283
100
AcDbEntity
  8
0
100
AcDbCircle
 62
7
  6
CONTINUOUS
 10
9.8318453224
 20
6.3153427227
 40
1.378
100
AcDbArc
 50
100.9356812119
 51
106.4845399258
  0
ARC
  5
284
100
AcDbEntity
  8
0
100
AcDbCircle
 62
7
  6
CONTINUOUS
 10
10.4426451202
 20
6.3153427227
 40
1.378
100
AcDbArc
 50
73.5154600742
 51
79.0643187881
  0
ARC
  5
285
100
AcDbEntity
  8
0
100
AcDbCircle
 62
7
  6
CONTINUOUS
 10
9.1422452213
 20
4.7619380663
 40
0.1
100
AcDbArc
 50
297.4864262504
 51
360.0
  0
ARC
  5
286
100
AcDbEntity
  8
0
100
AcDbCircle
 62
7
  6
CONTINUOUS
 10
11.1322452213
 20
4.7619377184
 40
0.1
100
AcDbArc
 50
180.0
 51
242.5135737496
  0
ARC
  5
287
100
AcDbEntity
  8
0
100
AcDbCircle
 62
7
  6
CONTINUOUS
 10
11.0542078055
 20
4.9560460279
 40
0.05
100
AcDbArc
 50
164.0136493617
 51
213.5005119846
  0
ARC
  5
288
100
AcDbEntity
  8
0
100
AcDbCircle
 62
7
  6
CONTINUOUS
 10
9.220282637
 20
4.9560460279
 40
0.05
100
AcDbArc
 50
326.4994880154
 51
15.9863506383
  0
ARC
  5
289
100
AcDbEntity
  8
0
100
AcDbCircle
 62
7
  6
CONTINUOUS
 10
10.9737035546
 20
4.9027603921
 40
0.0465416667
100
AcDbArc
 50
345.078476065
 51
33.5005119843
  0
ARC
  5
28A
100
AcDbEntity
  8
0
100
AcDbCircle
 62
7
  6
CONTINUOUS
 10
9.3007868879
 20
4.9027603921
 40
0.0465416667
100
AcDbArc
 50
146.4994880157
 51
194.921523935
  0
ARC
  5
28B
100
AcDbEntity
  8
0
100
AcDbCircle
 62
9
  6
CONTINUOUS
 10
10.9966014175
 20
4.8257715118
 40
0.0300531524
100
AcDbArc
 50
0.2617378458
 51
72.7840367476
  0
ARC
  5
28C
100
AcDbEntity
  8
0
100
AcDbCircle
 62
9
  6
CONTINUOUS
 10
9.2778890247
 20
4.8257715121
 40
0.0300531523
100
AcDbArc
 50
107.2159627891
 51
179.7382626441
  0
ARC
  5
28D
100
AcDbEntity
  8
0
100
AcDbCircle
 62
7
  6
CONTINUOUS
 10
9.226826251
 20
4.8830512338
 40
0.03
100
AcDbArc
 50
319.1989286932
 51
14.921523935
  0
ARC
  5
28E
100
AcDbEntity
  8
0
100
AcDbCircle
 62
7
  6
CONTINUOUS
 10
9.2722452213
 20
4.8438451483
 40
0.03
100
AcDbArc
 50
139.1989286933
 51
179.9999999999
  0
ARC
  5
28F
100
AcDbEntity
  8
0
100
AcDbCircle
 62
7
  6
CONTINUOUS
 10
11.0476641916
 20
4.8830512338
 40
0.03
100
AcDbArc
 50
165.078476065
 51
220.8025486095
  0
ARC
  5
290
100
AcDbEntity
  8
0
100
AcDbCircle
 62
7
  6
CONTINUOUS
 10
9.2022452213
 20
4.6466124403
 40
0.03
100
AcDbArc
 50
117.4864262504
 51
180.0
  0
ARC
  5
291
100
AcDbEntity
  8
0
100
AcDbCircle
 62
7
  6
CONTINUOUS
 10
11.0722452213
 20
4.6466120924
 40
0.03
100
AcDbArc
 50
0.0
 51
62.5135737496
  0
ARC
  5
292
100
AcDbEntity
  8
0
100
AcDbCircle
 62
7
  6
CONTINUOUS
 10
9.2957868879
 20
4.9776770587
 40
0.0285416667
100
AcDbArc
 50
90.0
 51
195.9863506381
  0
ARC
  5
293
100
AcDbEntity
  8
0
100
AcDbCircle
 62
7
  6
CONTINUOUS
 10
10.9787035546
 20
4.9776770587
 40
0.0285416667
100
AcDbArc
 50
344.0136493619
 51
90.0
  0
ARC
  5
294
100
AcDbEntity
  8
0
100
AcDbCircle
 62
7
  6
CONTINUOUS
 10
11.0428350876
 20
11.3356907435
 40
0.622162478
100
AcDbArc
 50
172.6690661548
 51
180.0019363728
  0
ARC
  5
295
100
AcDbEntity
  8
0
100
AcDbCircle
 62
7
  6
CONTINUOUS
 10
9.2316605898
 20
11.3356909349
 40
0.6221572431
100
AcDbArc
 50
359.9980459897
 51
7.3309673424
  0
ARC
  5
296
100
AcDbEntity
  8
0
100
AcDbCircle
 62
7
  6
CONTINUOUS
 10
8.9394271419
 20
7.9067132393
 40
0.561
100
AcDbArc
 50
301.9583741621
 51
329.632332158
  0
ARC
  5
297
100
AcDbEntity
  8
0
100
AcDbCircle
 62
7
  6
CONTINUOUS
 10
10.1372452213
 20
13.7042187254
 40
0.25
100
AcDbArc
 50
0.0
 51
180.0
  0
ARC
  5
298
100
AcDbEntity
  8
0
100
AcDbCircle
 62
7
  6
CONTINUOUS
 10
9.7269375321
 20
11.3994029922
 40
0.1227992242
100
AcDbArc
 50
7.3341170078
 51
9.3808617918
  0
ARC
  5
299
100
AcDbEntity
  8
0
100
AcDbCircle
 62
7
  6
CONTINUOUS
 10
10.5474935004
 20
11.3994104023
 40
0.1227393543
100
AcDbArc
 50
170.6204574292
 51
172.6657735269
  0
ARC
  5
29A
100
AcDbEntity
  8
0
100
AcDbCircle
 62
7
  6
CONTINUOUS
 10
9.8873099825
 20
11.5480260916
 40
0.096492142
100
AcDbArc
 50
169.4950477777
 51
179.9936056041
  0
ARC
  5
29B
100
AcDbEntity
  8
0
100
AcDbCircle
 62
7
  6
CONTINUOUS
 10
10.3871968667
 20
11.548027255
 40
0.0964757353
100
AcDbArc
 50
0.0057045372
 51
10.5058744697
  0
ARC
  5
29C
100
AcDbEntity
  8
0
100
AcDbCircle
 62
9
  6
CONTINUOUS
 10
9.8824864428
 20
11.5303736291
 40
0.0822122134
100
AcDbArc
 50
219.7772838212
 51
223.5718634585
  0
ARC
  5
29D
100
AcDbEntity
  8
0
100
AcDbCircle
 62
9
  6
CONTINUOUS
 10
10.3934406444
 20
11.5290946969
 40
0.0802898623
100
AcDbArc
 50
316.3770782972
 51
320.2581623251
  0
ARC
  5
29E
100
AcDbEntity
  8
0
100
AcDbCircle
 62
7
  6
CONTINUOUS
 10
9.8991848821
 20
11.2199793003
 40
0.076939677
100
AcDbArc
 50
168.8791297224
 51
179.9912899703
  0
ARC
  5
29F
100
AcDbEntity
  8
0
100
AcDbCircle
 62
7
  6
CONTINUOUS
 10
10.375319045
 20
11.2199803379
 40
0.0769261923
100
AcDbArc
 50
0.0079387354
 51
11.1218837022
  0
ARC
  5
2A0
100
AcDbEntity
  8
0
100
AcDbCircle
 62
9
  6
CONTINUOUS
 10
9.8799223098
 20
11.514697243
 40
0.0698768819
100
AcDbArc
 50
215.7149301734
 51
219.7410510977
  0
ARC
  5
2A1
100
AcDbEntity
  8
0
100
AcDbCircle
 62
9
  6
CONTINUOUS
 10
10.3958140324
 20
11.513733354
 40
0.0683026463
100
AcDbArc
 50
320.2135239497
 51
324.3316205283
  0
ARC
  5
2A2
100
AcDbEntity
  8
0
100
AcDbCircle
 62
9
  6
CONTINUOUS
 10
9.8752469673
 20
11.5112402354
 40
0.0640628335
100
AcDbArc
 50
215.0678657662
 51
215.6455192219
  0
ARC
  5
2A3
100
AcDbEntity
  8
0
100
AcDbCircle
 62
9
  6
CONTINUOUS
 10
10.3994009757
 20
11.5111284853
 40
0.0638697182
100
AcDbArc
 50
324.3537676815
 51
324.9330071695
  0
ARC
  5
2A4
100
AcDbEntity
  8
0
100
AcDbCircle
 62
9
  6
CONTINUOUS
 10
9.8719990325
 20
11.5089883147
 40
0.0601106612
100
AcDbArc
 50
210.6905836681
 51
215.0897455213
  0
ARC
  5
2A5
100
AcDbEntity
  8
0
100
AcDbCircle
 62
9
  6
CONTINUOUS
 10
10.4035279568
 20
11.5083180826
 40
0.0588772344
100
AcDbArc
 50
324.8640800494
 51
329.3418104275
  0
ARC
  5
2A6
100
AcDbEntity
  8
0
100
AcDbCircle
 62
7
  6
CONTINUOUS
 10
9.5537256134
 20
7.7725739682
 40
0.05
100
AcDbArc
 50
329.2693737715
 51
20.9374374986
  0
ARC
  5
2A7
100
AcDbEntity
  8
0
100
AcDbCircle
 62
7
  6
CONTINUOUS
 10
10.7207648292
 20
7.7725739682
 40
0.05
100
AcDbArc
 50
159.0625625014
 51
210.7306262285
  0
ARC
  5
2A8
100
AcDbEntity
  8
0
100
AcDbCircle
 62
7
  6
CONTINUOUS
 10
10.6382452213
 20
7.723517732
 40
0.046
100
AcDbArc
 50
340.2006937409
 51
30.7306262285
  0
ARC
  5
2A9
100
AcDbEntity
  8
0
100
AcDbCircle
 62
7
  6
CONTINUOUS
 10
9.6362452213
 20
7.723517732
 40
0.046
100
AcDbArc
 50
149.2693737715
 51
199.7993062591
  0
ARC
  5
2AA
100
AcDbEntity
  8
0
100
AcDbCircle
 62
9
  6
CONTINUOUS
 10
9.8344630316
 20
11.5578407704
 40
0.042741969
100
AcDbArc
 50
167.3474999668
 51
169.5136097521
  0
ARC
  5
2AB
100
AcDbEntity
  8
0
100
AcDbCircle
 62
9
  6
CONTINUOUS
 10
10.4401643159
 20
11.5578687969
 40
0.0426022498
100
AcDbArc
 50
10.4828136377
 51
12.6560524476
  0
ARC
  5
2AC
100
AcDbEntity
  8
0
100
AcDbCircle
 62
7
  6
CONTINUOUS
 10
10.6432452213
 20
7.8022338804
 40
0.033
100
AcDbArc
 50
339.0625625014
 51
90.0
  0
ARC
  5
2AD
100
AcDbEntity
  8
0
100
AcDbCircle
 62
7
  6
CONTINUOUS
 10
9.6312452213
 20
7.8022338804
 40
0.033
100
AcDbArc
 50
90.0
 51
200.9374374986
  0
ARC
  5
2AE
100
AcDbEntity
  8
0
100
AcDbCircle
 62
7
  6
CONTINUOUS
 10
9.2522452213
 20
7.3342187254
 40
0.03
100
AcDbArc
 50
180.0
 51
270.0
  0
ARC
  5
2AF
100
AcDbEntity
  8
0
100
AcDbCircle
 62
7
  6
CONTINUOUS
 10
11.0222452213
 20
7.3342187254
 40
0.03
100
AcDbArc
 50
270.0
 51
360.0
  0
ARC
  5
2B0
100
AcDbEntity
  8
0
100
AcDbCircle
 62
7
  6
CONTINUOUS
 10
9.2522452213
 20
7.4052894173
 40
0.03
100
AcDbArc
 50
121.9583741619
 51
180.0
  0
ARC
  5
2B1
100
AcDbEntity
  8
0
100
AcDbCircle
 62
7
  6
CONTINUOUS
 10
11.0222452213
 20
7.4052894173
 40
0.03
100
AcDbArc
 50
0.0
 51
58.0416258381
  0
ARC
  5
2B2
100
AcDbEntity
  8
0
100
AcDbCircle
 62
7
  6
CONTINUOUS
 10
9.4493414029
 20
7.6079349831
 40
0.03
100
AcDbArc
 50
106.4845399256
 51
149.6323321576
  0
ARC
  5
2B3
100
AcDbEntity
  8
0
100
AcDbCircle
 62
7
  6
CONTINUOUS
 10
10.8251490396
 20
7.6079349831
 40
0.03
100
AcDbArc
 50
30.3676678424
 51
73.5154600744
  0
ARC
  5
2B4
100
AcDbEntity
  8
0
100
AcDbCircle
 62
7
  6
CONTINUOUS
 10
9.5647379711
 20
7.6977745159
 40
0.03
100
AcDbArc
 50
280.9356812118
 51
19.7993062593
  0
ARC
  5
2B5
100
AcDbEntity
  8
0
100
AcDbCircle
 62
7
  6
CONTINUOUS
 10
10.7097524714
 20
7.6977745159
 40
0.03
100
AcDbArc
 50
160.2006937407
 51
259.0643187882
  0
ARC
  5
2B6
100
AcDbEntity
  8
0
100
AcDbCircle
 62
9
  6
CONTINUOUS
 10
13.4945688999
 20
6.5828093775
 40
1.5054882015
100
AcDbArc
 50
157.9553919494
 51
158.857210277
  0
ARC
  5
2B7
100
AcDbEntity
  8
0
100
AcDbCircle
 62
9
  6
CONTINUOUS
 10
11.6777705683
 20
6.8932770712
 40
0.802504963
100
AcDbArc
 50
16.0969091231
 51
19.4718526825
  0
ARC
  5
2B8
100
AcDbEntity
  8
0
100
AcDbCircle
 62
9
  6
CONTINUOUS
 10
12.8276592976
 20
6.8993911076
 40
0.7824966954
100
AcDbArc
 50
160.4849920615
 51
163.9462584859
  0
ARC
  5
2B9
100
AcDbEntity
  8
0
100
AcDbCircle
 62
7
  6
CONTINUOUS
 10
11.6157748011
 20
5.6019346613
 40
0.291
100
AcDbArc
 50
87.8367607318
 51
143.4875880974
  0
ARC
  5
2BA
100
AcDbEntity
  8
0
100
AcDbCircle
 62
7
  6
CONTINUOUS
 10
12.0172452213
 20
6.8152187254
 40
0.07
100
AcDbArc
 50
269.9999999991
 51
360.0
  0
ARC
  5
2BB
100
AcDbEntity
  8
0
100
AcDbCircle
 62
7
  6
CONTINUOUS
 10
12.5072452213
 20
6.8152187254
 40
0.07
100
AcDbArc
 50
179.9999999998
 51
270.0000000009
  0
ARC
  5
2BC
100
AcDbEntity
  8
0
100
AcDbCircle
 62
7
  6
CONTINUOUS
 10
11.8272452213
 20
6.8052187254
 40
0.06
100
AcDbArc
 50
180.0
 51
270.0
  0
ARC
  5
2BD
100
AcDbEntity
  8
0
100
AcDbCircle
 62
7
  6
CONTINUOUS
 10
11.8272452213
 20
5.9252187254
 40
0.06
100
AcDbArc
 50
90.0
 51
180.0
  0
ARC
  5
2BE
100
AcDbEntity
  8
0
100
AcDbCircle
 62
7
  6
CONTINUOUS
 10
12.6497048882
 20
6.0077590585
 40
0.0525403331
100
AcDbArc
 50
205.4047544257
 51
360.0
  0
ARC
  5
2BF
100
AcDbEntity
  8
0
100
AcDbCircle
 62
7
  6
CONTINUOUS
 10
12.6497048882
 20
6.7226783923
 40
0.0525403331
100
AcDbArc
 50
0.0
 51
154.5952455743
  0
ARC
  5
2C0
100
AcDbEntity
  8
0
100
AcDbCircle
 62
7
  6
CONTINUOUS
 10
11.6834453047
 20
5.9177187254
 40
0.036
100
AcDbArc
 50
231.9877204557
 51
309.4932133604
  0
ARC
  5
2C1
100
AcDbEntity
  8
0
100
AcDbCircle
 62
7
  6
CONTINUOUS
 10
11.6834453047
 20
6.8127187254
 40
0.036
100
AcDbArc
 50
50.5067866396
 51
128.0122795444
  0
ARC
  5
2C2
100
AcDbEntity
  8
0
100
AcDbCircle
 62
7
  6
CONTINUOUS
 10
12.4372452213
 20
6.9801187254
 40
0.0349
100
AcDbArc
 50
297.5323665693
 51
28.9755550787
  0
ARC
  5
2C3
100
AcDbEntity
  8
0
100
AcDbCircle
 62
7
  6
CONTINUOUS
 10
12.0872452213
 20
6.9801187254
 40
0.0349
100
AcDbArc
 50
151.0244449213
 51
242.4676334307
  0
ARC
  5
2C4
100
AcDbEntity
  8
0
100
AcDbCircle
 62
7
  6
CONTINUOUS
 10
11.6428005019
 20
5.8657187254
 40
0.03
100
AcDbArc
 50
51.9877204556
 51
111.7867892983
  0
ARC
  5
2C5
100
AcDbEntity
  8
0
100
AcDbCircle
 62
7
  6
CONTINUOUS
 10
11.6428005019
 20
6.8647187254
 40
0.03
100
AcDbArc
 50
248.2132107017
 51
308.0122795444
  0
ARC
  5
2C6
100
AcDbEntity
  8
0
100
AcDbCircle
 62
7
  6
CONTINUOUS
 10
11.7254204347
 20
5.8667865306
 40
0.03
100
AcDbArc
 50
70.5759916013
 51
129.4932133604
  0
ARC
  5
2C7
100
AcDbEntity
  8
0
100
AcDbCircle
 62
7
  6
CONTINUOUS
 10
11.7254204347
 20
6.8636509202
 40
0.03
100
AcDbArc
 50
230.5067866396
 51
289.4240083987
  0
ARC
  5
2C8
100
AcDbEntity
  8
0
100
AcDbCircle
 62
7
  6
CONTINUOUS
 10
12.4672452213
 20
6.9225686602
 40
0.03
100
AcDbArc
 50
117.5323665622
 51
180.0
  0
ARC
  5
2C9
100
AcDbEntity
  8
0
100
AcDbCircle
 62
7
  6
CONTINUOUS
 10
12.0572452213
 20
6.9225686602
 40
0.03
100
AcDbArc
 50
0.0
 51
62.4676334378
  0
ARC
  5
2CA
100
AcDbEntity
  8
0
100
AcDbCircle
 62
7
  6
CONTINUOUS
 10
12.0304689834
 20
7.0115586494
 40
0.03
100
AcDbArc
 50
331.0244449112
 51
39.8927370814
  0
ARC
  5
2CB
100
AcDbEntity
  8
0
100
AcDbCircle
 62
7
  6
CONTINUOUS
 10
12.4940214591
 20
7.0115586494
 40
0.03
100
AcDbArc
 50
140.1072629186
 51
208.9755550888
  0
ARC
  5
2CC
100
AcDbEntity
  8
0
100
AcDbCircle
 62
7
  6
CONTINUOUS
 10
11.7433452213
 20
5.9176187254
 40
0.0239
100
AcDbArc
 50
250.5759916013
 51
360.0
  0
ARC
  5
2CD
100
AcDbEntity
  8
0
100
AcDbCircle
 62
7
  6
CONTINUOUS
 10
11.7433452213
 20
6.8128187254
 40
0.0239
100
AcDbArc
 50
0.0
 51
109.4240083987
  0
ARC
  5
2CE
100
AcDbEntity
  8
0
100
AcDbCircle
 62
7
  6
CONTINUOUS
 10
11.6272120446
 20
5.9047187254
 40
0.012
100
AcDbArc
 50
267.8367607318
 51
291.7867892983
  0
ARC
  5
2CF
100
AcDbEntity
  8
0
100
AcDbCircle
 62
7
  6
CONTINUOUS
 10
11.3722452213
 20
5.7822187254
 40
0.012
100
AcDbArc
 50
270.0
 51
323.4875880974
  0
ARC
  5
2D0
100
AcDbEntity
  8
0
100
AcDbCircle
 62
7
  6
CONTINUOUS
 10
11.6272120446
 20
6.8257187254
 40
0.012
100
AcDbArc
 50
68.2132107017
 51
92.1632392682
  0
ARC
  5
2D1
100
AcDbEntity
  8
0
100
AcDbCircle
 62
7
  6
CONTINUOUS
 10
11.3722452213
 20
6.9482187254
 40
0.012
100
AcDbArc
 50
36.5124119026
 51
90.0
  0
ARC
  5
2D2
100
AcDbEntity
  8
0
100
AcDbCircle
 62
7
  6
CONTINUOUS
 10
11.3350633006
 20
7.9067132393
 40
0.561
100
AcDbArc
 50
210.367667842
 51
238.0416258379
  0
ARC
  5
2D3
100
AcDbEntity
  8
0
100
AcDbCircle
 62
7
  6
CONTINUOUS
 10
11.6157748011
 20
7.1285027895
 40
0.291
100
AcDbArc
 50
216.5124119026
 51
272.1632392682
  0
ARC
  5
2D4
100
AcDbEntity
  8
0
100
AcDbCircle
 62
7
  6
CONTINUOUS
 10
11.8059228029
 20
8.6928068781
 40
0.2264
100
AcDbArc
 50
1.5
 51
37.1779001706
  0
ARC
  5
2D5
100
AcDbEntity
  8
0
100
AcDbCircle
 62
7
  6
CONTINUOUS
 10
12.7185676396
 20
8.6928068781
 40
0.2264
100
AcDbArc
 50
142.8220998294
 51
178.5
  0
ARC
  5
2D6
100
AcDbEntity
  8
0
100
AcDbCircle
 62
7
  6
CONTINUOUS
 10
12.0878960173
 20
8.8380187254
 40
0.1072
100
AcDbArc
 50
90.0
 51
137.2262966616
  0
ARC
  5
2D7
100
AcDbEntity
  8
0
100
AcDbCircle
 62
7
  6
CONTINUOUS
 10
12.4365944253
 20
8.8380187254
 40
0.1072
100
AcDbArc
 50
42.7737033384
 51
90.0
  0
ARC
  5
2D8
100
AcDbEntity
  8
0
100
AcDbCircle
 62
9
  6
CONTINUOUS
 10
12.4187408442
 20
8.8664641159
 40
0.0787546101
100
AcDbArc
 50
77.1759405246
 51
90.0071578157
  0
ARC
  5
2D9
100
AcDbEntity
  8
0
100
AcDbCircle
 62
9
  6
CONTINUOUS
 10
12.1057495555
 20
8.8664644304
 40
0.0787542956
100
AcDbArc
 50
89.9928109918
 51
102.8241361469
  0
ARC
  5
2DA
100
AcDbEntity
  8
0
100
AcDbCircle
 62
7
  6
CONTINUOUS
 10
12.4372452213
 20
7.0590187254
 40
0.044
100
AcDbArc
 50
320.10726293
 51
53.8642567559
  0
ARC
  5
2DB
100
AcDbEntity
  8
0
100
AcDbCircle
 62
7
  6
CONTINUOUS
 10
12.0872452213
 20
7.0590187254
 40
0.044
100
AcDbArc
 50
126.1357432441
 51
219.89273707
  0
ARC
  5
2DC
100
AcDbEntity
  8
0
100
AcDbCircle
 62
7
  6
CONTINUOUS
 10
11.9776136034
 20
8.9400473821
 40
0.04304
100
AcDbArc
 50
292.9999284612
 51
317.2262966616
  0
ARC
  5
2DD
100
AcDbEntity
  8
0
100
AcDbCircle
 62
7
  6
CONTINUOUS
 10
12.5468768392
 20
8.9400473821
 40
0.04304
100
AcDbArc
 50
222.7737033384
 51
247.0000715388
  0
ARC
  5
2DE
100
AcDbEntity
  8
0
100
AcDbCircle
 62
7
  6
CONTINUOUS
 10
12.4808830432
 20
7.1187827655
 40
0.03
100
AcDbArc
 50
178.4999999912
 51
233.8642567559
  0
ARC
  5
2DF
100
AcDbEntity
  8
0
100
AcDbCircle
 62
7
  6
CONTINUOUS
 10
12.0436073993
 20
7.1187827655
 40
0.03
100
AcDbArc
 50
306.1357432441
 51
1.5000000088
  0
ARC
  5
2E0
100
AcDbEntity
  8
0
100
AcDbCircle
 62
7
  6
CONTINUOUS
 10
12.0022452213
 20
8.8417043866
 40
0.02
100
AcDbArc
 50
180.0
 51
217.1779001706
  0
ARC
  5
2E1
100
AcDbEntity
  8
0
100
AcDbCircle
 62
7
  6
CONTINUOUS
 10
12.5222452213
 20
8.8417043866
 40
0.02
100
AcDbArc
 50
322.8220998294
 51
360.0
  0
ARC
  5
2E2
100
AcDbEntity
  8
0
100
AcDbCircle
 62
7
  6
CONTINUOUS
 10
12.0022452213
 20
8.8820187254
 40
0.02
100
AcDbArc
 50
112.9999284612
 51
180.0
  0
ARC
  5
2E3
100
AcDbEntity
  8
0
100
AcDbCircle
 62
7
  6
CONTINUOUS
 10
12.5222452213
 20
8.8820187254
 40
0.02
100
AcDbArc
 50
0.0
 51
67.0000715388
  0
SPLINE
  5
2E4
100
AcDbEntity
  8
0
100
AcDbSpline
 62
7
  6
CONTINUOUS
 70
0
 71
3
 72
41
 73
37
 74
0
 42
0.0000001
 43
0.0000001
 44
0.0000000001
 40
0.0
 40
0.0
 40
0.0
 40
0.0
 40
0.0110985195
 40
0.0431386208
 40
0.093039958
 40
0.1235608177
 40
0.1572252635
 40
0.1936554439
 40
0.2325155566
 40
0.2735046125
 40
0.316341765
 40
0.3607447902
 40
0.3834415867
 40
0.4064102834
 40
0.4296037407
 40
0.4529701523
 40
0.4647018496
 40
0.4764557896
 40
0.5000000021
 40
0.5235442146
 40
0.5352981546
 40
0.5470298517
 40
0.5703962627
 40
0.5935897194
 40
0.6165584164
 40
0.6392552129
 40
0.6836582378
 40
0.7264953899
 40
0.7674844449
 40
0.8063445569
 40
0.8427747369
 40
0.8764391826
 40
0.9069600421
 40
0.9568613793
 40
0.9889014806
 40
1.0
 40
1.0
 40
1.0
 40
1.0
 10
10.9422452213
 20
5.8652187254
 30
0.0
 10
10.940150995
 20
5.8685904025
 30
0.0
 10
10.9320474324
 20
5.8817183789
 30
0.0
 10
10.9148876184
 20
5.9102274428
 30
0.0
 10
10.8949556636
 20
5.9451691026
 30
0.0
 10
10.8756985861
 20
5.9811422917
 30
0.0
 10
10.8594700182
 20
6.0132623029
 30
0.0
 10
10.8429022017
 20
6.04853683
 30
0.0
 10
10.826532431
 20
6.0867746603
 30
0.0
 10
10.8109415017
 20
6.1278031601
 30
0.0
 10
10.7967623119
 20
6.1714358848
 30
0.0
 10
10.7867623445
 20
6.2094878509
 30
0.0
 10
10.7801042665
 20
6.2410085651
 30
0.0
 10
10.7758529194
 20
6.265270152
 30
0.0
 10
10.7724577233
 20
6.2899081766
 30
0.0
 10
10.7703965207
 20
6.3106583637
 30
0.0
 10
10.7692303585
 20
6.3273742337
 30
0.0
 10
10.7683903126
 20
6.3441733523
 30
0.0
 10
10.7679692803
 20
6.3652187277
 30
0.0
 10
10.7683903125
 20
6.386264103
 30
0.0
 10
10.7692303588
 20
6.4030632215
 30
0.0
 10
10.7703965213
 20
6.4197790912
 30
0.0
 10
10.7724577235
 20
6.4405292779
 30
0.0
 10
10.7758529199
 20
6.4651673021
 30
0.0
 10
10.7801042673
 20
6.4894288889
 30
0.0
 10
10.786762345
 20
6.520949603
 30
0.0
 10
10.7967623129
 20
6.5590015688
 30
0.0
 10
10.8109415025
 20
6.6026342929
 30
0.0
 10
10.8265324317
 20
6.643662792
 30
0.0
 10
10.842902202
 20
6.6819006217
 30
0.0
 10
10.8594700184
 20
6.7171751483
 30
0.0
 10
10.8756985862
 20
6.7492951593
 30
0.0
 10
10.8949556637
 20
6.7852683484
 30
0.0
 10
10.9148876185
 20
6.8202100081
 30
0.0
 10
10.9320474325
 20
6.8487190719
 30
0.0
 10
10.940150995
 20
6.8618470483
 30
0.0
 10
10.9422452213
 20
6.8652187254
 30
0.0
  0
SPLINE
  5
2E5
100
AcDbEntity
  8
0
100
AcDbSpline
 62
7
  6
CONTINUOUS
 70
0
 71
3
 72
14
 73
10
 74
0
 42
0.0000001
 43
0.0000001
 44
0.0000000001
 40
0.0
 40
0.0
 40
0.0
 40
0.0
 40
0.0840948666
 40
0.1835577325
 40
0.2965935931
 40
0.4213022736
 40
0.6980724057
 40
0.8467294068
 40
1.0
 40
1.0
 40
1.0
 40
1.0
 10
10.448296917
 20
11.4700206218
 30
0.0
 10
10.4472983942
 20
11.4688187247
 30
0.0
 10
10.4452029314
 20
11.4661246455
 30
0.0
 10
10.442087068
 20
11.4615750357
 30
0.0
 10
10.4388767017
 20
11.4561889555
 30
0.0
 10
10.4345237459
 20
11.4476712323
 30
0.0
 10
10.4308211537
 20
11.438102204
 30
0.0
 10
10.4279663889
 20
11.4277293621
 30
0.0
 10
10.4268592621
 20
11.4222235269
 30
0.0
 10
10.4263951205
 20
11.4194136886
 30
0.0
  0
SPLINE
  5
2E6
100
AcDbEntity
  8
0
100
AcDbSpline
 62
7
  6
CONTINUOUS
 70
0
 71
3
 72
14
 73
10
 74
0
 42
0.0000001
 43
0.0000001
 44
0.0000000001
 40
0.0
 40
0.0
 40
0.0
 40
0.0
 40
0.1532469656
 40
0.3018806728
 40
0.5786744728
 40
0.7033848445
 40
0.8164320143
 40
0.915903759
 40
1.0
 40
1.0
 40
1.0
 40
1.0
 10
9.8480945207
 20
11.4194188253
 30
0.0
 10
9.8476304074
 20
11.4222279791
 30
0.0
 10
9.8465234165
 20
11.4277324792
 30
0.0
 10
9.8436681629
 20
11.438103763
 30
0.0
 10
9.8399666304
 20
11.4476723463
 30
0.0
 10
9.8356128228
 20
11.4561894811
 30
0.0
 10
9.8324031764
 20
11.4615758356
 30
0.0
 10
9.8292871043
 20
11.466125247
 30
0.0
 10
9.8271915753
 20
11.4688191386
 30
0.0
 10
9.8261931546
 20
11.4700209818
 30
0.0
  0
SPLINE
  5
2E7
100
AcDbEntity
  8
0
100
AcDbSpline
 62
7
  6
CONTINUOUS
 70
0
 71
3
 72
16
 73
12
 74
0
 42
0.0000001
 43
0.0000001
 44
0.0000000001
 40
0.0
 40
0.0
 40
0.0
 40
0.0
 40
0.1225870565
 40
0.2452239049
 40
0.368443144
 40
0.4926496498
 40
0.6180182946
 40
0.6811746497
 40
0.7446214526
 40
0.8720112247
 40
1.0
 40
1.0
 40
1.0
 40
1.0
 10
10.4249851723
 20
11.1587383507
 30
0.0
 10
10.4269624622
 20
11.1607366721
 30
0.0
 10
10.4307788908
 20
11.1648751737
 30
0.0
 10
10.4360115129
 20
11.1715206487
 30
0.0
 10
10.4406805941
 20
11.1786208692
 30
0.0
 10
10.4447009864
 20
11.1861802152
 30
0.0
 10
10.4474250242
 20
11.1928295073
 30
0.0
 10
10.449185461
 20
11.1983357432
 30
0.0
 10
10.4506544532
 20
11.2039747826
 30
0.0
 10
10.4519082191
 20
11.2111940947
 30
0.0
 10
10.4522452366
 20
11.2170559009
 30
0.0
 10
10.4522452366
 20
11.2199909966
 30
0.0
  0
SPLINE
  5
2E8
100
AcDbEntity
  8
0
100
AcDbSpline
 62
7
  6
CONTINUOUS
 70
0
 71
3
 72
15
 73
11
 74
0
 42
0.0000001
 43
0.0000001
 44
0.0000000001
 40
0.0
 40
0.0
 40
0.0
 40
0.0
 40
0.1450490459
 40
0.2827498879
 40
0.4137226321
 40
0.5387376036
 40
0.6587198567
 40
0.7747603664
 40
0.8880849375
 40
1.0
 40
1.0
 40
1.0
 40
1.0
 10
9.8495265256
 20
11.1587168817
 30
0.0
 10
9.8482369218
 20
11.1600201185
 30
0.0
 10
9.8458049231
 20
11.1626437906
 30
0.0
 10
9.8425416942
 20
11.1667368497
 30
0.0
 10
9.8397676034
 20
11.1708757231
 30
0.0
 10
9.8374880721
 20
11.1750538307
 30
0.0
 10
9.835708422
 20
11.1792649188
 30
0.0
 10
9.8344330996
 20
11.183502151
 30
0.0
 10
9.8336663884
 20
11.1877567207
 30
0.0
 10
9.8334952785
 20
11.1906066258
 30
0.0
 10
9.8334952785
 20
11.1920212481
 30
0.0
  0
SPLINE
  5
2E9
100
AcDbEntity
  8
0
100
AcDbSpline
 62
7
  6
CONTINUOUS
 70
0
 71
3
 72
16
 73
12
 74
0
 42
0.0000001
 43
0.0000001
 44
0.0000000001
 40
0.0
 40
0.0
 40
0.0
 40
0.0
 40
0.1279913991
 40
0.2553736031
 40
0.3188231722
 40
0.3819811941
 40
0.507350664
 40
0.6315562532
 40
0.7547759828
 40
0.877417226
 40
1.0
 40
1.0
 40
1.0
 40
1.0
 10
9.822245206
 20
11.2199909966
 30
0.0
 10
9.822245206
 20
11.2170556614
 30
0.0
 10
9.822582166
 20
11.2111935957
 30
0.0
 10
9.8238362978
 20
11.2039739469
 30
0.0
 10
9.8253052984
 20
11.1983346179
 30
0.0
 10
9.8270659599
 20
11.1928279551
 30
0.0
 10
9.8297902797
 20
11.1861782552
 30
0.0
 10
9.8338113169
 20
11.1786186592
 30
0.0
 10
9.8384806896
 20
11.1715178908
 30
0.0
 10
9.8437141555
 20
11.1648724121
 30
0.0
 10
9.847530666
 20
11.1607335146
 30
0.0
 10
9.8495081592
 20
11.158735291
 30
0.0
  0
SPLINE
  5
2EA
100
AcDbEntity
  8
0
100
AcDbSpline
 62
7
  6
CONTINUOUS
 70
0
 71
3
 72
16
 73
12
 74
0
 42
0.0000001
 43
0.0000001
 44
0.0000000001
 40
0.0
 40
0.0
 40
0.0
 40
0.0
 40
0.120849327
 40
0.2426836561
 40
0.3658004237
 40
0.4903440747
 40
0.6162703834
 40
0.6797294356
 40
0.7434733736
 40
0.871463581
 40
1.0
 40
1.0
 40
1.0
 40
1.0
 10
10.4551574762
 20
11.4775964263
 30
0.0
 10
10.4572466013
 20
11.4799283869
 30
0.0
 10
10.4612786365
 20
11.4847611713
 30
0.0
 10
10.4667811367
 20
11.4924888114
 30
0.0
 10
10.4716783395
 20
11.5007277425
 30
0.0
 10
10.4758759094
 20
11.5094632151
 30
0.0
 10
10.4787033517
 20
11.5171035202
 30
0.0
 10
10.4805240512
 20
11.5234060822
 30
0.0
 10
10.4820396185
 20
11.5298439334
 30
0.0
 10
10.4833271068
 20
11.5380559403
 30
0.0
 10
10.4836726015
 20
11.544706816
 30
0.0
 10
10.4836726015
 20
11.5480368605
 30
0.0
  0
SPLINE
  5
2EB
100
AcDbEntity
  8
0
100
AcDbSpline
 62
7
  6
CONTINUOUS
 70
0
 71
3
 72
16
 73
12
 74
0
 42
0.0000001
 43
0.0000001
 44
0.0000000001
 40
0.0
 40
0.0
 40
0.0
 40
0.0
 40
0.1285367449
 40
0.2565171537
 40
0.320263058
 40
0.3837234004
 40
0.5096496557
 40
0.6341945788
 40
0.7573116454
 40
0.8791510944
 40
1.0
 40
1.0
 40
1.0
 40
1.0
 10
9.790817841
 20
11.5480368605
 30
0.0
 10
9.790817841
 20
11.5447077149
 30
0.0
 10
9.791163028
 20
11.5380588858
 30
0.0
 10
9.7924500045
 20
11.5298493018
 30
0.0
 10
9.7939645346
 20
11.5234132353
 30
0.0
 10
9.7957842463
 20
11.5171121619
 30
0.0
 10
9.7986101466
 20
11.5094735862
 30
0.0
 10
9.8028057113
 20
11.500740044
 30
0.0
 10
9.8077004281
 20
11.4925024804
 30
0.0
 10
9.8132003638
 20
11.4847760308
 30
0.0
 10
9.8172305966
 20
11.4799438101
 30
0.0
 10
9.8193188825
 20
11.4776122577
 30
0.0
  0
SPLINE
  5
2EC
100
AcDbEntity
  8
0
100
AcDbSpline
 62
7
  6
CONTINUOUS
 70
0
 71
3
 72
15
 73
11
 74
0
 42
0.0000001
 43
0.0000001
 44
0.0000000001
 40
0.0
 40
0.0
 40
0.0
 40
0.0
 40
0.1119165523
 40
0.2252424374
 40
0.3412839239
 40
0.461266679
 40
0.5862815771
 40
0.7172536052
 40
0.8549530494
 40
1.0
 40
1.0
 40
1.0
 40
1.0
 10
10.4409951641
 20
11.1920212481
 30
0.0
 10
10.4409951641
 20
11.1906067267
 30
0.0
 10
10.4408240789
 20
11.1877570277
 30
0.0
 10
10.4400574779
 20
11.1835027624
 30
0.0
 10
10.4387823381
 20
11.1792658306
 30
0.0
 10
10.4370029419
 20
11.1750550368
 30
0.0
 10
10.4347237342
 20
11.1708772162
 30
0.0
 10
10.4319500355
 20
11.1667386214
 30
0.0
 10
10.4286872655
 20
11.1626458313
 30
0.0
 10
10.4262556022
 20
11.1600223216
 30
0.0
 10
10.4249661759
 20
11.1587191646
 30
0.0
  0
SPLINE
  5
2ED
100
AcDbEntity
  8
0
100
AcDbSpline
 62
7
  6
CONTINUOUS
 70
0
 71
3
 72
45
 73
41
 74
0
 42
0.0000001
 43
0.0000001
 44
0.0000000001
 40
0.0
 40
0.0
 40
0.0
 40
0.0
 40
0.0225843179
 40
0.0460072882
 40
0.0581182461
 40
0.0705300621
 40
0.0832624542
 40
0.0963309464
 40
0.1097466373
 40
0.1235176065
 40
0.1521339675
 40
0.1821762133
 40
0.2135957158
 40
0.2463097451
 40
0.2802080666
 40
0.3151582365
 40
0.3510099735
 40
0.3875989207
 40
0.4247498957
 40
0.4622798368
 40
0.5000005272
 40
0.5377212118
 40
0.5752511367
 40
0.6124020853
 40
0.648990995
 40
0.6848426842
 40
0.7197927976
 40
0.7536910553
 40
0.7864050109
 40
0.8178244336
 40
0.847866592
 40
0.8764828705
 40
0.8902537862
 40
0.9036694259
 40
0.9167378285
 40
0.9294702357
 40
0.9418820224
 40
0.9539927865
 40
0.9774157406
 40
1.0
 40
1.0
 40
1.0
 40
1.0
 10
9.8496475627
 20
11.158594782
 30
0.0
 10
9.8528625956
 20
11.1553569341
 30
0.0
 10
9.8598241219
 20
11.1491626625
 30
0.0
 10
9.8693578686
 20
11.1422802016
 30
0.0
 10
9.8775567915
 20
11.137117466
 30
0.0
 10
9.8840802722
 20
11.1333586913
 30
0.0
 10
9.8909062784
 20
11.1297483869
 30
0.0
 10
9.8980312365
 20
11.1262792758
 30
0.0
 10
9.9054517852
 20
11.1229471799
 30
0.0
 10
9.9158669132
 20
11.1186267975
 30
0.0
 10
9.9296080091
 20
11.1135743072
 30
0.0
 10
9.9469726712
 20
11.1081070449
 30
0.0
 10
9.9653521121
 20
11.1031647456
 30
0.0
 10
9.9846663654
 20
11.0987578333
 30
0.0
 10
10.0048239693
 20
11.0948997946
 30
0.0
 10
10.0257228928
 20
11.0916051056
 30
0.0
 10
10.0472524427
 20
11.088887753
 30
0.0
 10
10.0692948017
 20
11.0867602337
 30
0.0
 10
10.0917265725
 20
11.085232861
 30
0.0
 10
10.1144202216
 20
11.0843132971
 30
0.0
 10
10.1372454865
 20
11.0840062515
 30
0.0
 10
10.1600707481
 20
11.0843133118
 30
0.0
 10
10.1827643868
 20
11.0852328899
 30
0.0
 10
10.2051961404
 20
11.086760276
 30
0.0
 10
10.2272384756
 20
11.0888878074
 30
0.0
 10
10.2487679952
 20
11.0916051703
 30
0.0
 10
10.2696668831
 20
11.0948998676
 30
0.0
 10
10.2898244461
 20
11.0987579118
 30
0.0
 10
10.3091386539
 20
11.1031648261
 30
0.0
 10
10.3275180446
 20
11.1081071244
 30
0.0
 10
10.3448826558
 20
11.1135743804
 30
0.0
 10
10.3586237058
 20
11.1186268646
 30
0.0
 10
10.3690387953
 20
11.1229472417
 30
0.0
 10
10.3764593045
 20
11.1262793284
 30
0.0
 10
10.3835842518
 20
11.129748405
 30
0.0
 10
10.3904102133
 20
11.1333587487
 30
0.0
 10
10.3969336725
 20
11.1371174759
 30
0.0
 10
10.4051325437
 20
11.1422802036
 30
0.0
 10
10.4146662559
 20
11.1491626177
 30
0.0
 10
10.4216277768
 20
11.155356873
 30
0.0
 10
10.4248428062
 20
11.1585947078
 30
0.0
  0
SPLINE
  5
2EE
100
AcDbEntity
  8
0
100
AcDbSpline
 62
7
  6
CONTINUOUS
 70
0
 71
3
 72
48
 73
44
 74
0
 42
0.0000001
 43
0.0000001
 44
0.0000000001
 40
0.0
 40
0.0
 40
0.0
 40
0.0
 40
0.0120406946
 40
0.0240812206
 40
0.0362094764
 40
0.0484681926
 40
0.0608891628
 40
0.0735115757
 40
0.0863727151
 40
0.0995009603
 40
0.1129189477
 40
0.1266443735
 40
0.1406903791
 40
0.155066351
 40
0.1848202685
 40
0.215905213
 40
0.2482702076
 40
0.2818259106
 40
0.3164522619
 40
0.3520047595
 40
0.3883197134
 40
0.4252187731
 40
0.4625129657
 40
0.5000064262
 40
0.5374998766
 40
0.5747940381
 40
0.6116930444
 40
0.6480079298
 40
0.6835603394
 40
0.7181865814
 40
0.7517421623
 40
0.7841070261
 40
0.8151918282
 40
0.8449455826
 40
0.873364695
 40
0.9005043454
 40
0.92648921
 40
0.9391117286
 40
0.9515319297
 40
0.9637894679
 40
0.9759187036
 40
0.987962861
 40
1.0
 40
1.0
 40
1.0
 40
1.0
 10
10.4613176273
 20
11.6075990119
 30
0.0
 10
10.4595176288
 20
11.6097025251
 30
0.0
 10
10.4557743805
 20
11.6137889995
 30
0.0
 10
10.4497713755
 20
11.6195647081
 30
0.0
 10
10.4434113532
 20
11.6250213981
 30
0.0
 10
10.4367046373
 20
11.6301892866
 30
0.0
 10
10.4296651465
 20
11.6350944921
 30
0.0
 10
10.4222985732
 20
11.6397568551
 30
0.0
 10
10.4146093037
 20
11.6441991858
 30
0.0
 10
10.4065982967
 20
11.6484371489
 30
0.0
 10
10.3982674681
 20
11.6524832407
 30
0.0
 10
10.3896193609
 20
11.6563475778
 30
0.0
 10
10.3806566501
 20
11.6600369807
 30
0.0
 10
10.3681497037
 20
11.6647849954
 30
0.0
 10
10.3517454396
 20
11.670285518
 30
0.0
 10
10.3311298492
 20
11.6761623389
 30
0.0
 10
10.3094402489
 20
11.681388897
 30
0.0
 10
10.2867720758
 20
11.6859570547
 30
0.0
 10
10.2632362863
 20
11.6898543908
 30
0.0
 10
10.2389575923
 20
11.6930670296
 30
0.0
 10
10.2140717044
 20
11.6955816118
 30
0.0
 10
10.1887230106
 20
11.6973866216
 30
0.0
 10
10.1630622818
 20
11.6984732778
 30
0.0
 10
10.1372444966
 20
11.6988361027
 30
0.0
 10
10.1114267192
 20
11.6984732369
 30
0.0
 10
10.0857660139
 20
11.6973865407
 30
0.0
 10
10.060417358
 20
11.6955814926
 30
0.0
 10
10.0355315227
 20
11.6930668743
 30
0.0
 10
10.0112528927
 20
11.6898542028
 30
0.0
 10
9.9877171897
 20
11.6859568384
 30
0.0
 10
9.9650490801
 20
11.6813886556
 30
0.0
 10
9.943359671
 20
11.6761620822
 30
0.0
 10
9.9227438612
 20
11.6702852362
 30
0.0
 10
9.9032780329
 20
11.6637577413
 30
0.0
 10
9.8850176688
 20
11.6565644956
 30
0.0
 10
9.8679990907
 20
11.6486678584
 30
0.0
 10
9.8547417611
 20
11.6413705336
 30
0.0
 10
9.8448250555
 20
11.6350942095
 30
0.0
 10
9.8377857938
 20
11.6301893007
 30
0.0
 10
9.8310791856
 20
11.6250216659
 30
0.0
 10
9.8247185933
 20
11.6195644062
 30
0.0
 10
9.8187157148
 20
11.6137882255
 30
0.0
 10
9.8149722823
 20
11.609701904
 30
0.0
 10
9.8131728152
 20
11.6075990119
 30
0.0
  0
SPLINE
  5
2EF
100
AcDbEntity
  8
0
100
AcDbSpline
 62
7
  6
CONTINUOUS
 70
0
 71
3
 72
14
 73
10
 74
0
 42
0.0000001
 43
0.0000001
 44
0.0000000001
 40
0.0
 40
0.0
 40
0.0
 40
0.0
 40
0.2484540276
 40
0.3726889523
 40
0.4971971477
 40
0.6221744169
 40
0.7475514758
 40
0.8733299656
 40
1.0
 40
1.0
 40
1.0
 40
1.0
 10
9.8131169402
 20
11.6075336587
 30
0.0
 10
9.8106541876
 20
11.6046512617
 30
0.0
 10
9.8071755437
 20
11.6001335737
 30
0.0
 10
9.8030812117
 20
11.5937423369
 30
0.0
 10
9.8003023184
 20
11.5887579604
 30
0.0
 10
9.7978434203
 20
11.5835888152
 30
0.0
 10
9.7957293925
 20
11.5782478823
 30
0.0
 10
9.7939881206
 20
11.5727468628
 30
0.0
 10
9.7930958778
 20
11.5689951551
 30
0.0
 10
9.7927188693
 20
11.5670993897
 30
0.0
  0
SPLINE
  5
2F0
100
AcDbEntity
  8
0
100
AcDbSpline
 62
7
  6
CONTINUOUS
 70
0
 71
3
 72
14
 73
10
 74
0
 42
0.0000001
 43
0.0000001
 44
0.0000000001
 40
0.0
 40
0.0
 40
0.0
 40
0.0
 40
0.1266965457
 40
0.2524468227
 40
0.3778136097
 40
0.502799975
 40
0.627314172
 40
0.751548563
 40
1.0
 40
1.0
 40
1.0
 40
1.0
 10
10.4817715733
 20
11.5670993897
 30
0.0
 10
10.4813944689
 20
11.5689956371
 30
0.0
 10
10.4805023098
 20
11.5727475193
 30
0.0
 10
10.4787607923
 20
11.5782485472
 30
0.0
 10
10.476646671
 20
11.5835892318
 30
0.0
 10
10.4741876981
 20
11.5887587033
 30
0.0
 10
10.4714086507
 20
11.5937435473
 30
0.0
 10
10.4673139004
 20
11.6001349758
 30
0.0
 10
10.4638350829
 20
11.6046527883
 30
0.0
 10
10.4613721848
 20
11.6075352329
 30
0.0
  0
SPLINE
  5
2F1
100
AcDbEntity
  8
0
100
AcDbSpline
 62
7
  6
CONTINUOUS
 70
0
 71
3
 72
16
 73
12
 74
0
 42
0.0000001
 43
0.0000001
 44
0.0000000001
 40
0.0
 40
0.0
 40
0.0
 40
0.0
 40
0.0817645271
 40
0.180255525
 40
0.2934462085
 40
0.4190910136
 40
0.4858890358
 40
0.5549584806
 40
0.625976624
 40
0.6986083736
 40
1.0
 40
1.0
 40
1.0
 40
1.0
 10
9.840295486
 20
11.2721242042
 30
0.0
 10
9.8409836816
 20
11.2730704457
 30
0.0
 10
9.8424268062
 20
11.2752110081
 30
0.0
 10
9.844538766
 20
11.2788440432
 30
0.0
 10
9.8466713033
 20
11.2831790189
 30
0.0
 10
9.8483150398
 20
11.2872365404
 30
0.0
 10
9.8495297572
 20
11.2907768618
 30
0.0
 10
9.8503833365
 20
11.2936123807
 30
0.0
 10
9.8511502572
 20
11.2965590799
 30
0.0
 10
9.8525200966
 20
11.3027786344
 30
0.0
 10
9.8531546888
 20
11.3081238888
 30
0.0
 10
9.8533341649
 20
11.3124330169
 30
0.0
  0
SPLINE
  5
2F2
100
AcDbEntity
  8
0
100
AcDbSpline
 62
7
  6
CONTINUOUS
 70
0
 71
3
 72
17
 73
13
 74
0
 42
0.0000001
 43
0.0000001
 44
0.0000000001
 40
0.0
 40
0.0
 40
0.0
 40
0.0
 40
0.3013913335
 40
0.3739996813
 40
0.4450128009
 40
0.5140929605
 40
0.5809024076
 40
0.6451538594
 40
0.7065711042
 40
0.8197446592
 40
0.9182444571
 40
1.0
 40
1.0
 40
1.0
 40
1.0
 10
10.4211562777
 20
11.3124330169
 30
0.0
 10
10.4213357644
 20
11.3081236346
 30
0.0
 10
10.4219700246
 20
11.3027783279
 30
0.0
 10
10.4233403936
 20
11.2965589164
 30
0.0
 10
10.4241076234
 20
11.2936123648
 30
0.0
 10
10.4249610304
 20
11.2907763995
 30
0.0
 10
10.4258904319
 20
11.2880664998
 30
0.0
 10
10.4268809728
 20
11.2854955708
 30
0.0
 10
10.4282255016
 20
11.2823524746
 30
0.0
 10
10.4299528832
 20
11.2788427846
 30
0.0
 10
10.4320641893
 20
11.2752094779
 30
0.0
 10
10.433507865
 20
11.273069076
 30
0.0
 10
10.4341959894
 20
11.2721228549
 30
0.0
  0
SPLINE
  5
2F3
100
AcDbEntity
  8
0
100
AcDbSpline
 62
7
  6
CONTINUOUS
 70
0
 71
3
 72
14
 73
10
 74
0
 42
0.0000001
 43
0.0000001
 44
0.0000000001
 40
0.0
 40
0.0
 40
0.0
 40
0.0
 40
0.245242004
 40
0.3690489147
 40
0.4937063502
 40
0.6192002419
 40
0.7453885776
 40
0.8722465231
 40
1.0
 40
1.0
 40
1.0
 40
1.0
 10
9.8402955495
 20
11.272124225
 30
0.0
 10
9.8383167768
 20
11.2694036535
 30
0.0
 10
9.8355287982
 20
11.2651653799
 30
0.0
 10
9.8322471004
 20
11.2592387033
 30
0.0
 10
9.8300024673
 20
11.2546231656
 30
0.0
 10
9.8280017252
 20
11.2498614125
 30
0.0
 10
9.8262620914
 20
11.2449658321
 30
0.0
 10
9.8248016906
 20
11.2399475642
 30
0.0
 10
9.8240264334
 20
11.2365395321
 30
0.0
 10
9.8236894374
 20
11.2348197942
 30
0.0
  0
SPLINE
  5
2F4
100
AcDbEntity
  8
0
100
AcDbSpline
 62
7
  6
CONTINUOUS
 70
0
 71
3
 72
14
 73
10
 74
0
 42
0.0000001
 43
0.0000001
 44
0.0000000001
 40
0.0
 40
0.0
 40
0.0
 40
0.0
 40
0.1277968462
 40
0.2546164525
 40
0.3807811663
 40
0.506281749
 40
0.6309526089
 40
0.7547606754
 40
1.0
 40
1.0
 40
1.0
 40
1.0
 10
10.4508010052
 20
11.2348197942
 30
0.0
 10
10.4504638526
 20
11.2365403313
 30
0.0
 10
10.4496886066
 20
11.2399488879
 30
0.0
 10
10.4482278656
 20
11.2449674788
 30
0.0
 10
10.4464879902
 20
11.2498628556
 30
0.0
 10
10.4444869492
 20
11.2546251265
 30
0.0
 10
10.4422419892
 20
11.2592415472
 30
0.0
 10
10.438959525
 20
11.2651689611
 30
0.0
 10
10.4361710006
 20
11.2694076088
 30
0.0
 10
10.4341918699
 20
11.2721283952
 30
0.0
  0
SPLINE
  5
2F5
100
AcDbEntity
  8
0
100
AcDbSpline
 62
9
  6
CONTINUOUS
 70
0
 71
3
 72
61
 73
57
 74
0
 42
0.0000001
 43
0.0000001
 44
0.0000000001
 40
0.0
 40
0.0
 40
0.0
 40
0.0
 40
0.0075225775
 40
0.01518096
 40
0.0231000719
 40
0.0313928111
 40
0.0401539299
 40
0.0494595668
 40
0.0593685163
 40
0.0699244005
 40
0.0811575092
 40
0.0930870203
 40
0.1057229237
 40
0.1190671569
 40
0.133115271
 40
0.1478570037
 40
0.1632772901
 40
0.1793569204
 40
0.1960728066
 40
0.2133988054
 40
0.2313056925
 40
0.2497617484
 40
0.268732959
 40
0.2881831355
 40
0.3283650541
 40
0.3699874215
 40
0.4127074801
 40
0.4561675218
 40
0.5
 40
0.5438324782
 40
0.5872925199
 40
0.6300125785
 40
0.6716349459
 40
0.7118168645
 40
0.731267041
 40
0.7502382516
 40
0.7686943075
 40
0.7866011946
 40
0.8039271934
 40
0.8206430796
 40
0.8367227099
 40
0.8521429963
 40
0.866884729
 40
0.8809328431
 40
0.8942770763
 40
0.9069129797
 40
0.9188424908
 40
0.9300755995
 40
0.9406314837
 40
0.9505404332
 40
0.9598460701
 40
0.9686071889
 40
0.9768999281
 40
0.98481904
 40
0.9924774225
 40
1.0
 40
1.0
 40
1.0
 40
1.0
 10
10.4072452208
 20
11.1807052388
 30
0.0
 10
10.4072452208
 20
11.1791910622
 30
0.0
 10
10.4070235693
 20
11.1761309973
 30
0.0
 10
10.4060319852
 20
11.1715737859
 30
0.0
 10
10.4043854949
 20
11.1670455188
 30
0.0
 10
10.4020923175
 20
11.1625594594
 30
0.0
 10
10.3991613496
 20
11.1581250074
 30
0.0
 10
10.3956014766
 20
11.1537514823
 30
0.0
 10
10.3914225238
 20
11.1494474464
 30
0.0
 10
10.3866347301
 20
11.1452218176
 30
0.0
 10
10.3812495433
 20
11.1410835171
 30
0.0
 10
10.375279621
 20
11.1370415959
 30
0.0
 10
10.3687388862
 20
11.1331053085
 30
0.0
 10
10.3616427779
 20
11.1292835804
 30
0.0
 10
10.3540079737
 20
11.1255854977
 30
0.0
 10
10.3458525891
 20
11.1220197343
 30
0.0
 10
10.3371960061
 20
11.1185947769
 30
0.0
 10
10.3280588379
 20
11.1153189094
 30
0.0
 10
10.3184629433
 20
11.1121998738
 30
0.0
 10
10.3084312626
 20
11.109245304
 30
0.0
 10
10.2979878508
 20
11.106462237
 30
0.0
 10
10.2871577692
 20
11.1038574175
 30
0.0
 10
10.2759669747
 20
11.1014371388
 30
0.0
 10
10.2604324234
 20
11.0984314551
 30
0.0
 10
10.2403044588
 20
11.0951921321
 30
0.0
 10
10.2154180511
 20
11.0921608661
 30
0.0
 10
10.1897810968
 20
11.0899743274
 30
0.0
 10
10.1636398817
 20
11.0886537931
 30
0.0
 10
10.1372452213
 20
11.0882121767
 30
0.0
 10
10.1108505609
 20
11.0886537931
 30
0.0
 10
10.0847093458
 20
11.0899743274
 30
0.0
 10
10.0590723915
 20
11.0921608661
 30
0.0
 10
10.0341859838
 20
11.0951921321
 30
0.0
 10
10.0140580192
 20
11.0984314551
 30
0.0
 10
9.9985234679
 20
11.1014371388
 30
0.0
 10
9.9873326734
 20
11.1038574175
 30
0.0
 10
9.9765025917
 20
11.106462237
 30
0.0
 10
9.9660591799
 20
11.109245304
 30
0.0
 10
9.9560274993
 20
11.1121998738
 30
0.0
 10
9.9464316047
 20
11.1153189094
 30
0.0
 10
9.9372944365
 20
11.1185947769
 30
0.0
 10
9.9286378535
 20
11.1220197343
 30
0.0
 10
9.9204824689
 20
11.1255854977
 30
0.0
 10
9.9128476647
 20
11.1292835804
 30
0.0
 10
9.9057515564
 20
11.1331053085
 30
0.0
 10
9.8992108216
 20
11.1370415959
 30
0.0
 10
9.8932408993
 20
11.1410835171
 30
0.0
 10
9.8878557125
 20
11.1452218176
 30
0.0
 10
9.8830679188
 20
11.1494474464
 30
0.0
 10
9.878888966
 20
11.1537514823
 30
0.0
 10
9.875329093
 20
11.1581250074
 30
0.0
 10
9.8723981251
 20
11.1625594594
 30
0.0
 10
9.8701049476
 20
11.1670455188
 30
0.0
 10
9.8684584574
 20
11.1715737859
 30
0.0
 10
9.8674668732
 20
11.1761309973
 30
0.0
 10
9.8672452217
 20
11.1791910622
 30
0.0
 10
9.8672452217
 20
11.1807052388
 30
0.0
  0
SPLINE
  5
2F6
100
AcDbEntity
  8
0
100
AcDbSpline
 62
9
  6
CONTINUOUS
 70
0
 71
3
 72
61
 73
57
 74
0
 42
0.0000001
 43
0.0000001
 44
0.0000000001
 40
0.0
 40
0.0
 40
0.0
 40
0.0
 40
0.0075226437
 40
0.0151810088
 40
0.023100109
 40
0.0313928716
 40
0.0401539905
 40
0.0494596137
 40
0.0593685804
 40
0.0699244479
 40
0.0811575761
 40
0.0930870871
 40
0.1057229766
 40
0.1190672375
 40
0.133115314
 40
0.1478570728
 40
0.1632773548
 40
0.1793569669
 40
0.1960728861
 40
0.213398841
 40
0.2313057547
 40
0.2497618028
 40
0.2687329948
 40
0.2881831991
 40
0.3283650984
 40
0.3699874428
 40
0.4127074916
 40
0.4561675308
 40
0.5
 40
0.5438324692
 40
0.5872925084
 40
0.6300125572
 40
0.6716349016
 40
0.7118168009
 40
0.7312670052
 40
0.7502381972
 40
0.7686942453
 40
0.786601159
 40
0.8039271139
 40
0.8206430331
 40
0.8367226452
 40
0.8521429272
 40
0.866884686
 40
0.8809327625
 40
0.8942770234
 40
0.9069129129
 40
0.9188424239
 40
0.9300755521
 40
0.9406314196
 40
0.9505403863
 40
0.9598460095
 40
0.9686071284
 40
0.976899891
 40
0.9848189912
 40
0.9924773563
 40
1.0
 40
1.0
 40
1.0
 40
1.0
 10
10.4225643688
 20
11.1820963852
 30
0.0
 10
10.4225643688
 20
11.1804962838
 30
0.0
 10
10.4223301505
 20
11.1772625865
 30
0.0
 10
10.4212822832
 20
11.1724468063
 30
0.0
 10
10.4195423783
 20
11.1676616175
 30
0.0
 10
10.4171190879
 20
11.162921028
 30
0.0
 10
10.4140218159
 20
11.1582349794
 30
0.0
 10
10.4102599724
 20
11.1536133026
 30
0.0
 10
10.4058438938
 20
11.149065092
 30
0.0
 10
10.4007844735
 20
11.1445996813
 30
0.0
 10
10.3950937245
 20
11.1402266065
 30
0.0
 10
10.3887850837
 20
11.1359553558
 30
0.0
 10
10.3818732503
 20
11.131795714
 30
0.0
 10
10.3743745103
 20
11.1277571906
 30
0.0
 10
10.3663065429
 20
11.123849245
 30
0.0
 10
10.35768843
 20
11.1200812011
 30
0.0
 10
10.3485406945
 20
11.1164619172
 30
0.0
 10
10.3388851104
 20
11.1130001625
 30
0.0
 10
10.3287447598
 20
11.109704206
 30
0.0
 10
10.3181439168
 20
11.1065819524
 30
0.0
 10
10.3071079665
 20
11.1036410163
 30
0.0
 10
10.2956634135
 20
11.100888402
 30
0.0
 10
10.2838376843
 20
11.0983307808
 30
0.0
 10
10.2674217331
 20
11.0951546081
 30
0.0
 10
10.2461517649
 20
11.0917314655
 30
0.0
 10
10.2198533735
 20
11.0885282077
 30
0.0
 10
10.192761848
 20
11.086217607
 30
0.0
 10
10.1651374467
 20
11.0848221665
 30
0.0
 10
10.1372452213
 20
11.0843555044
 30
0.0
 10
10.1093529958
 20
11.0848221665
 30
0.0
 10
10.0817285946
 20
11.086217607
 30
0.0
 10
10.0546370691
 20
11.0885282077
 30
0.0
 10
10.0283386777
 20
11.0917314655
 30
0.0
 10
10.0070687095
 20
11.0951546081
 30
0.0
 10
9.9906527583
 20
11.0983307808
 30
0.0
 10
9.9788270291
 20
11.100888402
 30
0.0
 10
9.9673824761
 20
11.1036410163
 30
0.0
 10
9.9563465258
 20
11.1065819524
 30
0.0
 10
9.9457456828
 20
11.109704206
 30
0.0
 10
9.9356053322
 20
11.1130001625
 30
0.0
 10
9.9259497481
 20
11.1164619172
 30
0.0
 10
9.9168020126
 20
11.1200812011
 30
0.0
 10
9.9081838997
 20
11.123849245
 30
0.0
 10
9.9001159323
 20
11.1277571906
 30
0.0
 10
9.8926171923
 20
11.131795714
 30
0.0
 10
9.8857053589
 20
11.1359553558
 30
0.0
 10
9.879396718
 20
11.1402266065
 30
0.0
 10
9.8737059691
 20
11.1445996813
 30
0.0
 10
9.8686465488
 20
11.149065092
 30
0.0
 10
9.8642304702
 20
11.1536133026
 30
0.0
 10
9.8604686266
 20
11.1582349794
 30
0.0
 10
9.8573713547
 20
11.162921028
 30
0.0
 10
9.8549480642
 20
11.1676616175
 30
0.0
 10
9.8532081594
 20
11.1724468063
 30
0.0
 10
9.8521602921
 20
11.1772625865
 30
0.0
 10
9.8519260738
 20
11.1804962838
 30
0.0
 10
9.8519260738
 20
11.1820963852
 30
0.0
  0
SPLINE
  5
2F7
100
AcDbEntity
  8
0
100
AcDbSpline
 62
9
  6
CONTINUOUS
 70
0
 71
3
 72
17
 73
13
 74
0
 42
0.0000001
 43
0.0000001
 44
0.0000000001
 40
0.0
 40
0.0
 40
0.0
 40
0.0
 40
0.1363829672
 40
0.2697996471
 40
0.3996524253
 40
0.4632185278
 40
0.525883933
 40
0.6485946379
 40
0.7682132402
 40
0.8270314265
 40
0.885246846
 40
1.0
 40
1.0
 40
1.0
 40
1.0
 10
10.9451811574
 20
4.7477103806
 30
0.0
 10
10.94587071
 20
4.7433177196
 30
0.0
 10
10.9478743383
 20
4.7347150742
 30
0.0
 10
10.9526014177
 20
4.7225318588
 30
0.0
 10
10.9577677584
 20
4.7131744242
 30
0.0
 10
10.9624850256
 20
4.7062803665
 30
0.0
 10
10.9674733331
 20
4.6998723825
 30
0.0
 10
10.9742704698
 20
4.6925819181
 30
0.0
 10
10.9817460996
 20
4.686185189
 30
0.0
 10
10.987997004
 20
4.6816569484
 30
0.0
 10
10.9943419256
 20
4.6775477089
 30
0.0
 10
10.9993068431
 20
4.6748473282
 30
0.0
 10
11.0026783936
 20
4.6732256931
 30
0.0
  0
SPLINE
  5
2F8
100
AcDbEntity
  8
0
100
AcDbSpline
 62
9
  6
CONTINUOUS
 70
0
 71
3
 72
59
 73
55
 74
0
 42
0.0000001
 43
0.0000001
 44
0.0000000001
 40
0.0
 40
0.0
 40
0.0
 40
0.0
 40
0.0075598929
 40
0.0153993841
 40
0.0236151481
 40
0.0322875738
 40
0.0414814395
 40
0.0512470499
 40
0.0616216791
 40
0.0726316431
 40
0.0842936602
 40
0.0966166158
 40
0.1096026344
 40
0.1232480177
 40
0.1375443191
 40
0.1524786441
 40
0.168034519
 40
0.1841921634
 40
0.2009288312
 40
0.2182193365
 40
0.2360360173
 40
0.2543492595
 40
0.2923356348
 40
0.3319094676
 40
0.3727779688
 40
0.4146316956
 40
0.4571489583
 40
0.4999999968
 40
0.5428510354
 40
0.5853682982
 40
0.6272220251
 40
0.6680905267
 40
0.7076643598
 40
0.7456507355
 40
0.7639639779
 40
0.7817806589
 40
0.7990711645
 40
0.8158078325
 40
0.8319654772
 40
0.8475213524
 40
0.8624556776
 40
0.8767519793
 40
0.8903973629
 40
0.9033833818
 40
0.9157063377
 40
0.9273683551
 40
0.9383783194
 40
0.9487529489
 40
0.9585185596
 40
0.9677124255
 40
0.9763848514
 40
0.9846006157
 40
0.992440107
 40
1.0
 40
1.0
 40
1.0
 40
1.0
 10
10.4508007673
 20
11.2348208649
 30
0.0
 10
10.4504671765
 20
11.2365231944
 30
0.0
 10
10.4495519785
 20
11.2399484106
 30
0.0
 10
10.4475029295
 20
11.2449782073
 30
0.0
 10
10.4447664838
 20
11.249961992
 30
0.0
 10
10.4413517932
 20
11.2548886996
 30
0.0
 10
10.4372679463
 20
11.2597493429
 30
0.0
 10
10.432524821
 20
11.2645347231
 30
0.0
 10
10.4271331747
 20
11.2692358514
 30
0.0
 10
10.4211046487
 20
11.273843286
 30
0.0
 10
10.414452337
 20
11.2783477972
 30
0.0
 10
10.4071905119
 20
11.2827399393
 30
0.0
 10
10.3993348345
 20
11.2870103712
 30
0.0
 10
10.3909023511
 20
11.2911500128
 30
0.0
 10
10.3819113357
 20
11.2951497477
 30
0.0
 10
10.3723814308
 20
11.299000961
 30
0.0
 10
10.3623334462
 20
11.3026951427
 30
0.0
 10
10.3517893894
 20
11.3062241471
 30
0.0
 10
10.3407724072
 20
11.309580275
 30
0.0
 10
10.3293066893
 20
11.3127559833
 30
0.0
 10
10.3174174287
 20
11.3157444149
 30
0.0
 10
10.3008328484
 20
11.319516161
 30
0.0
 10
10.2792273732
 20
11.3236962676
 30
0.0
 10
10.2523600488
 20
11.3278138126
 30
0.0
 10
10.2244796589
 20
11.3310551105
 30
0.0
 10
10.1958316662
 20
11.3333912542
 30
0.0
 10
10.1666679522
 20
11.334801348
 30
0.0
 10
10.1372452246
 20
11.3352727883
 30
0.0
 10
10.107822497
 20
11.3348013483
 30
0.0
 10
10.0786587829
 20
11.3333912546
 30
0.0
 10
10.0500107901
 20
11.3310551111
 30
0.0
 10
10.0221304
 20
11.3278138134
 30
0.0
 10
9.9952630754
 20
11.3236962686
 30
0.0
 10
9.9736575998
 20
11.3195161622
 30
0.0
 10
9.9570730194
 20
11.3157444163
 30
0.0
 10
9.9451837586
 20
11.3127559847
 30
0.0
 10
9.9337180405
 20
11.3095802765
 30
0.0
 10
9.922701058
 20
11.3062241487
 30
0.0
 10
9.9121570011
 20
11.3026951443
 30
0.0
 10
9.9021090162
 20
11.2990009627
 30
0.0
 10
9.8925791111
 20
11.2951497494
 30
0.0
 10
9.8835880954
 20
11.2911500146
 30
0.0
 10
9.8751556117
 20
11.2870103732
 30
0.0
 10
9.8672999342
 20
11.2827399413
 30
0.0
 10
9.8600381087
 20
11.2783477992
 30
0.0
 10
9.8533857968
 20
11.2738432881
 30
0.0
 10
9.8473572705
 20
11.2692358536
 30
0.0
 10
9.8419656238
 20
11.2645347252
 30
0.0
 10
9.8372224983
 20
11.2597493451
 30
0.0
 10
9.8331386511
 20
11.2548887018
 30
0.0
 10
9.8297239602
 20
11.2499619942
 30
0.0
 10
9.8269875142
 20
11.2449782096
 30
0.0
 10
9.8249384648
 20
11.2399484128
 30
0.0
 10
9.8240232667
 20
11.2365231967
 30
0.0
 10
9.8236896758
 20
11.2348208672
 30
0.0
  0
SPLINE
  5
2F9
100
AcDbEntity
  8
0
100
AcDbSpline
 62
9
  6
CONTINUOUS
 70
0
 71
3
 72
13
 73
9
 74
0
 42
0.0000001
 43
0.0000001
 44
0.0000000001
 40
0.0
 40
0.0
 40
0.0
 40
0.0
 40
0.1193866204
 40
0.2393680669
 40
0.3604722653
 40
0.4832123717
 40
0.7354689867
 40
1.0
 40
1.0
 40
1.0
 40
1.0
 10
10.4606117588
 20
11.5002517309
 30
0.0
 10
10.4606118892
 20
11.4993304685
 30
0.0
 10
10.4605442991
 20
11.4974826356
 30
0.0
 10
10.4602401797
 20
11.4947153716
 30
0.0
 10
10.4597336235
 20
11.4919514412
 30
0.0
 10
10.4587805837
 20
11.488240941
 30
0.0
 10
10.4570622845
 20
11.4835985992
 30
0.0
 10
10.4552157738
 20
11.480052067
 30
0.0
 10
10.4541756023
 20
11.4782956787
 30
0.0
  0
SPLINE
  5
2FA
100
AcDbEntity
  8
0
100
AcDbSpline
 62
9
  6
CONTINUOUS
 70
0
 71
3
 72
15
 73
11
 74
0
 42
0.0000001
 43
0.0000001
 44
0.0000000001
 40
0.0
 40
0.0
 40
0.0
 40
0.0
 40
0.1150198867
 40
0.2310912322
 40
0.34919128
 40
0.4702563806
 40
0.5951525338
 40
0.7246482155
 40
0.859407856
 40
1.0
 40
1.0
 40
1.0
 40
1.0
 10
10.4677631279
 20
11.5086599818
 30
0.0
 10
10.4677631279
 20
11.5073547352
 30
0.0
 10
10.4676296821
 20
11.5047304113
 30
0.0
 10
10.4670311145
 20
11.5008069718
 30
0.0
 10
10.4660347029
 20
11.4968943411
 30
0.0
 10
10.4646425956
 20
11.4929985072
 30
0.0
 10
10.4628573089
 20
11.4891241495
 30
0.0
 10
10.4606817065
 20
11.4852757486
 30
0.0
 10
10.4581192216
 20
11.481457761
 30
0.0
 10
10.4561976751
 20
11.4789902244
 30
0.0
 10
10.4551781626
 20
11.477763022
 30
0.0
  0
SPLINE
  5
2FB
100
AcDbEntity
  8
0
100
AcDbSpline
 62
9
  6
CONTINUOUS
 70
0
 71
3
 72
14
 73
10
 74
0
 42
0.0000001
 43
0.0000001
 44
0.0000000001
 40
0.0
 40
0.0
 40
0.0
 40
0.0
 40
0.1137814391
 40
0.2287578647
 40
0.346039803
 40
0.4666831993
 40
0.7215367926
 40
0.8575346199
 40
1.0
 40
1.0
 40
1.0
 40
1.0
 10
10.4697452214
 20
11.5109115342
 30
0.0
 10
10.4697452214
 20
11.5095009471
 30
0.0
 10
10.4695900949
 20
11.506662585
 30
0.0
 10
10.4688946202
 20
11.5024215963
 30
0.0
 10
10.4677370202
 20
11.4981942188
 30
0.0
 10
10.4655427917
 20
11.4924838513
 30
0.0
 10
10.4624310906
 20
11.4869149549
 30
0.0
 10
10.4585547493
 20
11.4815548906
 30
0.0
 10
10.4563325827
 20
11.4789081146
 30
0.0
 10
10.4551540161
 20
11.4775926626
 30
0.0
  0
SPLINE
  5
2FC
100
AcDbEntity
  8
0
100
AcDbSpline
 62
9
  6
CONTINUOUS
 70
0
 71
3
 72
14
 73
10
 74
0
 42
0.0000001
 43
0.0000001
 44
0.0000000001
 40
0.0
 40
0.0
 40
0.0
 40
0.0
 40
0.1424565763
 40
0.2784486004
 40
0.5332991461
 40
0.653944672
 40
0.7712306566
 40
0.8862124727
 40
1.0
 40
1.0
 40
1.0
 40
1.0
 10
9.8193269233
 20
11.4776032714
 30
0.0
 10
9.8181491079
 20
11.4789183429
 30
0.0
 10
9.8159283605
 20
11.4815643468
 30
0.0
 10
9.812054503
 20
11.4869228147
 30
0.0
 10
9.8089448561
 20
11.4924899508
 30
0.0
 10
9.8067520943
 20
11.4981984119
 30
0.0
 10
9.8055952589
 20
11.5024244048
 30
0.0
 10
9.8049002447
 20
11.5066639938
 30
0.0
 10
9.8047452212
 20
11.5095014111
 30
0.0
 10
9.8047452212
 20
11.5109115342
 30
0.0
  0
SPLINE
  5
2FD
100
AcDbEntity
  8
0
100
AcDbSpline
 62
9
  6
CONTINUOUS
 70
0
 71
3
 72
17
 73
13
 74
0
 42
0.0000001
 43
0.0000001
 44
0.0000000001
 40
0.0
 40
0.0
 40
0.0
 40
0.0
 40
0.0743699995
 40
0.1476217148
 40
0.2895452581
 40
0.3579845707
 40
0.4246185616
 40
0.552365367
 40
0.6730944489
 40
0.787411449
 40
0.8961178447
 40
1.0
 40
1.0
 40
1.0
 40
1.0
 10
10.9698796604
 20
4.7477089367
 30
0.0
 10
10.9701450704
 20
4.7455077012
 30
0.0
 10
10.9707962139
 20
4.7411520873
 30
0.0
 10
10.9725511757
 20
4.7326970371
 30
0.0
 10
10.9749589414
 20
4.7245696293
 30
0.0
 10
10.9779656348
 20
4.7168746974
 30
0.0
 10
10.9812179753
 20
4.7097424133
 30
0.0
 10
10.9858106183
 20
4.7015236195
 30
0.0
 10
10.9921047797
 20
4.6927015865
 30
0.0
 10
10.9989538061
 20
4.685049445
 30
0.0
 10
11.0062346968
 20
4.6785418439
 30
0.0
 10
11.0114180186
 20
4.6748668676
 30
0.0
 10
11.0140444349
 20
4.6732256906
 30
0.0
  0
SPLINE
  5
2FE
100
AcDbEntity
  8
0
100
AcDbSpline
 62
9
  6
CONTINUOUS
 70
0
 71
3
 72
11
 73
7
 74
0
 42
0.0000001
 43
0.0000001
 44
0.0000000001
 40
0.0
 40
0.0
 40
0.0
 40
0.0
 40
0.2549083828
 40
0.5067310996
 40
0.7551736436
 40
1.0
 40
1.0
 40
1.0
 40
1.0
 10
10.9698796604
 20
4.7477089367
 30
0.0
 10
10.9708743675
 20
4.7489666149
 30
0.0
 10
10.972883999
 20
4.7514414166
 30
0.0
 10
10.9759689485
 20
4.75505437
 30
0.0
 10
10.9790922473
 20
4.7585495189
 30
0.0
 10
10.981206726
 20
4.760820729
 30
0.0
 10
10.982266992
 20
4.7619377184
 30
0.0
  0
SPLINE
  5
2FF
100
AcDbEntity
  8
0
100
AcDbSpline
 62
9
  6
CONTINUOUS
 70
0
 71
3
 72
61
 73
57
 74
0
 42
0.0000001
 43
0.0000001
 44
0.0000000001
 40
0.0
 40
0.0
 40
0.0
 40
0.0
 40
0.0075226437
 40
0.0151810088
 40
0.023100109
 40
0.0313928716
 40
0.0401539905
 40
0.0494596137
 40
0.0593685804
 40
0.0699244479
 40
0.0811575761
 40
0.0930870871
 40
0.1057229766
 40
0.1190672375
 40
0.133115314
 40
0.1478570728
 40
0.1632773548
 40
0.1793569669
 40
0.1960728861
 40
0.213398841
 40
0.2313057547
 40
0.2497618028
 40
0.2687329948
 40
0.2881831991
 40
0.3283650984
 40
0.3699874428
 40
0.4127074916
 40
0.4561675308
 40
0.5
 40
0.5438324692
 40
0.5872925084
 40
0.6300125572
 40
0.6716349016
 40
0.7118168009
 40
0.7312670052
 40
0.7502381972
 40
0.7686942453
 40
0.786601159
 40
0.8039271139
 40
0.8206430331
 40
0.8367226452
 40
0.8521429272
 40
0.866884686
 40
0.8809327625
 40
0.8942770234
 40
0.9069129129
 40
0.9188424239
 40
0.9300755521
 40
0.9406314196
 40
0.9505403863
 40
0.9598460095
 40
0.9686071284
 40
0.976899891
 40
0.9848189912
 40
0.9924773563
 40
1.0
 40
1.0
 40
1.0
 40
1.0
 10
10.4409951641
 20
11.1920212481
 30
0.0
 10
10.4409951641
 20
11.1937247115
 30
0.0
 10
10.4407458159
 20
11.1971672964
 30
0.0
 10
10.4396302594
 20
11.2022941621
 30
0.0
 10
10.4377779617
 20
11.2073884603
 30
0.0
 10
10.4351981337
 20
11.2124352782
 30
0.0
 10
10.4319007869
 20
11.217424032
 30
0.0
 10
10.4278959391
 20
11.2223442559
 30
0.0
 10
10.4231945945
 20
11.2271862678
 30
0.0
 10
10.4178083503
 20
11.2319401312
 30
0.0
 10
10.4117499953
 20
11.236595694
 30
0.0
 10
10.4050338344
 20
11.2411428552
 30
0.0
 10
10.3976755165
 20
11.2455711979
 30
0.0
 10
10.3896923795
 20
11.2498705983
 30
0.0
 10
10.3811032446
 20
11.2540309859
 30
0.0
 10
10.3719284265
 20
11.2580424346
 30
0.0
 10
10.3621897736
 20
11.2618955138
 30
0.0
 10
10.3519104666
 20
11.2655808879
 30
0.0
 10
10.3411150785
 20
11.2690897536
 30
0.0
 10
10.3298294516
 20
11.2724136958
 30
0.0
 10
10.3180806107
 20
11.275544608
 30
0.0
 10
10.3058967725
 20
11.2784750332
 30
0.0
 10
10.2933071352
 20
11.2811978694
 30
0.0
 10
10.2758307609
 20
11.2845792137
 30
0.0
 10
10.253186814
 20
11.2882234815
 30
0.0
 10
10.2251896223
 20
11.2916336605
 30
0.0
 10
10.1963480622
 20
11.2940935193
 30
0.0
 10
10.1669392042
 20
11.2955791012
 30
0.0
 10
10.1372452213
 20
11.2960759084
 30
0.0
 10
10.1075512384
 20
11.2955791012
 30
0.0
 10
10.0781423804
 20
11.2940935193
 30
0.0
 10
10.0493008203
 20
11.2916336605
 30
0.0
 10
10.0213036286
 20
11.2882234815
 30
0.0
 10
9.9986596817
 20
11.2845792137
 30
0.0
 10
9.9811833073
 20
11.2811978694
 30
0.0
 10
9.9685936701
 20
11.2784750332
 30
0.0
 10
9.9564098319
 20
11.275544608
 30
0.0
 10
9.944660991
 20
11.2724136958
 30
0.0
 10
9.9333753641
 20
11.2690897536
 30
0.0
 10
9.922579976
 20
11.2655808879
 30
0.0
 10
9.912300669
 20
11.2618955138
 30
0.0
 10
9.9025620161
 20
11.2580424346
 30
0.0
 10
9.893387198
 20
11.2540309859
 30
0.0
 10
9.8847980631
 20
11.2498705983
 30
0.0
 10
9.8768149261
 20
11.2455711979
 30
0.0
 10
9.8694566082
 20
11.2411428552
 30
0.0
 10
9.8627404473
 20
11.236595694
 30
0.0
 10
9.8566820923
 20
11.2319401312
 30
0.0
 10
9.851295848
 20
11.2271862678
 30
0.0
 10
9.8465945035
 20
11.2223442559
 30
0.0
 10
9.8425896557
 20
11.217424032
 30
0.0
 10
9.8392923088
 20
11.2124352782
 30
0.0
 10
9.8367124809
 20
11.2073884603
 30
0.0
 10
9.8348601832
 20
11.2022941621
 30
0.0
 10
9.8337446266
 20
11.1971672964
 30
0.0
 10
9.8334952785
 20
11.1937247115
 30
0.0
 10
9.8334952785
 20
11.1920212481
 30
0.0
  0
SPLINE
  5
300
100
AcDbEntity
  8
0
100
AcDbSpline
 62
9
  6
CONTINUOUS
 70
0
 71
3
 72
61
 73
57
 74
0
 42
0.0000001
 43
0.0000001
 44
0.0000000001
 40
0.0
 40
0.0
 40
0.0
 40
0.0
 40
0.0075226437
 40
0.0151810088
 40
0.023100109
 40
0.0313928716
 40
0.0401539905
 40
0.0494596137
 40
0.0593685804
 40
0.0699244479
 40
0.0811575761
 40
0.0930870871
 40
0.1057229766
 40
0.1190672375
 40
0.133115314
 40
0.1478570728
 40
0.1632773548
 40
0.1793569669
 40
0.1960728861
 40
0.213398841
 40
0.2313057547
 40
0.2497618028
 40
0.2687329948
 40
0.2881831991
 40
0.3283650984
 40
0.3699874428
 40
0.4127074916
 40
0.4561675308
 40
0.5
 40
0.5438324692
 40
0.5872925084
 40
0.6300125572
 40
0.6716349016
 40
0.7118168009
 40
0.7312670052
 40
0.7502381972
 40
0.7686942453
 40
0.786601159
 40
0.8039271139
 40
0.8206430331
 40
0.8367226452
 40
0.8521429272
 40
0.866884686
 40
0.8809327625
 40
0.8942770234
 40
0.9069129129
 40
0.9188424239
 40
0.9300755521
 40
0.9406314196
 40
0.9505403863
 40
0.9598460095
 40
0.9686071284
 40
0.976899891
 40
0.9848189912
 40
0.9924773563
 40
1.0
 40
1.0
 40
1.0
 40
1.0
 10
10.4260377673
 20
11.4194228276
 30
0.0
 10
10.4260377673
 20
11.4210424083
 30
0.0
 10
10.4258006976
 20
11.4243154718
 30
0.0
 10
10.4247400739
 20
11.429189878
 30
0.0
 10
10.4229789879
 20
11.4340333204
 30
0.0
 10
10.420526197
 20
11.4388316205
 30
0.0
 10
10.4173912197
 20
11.4435747158
 30
0.0
 10
10.4135835804
 20
11.4482526557
 30
0.0
 10
10.4091137417
 20
11.452856235
 30
0.0
 10
10.4039927294
 20
11.4573760064
 30
0.0
 10
10.3982327028
 20
11.4618023178
 30
0.0
 10
10.3918472622
 20
11.4661255656
 30
0.0
 10
10.384851286
 20
11.4703358457
 30
0.0
 10
10.3772612584
 20
11.474423533
 30
0.0
 10
10.3690950737
 20
11.4783790529
 30
0.0
 10
10.3603720463
 20
11.482192968
 30
0.0
 10
10.3511129487
 20
11.4858563121
 30
0.0
 10
10.3413398201
 20
11.4893602092
 30
0.0
 10
10.3310760236
 20
11.4926962897
 30
0.0
 10
10.3203461288
 20
11.4958565528
 30
0.0
 10
10.3091758298
 20
11.4988332911
 30
0.0
 10
10.2975919539
 20
11.501619415
 30
0.0
 10
10.2856222615
 20
11.504208172
 30
0.0
 10
10.2690064669
 20
11.5074230105
 30
0.0
 10
10.2474775639
 20
11.5108878256
 30
0.0
 10
10.2208590229
 20
11.514130079
 30
0.0
 10
10.1934376925
 20
11.5164688083
 30
0.0
 10
10.1654769992
 20
11.5178812365
 30
0.0
 10
10.1372452213
 20
11.5183535797
 30
0.0
 10
10.1090134434
 20
11.5178812365
 30
0.0
 10
10.0810527501
 20
11.5164688083
 30
0.0
 10
10.0536314197
 20
11.514130079
 30
0.0
 10
10.0270128787
 20
11.5108878256
 30
0.0
 10
10.0054839757
 20
11.5074230105
 30
0.0
 10
9.9888681811
 20
11.504208172
 30
0.0
 10
9.9768984887
 20
11.501619415
 30
0.0
 10
9.9653146127
 20
11.4988332911
 30
0.0
 10
9.9541443138
 20
11.4958565528
 30
0.0
 10
9.943414419
 20
11.4926962897
 30
0.0
 10
9.9331506225
 20
11.4893602092
 30
0.0
 10
9.9233774939
 20
11.4858563121
 30
0.0
 10
9.9141183963
 20
11.482192968
 30
0.0
 10
9.9053953689
 20
11.4783790529
 30
0.0
 10
9.8972291842
 20
11.474423533
 30
0.0
 10
9.8896391565
 20
11.4703358457
 30
0.0
 10
9.8826431804
 20
11.4661255656
 30
0.0
 10
9.8762577398
 20
11.4618023178
 30
0.0
 10
9.8704977132
 20
11.4573760064
 30
0.0
 10
9.8653767009
 20
11.452856235
 30
0.0
 10
9.8609068621
 20
11.4482526557
 30
0.0
 10
9.8570992229
 20
11.4435747158
 30
0.0
 10
9.8539642456
 20
11.4388316205
 30
0.0
 10
9.8515114547
 20
11.4340333204
 30
0.0
 10
9.8497503687
 20
11.429189878
 30
0.0
 10
9.8486897449
 20
11.4243154718
 30
0.0
 10
9.8484526753
 20
11.4210424083
 30
0.0
 10
9.8484526753
 20
11.4194228276
 30
0.0
  0
SPLINE
  5
301
100
AcDbEntity
  8
0
100
AcDbSpline
 62
9
  6
CONTINUOUS
 70
0
 71
3
 72
13
 73
9
 74
0
 42
0.0000001
 43
0.0000001
 44
0.0000000001
 40
0.0
 40
0.0
 40
0.0
 40
0.0
 40
0.2507118631
 40
0.375935043
 40
0.5010386028
 40
0.6260125003
 40
0.7508437414
 40
1.0
 40
1.0
 40
1.0
 40
1.0
 10
10.377905138
 20
4.8259087883
 30
0.0
 10
10.4180602947
 20
4.8230532763
 30
0.0
 10
10.478204017
 20
4.8177380438
 30
0.0
 10
10.5581517236
 20
4.8087327444
 30
0.0
 10
10.6179260681
 20
4.801064725
 30
0.0
 10
10.6775179111
 20
4.7925230973
 30
0.0
 10
10.7566582068
 20
4.7800343305
 30
0.0
 10
10.8157811525
 20
4.7694675092
 30
0.0
 10
10.8550729389
 20
4.7619377184
 30
0.0
  0
SPLINE
  5
302
100
AcDbEntity
  8
0
100
AcDbSpline
 62
9
  6
CONTINUOUS
 70
0
 71
3
 72
14
 73
10
 74
0
 42
0.0000001
 43
0.0000001
 44
0.0000000001
 40
0.0
 40
0.0
 40
0.0
 40
0.0
 40
0.2752130255
 40
0.4047280307
 40
0.5296454067
 40
0.6507334235
 40
0.7688577627
 40
0.8849543616
 40
1.0
 40
1.0
 40
1.0
 40
1.0
 10
9.8193032944
 20
11.4777738401
 30
0.0
 10
9.8173091822
 20
11.4801750909
 30
0.0
 10
9.8145875096
 20
11.4838968715
 30
0.0
 10
9.8116296969
 20
11.4891309828
 30
0.0
 10
9.8098455669
 20
11.4930041794
 30
0.0
 10
9.8084544954
 20
11.4968985772
 30
0.0
 10
9.807458796
 20
11.500809817
 30
0.0
 10
9.8068606641
 20
11.5047318356
 30
0.0
 10
9.8067273147
 20
11.5073552053
 30
0.0
 10
9.8067273147
 20
11.5086599818
 30
0.0
  0
SPLINE
  5
303
100
AcDbEntity
  8
0
100
AcDbSpline
 62
9
  6
CONTINUOUS
 70
0
 71
3
 72
13
 73
9
 74
0
 42
0.0000001
 43
0.0000001
 44
0.0000000001
 40
0.0
 40
0.0
 40
0.0
 40
0.0
 40
0.2491562612
 40
0.3739875055
 40
0.4989614057
 40
0.6240649655
 40
0.7492881415
 40
1.0
 40
1.0
 40
1.0
 40
1.0
 10
9.4194175037
 20
4.7619377184
 30
0.0
 10
9.4587092896
 20
4.7694675136
 30
0.0
 10
9.5178322374
 20
4.7800343288
 30
0.0
 10
9.5969725355
 20
4.7925230885
 30
0.0
 10
9.6565643793
 20
4.8010647171
 30
0.0
 10
9.7163387229
 20
4.8087327407
 30
0.0
 10
9.7962864273
 20
4.8177380482
 30
0.0
 10
9.8564301482
 20
4.8230532823
 30
0.0
 10
9.8965853045
 20
4.8259087883
 30
0.0
  0
SPLINE
  5
304
100
AcDbEntity
  8
0
100
AcDbSpline
 62
9
  6
CONTINUOUS
 70
0
 71
3
 72
15
 73
11
 74
0
 42
0.0000001
 43
0.0000001
 44
0.0000000001
 40
0.0
 40
0.0
 40
0.0
 40
0.0
 40
0.1253583962
 40
0.250948981
 40
0.3765640039
 40
0.5020549355
 40
0.6272537328
 40
0.7520218475
 40
0.8762953043
 40
1.0
 40
1.0
 40
1.0
 40
1.0
 10
10.959981994
 20
4.7902681467
 30
0.0
 10
10.96153152
 20
4.7898315698
 30
0.0
 10
10.9645694775
 20
4.788709623
 30
0.0
 10
10.968803767
 20
4.786334705
 30
0.0
 10
10.9726166813
 20
4.7833248901
 30
0.0
 10
10.9759082705
 20
4.7797595376
 30
0.0
 10
10.978592898
 20
4.7757302691
 30
0.0
 10
10.9806013621
 20
4.771341405
 30
0.0
 10
10.9818800513
 20
4.7667081827
 30
0.0
 10
10.9822249821
 20
4.7635257801
 30
0.0
 10
10.982266992
 20
4.7619377184
 30
0.0
  0
SPLINE
  5
305
100
AcDbEntity
  8
0
100
AcDbSpline
 62
9
  6
CONTINUOUS
 70
0
 71
3
 72
16
 73
12
 74
0
 42
0.0000001
 43
0.0000001
 44
0.0000000001
 40
0.0
 40
0.0
 40
0.0
 40
0.0
 40
0.027815978
 40
0.0617239395
 40
0.1015097136
 40
0.1469241933
 40
0.2535197393
 40
0.3788802795
 40
0.5198806041
 40
0.6729818013
 40
1.0
 40
1.0
 40
1.0
 40
1.0
 10
10.3789648254
 20
4.854480011
 30
0.0
 10
10.3789855139
 20
4.8542156037
 30
0.0
 10
10.3790184675
 20
4.8536278804
 30
0.0
 10
10.3790483834
 20
4.8526604347
 30
0.0
 10
10.3790628518
 20
4.8515248188
 30
0.0
 10
10.3790610845
 20
4.8496960752
 30
0.0
 10
10.3790145509
 20
4.8470516894
 30
0.0
 10
10.3789013482
 20
4.8434974124
 30
0.0
 10
10.3787296128
 20
4.8395016035
 30
0.0
 10
10.3784210871
 20
4.8335874371
 30
0.0
 10
10.3781271102
 20
4.8290188798
 30
0.0
 10
10.377905138
 20
4.8259087883
 30
0.0
  0
SPLINE
  5
306
100
AcDbEntity
  8
0
100
AcDbSpline
 62
9
  6
CONTINUOUS
 70
0
 71
3
 72
29
 73
25
 74
0
 42
0.0000001
 43
0.0000001
 44
0.0000000001
 40
0.0
 40
0.0
 40
0.0
 40
0.0
 40
0.0624554436
 40
0.1249307957
 40
0.1874240082
 40
0.2499254788
 40
0.2811772299
 40
0.3124299285
 40
0.3436853411
 40
0.37494635
 40
0.4062113878
 40
0.4374767927
 40
0.5000002946
 40
0.5625233126
 40
0.5937885018
 40
0.6250535839
 40
0.6563149964
 40
0.6875706772
 40
0.7188233671
 40
0.7500749307
 40
0.8125758868
 40
0.875068943
 40
0.937544437
 40
1.0
 40
1.0
 40
1.0
 40
1.0
 10
9.8965853045
 20
4.8259087883
 30
0.0
 10
9.9066118607
 20
4.8266218309
 30
0.0
 10
9.9266539667
 20
4.8282498286
 30
0.0
 10
9.9566854307
 20
4.8310877478
 30
0.0
 10
9.9867056508
 20
4.8341135398
 30
0.0
 10
10.0117278089
 20
4.8366179331
 30
0.0
 10
10.0317602392
 20
4.8384841131
 30
0.0
 10
10.0467945213
 20
4.8397832251
 30
0.0
 10
10.0618412265
 20
4.8409503491
 30
0.0
 10
10.0769019076
 20
4.8419523406
 30
0.0
 10
10.0919756656
 20
4.8427664057
 30
0.0
 10
10.1120866201
 20
4.8435758838
 30
0.0
 10
10.1372452789
 20
4.8440214568
 30
0.0
 10
10.162403948
 20
4.8435769418
 30
0.0
 10
10.1825147564
 20
4.8427663677
 30
0.0
 10
10.1975885134
 20
4.8419516487
 30
0.0
 10
10.212649316
 20
4.8409497823
 30
0.0
 10
10.2276961549
 20
4.8397830003
 30
0.0
 10
10.2427304719
 20
4.838484156
 30
0.0
 10
10.2627628153
 20
4.8366182719
 30
0.0
 10
10.2877848202
 20
4.8341137255
 30
0.0
 10
10.3178049105
 20
4.8310874938
 30
0.0
 10
10.3478364047
 20
4.8282497005
 30
0.0
 10
10.3678785605
 20
4.8266218018
 30
0.0
 10
10.377905138
 20
4.8259087883
 30
0.0
  0
SPLINE
  5
307
100
AcDbEntity
  8
0
100
AcDbSpline
 62
9
  6
CONTINUOUS
 70
0
 71
3
 72
10
 73
6
 74
0
 42
0.0000001
 43
0.0000001
 44
0.0000000001
 40
0.0
 40
0.0
 40
0.0
 40
0.0
 40
0.3333133264
 40
0.6135583745
 40
1.0
 40
1.0
 40
1.0
 40
1.0
 10
10.982266992
 20
4.7619377184
 30
0.0
 10
10.9873687649
 20
4.768924893
 30
0.0
 10
10.9966689275
 20
4.7818537711
 30
0.0
 10
11.0115157221
 20
4.8031451479
 30
0.0
 10
11.0211614357
 20
4.8175142746
 30
0.0
 10
11.0266517384
 20
4.8259087883
 30
0.0
  0
SPLINE
  5
308
100
AcDbEntity
  8
0
100
AcDbSpline
 62
9
  6
CONTINUOUS
 70
0
 71
3
 72
18
 73
14
 74
0
 42
0.0000001
 43
0.0000001
 44
0.0000000001
 40
0.0
 40
0.0
 40
0.0
 40
0.0
 40
0.0268546314
 40
0.0596309363
 40
0.0982808271
 40
0.1426538261
 40
0.1925420759
 40
0.2476768286
 40
0.3723353274
 40
0.5136083166
 40
0.6679480864
 40
0.8314844414
 40
1.0
 40
1.0
 40
1.0
 40
1.0
 10
9.417074961
 20
4.7902681467
 30
0.0
 10
9.4170006335
 20
4.7900235538
 30
0.0
 10
9.4168755123
 20
4.789468439
 30
0.0
 10
9.4167471251
 20
4.7885411882
 30
0.0
 10
9.4166617998
 20
4.7874416128
 30
0.0
 10
9.416620336
 20
4.7861767802
 30
0.0
 10
9.4166233159
 20
4.7847544002
 30
0.0
 10
9.4166897628
 20
4.7825687813
 30
0.0
 10
9.4168929586
 20
4.7795182567
 30
0.0
 10
9.4172957072
 20
4.775537344
 30
0.0
 10
9.4178580926
 20
4.7712023765
 30
0.0
 10
9.418566062
 20
4.7666263233
 30
0.0
 10
9.4191195136
 20
4.7635139457
 30
0.0
 10
9.4194175037
 20
4.7619377184
 30
0.0
  0
SPLINE
  5
309
100
AcDbEntity
  8
0
100
AcDbSpline
 62
9
  6
CONTINUOUS
 70
0
 71
3
 72
11
 73
7
 74
0
 42
0.0000001
 43
0.0000001
 44
0.0000000001
 40
0.0
 40
0.0
 40
0.0
 40
0.0
 40
0.2326706015
 40
0.4745918053
 40
0.7295900667
 40
1.0
 40
1.0
 40
1.0
 40
1.0
 10
11.0140447034
 20
4.6732255809
 30
0.0
 10
11.0132119334
 20
4.673563815
 30
0.0
 10
11.0114364143
 20
4.6740766264
 30
0.0
 10
11.0086129083
 20
4.6743207242
 30
0.0
 10
11.0056473314
 20
4.6740504527
 30
0.0
 10
11.0036714166
 20
4.6735500401
 30
0.0
 10
11.0026784223
 20
4.6732256756
 30
0.0
  0
SPLINE
  5
30A
100
AcDbEntity
  8
0
100
AcDbSpline
 62
9
  6
CONTINUOUS
 70
0
 71
3
 72
21
 73
17
 74
0
 42
0.0000001
 43
0.0000001
 44
0.0000000001
 40
0.0
 40
0.0
 40
0.0
 40
0.0
 40
0.1816530707
 40
0.3541432831
 40
0.513352331
 40
0.6555984437
 40
0.7193175268
 40
0.7776072687
 40
0.8301610723
 40
0.8767076118
 40
0.9170372766
 40
0.9510053907
 40
0.9655879034
 40
0.9785864514
 40
0.9900363731
 40
1.0
 40
1.0
 40
1.0
 40
1.0
 10
10.9451813706
 20
4.7477094896
 30
0.0
 10
10.9466779589
 20
4.7478644969
 30
0.0
 10
10.9495987219
 20
4.7481378689
 30
0.0
 10
10.9538399011
 20
4.7484457088
 30
0.0
 10
10.9577612777
 20
4.7486360009
 30
0.0
 10
10.9607859839
 20
4.7486957869
 30
0.0
 10
10.9629748006
 20
4.7486754148
 30
0.0
 10
10.9644200888
 20
4.7486296818
 30
0.0
 10
10.9657216664
 20
4.748553308
 30
0.0
 10
10.9668718804
 20
4.7484463159
 30
0.0
 10
10.9678638178
 20
4.7483100311
 30
0.0
 10
10.9685870019
 20
4.7481686172
 30
0.0
 10
10.9690800467
 20
4.7480382921
 30
0.0
 10
10.9693878887
 20
4.7479388737
 30
0.0
 10
10.9696526481
 20
4.7478326447
 30
0.0
 10
10.9698109079
 20
4.7477516358
 30
0.0
 10
10.9698817018
 20
4.7477092227
 30
0.0
  0
SPLINE
  5
30B
100
AcDbEntity
  8
0
100
AcDbSpline
 62
9
  6
CONTINUOUS
 70
0
 71
3
 72
30
 73
26
 74
0
 42
0.0000001
 43
0.0000001
 44
0.0000000001
 40
0.0
 40
0.0
 40
0.0
 40
0.0
 40
0.0702282932
 40
0.1451574085
 40
0.2238634067
 40
0.3052838101
 40
0.4715827953
 40
0.5539673536
 40
0.6338725565
 40
0.709698286
 40
0.7798269582
 40
0.8426282095
 40
0.8707698207
 40
0.8964983438
 40
0.9196833103
 40
0.9401968547
 40
0.957910959
 40
0.9726974647
 40
0.9844280837
 40
0.9891073142
 40
0.9929744107
 40
0.9960133052
 40
0.9982079228
 40
0.9995421829
 40
1.0
 40
1.0
 40
1.0
 40
1.0
 10
11.0266517384
 20
4.8259087883
 30
0.0
 10
11.0268937682
 20
4.82627887
 30
0.0
 10
11.0273574139
 20
4.8270679724
 30
0.0
 10
11.0279844133
 20
4.8283312898
 30
0.0
 10
11.0285683699
 20
4.8296919588
 30
0.0
 10
11.0292944207
 20
4.8316153301
 30
0.0
 10
11.0299228055
 20
4.8335982456
 30
0.0
 10
11.0304731009
 20
4.8355927622
 30
0.0
 10
11.0308412889
 20
4.8370462837
 30
0.0
 10
11.0311663832
 20
4.8384308252
 30
0.0
 10
11.031448245
 20
4.8397147353
 30
0.0
 10
11.031653921
 20
4.8407078803
 30
0.0
 10
11.0317977425
 20
4.8414282964
 30
0.0
 10
11.0318908017
 20
4.841904473
 30
0.0
 10
11.0319729557
 20
4.8423338377
 30
0.0
 10
11.0320441925
 20
4.8427139093
 30
0.0
 10
11.0321045018
 20
4.8430422247
 30
0.0
 10
11.0321538532
 20
4.8433163225
 30
0.0
 10
11.0321880394
 20
4.8435097568
 30
0.0
 10
11.0322098842
 20
4.8436355474
 30
0.0
 10
11.032222331
 20
4.8437074295
 30
0.0
 10
11.0322317916
 20
4.8437639345
 30
0.0
 10
11.0322390724
 20
4.843804671
 30
0.0
 10
11.0322425003
 20
4.8438295036
 30
0.0
 10
11.0322450816
 20
4.8438405604
 30
0.0
 10
11.0322452211
 20
4.8438434397
 30
0.0
  0
SPLINE
  5
30C
100
AcDbEntity
  8
0
100
AcDbSpline
 62
9
  6
CONTINUOUS
 70
0
 71
3
 72
11
 73
7
 74
0
 42
0.0000001
 43
0.0000001
 44
0.0000000001
 40
0.0
 40
0.0
 40
0.0
 40
0.0
 40
0.2704105618
 40
0.5254075497
 40
0.767327995
 40
1.0
 40
1.0
 40
1.0
 40
1.0
 10
9.2718119942
 20
4.673225781
 30
0.0
 10
9.2708189983
 20
4.6735501575
 30
0.0
 10
9.268843082
 20
4.6740505741
 30
0.0
 10
9.265877509
 20
4.6743209014
 30
0.0
 10
9.2630539931
 20
4.6740768397
 30
0.0
 10
9.2612784619
 20
4.6735640425
 30
0.0
 10
9.2604456815
 20
4.673225813
 30
0.0
  0
SPLINE
  5
30D
100
AcDbEntity
  8
0
100
AcDbSpline
 62
9
  6
CONTINUOUS
 70
0
 71
3
 72
21
 73
17
 74
0
 42
0.0000001
 43
0.0000001
 44
0.0000000001
 40
0.0
 40
0.0
 40
0.0
 40
0.0
 40
0.0099678663
 40
0.0214274428
 40
0.0344361998
 40
0.0490264208
 40
0.0829968419
 40
0.1233192414
 40
0.1698586493
 40
0.2224078838
 40
0.2806939605
 40
0.3444095209
 40
0.4866503106
 40
0.6458556338
 40
0.8183449732
 40
1.0
 40
1.0
 40
1.0
 40
1.0
 10
9.3046086746
 20
4.7477059713
 30
0.0
 10
9.3046794919
 20
4.7477484174
 30
0.0
 10
9.3048377475
 20
4.7478296704
 30
0.0
 10
9.3051024556
 20
4.7479365729
 30
0.0
 10
9.3054102763
 20
4.7480368234
 30
0.0
 10
9.3059032215
 20
4.7481682475
 30
0.0
 10
9.3066263796
 20
4.7483101696
 30
0.0
 10
9.3076182875
 20
4.7484461263
 30
0.0
 10
9.3087683906
 20
4.7485528589
 30
0.0
 10
9.3100698636
 20
4.7486293313
 30
0.0
 10
9.3115150859
 20
4.7486751917
 30
0.0
 10
9.3137038512
 20
4.7486955562
 30
0.0
 10
9.3167285266
 20
4.7486358815
 30
0.0
 10
9.3206499117
 20
4.7484454154
 30
0.0
 10
9.3248911424
 20
4.7481374264
 30
0.0
 10
9.3278121456
 20
4.7478657538
 30
0.0
 10
9.3293087872
 20
4.7477107566
 30
0.0
  0
SPLINE
  5
30E
100
AcDbEntity
  8
0
100
AcDbSpline
 62
9
  6
CONTINUOUS
 70
0
 71
3
 72
15
 73
11
 74
0
 42
0.0000001
 43
0.0000001
 44
0.0000000001
 40
0.0
 40
0.0
 40
0.0
 40
0.0
 40
0.1255100294
 40
0.2510048886
 40
0.376337937
 40
0.5015152911
 40
0.6264847876
 40
0.7512100667
 40
0.8757399823
 40
1.0
 40
1.0
 40
1.0
 40
1.0
 10
11.0299759036
 20
4.646612088
 30
0.0
 10
11.0299759036
 20
4.6479745587
 30
0.0
 10
11.0297920593
 20
4.6507028604
 30
0.0
 10
11.028971168
 20
4.6547168831
 30
0.0
 10
11.0276189906
 20
4.6585814161
 30
0.0
 10
11.0257617434
 20
4.6622236553
 30
0.0
 10
11.0234329451
 20
4.6655760547
 30
0.0
 10
11.0206760567
 20
4.6685770945
 30
0.0
 10
11.0175426731
 20
4.6711694341
 30
0.0
 10
11.0152377713
 20
4.6725961975
 30
0.0
 10
11.0140447034
 20
4.6732255809
 30
0.0
  0
SPLINE
  5
30F
100
AcDbEntity
  8
0
100
AcDbSpline
 62
9
  6
CONTINUOUS
 70
0
 71
3
 72
16
 73
12
 74
0
 42
0.0000001
 43
0.0000001
 44
0.0000000001
 40
0.0
 40
0.0
 40
0.0
 40
0.0
 40
0.152045786
 40
0.3014041413
 40
0.4452765265
 40
0.5811522714
 40
0.7065959033
 40
0.8194112945
 40
0.9177354867
 40
0.9609663533
 40
1.0
 40
1.0
 40
1.0
 40
1.0
 10
9.2691410034
 20
4.646612262
 30
0.0
 10
9.2691410012
 20
4.6479717388
 30
0.0
 10
9.2691709963
 20
4.6506667658
 30
0.0
 10
9.2693061016
 20
4.6546461398
 30
0.0
 10
9.2695287234
 20
4.6584768257
 30
0.0
 10
9.2698339934
 20
4.6620873166
 30
0.0
 10
9.2702161578
 20
4.6654112763
 30
0.0
 10
9.2706674178
 20
4.6683874094
 30
0.0
 10
9.2711100159
 20
4.6706196415
 30
0.0
 10
9.2715010388
 20
4.67218655
 30
0.0
 10
9.2717062813
 20
4.6728931671
 30
0.0
 10
9.2718119942
 20
4.673225781
 30
0.0
  0
SPLINE
  5
310
100
AcDbEntity
  8
0
100
AcDbSpline
 62
9
  6
CONTINUOUS
 70
0
 71
3
 72
36
 73
32
 74
0
 42
0.0000001
 43
0.0000001
 44
0.0000000001
 40
0.0
 40
0.0
 40
0.0
 40
0.0
 40
0.216567753
 40
0.3163648127
 40
0.4103722985
 40
0.4984500837
 40
0.5804182788
 40
0.6560596867
 40
0.7251181658
 40
0.7872945562
 40
0.8422534247
 40
0.8669129872
 40
0.8896277899
 40
0.91034737
 40
0.9290197019
 40
0.9455913613
 40
0.9600077532
 40
0.9722198083
 40
0.9774942354
 40
0.9822141397
 40
0.9863794331
 40
0.9899900274
 40
0.9930458342
 40
0.9955467654
 40
0.997492733
 40
0.998257578
 40
0.9988836492
 40
0.999370936
 40
0.9997194277
 40
0.9999291153
 40
1.0
 40
1.0
 40
1.0
 40
1.0
 10
11.0054969482
 20
4.854480011
 30
0.0
 10
11.0070159403
 20
4.8548264656
 30
0.0
 10
11.0092157558
 20
4.8554239558
 30
0.0
 10
11.012011215
 20
4.8563748649
 30
0.0
 10
11.0139044078
 20
4.8571031203
 30
0.0
 10
11.0156505779
 20
4.8578521623
 30
0.0
 10
11.0172486774
 20
4.8586081093
 30
0.0
 10
11.018697492
 20
4.8593571519
 30
0.0
 10
11.0199959185
 20
4.8600850668
 30
0.0
 10
11.0211433795
 20
4.860776512
 30
0.0
 10
11.0220017072
 20
4.8613279796
 30
0.0
 10
11.0226130476
 20
4.8617381782
 30
0.0
 10
11.023016584
 20
4.8620159256
 30
0.0
 10
11.0233819068
 20
4.8622731717
 30
0.0
 10
11.0237089236
 20
4.8625080222
 30
0.0
 10
11.0239975511
 20
4.8627185702
 30
0.0
 10
11.0242476981
 20
4.8629029977
 30
0.0
 10
11.0244323133
 20
4.8630393521
 30
0.0
 10
11.0245608052
 20
4.8631342795
 30
0.0
 10
11.024642724
 20
4.8631948255
 30
0.0
 10
11.024715007
 20
4.8632482708
 30
0.0
 10
11.0247776513
 20
4.8632946141
 30
0.0
 10
11.0248306645
 20
4.8633338485
 30
0.0
 10
11.0248740251
 20
4.8633659812
 30
0.0
 10
11.0249041694
 20
4.8633882994
 30
0.0
 10
11.0249234034
 20
4.8634026292
 30
0.0
 10
11.0249343324
 20
4.863410648
 30
0.0
 10
11.0249425491
 20
4.8634170362
 30
0.0
 10
11.0249490712
 20
4.8634212918
 30
0.0
 10
11.0249518182
 20
4.8634244384
 30
0.0
 10
11.0249543349
 20
4.8634252121
 30
0.0
 10
11.024954352
 20
4.8634257217
 30
0.0
  0
SPLINE
  5
311
100
AcDbEntity
  8
0
100
AcDbSpline
 62
9
  6
CONTINUOUS
 70
0
 71
3
 72
28
 73
24
 74
0
 42
0.0000001
 43
0.0000001
 44
0.0000000001
 40
0.0
 40
0.0
 40
0.0
 40
0.0
 40
0.0620623415
 40
0.1243000664
 40
0.1866890656
 40
0.2492032084
 40
0.3118147277
 40
0.3431488287
 40
0.3744981077
 40
0.4058604151
 40
0.4372338134
 40
0.4686149209
 40
0.4999998487
 40
0.5313847152
 40
0.5627656478
 40
0.5941387861
 40
0.6255009237
 40
0.6568501883
 40
0.6881843868
 40
0.7507962766
 40
0.8133107959
 40
0.8757001527
 40
1.0
 40
1.0
 40
1.0
 40
1.0
 10
9.8955256171
 20
4.854480011
 30
0.0
 10
9.9055279214
 20
4.8548451441
 30
0.0
 10
9.9255571342
 20
4.855677501
 30
0.0
 10
9.9556305529
 20
4.8571186184
 30
0.0
 10
9.9857727554
 20
4.8586431514
 30
0.0
 10
10.0159766349
 20
4.8601415339
 30
0.0
 10
10.0411843452
 20
4.8612695561
 30
0.0
 10
10.061376444
 20
4.8620386016
 30
0.0
 10
10.0765354634
 20
4.8625335423
 30
0.0
 10
10.0917037209
 20
4.8629313222
 30
0.0
 10
10.1068796735
 20
4.8632161821
 30
0.0
 10
10.1220609787
 20
4.8633873211
 30
0.0
 10
10.1372449908
 20
4.8634447209
 30
0.0
 10
10.1524289779
 20
4.8633881092
 30
0.0
 10
10.1676102102
 20
4.8632174334
 30
0.0
 10
10.1827860567
 20
4.8629320117
 30
0.0
 10
10.1979542226
 20
4.8625334951
 30
0.0
 10
10.2131132159
 20
4.862038215
 30
0.0
 10
10.2333053812
 20
4.8612689632
 30
0.0
 10
10.2585132242
 20
4.8601411215
 30
0.0
 10
10.2887173522
 20
4.8586432809
 30
0.0
 10
10.3288556248
 20
4.8566133435
 30
0.0
 10
10.3589319862
 20
4.8552113007
 30
0.0
 10
10.3789648254
 20
4.854480011
 30
0.0
  0
SPLINE
  5
312
100
AcDbEntity
  8
0
100
AcDbSpline
 62
9
  6
CONTINUOUS
 70
0
 71
3
 72
38
 73
34
 74
0
 42
0.0000001
 43
0.0000001
 44
0.0000000001
 40
0.0
 40
0.0
 40
0.0
 40
0.0
 40
0.0000725132
 40
0.0001634185
 40
0.0002906621
 40
0.0006538819
 40
0.0011616086
 40
0.0018132799
 40
0.0026083356
 40
0.0035462178
 40
0.0046263704
 40
0.0072112726
 40
0.0103586393
 40
0.0140641016
 40
0.0183233266
 40
0.0231320175
 40
0.0284859146
 40
0.0408124428
 40
0.0552696201
 40
0.071824756
 40
0.0904458075
 40
0.1111013934
 40
0.1337560556
 40
0.1583615785
 40
0.2132293105
 40
0.2753341001
 40
0.3443361462
 40
0.419930381
 40
0.5018500671
 40
0.5898740021
 40
0.6838237813
 40
0.7835603476
 40
1.0
 40
1.0
 40
1.0
 40
1.0
 10
9.2495357361
 20
4.8634481911
 30
0.0
 10
9.2495357651
 20
4.8634487123
 30
0.0
 10
9.249537266
 20
4.8634466197
 30
0.0
 10
9.2495385677
 20
4.8634459794
 30
0.0
 10
9.2495419649
 20
4.8634429104
 30
0.0
 10
9.2495473689
 20
4.8634386229
 30
0.0
 10
9.2495558866
 20
4.863431505
 30
0.0
 10
9.2495667315
 20
4.8634226265
 30
0.0
 10
9.2495800239
 20
4.8634117332
 30
0.0
 10
9.2495957177
 20
4.8633989453
 30
0.0
 10
9.2496214474
 20
4.8633780614
 30
0.0
 10
9.24965963
 20
4.8633472885
 30
0.0
 10
9.2497127134
 20
4.8633048839
 30
0.0
 10
9.2497754343
 20
4.8632552349
 30
0.0
 10
9.2498477878
 20
4.8631984868
 30
0.0
 10
9.2499297686
 20
4.8631347865
 30
0.0
 10
9.2500580623
 20
4.8630360411
 30
0.0
 10
9.2502424176
 20
4.8628962612
 30
0.0
 10
9.2504927829
 20
4.8627101002
 30
0.0
 10
9.2507815334
 20
4.8624996475
 30
0.0
 10
9.2511086285
 20
4.8622660787
 30
0.0
 10
9.25147399
 20
4.8620105759
 30
0.0
 10
9.2518774756
 20
4.8617344544
 30
0.0
 10
9.2524889108
 20
4.8613261873
 30
0.0
 10
9.2533473728
 20
4.8607765936
 30
0.0
 10
9.2544948424
 20
4.8600865324
 30
0.0
 10
9.2557931768
 20
4.8593590594
 30
0.0
 10
9.2572415868
 20
4.8586093041
 30
0.0
 10
9.258839402
 20
4.8578525447
 30
0.0
 10
9.26058553
 20
4.8571031485
 30
0.0
 10
9.262478775
 20
4.8563747628
 30
0.0
 10
9.265274427
 20
4.8554238952
 30
0.0
 10
9.2674744073
 20
4.8548265042
 30
0.0
 10
9.2689934943
 20
4.854480011
 30
0.0
  0
SPLINE
  5
313
100
AcDbEntity
  8
0
100
AcDbSpline
 62
9
  6
CONTINUOUS
 70
0
 71
3
 72
10
 73
6
 74
0
 42
0.0000001
 43
0.0000001
 44
0.0000000001
 40
0.0
 40
0.0
 40
0.0
 40
0.0
 40
0.2448317378
 40
0.6187724617
 40
1.0
 40
1.0
 40
1.0
 40
1.0
 10
9.2922231966
 20
4.7619380663
 30
0.0
 10
9.2932834825
 20
4.7608210559
 30
0.0
 10
9.2959358776
 20
4.7579719691
 30
0.0
 10
9.3001039646
 20
4.7532591472
 30
0.0
 10
9.3031231257
 20
4.7495899269
 30
0.0
 10
9.3046107417
 20
4.747709007
 30
0.0
  0
SPLINE
  5
314
100
AcDbEntity
  8
0
100
AcDbSpline
 62
9
  6
CONTINUOUS
 70
0
 71
3
 72
17
 73
13
 74
0
 42
0.0000001
 43
0.0000001
 44
0.0000000001
 40
0.0
 40
0.0
 40
0.0
 40
0.0
 40
0.0743697868
 40
0.1476213436
 40
0.2895445163
 40
0.3579835555
 40
0.4246172905
 40
0.552364024
 40
0.6730932427
 40
0.7874104597
 40
0.8961172454
 40
1.0
 40
1.0
 40
1.0
 40
1.0
 10
9.3046107417
 20
4.747709007
 30
0.0
 10
9.3043453265
 20
4.7455077838
 30
0.0
 10
9.3036941733
 20
4.7411521932
 30
0.0
 10
9.3019391975
 20
4.7326971897
 30
0.0
 10
9.2995314265
 20
4.7245698298
 30
0.0
 10
9.2965247375
 20
4.7168749463
 30
0.0
 10
9.2932723985
 20
4.7097427017
 30
0.0
 10
9.2886797609
 20
4.7015239375
 30
0.0
 10
9.2823855997
 20
4.6927019256
 30
0.0
 10
9.2755365646
 20
4.685049795
 30
0.0
 10
9.2682556598
 20
4.6785421913
 30
0.0
 10
9.2630723219
 20
4.6748672114
 30
0.0
 10
9.2604458907
 20
4.6732260384
 30
0.0
  0
SPLINE
  5
315
100
AcDbEntity
  8
0
100
AcDbSpline
 62
9
  6
CONTINUOUS
 70
0
 71
3
 72
11
 73
7
 74
0
 42
0.0000001
 43
0.0000001
 44
0.0000000001
 40
0.0
 40
0.0
 40
0.0
 40
0.0
 40
0.250742566
 40
0.5010706042
 40
0.750861314
 40
1.0
 40
1.0
 40
1.0
 40
1.0
 10
10.3789648254
 20
4.854480011
 30
0.0
 10
10.4192333128
 20
4.8516171616
 30
0.0
 10
10.4996115308
 20
4.8445168483
 30
0.0
 10
10.6196473839
 20
4.8300152962
 30
0.0
 10
10.7389424418
 20
4.8119971501
 30
0.0
 10
10.8180238553
 20
4.7978354466
 30
0.0
 10
10.8574154815
 20
4.7902681467
 30
0.0
  0
SPLINE
  5
316
100
AcDbEntity
  8
0
100
AcDbSpline
 62
9
  6
CONTINUOUS
 70
0
 71
3
 72
53
 73
49
 74
0
 42
0.0000001
 43
0.0000001
 44
0.0000000001
 40
0.0
 40
0.0
 40
0.0
 40
0.0
 40
0.0088025957
 40
0.0180735646
 40
0.0278347934
 40
0.0381022361
 40
0.0488864451
 40
0.0601935342
 40
0.0720255531
 40
0.0843812035
 40
0.0972560986
 40
0.1106432581
 40
0.1245333076
 40
0.1389147999
 40
0.1537743973
 40
0.1690970573
 40
0.2010621054
 40
0.2346633902
 40
0.2697335947
 40
0.3060899101
 40
0.3435367347
 40
0.3818680893
 40
0.4208698502
 40
0.4603218658
 40
0.5
 40
0.5396781342
 40
0.5791301498
 40
0.6181319107
 40
0.6564632653
 40
0.6939100899
 40
0.7302664053
 40
0.7653366098
 40
0.7989378946
 40
0.8309029427
 40
0.8462256027
 40
0.8610852001
 40
0.8754666924
 40
0.8893567419
 40
0.9027439014
 40
0.9156187965
 40
0.9279744469
 40
0.9398064658
 40
0.9511135549
 40
0.9618977639
 40
0.9721652066
 40
0.9819264354
 40
0.9911974043
 40
1.0
 40
1.0
 40
1.0
 40
1.0
 10
10.4613176036
 20
11.6075990095
 30
0.0
 10
10.460013933
 20
11.6091225154
 30
0.0
 10
10.4572185166
 20
11.6121504506
 30
0.0
 10
10.4526155598
 20
11.6165166966
 30
0.0
 10
10.4475050513
 20
11.6208151014
 30
0.0
 10
10.4418953702
 20
11.6250387322
 30
0.0
 10
10.4357953948
 20
11.6291813667
 30
0.0
 10
10.4292147676
 20
11.633236468
 30
0.0
 10
10.4221639635
 20
11.6371977761
 30
0.0
 10
10.4146541732
 20
11.6410589674
 30
0.0
 10
10.4066973869
 20
11.644813952
 30
0.0
 10
10.3983063082
 20
11.6484566962
 30
0.0
 10
10.3894943721
 20
11.6519813802
 30
0.0
 10
10.3802757135
 20
11.6553823184
 30
0.0
 10
10.3706651019
 20
11.6586540788
 30
0.0
 10
10.3571581075
 20
11.6628968804
 30
0.0
 10
10.3393958803
 20
11.6678201789
 30
0.0
 10
10.3170720229
 20
11.6730549574
 30
0.0
 10
10.2935905166
 20
11.6776628093
 30
0.0
 10
10.269102461
 20
11.6816137628
 30
0.0
 10
10.2437651329
 20
11.6848820734
 30
0.0
 10
10.2177415927
 20
11.6874464467
 30
0.0
 10
10.1911993922
 20
11.6892901716
 30
0.0
 10
10.1643095132
 20
11.6904012341
 30
0.0
 10
10.1372452213
 20
11.6907723944
 30
0.0
 10
10.1101809294
 20
11.6904012341
 30
0.0
 10
10.0832910504
 20
11.6892901716
 30
0.0
 10
10.0567488499
 20
11.6874464467
 30
0.0
 10
10.0307253097
 20
11.6848820734
 30
0.0
 10
10.0053879816
 20
11.6816137628
 30
0.0
 10
9.980899926
 20
11.6776628093
 30
0.0
 10
9.9574184197
 20
11.6730549574
 30
0.0
 10
9.9350945623
 20
11.6678201789
 30
0.0
 10
9.9173323351
 20
11.6628968804
 30
0.0
 10
9.9038253407
 20
11.6586540788
 30
0.0
 10
9.894214729
 20
11.6553823184
 30
0.0
 10
9.8849960705
 20
11.6519813802
 30
0.0
 10
9.8761841344
 20
11.6484566962
 30
0.0
 10
9.8677930556
 20
11.644813952
 30
0.0
 10
9.8598362693
 20
11.6410589674
 30
0.0
 10
9.8523264791
 20
11.6371977761
 30
0.0
 10
9.845275675
 20
11.633236468
 30
0.0
 10
9.8386950478
 20
11.6291813667
 30
0.0
 10
9.8325950724
 20
11.6250387322
 30
0.0
 10
9.8269853913
 20
11.6208151014
 30
0.0
 10
9.8218748828
 20
11.6165166966
 30
0.0
 10
9.817271926
 20
11.6121504506
 30
0.0
 10
9.8144765095
 20
11.6091225154
 30
0.0
 10
9.813172839
 20
11.6075990095
 30
0.0
  0
SPLINE
  5
317
100
AcDbEntity
  8
0
100
AcDbSpline
 62
9
  6
CONTINUOUS
 70
0
 71
3
 72
59
 73
55
 74
0
 42
0.0000001
 43
0.0000001
 44
0.0000000001
 40
0.0
 40
0.0
 40
0.0
 40
0.0
 40
0.0075619459
 40
0.0154053652
 40
0.0236264101
 40
0.0323050283
 40
0.0415055958
 40
0.0512781236
 40
0.0616596009
 40
0.0726760967
 40
0.0843442387
 40
0.0966726997
 40
0.1096635763
 40
0.1233130902
 40
0.1376126861
 40
0.1525495512
 40
0.1681070855
 40
0.1842655767
 40
0.2010022867
 40
0.218291969
 40
0.2361071072
 40
0.2544180098
 40
0.2923976552
 40
0.3319622377
 40
0.3728194116
 40
0.4146602266
 40
0.4571635019
 40
0.5
 40
0.5428364981
 40
0.5853397734
 40
0.6271805884
 40
0.6680377623
 40
0.7076023448
 40
0.7455819902
 40
0.7638928928
 40
0.781708031
 40
0.7989977133
 40
0.8157344233
 40
0.8318929145
 40
0.8474504488
 40
0.8623873139
 40
0.8766869098
 40
0.8903364237
 40
0.9033273003
 40
0.9156557613
 40
0.9273239033
 40
0.9383403991
 40
0.9487218764
 40
0.9584944042
 40
0.9676949717
 40
0.9763735899
 40
0.9845946348
 40
0.9924380541
 40
1.0
 40
1.0
 40
1.0
 40
1.0
 10
10.4817715528
 20
11.5670993892
 30
0.0
 10
10.4813998118
 20
11.5689688876
 30
0.0
 10
10.4803840295
 20
11.5727302133
 30
0.0
 10
10.4781188388
 20
11.5782526173
 30
0.0
 10
10.4750995141
 20
11.5837243514
 30
0.0
 10
10.4713359977
 20
11.5891332167
 30
0.0
 10
10.4668383833
 20
11.5944694477
 30
0.0
 10
10.4616174321
 20
11.599722896
 30
0.0
 10
10.4556849828
 20
11.6048837035
 30
0.0
 10
10.4490538638
 20
11.6099415776
 30
0.0
 10
10.4417383818
 20
11.6148862712
 30
0.0
 10
10.4337542908
 20
11.619707562
 30
0.0
 10
10.4251187325
 20
11.6243951087
 30
0.0
 10
10.4158504379
 20
11.6289389665
 30
0.0
 10
10.4059694965
 20
11.6333292323
 30
0.0
 10
10.3954974158
 20
11.6375563026
 30
0.0
 10
10.3844570816
 20
11.6416110073
 30
0.0
 10
10.3728726162
 20
11.6454843228
 30
0.0
 10
10.3607694201
 20
11.6491677979
 30
0.0
 10
10.3481740559
 20
11.6526532842
 30
0.0
 10
10.3351141309
 20
11.6559330859
 30
0.0
 10
10.316897786
 20
11.6600725398
 30
0.0
 10
10.2931679694
 20
11.6646600513
 30
0.0
 10
10.2636604401
 20
11.6691789344
 30
0.0
 10
10.2330418431
 20
11.6727361061
 30
0.0
 10
10.2015813922
 20
11.6752998789
 30
0.0
 10
10.1695553377
 20
11.6768473371
 30
0.0
 10
10.1372452213
 20
11.6773646952
 30
0.0
 10
10.1049351049
 20
11.6768473371
 30
0.0
 10
10.0729090504
 20
11.6752998789
 30
0.0
 10
10.0414485995
 20
11.6727361061
 30
0.0
 10
10.0108300025
 20
11.6691789344
 30
0.0
 10
9.9813224732
 20
11.6646600513
 30
0.0
 10
9.9575926566
 20
11.6600725398
 30
0.0
 10
9.9393763117
 20
11.6559330859
 30
0.0
 10
9.9263163867
 20
11.6526532842
 30
0.0
 10
9.9137210225
 20
11.6491677979
 30
0.0
 10
9.9016178264
 20
11.6454843228
 30
0.0
 10
9.890033361
 20
11.6416110073
 30
0.0
 10
9.8789930267
 20
11.6375563026
 30
0.0
 10
9.8685209461
 20
11.6333292323
 30
0.0
 10
9.8586400047
 20
11.6289389665
 30
0.0
 10
9.84937171
 20
11.6243951087
 30
0.0
 10
9.8407361518
 20
11.619707562
 30
0.0
 10
9.8327520608
 20
11.6148862712
 30
0.0
 10
9.8254365788
 20
11.6099415776
 30
0.0
 10
9.8188054598
 20
11.6048837035
 30
0.0
 10
9.8128730105
 20
11.599722896
 30
0.0
 10
9.8076520593
 20
11.5944694477
 30
0.0
 10
9.8031544449
 20
11.5891332167
 30
0.0
 10
9.7993909285
 20
11.5837243514
 30
0.0
 10
9.7963716038
 20
11.5782526173
 30
0.0
 10
9.7941064131
 20
11.5727302133
 30
0.0
 10
9.7930906308
 20
11.5689688876
 30
0.0
 10
9.7927188898
 20
11.5670993892
 30
0.0
  0
SPLINE
  5
318
100
AcDbEntity
  8
0
100
AcDbSpline
 62
9
  6
CONTINUOUS
 70
0
 71
3
 72
9
 73
5
 74
0
 42
0.0000001
 43
0.0000001
 44
0.0000000001
 40
0.0
 40
0.0
 40
0.0
 40
0.0
 40
0.5072047576
 40
1.0
 40
1.0
 40
1.0
 40
1.0
 10
10.9476667021
 20
4.7717040776
 30
0.0
 10
10.9495679571
 20
4.7749570356
 30
0.0
 10
10.9535180146
 20
4.7812543103
 30
0.0
 10
10.9578019048
 20
4.7873273067
 30
0.0
 10
10.959981994
 20
4.7902681467
 30
0.0
  0
SPLINE
  5
319
100
AcDbEntity
  8
0
100
AcDbSpline
 62
9
  6
CONTINUOUS
 70
0
 71
3
 72
86
 73
82
 74
0
 42
0.0000001
 43
0.0000001
 44
0.0000000001
 40
0.0
 40
0.0
 40
0.0
 40
0.0
 40
0.000012612
 40
0.0000501084
 40
0.0001124349
 40
0.000199537
 40
0.0003113605
 40
0.000447851
 40
0.0007946155
 40
0.001239396
 40
0.0017817585
 40
0.0024212725
 40
0.0031575086
 40
0.0039900373
 40
0.0049184294
 40
0.0070606653
 40
0.0095780806
 40
0.0124637668
 40
0.0157099087
 40
0.0193069708
 40
0.0232452407
 40
0.0275152206
 40
0.0370130128
 40
0.0477203823
 40
0.0595502109
 40
0.0724190371
 40
0.0862485643
 40
0.1009656405
 40
0.1327737362
 40
0.1673254579
 40
0.204188831
 40
0.2429835446
 40
0.283392459
 40
0.3251240393
 40
0.3464024774
 40
0.3679125078
 40
0.3896221331
 40
0.41149766
 40
0.433506104
 40
0.4556155095
 40
0.4999997551
 40
0.544383874
 40
0.5664931615
 40
0.5885014838
 40
0.6103771283
 40
0.6320870784
 40
0.6535973947
 40
0.6748758382
 40
0.7166066945
 40
0.7570165751
 40
0.795811392
 40
0.8326729681
 40
0.8672262705
 40
0.8835022928
 40
0.8990335166
 40
0.9137508565
 40
0.9275811804
 40
0.9404503637
 40
0.9522799713
 40
0.9629870217
 40
0.9724846811
 40
0.9767546912
 40
0.9806930485
 40
0.9842902125
 40
0.9875363862
 40
0.99042196
 40
0.9929391744
 40
0.995081251
 40
0.9960096123
 40
0.9968421405
 40
0.9975783996
 40
0.9982179534
 40
0.9987603656
 40
0.9992051997
 40
0.9995520181
 40
0.9996885346
 40
0.9998003829
 40
0.9998875084
 40
0.9999498562
 40
0.9999873717
 40
1.0
 40
1.0
 40
1.0
 40
1.0
 10
12.0172452213
 20
6.7452187254
 30
0.0
 10
12.0172472862
 20
6.7452181625
 30
0.0
 10
12.0172547508
 20
6.7452138739
 30
0.0
 10
12.0172723796
 20
6.7452067017
 30
0.0
 10
12.0173010908
 20
6.7451931195
 30
0.0
 10
12.0173414898
 20
6.7451748951
 30
0.0
 10
12.0173932396
 20
6.7451511739
 30
0.0
 10
12.0174850986
 20
6.745109226
 30
0.0
 10
12.0176283011
 20
6.7450436753
 30
0.0
 10
12.0178341032
 20
6.7449494009
 30
0.0
 10
12.0180850141
 20
6.7448343065
 30
0.0
 10
12.0183808779
 20
6.7446985825
 30
0.0
 10
12.0187215286
 20
6.7445423907
 30
0.0
 10
12.0191068052
 20
6.7443659048
 30
0.0
 10
12.0197091374
 20
6.7440903326
 30
0.0
 10
12.0205718243
 20
6.7436965566
 30
0.0
 10
12.0217374126
 20
6.7431664623
 30
0.0
 10
12.023074472
 20
6.7425608888
 30
0.0
 10
12.0245795709
 20
6.7418822474
 30
0.0
 10
12.0262488478
 20
6.7411331592
 30
0.0
 10
12.0280781524
 20
6.7403163053
 30
0.0
 10
12.0308243555
 20
6.7390968723
 30
0.0
 10
12.0346268413
 20
6.7374256782
 30
0.0
 10
12.0396163054
 20
6.7352668772
 30
0.0
 10
12.0451456344
 20
6.7329154429
 30
0.0
 10
12.0511804497
 20
6.7303991388
 30
0.0
 10
12.0576887699
 20
6.727745767
 30
0.0
 10
12.0672078335
 20
6.7239647525
 30
0.0
 10
12.0800699173
 20
6.7190753795
 30
0.0
 10
12.0965824404
 20
6.7132226998
 30
0.0
 10
12.1143738909
 20
6.7074470845
 30
0.0
 10
12.1332859005
 20
6.7019298141
 30
0.0
 10
12.1531785105
 20
6.6968641467
 30
0.0
 10
12.170344393
 20
6.6931851042
 30
0.0
 10
12.1844572292
 20
6.6906189164
 30
0.0
 10
12.195267617
 20
6.6888981684
 30
0.0
 10
12.2062150209
 20
6.6874119176
 30
0.0
 10
12.2172782108
 20
6.6861720398
 30
0.0
 10
12.2284356496
 20
6.6851914985
 30
0.0
 10
12.2434263836
 20
6.6842482649
 30
0.0
 10
12.2622451625
 20
6.6837739958
 30
0.0
 10
12.2810639552
 20
6.6842479742
 30
0.0
 10
12.29605457
 20
6.6851921351
 30
0.0
 10
12.3072119633
 20
6.6861728981
 30
0.0
 10
12.3182752322
 20
6.6874125271
 30
0.0
 10
12.3292228421
 20
6.6888981766
 30
0.0
 10
12.3400333951
 20
6.6906185645
 30
0.0
 10
12.354146171
 20
6.6931847164
 30
0.0
 10
12.3713118328
 20
6.6968649539
 30
0.0
 10
12.3912047942
 20
6.7019293541
 30
0.0
 10
12.4101168664
 20
6.707446171
 30
0.0
 10
12.4279074989
 20
6.7132240119
 30
0.0
 10
12.4419362027
 20
6.7181939674
 30
0.0
 10
12.4524836411
 20
6.7221409554
 30
0.0
 10
12.4598492927
 20
6.7249845699
 30
0.0
 10
12.4668013882
 20
6.727745941
 30
0.0
 10
12.4733100629
 20
6.7303990651
 30
0.0
 10
12.4793450725
 20
6.7329153202
 30
0.0
 10
12.4848743306
 20
6.7352668415
 30
0.0
 10
12.4898636485
 20
6.737425693
 30
0.0
 10
12.4936660542
 20
6.7390968909
 30
0.0
 10
12.4964122597
 20
6.7403163124
 30
0.0
 10
12.4982416077
 20
6.7411331606
 30
0.0
 10
12.4999109305
 20
6.7418822379
 30
0.0
 10
12.5014160385
 20
6.742560868
 30
0.0
 10
12.502753043
 20
6.7431664469
 30
0.0
 10
12.5039185363
 20
6.7436965563
 30
0.0
 10
12.5047811464
 20
6.744090341
 30
0.0
 10
12.5053834443
 20
6.7443659101
 30
0.0
 10
12.5057687194
 20
6.744542396
 30
0.0
 10
12.506109382
 20
6.7446985873
 30
0.0
 10
12.5064052672
 20
6.7448343103
 30
0.0
 10
12.5066562057
 20
6.7449494028
 30
0.0
 10
12.5068620379
 20
6.7450436757
 30
0.0
 10
12.5070052668
 20
6.7451092228
 30
0.0
 10
12.5070971454
 20
6.7451511711
 30
0.0
 10
12.5071489104
 20
6.7451748879
 30
0.0
 10
12.5071893193
 20
6.7451931231
 30
0.0
 10
12.5072180488
 20
6.745206682
 30
0.0
 10
12.5072356757
 20
6.7452138978
 30
0.0
 10
12.5072431586
 20
6.7452181441
 30
0.0
 10
12.5072452213
 20
6.7452187254
 30
0.0
  0
LINE
  5
31A
100
AcDbEntity
  8
0
100
AcDbLine
 62
9
  6
CONTINUOUS
 10
12.4343765524
 20
7.1607870719
 11
12.4675106169
 21
8.6987333392
  0
SPLINE
  5
31B
100
AcDbEntity
  8
0
100
AcDbSpline
 62
9
  6
CONTINUOUS
 70
0
 71
3
 72
59
 73
55
 74
0
 42
0.0000001
 43
0.0000001
 44
0.0000000001
 40
0.0
 40
0.0
 40
0.0
 40
0.0
 40
0.0075825777
 40
0.0154620624
 40
0.0237309871
 40
0.0324652631
 40
0.0417258159
 40
0.0515598561
 40
0.062002045
 40
0.0730765632
 40
0.0847986553
 40
0.0971758687
 40
0.1102094857
 40
0.1238951642
 40
0.1382239085
 40
0.15318269
 40
0.1687547685
 40
0.1849204068
 40
0.2016569658
 40
0.2189393263
 40
0.2367402107
 40
0.2550302039
 40
0.2929494663
 40
0.3324315917
 40
0.3731880018
 40
0.4149139514
 40
0.4572927843
 40
0.5
 40
0.5427072157
 40
0.5850860486
 40
0.6268119982
 40
0.6675684083
 40
0.7070505337
 40
0.7449697961
 40
0.7632597893
 40
0.7810606737
 40
0.7983430342
 40
0.8150795932
 40
0.8312452315
 40
0.84681731
 40
0.8617760915
 40
0.8761048358
 40
0.8897905143
 40
0.9028241313
 40
0.9152013447
 40
0.9269234368
 40
0.937997955
 40
0.9484401439
 40
0.9582741841
 40
0.9675347369
 40
0.9762690129
 40
0.9845379376
 40
0.9924174223
 40
1.0
 40
1.0
 40
1.0
 40
1.0
 10
10.481731454
 20
11.5672028593
 30
0.0
 10
10.4813138124
 20
11.5690635484
 30
0.0
 10
10.4802082708
 20
11.5728047663
 30
0.0
 10
10.4778220754
 20
11.5782893832
 30
0.0
 10
10.4746918561
 20
11.5837220912
 30
0.0
 10
10.4708272042
 20
11.5890909889
 30
0.0
 10
10.4662382475
 20
11.5943865371
 30
0.0
 10
10.4609356574
 20
11.5995987311
 30
0.0
 10
10.4549312109
 20
11.6047178167
 30
0.0
 10
10.4482377561
 20
11.6097336984
 30
0.0
 10
10.4408695148
 20
11.6146362127
 30
0.0
 10
10.4328422093
 20
11.6194153583
 30
0.0
 10
10.4241728821
 20
11.6240609697
 30
0.0
 10
10.4148801194
 20
11.6285632571
 30
0.0
 10
10.4049838623
 20
11.6329125634
 30
0.0
 10
10.3945053956
 20
11.6370994284
 30
0.0
 10
10.3834673704
 20
11.6411148951
 30
0.0
 10
10.371893635
 20
11.6449501357
 30
0.0
 10
10.3598092702
 20
11.6485968461
 30
0.0
 10
10.3472405022
 20
11.6520470884
 30
0.0
 10
10.3342145602
 20
11.6552933045
 30
0.0
 10
10.3160562873
 20
11.6593892695
 30
0.0
 10
10.2924147833
 20
11.6639282268
 30
0.0
 10
10.2630302082
 20
11.6683991142
 30
0.0
 10
10.2325528236
 20
11.6719180056
 30
0.0
 10
10.2012475215
 20
11.6744539186
 30
0.0
 10
10.1693860306
 20
11.675984455
 30
0.0
 10
10.1372452213
 20
11.676496138
 30
0.0
 10
10.1051044119
 20
11.675984455
 30
0.0
 10
10.0732429211
 20
11.6744539186
 30
0.0
 10
10.041937619
 20
11.6719180056
 30
0.0
 10
10.0114602343
 20
11.6683991142
 30
0.0
 10
9.9820756593
 20
11.6639282268
 30
0.0
 10
9.9584341553
 20
11.6593892695
 30
0.0
 10
9.9402758823
 20
11.6552933045
 30
0.0
 10
9.9272499404
 20
11.6520470884
 30
0.0
 10
9.9146811724
 20
11.6485968461
 30
0.0
 10
9.9025968076
 20
11.6449501357
 30
0.0
 10
9.8910230721
 20
11.6411148951
 30
0.0
 10
9.879985047
 20
11.6370994284
 30
0.0
 10
9.8695065803
 20
11.6329125634
 30
0.0
 10
9.8596103232
 20
11.6285632571
 30
0.0
 10
9.8503175605
 20
11.6240609697
 30
0.0
 10
9.8416482333
 20
11.6194153583
 30
0.0
 10
9.8336209278
 20
11.6146362127
 30
0.0
 10
9.8262526864
 20
11.6097336984
 30
0.0
 10
9.8195592317
 20
11.6047178167
 30
0.0
 10
9.8135547852
 20
11.5995987311
 30
0.0
 10
9.808252195
 20
11.5943865371
 30
0.0
 10
9.8036632384
 20
11.5890909889
 30
0.0
 10
9.7997985865
 20
11.5837220912
 30
0.0
 10
9.7966683671
 20
11.5782893832
 30
0.0
 10
9.7942821718
 20
11.5728047663
 30
0.0
 10
9.7931766301
 20
11.5690635484
 30
0.0
 10
9.7927589886
 20
11.5672028593
 30
0.0
  0
SPLINE
  5
31C
100
AcDbEntity
  8
0
100
AcDbSpline
 62
9
  6
CONTINUOUS
 70
0
 71
3
 72
14
 73
10
 74
0
 42
0.0000001
 43
0.0000001
 44
0.0000000001
 40
0.0
 40
0.0
 40
0.0
 40
0.0
 40
0.1312820544
 40
0.2617141333
 40
0.3907128089
 40
0.517776114
 40
0.6425020221
 40
0.7645917099
 40
1.0
 40
1.0
 40
1.0
 40
1.0
 10
12.4675106169
 20
8.6987333392
 30
0.0
 10
12.4676366829
 20
8.7047407392
 30
0.0
 10
12.4682692304
 20
8.7167122359
 30
0.0
 10
12.4703533395
 20
8.7344847617
 30
0.0
 10
12.4735306242
 20
8.7518991975
 30
0.0
 10
12.4777494272
 20
8.7688212358
 30
0.0
 10
12.4829458721
 20
8.7851390231
 30
0.0
 10
12.4909834226
 20
8.8057048883
 30
0.0
 10
12.4983999327
 20
8.8203594379
 30
0.0
 10
12.5039098185
 20
8.8296185828
 30
0.0
  0
SPLINE
  5
31D
100
AcDbEntity
  8
0
100
AcDbSpline
 62
9
  6
CONTINUOUS
 70
0
 71
3
 72
15
 73
11
 74
0
 42
0.0000001
 43
0.0000001
 44
0.0000000001
 40
0.0
 40
0.0
 40
0.0
 40
0.0
 40
0.1255214595
 40
0.2512251731
 40
0.3768560529
 40
0.502321968
 40
0.6274661916
 40
0.7521551101
 40
0.876377501
 40
1.0
 40
1.0
 40
1.0
 40
1.0
 10
10.947668407
 20
4.771703194
 30
0.0
 10
10.9490614804
 20
4.7713289235
 30
0.0
 10
10.9518006962
 20
4.7703820573
 30
0.0
 10
10.9556681361
 20
4.7684031892
 30
0.0
 10
10.9592211624
 20
4.7659030485
 30
0.0
 10
10.9623853731
 20
4.7629356544
 30
0.0
 10
10.9650943743
 20
4.7595613282
 30
0.0
 10
10.9672930887
 20
4.7558505022
 30
0.0
 10
10.9689332685
 20
4.7518808658
 30
0.0
 10
10.9696344964
 20
4.7491082011
 30
0.0
 10
10.9698817018
 20
4.7477092227
 30
0.0
  0
SPLINE
  5
31E
100
AcDbEntity
  8
0
100
AcDbSpline
 62
9
  6
CONTINUOUS
 70
0
 71
3
 72
15
 73
11
 74
0
 42
0.0000001
 43
0.0000001
 44
0.0000000001
 40
0.0
 40
0.0
 40
0.0
 40
0.0
 40
0.1268414389
 40
0.25345831
 40
0.3796439223
 40
0.5052262827
 40
0.6300825759
 40
0.7541500004
 40
0.877432164
 40
1.0
 40
1.0
 40
1.0
 40
1.0
 10
12.5077995395
 20
8.8820187254
 30
0.0
 10
12.5077995399
 20
8.8829921155
 30
0.0
 10
12.5076632743
 20
8.8849399211
 30
0.0
 10
12.507054198
 20
8.8877982879
 30
0.0
 10
12.5060533199
 20
8.8905345274
 30
0.0
 10
12.5046817037
 20
8.8930897056
 30
0.0
 10
12.502968341
 20
8.8954095401
 30
0.0
 10
12.5009492489
 20
8.8974444954
 30
0.0
 10
12.4986680097
 20
8.8991506153
 30
0.0
 10
12.496998611
 20
8.9000474471
 30
0.0
 10
12.4961388071
 20
8.9004288322
 30
0.0
  0
SPLINE
  5
31F
100
AcDbEntity
  8
0
100
AcDbSpline
 62
9
  6
CONTINUOUS
 70
0
 71
3
 72
18
 73
14
 74
0
 42
0.0000001
 43
0.0000001
 44
0.0000000001
 40
0.0
 40
0.0
 40
0.0
 40
0.0
 40
0.0266703622
 40
0.0590318445
 40
0.0970482065
 40
0.1406068687
 40
0.189535245
 40
0.24363624
 40
0.3663064591
 40
0.5062432423
 40
0.6606136117
 40
0.8263740865
 40
1.0
 40
1.0
 40
1.0
 40
1.0
 10
10.947668407
 20
4.771703194
 30
0.0
 10
10.947720255
 20
4.7714942584
 30
0.0
 10
10.9478044255
 20
4.7710242905
 30
0.0
 10
10.9478828664
 20
4.770244507
 30
0.0
 10
10.94792422
 20
4.7693253945
 30
0.0
 10
10.9479278804
 20
4.768271817
 30
0.0
 10
10.9478937659
 20
4.7670889371
 30
0.0
 10
10.9477932547
 20
4.765269791
 30
0.0
 10
10.947566787
 20
4.7627228125
 30
0.0
 10
10.9471632856
 20
4.7593810243
 30
0.0
 10
10.9466240799
 20
4.7557065367
 30
0.0
 10
10.9459608604
 20
4.7517764463
 30
0.0
 10
10.9454534923
 20
4.7490842561
 30
0.0
 10
10.9451813706
 20
4.7477094896
 30
0.0
  0
SPLINE
  5
320
100
AcDbEntity
  8
0
100
AcDbSpline
 62
9
  6
CONTINUOUS
 70
0
 71
3
 72
18
 73
14
 74
0
 42
0.0000001
 43
0.0000001
 44
0.0000000001
 40
0.0
 40
0.0
 40
0.0
 40
0.0
 40
0.0268546331
 40
0.0596309392
 40
0.0982808308
 40
0.1426538304
 40
0.1925420805
 40
0.2476768333
 40
0.3723353318
 40
0.5136083201
 40
0.6679480889
 40
0.8314844426
 40
1.0
 40
1.0
 40
1.0
 40
1.0
 10
10.8574154815
 20
4.7902681467
 30
0.0
 10
10.8574898091
 20
4.7900235538
 30
0.0
 10
10.8576149304
 20
4.789468439
 30
0.0
 10
10.8577433177
 20
4.7885411882
 30
0.0
 10
10.8578286432
 20
4.7874416127
 30
0.0
 10
10.857870107
 20
4.7861767801
 30
0.0
 10
10.8578671272
 20
4.7847544001
 30
0.0
 10
10.8578006804
 20
4.7825687812
 30
0.0
 10
10.8575974847
 20
4.7795182566
 30
0.0
 10
10.857194736
 20
4.7755373439
 30
0.0
 10
10.8566323506
 20
4.7712023764
 30
0.0
 10
10.855924381
 20
4.7666263232
 30
0.0
 10
10.8553709291
 20
4.7635139457
 30
0.0
 10
10.8550729389
 20
4.7619377184
 30
0.0
  0
SPLINE
  5
321
100
AcDbEntity
  8
0
100
AcDbSpline
 62
9
  6
CONTINUOUS
 70
0
 71
3
 72
11
 73
7
 74
0
 42
0.0000001
 43
0.0000001
 44
0.0000000001
 40
0.0
 40
0.0
 40
0.0
 40
0.0
 40
0.2310043526
 40
0.4734176146
 40
0.7291802985
 40
1.0
 40
1.0
 40
1.0
 40
1.0
 10
12.4961388153
 20
8.9004288322
 30
0.0
 10
12.4951348534
 20
8.9010146599
 30
0.0
 10
12.493151152
 20
8.9023458498
 30
0.0
 10
12.4903583616
 20
8.9047371777
 30
0.0
 10
12.4877112997
 20
8.9075697243
 30
0.0
 10
12.4861142066
 20
8.9096909895
 30
0.0
 10
12.485349197
 20
8.9108187254
 30
0.0
  0
SPLINE
  5
322
100
AcDbEntity
  8
0
100
AcDbSpline
 62
9
  6
CONTINUOUS
 70
0
 71
3
 72
59
 73
55
 74
0
 42
0.0000001
 43
0.0000001
 44
0.0000000001
 40
0.0
 40
0.0
 40
0.0
 40
0.0
 40
0.0075124953
 40
0.0151943247
 40
0.0231651134
 40
0.0315308755
 40
0.0403793044
 40
0.0497804632
 40
0.0597881312
 40
0.0704416145
 40
0.0817680604
 40
0.0937840628
 40
0.1064976765
 40
0.1199095744
 40
0.1340141423
 40
0.1488006249
 40
0.164253474
 40
0.1803532881
 40
0.1970771182
 40
0.2143988256
 40
0.2322896627
 40
0.2507182439
 40
0.2890504686
 40
0.3291073721
 40
0.3705729802
 40
0.4131117794
 40
0.4563738928
 40
0.5
 40
0.5436261072
 40
0.5868882206
 40
0.6294270198
 40
0.6708926279
 40
0.7109495314
 40
0.7492817561
 40
0.7677103373
 40
0.7856011744
 40
0.8029228818
 40
0.8196467119
 40
0.835746526
 40
0.8511993751
 40
0.8659858577
 40
0.8800904256
 40
0.8935023235
 40
0.9062159372
 40
0.9182319396
 40
0.9295583855
 40
0.9402118688
 40
0.9502195368
 40
0.9596206956
 40
0.9684691245
 40
0.9768348866
 40
0.9848056753
 40
0.9924875047
 40
1.0
 40
1.0
 40
1.0
 40
1.0
 10
10.4211562503
 20
11.3124330166
 30
0.0
 10
10.4210903232
 20
11.3140149341
 30
0.0
 10
10.4207268771
 20
11.3172091881
 30
0.0
 10
10.4195043447
 20
11.3219503665
 30
0.0
 10
10.4176078879
 20
11.3266581575
 30
0.0
 10
10.4150459822
 20
11.331319704
 30
0.0
 10
10.4118277813
 20
11.3359256644
 30
0.0
 10
10.4079625451
 20
11.3404666538
 30
0.0
 10
10.4034603101
 20
11.3449337499
 30
0.0
 10
10.3983319469
 20
11.3493179629
 30
0.0
 10
10.3925892878
 20
11.3536099159
 30
0.0
 10
10.3862456597
 20
11.3578004118
 30
0.0
 10
10.3793156136
 20
11.3618800174
 30
0.0
 10
10.3718151575
 20
11.3658394466
 30
0.0
 10
10.3637617139
 20
11.3696696562
 30
0.0
 10
10.3551739848
 20
11.3733616052
 30
0.0
 10
10.3460720681
 20
11.3769067627
 30
0.0
 10
10.3364772632
 20
11.3802967306
 30
0.0
 10
10.3264120834
 20
11.3835234941
 30
0.0
 10
10.3159002163
 20
11.3865794911
 30
0.0
 10
10.3049663467
 20
11.3894574359
 30
0.0
 10
10.289658391
 20
11.3930958655
 30
0.0
 10
10.2696492477
 20
11.3971301542
 30
0.0
 10
10.2446977271
 20
11.4011050171
 30
0.0
 10
10.2187334997
 20
11.4042367419
 30
0.0
 10
10.1920013467
 20
11.4064953806
 30
0.0
 10
10.1647529604
 20
11.4078592664
 30
0.0
 10
10.1372452213
 20
11.4083153516
 30
0.0
 10
10.1097374822
 20
11.4078592664
 30
0.0
 10
10.0824890959
 20
11.4064953806
 30
0.0
 10
10.0557569429
 20
11.4042367419
 30
0.0
 10
10.0297927155
 20
11.4011050171
 30
0.0
 10
10.0048411949
 20
11.3971301542
 30
0.0
 10
9.9848320516
 20
11.3930958655
 30
0.0
 10
9.9695240959
 20
11.3894574359
 30
0.0
 10
9.9585902263
 20
11.3865794911
 30
0.0
 10
9.9480783591
 20
11.3835234941
 30
0.0
 10
9.9380131794
 20
11.3802967306
 30
0.0
 10
9.9284183745
 20
11.3769067627
 30
0.0
 10
9.9193164578
 20
11.3733616052
 30
0.0
 10
9.9107287287
 20
11.3696696562
 30
0.0
 10
9.9026752851
 20
11.3658394466
 30
0.0
 10
9.895174829
 20
11.3618800174
 30
0.0
 10
9.8882447829
 20
11.3578004118
 30
0.0
 10
9.8819011548
 20
11.3536099159
 30
0.0
 10
9.8761584957
 20
11.3493179629
 30
0.0
 10
9.8710301325
 20
11.3449337499
 30
0.0
 10
9.8665278975
 20
11.3404666538
 30
0.0
 10
9.8626626613
 20
11.3359256644
 30
0.0
 10
9.8594444604
 20
11.331319704
 30
0.0
 10
9.8568825547
 20
11.3266581575
 30
0.0
 10
9.8549860978
 20
11.3219503665
 30
0.0
 10
9.8537635654
 20
11.3172091881
 30
0.0
 10
9.8534001194
 20
11.3140149341
 30
0.0
 10
9.8533341923
 20
11.3124330166
 30
0.0
  0
SPLINE
  5
323
100
AcDbEntity
  8
0
100
AcDbSpline
 62
9
  6
CONTINUOUS
 70
0
 71
3
 72
16
 73
12
 74
0
 42
0.0000001
 43
0.0000001
 44
0.0000000001
 40
0.0
 40
0.0
 40
0.0
 40
0.0
 40
0.0278159802
 40
0.0617239432
 40
0.101509718
 40
0.146924198
 40
0.253519744
 40
0.3788802835
 40
0.519880607
 40
0.6729818032
 40
1.0
 40
1.0
 40
1.0
 40
1.0
 10
9.8955256171
 20
4.854480011
 30
0.0
 10
9.8955049285
 20
4.8542156037
 30
0.0
 10
9.8954719744
 20
4.8536278804
 30
0.0
 10
9.8954420582
 20
4.8526604347
 30
0.0
 10
9.8954275895
 20
4.8515248188
 30
0.0
 10
9.8954293565
 20
4.8496960751
 30
0.0
 10
9.8954758898
 20
4.8470516893
 30
0.0
 10
9.8955890927
 20
4.8434974122
 30
0.0
 10
9.8957608283
 20
4.8395016034
 30
0.0
 10
9.8960693546
 20
4.833587437
 30
0.0
 10
9.896363332
 20
4.8290188798
 30
0.0
 10
9.8965853045
 20
4.8259087883
 30
0.0
  0
SPLINE
  5
324
100
AcDbEntity
  8
0
100
AcDbSpline
 62
9
  6
CONTINUOUS
 70
0
 71
3
 72
15
 73
11
 74
0
 42
0.0000001
 43
0.0000001
 44
0.0000000001
 40
0.0
 40
0.0
 40
0.0
 40
0.0
 40
0.133631866
 40
0.2643649664
 40
0.3923287953
 40
0.5177501557
 40
0.6408929471
 40
0.76207252
 40
0.8816499347
 40
1.0
 40
1.0
 40
1.0
 40
1.0
 10
12.485349197
 20
8.9108187254
 30
0.0
 10
12.4837146
 20
8.9129356387
 30
0.0
 10
12.4803132023
 20
8.9169974642
 30
0.0
 10
12.4747899738
 20
8.9225908389
 30
0.0
 10
12.4689425834
 20
8.9275962315
 30
0.0
 10
12.4628130973
 20
8.9319962752
 30
0.0
 10
12.4564416115
 20
8.9357786312
 30
0.0
 10
12.449867326
 20
8.9389353311
 30
0.0
 10
12.4431286035
 20
8.9414607506
 30
0.0
 10
12.4385305961
 20
8.9427282149
 30
0.0
 10
12.4362210568
 20
8.9432542896
 30
0.0
  0
SPLINE
  5
325
100
AcDbEntity
  8
0
100
AcDbSpline
 62
9
  6
CONTINUOUS
 70
0
 71
3
 72
18
 73
14
 74
0
 42
0.0000001
 43
0.0000001
 44
0.0000000001
 40
0.0
 40
0.0
 40
0.0
 40
0.0
 40
0.0266621752
 40
0.0590104521
 40
0.0970175968
 40
0.1405733087
 40
0.1895015648
 40
0.2436026522
 40
0.3662734343
 40
0.5062141709
 40
0.6605912322
 40
0.8263615073
 40
1.0
 40
1.0
 40
1.0
 40
1.0
 10
9.3268215173
 20
4.7717030562
 30
0.0
 10
9.3267696738
 20
4.7714942031
 30
0.0
 10
9.3266858092
 20
4.7710243744
 30
0.0
 10
9.3266080609
 20
4.7702448308
 30
0.0
 10
9.326567146
 20
4.7693259753
 30
0.0
 10
9.3265634316
 20
4.7682725755
 30
0.0
 10
9.3265973316
 20
4.7670897957
 30
0.0
 10
9.326697675
 20
4.7652707619
 30
0.0
 10
9.3269242221
 20
4.7627239316
 30
0.0
 10
9.3273275452
 20
4.7593822689
 30
0.0
 10
9.3278668919
 20
4.755707896
 30
0.0
 10
9.3285298616
 20
4.7517778144
 30
0.0
 10
9.3290366985
 20
4.7490855332
 30
0.0
 10
9.3293087872
 20
4.7477107566
 30
0.0
  0
SPLINE
  5
326
100
AcDbEntity
  8
0
100
AcDbSpline
 62
9
  6
CONTINUOUS
 70
0
 71
3
 72
15
 73
11
 74
0
 42
0.0000001
 43
0.0000001
 44
0.0000000001
 40
0.0
 40
0.0
 40
0.0
 40
0.0
 40
0.1255204226
 40
0.2512254057
 40
0.376857489
 40
0.5023249898
 40
0.6274704301
 40
0.7521615607
 40
0.8763822999
 40
1.0
 40
1.0
 40
1.0
 40
1.0
 10
9.3268215173
 20
4.7717030562
 30
0.0
 10
9.3254283851
 20
4.7713287489
 30
0.0
 10
9.3226892274
 20
4.7703811571
 30
0.0
 10
9.3188218056
 20
4.7684018053
 30
0.0
 10
9.315268525
 20
4.7659015219
 30
0.0
 10
9.3121043589
 20
4.7629336562
 30
0.0
 10
9.3093953752
 20
4.7595589427
 30
0.0
 10
9.3071968964
 20
4.7558476751
 30
0.0
 10
9.3055569494
 20
4.7518777532
 30
0.0
 10
9.3048558193
 20
4.7491049827
 30
0.0
 10
9.3046086746
 20
4.7477059713
 30
0.0
  0
SPLINE
  5
327
100
AcDbEntity
  8
0
100
AcDbSpline
 62
9
  6
CONTINUOUS
 70
0
 71
3
 72
17
 73
13
 74
0
 42
0.0000001
 43
0.0000001
 44
0.0000000001
 40
0.0
 40
0.0
 40
0.0
 40
0.0
 40
0.1248252904
 40
0.187306034
 40
0.2498120595
 40
0.3748808244
 40
0.4999996475
 40
0.6251183541
 40
0.7501872038
 40
0.8126936044
 40
0.8751747096
 40
1.0
 40
1.0
 40
1.0
 40
1.0
 10
12.3151991495
 20
7.1157818915
 30
0.0
 10
12.3108286449
 20
7.1164540714
 30
0.0
 10
12.3042454746
 20
7.1173065975
 30
0.0
 10
12.295437781
 20
7.1181692005
 30
0.0
 10
12.286606269
 20
7.1188621777
 30
0.0
 10
12.2755408092
 20
7.1194209934
 30
0.0
 10
12.2622451674
 20
7.1196428619
 30
0.0
 10
12.2489495144
 20
7.1194208627
 30
0.0
 10
12.2378840867
 20
7.1188611824
 30
0.0
 10
12.2290525584
 20
7.1181680961
 30
0.0
 10
12.2202447845
 20
7.1173061036
 30
0.0
 10
12.2136615137
 20
7.1164541536
 30
0.0
 10
12.2092910259
 20
7.1157818642
 30
0.0
  0
SPLINE
  5
328
100
AcDbEntity
  8
0
100
AcDbSpline
 62
9
  6
CONTINUOUS
 70
0
 71
3
 72
13
 73
9
 74
0
 42
0.0000001
 43
0.0000001
 44
0.0000000001
 40
0.0
 40
0.0
 40
0.0
 40
0.0
 40
0.2486177715
 40
0.4982156245
 40
0.6233722351
 40
0.7487332742
 40
0.8742868898
 40
1.0
 40
1.0
 40
1.0
 40
1.0
 10
12.1051869919
 20
7.1607870719
 30
0.0
 10
12.1132861631
 20
7.1559495667
 30
0.0
 10
12.129749845
 20
7.1466385969
 30
0.0
 10
12.1510027126
 20
7.1362115834
 30
0.0
 10
12.168478188
 20
7.1288019724
 30
0.0
 10
12.1818393203
 20
7.1237769347
 30
0.0
 10
12.1954383541
 20
7.1193660903
 30
0.0
 10
12.2046513378
 20
7.1168901571
 30
0.0
 10
12.2092910259
 20
7.1157818642
 30
0.0
  0
LINE
  5
329
100
AcDbEntity
  8
0
100
AcDbLine
 62
9
  6
CONTINUOUS
 10
12.1051869919
 20
7.1607870719
 11
12.0712213853
 21
8.6987333392
  0
LINE
  5
32A
100
AcDbEntity
  8
0
100
AcDbLine
 62
9
  6
CONTINUOUS
 10
12.4193034506
 20
7.1607870719
 11
12.4532690572
 21
8.6987333392
  0
SPLINE
  5
32B
100
AcDbEntity
  8
0
100
AcDbSpline
 62
9
  6
CONTINUOUS
 70
0
 71
3
 72
13
 73
9
 74
0
 42
0.0000001
 43
0.0000001
 44
0.0000000001
 40
0.0
 40
0.0
 40
0.0
 40
0.0
 40
0.1257130985
 40
0.251266593
 40
0.3766276981
 40
0.5017843296
 40
0.7513822203
 40
1.0
 40
1.0
 40
1.0
 40
1.0
 10
12.3151991495
 20
7.1157818915
 30
0.0
 10
12.3198388152
 20
7.116890321
 30
0.0
 10
12.3290518848
 20
7.1193659613
 30
0.0
 10
12.3426509818
 20
7.1237767412
 30
0.0
 10
12.3560120713
 20
7.1288019723
 30
0.0
 10
12.3734876005
 20
7.1362115699
 30
0.0
 10
12.3947405054
 20
7.146638632
 30
0.0
 10
12.4112042547
 20
7.1559495676
 30
0.0
 10
12.4193034506
 20
7.1607870719
 30
0.0
  0
SPLINE
  5
32C
100
AcDbEntity
  8
0
100
AcDbSpline
 62
9
  6
CONTINUOUS
 70
0
 71
3
 72
15
 73
11
 74
0
 42
0.0000001
 43
0.0000001
 44
0.0000000001
 40
0.0
 40
0.0
 40
0.0
 40
0.0
 40
0.1301090342
 40
0.2595261923
 40
0.3877806943
 40
0.5144608734
 40
0.6392371374
 40
0.7618568785
 40
0.8821488183
 40
1.0
 40
1.0
 40
1.0
 40
1.0
 10
12.4532690572
 20
8.6987333392
 30
0.0
 10
12.4534084473
 20
8.7047423333
 30
0.0
 10
12.4541110937
 20
8.716722741
 30
0.0
 10
12.4564117428
 20
8.7345026894
 30
0.0
 10
12.4599223219
 20
8.7519229373
 30
0.0
 10
12.464576842
 20
8.7688500591
 30
0.0
 10
12.4703023065
 20
8.7851695431
 30
0.0
 10
12.4770147412
 20
8.8007875595
 30
0.0
 10
12.4846312106
 20
8.8156252681
 30
0.0
 10
12.4903161464
 20
8.8250558447
 30
0.0
 10
12.4932863851
 20
8.8296185739
 30
0.0
  0
SPLINE
  5
32D
100
AcDbEntity
  8
0
100
AcDbSpline
 62
9
  6
CONTINUOUS
 70
0
 71
3
 72
15
 73
11
 74
0
 42
0.0000001
 43
0.0000001
 44
0.0000000001
 40
0.0
 40
0.0
 40
0.0
 40
0.0
 40
0.130109088
 40
0.259526164
 40
0.3877807168
 40
0.5144608484
 40
0.6392371512
 40
0.7618568345
 40
0.8821486261
 40
1.0
 40
1.0
 40
1.0
 40
1.0
 10
12.0712213853
 20
8.6987333392
 30
0.0
 10
12.0710820136
 20
8.7047423355
 30
0.0
 10
12.0703787552
 20
8.7167226959
 30
0.0
 10
12.0680788627
 20
8.7345027305
 30
0.0
 10
12.0645679629
 20
8.7519229226
 30
0.0
 10
12.0599136393
 20
8.7688500896
 30
0.0
 10
12.0541880477
 20
8.7851695308
 30
0.0
 10
12.0474756699
 20
8.8007875514
 30
0.0
 10
12.0398593809
 20
8.8156253563
 30
0.0
 10
12.0341743161
 20
8.8250558592
 30
0.0
 10
12.0312040535
 20
8.8296185828
 30
0.0
  0
SPLINE
  5
32E
100
AcDbEntity
  8
0
100
AcDbSpline
 62
9
  6
CONTINUOUS
 70
0
 71
3
 72
18
 73
14
 74
0
 42
0.0000001
 43
0.0000001
 44
0.0000000001
 40
0.0
 40
0.0
 40
0.0
 40
0.0
 40
0.1537602435
 40
0.3045215763
 40
0.449366263
 40
0.5187065727
 40
0.5855538627
 40
0.710560647
 40
0.8222597087
 40
0.8725935955
 40
0.9190465735
 40
0.9615292393
 40
1.0
 40
1.0
 40
1.0
 40
1.0
 10
12.4944662062
 20
8.8820187254
 30
0.0
 10
12.4944662066
 20
8.8829899544
 30
0.0
 10
12.494425724
 20
8.8849137361
 30
0.0
 10
12.494244267
 20
8.8877471937
 30
0.0
 10
12.4939925143
 20
8.8900395863
 30
0.0
 10
12.4937311642
 20
8.8917955807
 30
0.0
 10
12.4934440758
 20
8.8934204228
 30
0.0
 10
12.4930299296
 20
8.8952938036
 30
0.0
 10
12.4925153332
 20
8.8970346577
 30
0.0
 10
12.4920539397
 20
8.8982686218
 30
0.0
 10
12.4917020464
 20
8.8990754351
 30
0.0
 10
12.4913340943
 20
8.8997917943
 30
0.0
 10
12.4910662437
 20
8.9002282479
 30
0.0
 10
12.4909290741
 20
8.9004288322
 30
0.0
  0
SPLINE
  5
32F
100
AcDbEntity
  8
0
100
AcDbSpline
 62
9
  6
CONTINUOUS
 70
0
 71
3
 72
18
 73
14
 74
0
 42
0.0000001
 43
0.0000001
 44
0.0000000001
 40
0.0
 40
0.0
 40
0.0
 40
0.0
 40
0.1537602435
 40
0.3045215763
 40
0.449366263
 40
0.5187065727
 40
0.5855538627
 40
0.710560647
 40
0.8222597087
 40
0.8725935955
 40
0.9190465735
 40
0.9615292393
 40
1.0
 40
1.0
 40
1.0
 40
1.0
 10
12.0300242364
 20
8.8820187254
 30
0.0
 10
12.0300242359
 20
8.8829899544
 30
0.0
 10
12.0300647186
 20
8.8849137361
 30
0.0
 10
12.0302461756
 20
8.8877471937
 30
0.0
 10
12.0304979282
 20
8.8900395863
 30
0.0
 10
12.0307592784
 20
8.8917955807
 30
0.0
 10
12.0310463668
 20
8.8934204228
 30
0.0
 10
12.0314605129
 20
8.8952938036
 30
0.0
 10
12.0319751093
 20
8.8970346577
 30
0.0
 10
12.0324365028
 20
8.8982686218
 30
0.0
 10
12.0327883961
 20
8.8990754351
 30
0.0
 10
12.0331563483
 20
8.8997917943
 30
0.0
 10
12.0334241988
 20
8.9002282479
 30
0.0
 10
12.0335613685
 20
8.9004288322
 30
0.0
  0
SPLINE
  5
330
100
AcDbEntity
  8
0
100
AcDbSpline
 62
9
  6
CONTINUOUS
 70
0
 71
3
 72
9
 73
5
 74
0
 42
0.0000001
 43
0.0000001
 44
0.0000000001
 40
0.0
 40
0.0
 40
0.0
 40
0.0
 40
0.4913671093
 40
1.0
 40
1.0
 40
1.0
 40
1.0
 10
12.4909290741
 20
8.9004288322
 30
0.0
 10
12.4880636396
 20
8.9015906277
 30
0.0
 10
12.4824512051
 20
8.9045341111
 30
0.0
 10
12.477535564
 20
8.9085452694
 30
0.0
 10
12.475282663
 20
8.9108187254
 30
0.0
  0
SPLINE
  5
331
100
AcDbEntity
  8
0
100
AcDbSpline
 62
9
  6
CONTINUOUS
 70
0
 71
3
 72
9
 73
5
 74
0
 42
0.0000001
 43
0.0000001
 44
0.0000000001
 40
0.0
 40
0.0
 40
0.0
 40
0.0
 40
0.4913675793
 40
1.0
 40
1.0
 40
1.0
 40
1.0
 10
12.0335613953
 20
8.9004288322
 30
0.0
 10
12.0364268328
 20
8.9015906334
 30
0.0
 10
12.0420392713
 20
8.9045340957
 30
0.0
 10
12.0469549738
 20
8.9085452111
 30
0.0
 10
12.0492078147
 20
8.9108187254
 30
0.0
  0
SPLINE
  5
332
100
AcDbEntity
  8
0
100
AcDbSpline
 62
9
  6
CONTINUOUS
 70
0
 71
3
 72
19
 73
15
 74
0
 42
0.0000001
 43
0.0000001
 44
0.0000000001
 40
0.0
 40
0.0
 40
0.0
 40
0.0
 40
0.1434726322
 40
0.280476733
 40
0.3466671082
 40
0.4113794975
 40
0.4746893066
 40
0.536689574
 40
0.6571234908
 40
0.7737001371
 40
0.8309219375
 40
0.8876075532
 40
0.9439128737
 40
1.0
 40
1.0
 40
1.0
 40
1.0
 10
12.475282663
 20
8.9108187254
 30
0.0
 10
12.4734589136
 20
8.9135666378
 30
0.0
 10
12.4696296901
 20
8.9187694873
 30
0.0
 10
12.4642489234
 20
8.9246699174
 30
0.0
 10
12.4597274082
 20
8.9288554373
 30
0.0
 10
12.456280465
 20
8.9316966451
 30
0.0
 10
12.4527490089
 20
8.9342721449
 30
0.0
 10
12.4479884794
 20
8.937318561
 30
0.0
 10
12.4418626404
 20
8.9404793421
 30
0.0
 10
12.435477015
 20
8.9427738181
 30
0.0
 10
12.4303304321
 20
8.9440469684
 30
0.0
 10
12.42647329
 20
8.9447235008
 30
0.0
 10
12.4226046991
 20
8.9451271393
 30
0.0
 10
12.4200202944
 20
8.9452175682
 30
0.0
 10
12.4187310056
 20
8.9452187254
 30
0.0
  0
SPLINE
  5
333
100
AcDbEntity
  8
0
100
AcDbSpline
 62
9
  6
CONTINUOUS
 70
0
 71
3
 72
19
 73
15
 74
0
 42
0.0000001
 43
0.0000001
 44
0.0000000001
 40
0.0
 40
0.0
 40
0.0
 40
0.0
 40
0.1434719814
 40
0.2804770033
 40
0.3466680705
 40
0.4113805211
 40
0.474689631
 40
0.536689374
 40
0.6571238051
 40
0.7736999059
 40
0.8309210784
 40
0.8876065314
 40
0.9439124328
 40
1.0
 40
1.0
 40
1.0
 40
1.0
 10
12.0492077795
 20
8.9108187254
 30
0.0
 10
12.0510315291
 20
8.9135666195
 30
0.0
 10
12.054860606
 20
8.9187695863
 30
0.0
 10
12.0602415269
 20
8.9246699198
 30
0.0
 10
12.0647631381
 20
8.9288553886
 30
0.0
 10
12.0682100837
 20
8.9316965924
 30
0.0
 10
12.0717414715
 20
8.9342721386
 30
0.0
 10
12.0765019584
 20
8.9373185949
 30
0.0
 10
12.0826278195
 20
8.9404793066
 30
0.0
 10
12.089013413
 20
8.9427738132
 30
0.0
 10
12.0941599616
 20
8.9440469765
 30
0.0
 10
12.0980170988
 20
8.9447235086
 30
0.0
 10
12.1018857102
 20
8.9451271394
 30
0.0
 10
12.1044701381
 20
8.9452175682
 30
0.0
 10
12.1057594369
 20
8.9452187254
 30
0.0
  0
LINE
  5
334
100
AcDbEntity
  8
0
100
AcDbLine
 62
9
  6
CONTINUOUS
 10
12.0756778335
 20
7.115781856
 11
12.0735971191
 21
7.119568074
  0
SPLINE
  5
335
100
AcDbEntity
  8
0
100
AcDbSpline
 62
9
  6
CONTINUOUS
 70
0
 71
3
 72
15
 73
11
 74
0
 42
0.0000001
 43
0.0000001
 44
0.0000000001
 40
0.0
 40
0.0
 40
0.0
 40
0.0
 40
0.1253583958
 40
0.250948979
 40
0.3765639997
 40
0.5020549294
 40
0.6272537258
 40
0.752021841
 40
0.8762953002
 40
1.0
 40
1.0
 40
1.0
 40
1.0
 10
9.3145081897
 20
4.7902684959
 30
0.0
 10
9.3129586638
 20
4.7898319189
 30
0.0
 10
9.3099207066
 20
4.7887099718
 30
0.0
 10
9.3056864176
 20
4.7863350535
 30
0.0
 10
9.301873504
 20
4.7833252383
 30
0.0
 10
9.2985819154
 20
4.7797598856
 30
0.0
 10
9.2958972886
 20
4.775730617
 30
0.0
 10
9.2938888252
 20
4.7713417528
 30
0.0
 10
9.2926101367
 20
4.7667085305
 30
0.0
 10
9.2922652063
 20
4.763526128
 30
0.0
 10
9.2922231966
 20
4.7619380663
 30
0.0
  0
SPLINE
  5
336
100
AcDbEntity
  8
0
100
AcDbSpline
 62
9
  6
CONTINUOUS
 70
0
 71
3
 72
53
 73
49
 74
0
 42
0.0000001
 43
0.0000001
 44
0.0000000001
 40
0.0
 40
0.0
 40
0.0
 40
0.0
 40
0.0084843083
 40
0.0174289919
 40
0.0268651856
 40
0.0368160622
 40
0.0472983291
 40
0.0583226823
 40
0.0698950597
 40
0.0820168875
 40
0.0946860552
 40
0.1078970218
 40
0.1216415391
 40
0.1359086963
 40
0.1506854371
 40
0.1659566009
 40
0.197910818
 40
0.2316193192
 40
0.2669058745
 40
0.3035762582
 40
0.341421441
 40
0.3802204156
 40
0.4197427898
 40
0.4597512327
 40
0.50000383
 40
0.540256388
 40
0.580264713
 40
0.6197868919
 40
0.6585855957
 40
0.6964304349
 40
0.7331004055
 40
0.7683864824
 40
0.8020944455
 40
0.8340480709
 40
0.8493189211
 40
0.8640953382
 40
0.8783621623
 40
0.892106339
 40
0.9053169585
 40
0.9179857749
 40
0.9301072487
 40
0.941679272
 40
0.9527032732
 40
0.9631851935
 40
0.9731357323
 40
0.9825716008
 40
0.9915159767
 40
1.0
 40
1.0
 40
1.0
 40
1.0
 10
10.4341930929
 20
11.2721267689
 30
0.0
 10
10.4331453144
 20
11.2735671809
 30
0.0
 10
10.4308644336
 20
11.2764342771
 30
0.0
 10
10.4270262132
 20
11.2805729939
 30
0.0
 10
10.4226914461
 20
11.2846519439
 30
0.0
 10
10.4178680725
 20
11.288664525
 30
0.0
 10
10.4125640348
 20
11.2926042879
 30
0.0
 10
10.4067884202
 20
11.2964649966
 30
0.0
 10
10.4005508642
 20
11.3002401349
 30
0.0
 10
10.3938619731
 20
11.3039235623
 30
0.0
 10
10.386733012
 20
11.3075089477
 30
0.0
 10
10.3791761213
 20
11.3109903361
 30
0.0
 10
10.3712041214
 20
11.3143617076
 30
0.0
 10
10.3628306262
 20
11.3176173686
 30
0.0
 10
10.3540698886
 20
11.3207517409
 30
0.0
 10
10.3417052314
 20
11.3248234963
 30
0.0
 10
10.3253783657
 20
11.3295512282
 30
0.0
 10
10.3047846382
 20
11.3345792718
 30
0.0
 10
10.28304309
 20
11.3390097124
 30
0.0
 10
10.2603025686
 20
11.342811866
 30
0.0
 10
10.23671846
 20
11.3459593452
 30
0.0
 10
10.2124522848
 20
11.3484303071
 30
0.0
 10
10.187670324
 20
11.3502075997
 30
0.0
 10
10.1625424954
 20
11.3512788872
 30
0.0
 10
10.1372411386
 20
11.351636734
 30
0.0
 10
10.1119398098
 20
11.3512786566
 30
0.0
 10
10.086812065
 20
11.3502071401
 30
0.0
 10
10.0620302432
 20
11.3484296215
 30
0.0
 10
10.0377642614
 20
11.3459584386
 30
0.0
 10
10.014180399
 20
11.3428107446
 30
0.0
 10
9.991440175
 20
11.339008384
 30
0.0
 10
9.9696989731
 20
11.3345777455
 30
0.0
 10
9.9491056386
 20
11.3295495147
 30
0.0
 10
9.9327791318
 20
11.3248216315
 30
0.0
 10
9.9204147843
 20
11.3207497604
 30
0.0
 10
9.9116542916
 20
11.3176153082
 30
0.0
 10
9.9032810507
 20
11.3143595707
 30
0.0
 10
9.8953093141
 20
11.3109881265
 30
0.0
 10
9.8877526953
 20
11.307506669
 30
0.0
 10
9.8806240141
 20
11.3039212185
 30
0.0
 10
9.8739354104
 20
11.3002377298
 30
0.0
 10
9.8676981488
 20
11.2964625344
 30
0.0
 10
9.8619228353
 20
11.2926017726
 30
0.0
 10
9.8566191046
 20
11.2886619609
 30
0.0
 10
9.8517960436
 20
11.2846493348
 30
0.0
 10
9.847461594
 20
11.2805703442
 30
0.0
 10
9.8436236959
 20
11.2764315907
 30
0.0
 10
9.8413430398
 20
11.2735644742
 30
0.0
 10
9.8402953747
 20
11.2721240536
 30
0.0
  0
LINE
  5
337
100
AcDbEntity
  8
0
100
AcDbLine
 62
9
  6
CONTINUOUS
 10
12.0901138901
 20
7.1607870719
 11
12.0569798256
 21
8.6987333392
  0
LINE
  5
338
100
AcDbEntity
  8
0
100
AcDbLine
 62
9
  6
CONTINUOUS
 10
12.4508933235
 20
7.119568074
 11
12.4488126123
 21
7.1157818625
  0
SPLINE
  5
339
100
AcDbEntity
  8
0
100
AcDbSpline
 62
9
  6
CONTINUOUS
 70
0
 71
3
 72
14
 73
10
 74
0
 42
0.0000001
 43
0.0000001
 44
0.0000000001
 40
0.0
 40
0.0
 40
0.0
 40
0.0
 40
0.1312822
 40
0.2617140433
 40
0.3907128046
 40
0.5177760434
 40
0.6425020942
 40
0.7645916768
 40
1.0
 40
1.0
 40
1.0
 40
1.0
 10
12.0569798256
 20
8.6987333392
 30
0.0
 10
12.056853775
 20
8.7047407453
 30
0.0
 10
12.0562210492
 20
8.7167122252
 30
0.0
 10
12.0541371478
 20
8.7344847696
 30
0.0
 10
12.0509597784
 20
8.7518991811
 30
0.0
 10
12.0467410289
 20
8.7688212359
 30
0.0
 10
12.0415445469
 20
8.7851390089
 30
0.0
 10
12.0335070302
 20
8.8057048852
 30
0.0
 10
12.0260905346
 20
8.8203594401
 30
0.0
 10
12.0205806299
 20
8.8296185739
 30
0.0
  0
SPLINE
  5
33A
100
AcDbEntity
  8
0
100
AcDbSpline
 62
9
  6
CONTINUOUS
 70
0
 71
3
 72
15
 73
11
 74
0
 42
0.0000001
 43
0.0000001
 44
0.0000000001
 40
0.0
 40
0.0
 40
0.0
 40
0.0
 40
0.1268414389
 40
0.25345831
 40
0.3796439223
 40
0.5052262827
 40
0.6300825759
 40
0.7541500004
 40
0.877432164
 40
1.0
 40
1.0
 40
1.0
 40
1.0
 10
12.016690903
 20
8.8820187254
 30
0.0
 10
12.0166909026
 20
8.8829921155
 30
0.0
 10
12.0168271682
 20
8.8849399211
 30
0.0
 10
12.0174362446
 20
8.8877982879
 30
0.0
 10
12.0184371226
 20
8.8905345274
 30
0.0
 10
12.0198087388
 20
8.8930897056
 30
0.0
 10
12.0215221015
 20
8.8954095401
 30
0.0
 10
12.0235411937
 20
8.8974444954
 30
0.0
 10
12.0258224329
 20
8.8991506153
 30
0.0
 10
12.0274918315
 20
8.9000474471
 30
0.0
 10
12.0283516354
 20
8.9004288322
 30
0.0
  0
SPLINE
  5
33B
100
AcDbEntity
  8
0
100
AcDbSpline
 62
9
  6
CONTINUOUS
 70
0
 71
3
 72
11
 73
7
 74
0
 42
0.0000001
 43
0.0000001
 44
0.0000000001
 40
0.0
 40
0.0
 40
0.0
 40
0.0
 40
0.2310035201
 40
0.4734204816
 40
0.7291807956
 40
1.0
 40
1.0
 40
1.0
 40
1.0
 10
12.0283516354
 20
8.9004288322
 30
0.0
 10
12.0293555932
 20
8.9010146579
 30
0.0
 10
12.0313392983
 20
8.9023458649
 30
0.0
 10
12.0341321124
 20
8.9047371688
 30
0.0
 10
12.0367791447
 20
8.9075697467
 30
0.0
 10
12.0383762503
 20
8.9096909833
 30
0.0
 10
12.0391412455
 20
8.9108187254
 30
0.0
  0
SPLINE
  5
33C
100
AcDbEntity
  8
0
100
AcDbSpline
 62
9
  6
CONTINUOUS
 70
0
 71
3
 72
16
 73
12
 74
0
 42
0.0000001
 43
0.0000001
 44
0.0000000001
 40
0.0
 40
0.0
 40
0.0
 40
0.0
 40
0.1520464102
 40
0.301405392
 40
0.4452781365
 40
0.5811542261
 40
0.70659801
 40
0.8194135865
 40
0.9177370318
 40
0.9609669298
 40
1.0
 40
1.0
 40
1.0
 40
1.0
 10
11.0053494668
 20
4.6466120924
 30
0.0
 10
11.0053494668
 20
4.6479715772
 30
0.0
 10
11.0053192668
 20
4.6506666188
 30
0.0
 10
11.0051840779
 20
4.6546460084
 30
0.0
 10
11.0049615366
 20
4.658476718
 30
0.0
 10
11.0046562256
 20
4.6620872195
 30
0.0
 10
11.0042740888
 20
4.6654111944
 30
0.0
 10
11.00382277
 20
4.668387321
 30
0.0
 10
11.0033802026
 20
4.6706195458
 30
0.0
 10
11.002989307
 20
4.6721864674
 30
0.0
 10
11.0027841026
 20
4.6728930833
 30
0.0
 10
11.0026783916
 20
4.6732256931
 30
0.0
  0
SPLINE
  5
33D
100
AcDbEntity
  8
0
100
AcDbSpline
 62
9
  6
CONTINUOUS
 70
0
 71
3
 72
15
 73
11
 74
0
 42
0.0000001
 43
0.0000001
 44
0.0000000001
 40
0.0
 40
0.0
 40
0.0
 40
0.0
 40
0.1336311947
 40
0.2643646434
 40
0.3923299972
 40
0.5177516858
 40
0.640893144
 40
0.7620728808
 40
0.8816505871
 40
1.0
 40
1.0
 40
1.0
 40
1.0
 10
12.0391412455
 20
8.9108187254
 30
0.0
 10
12.0407758382
 20
8.9129356207
 30
0.0
 10
12.0441771963
 20
8.9169974608
 30
0.0
 10
12.0497004413
 20
8.9225908423
 30
0.0
 10
12.0555478875
 20
8.9275962218
 30
0.0
 10
12.0616773745
 20
8.9319962622
 30
0.0
 10
12.0680488209
 20
8.9357786331
 30
0.0
 10
12.0746230865
 20
8.9389353138
 30
0.0
 10
12.0813617948
 20
8.9414607316
 30
0.0
 10
12.0859597874
 20
8.9427281985
 30
0.0
 10
12.0882693099
 20
8.9432542741
 30
0.0
  0
SPLINE
  5
33E
100
AcDbEntity
  8
0
100
AcDbSpline
 62
9
  6
CONTINUOUS
 70
0
 71
3
 72
33
 73
29
 74
0
 42
0.0000001
 43
0.0000001
 44
0.0000000001
 40
0.0
 40
0.0
 40
0.0
 40
0.0
 40
0.0150462325
 40
0.0303619219
 40
0.0462003496
 40
0.0627861035
 40
0.0803083506
 40
0.0989196887
 40
0.1187376965
 40
0.1398495706
 40
0.1623158937
 40
0.1861750319
 40
0.2114469541
 40
0.23813554
 40
0.2662318977
 40
0.2957154964
 40
0.3265562118
 40
0.3587156174
 40
0.3921475401
 40
0.4267996938
 40
0.4626136267
 40
0.4995259041
 40
0.5763644108
 40
0.6567286125
 40
0.7399736467
 40
0.8254144526
 40
0.9123339194
 40
1.0
 40
1.0
 40
1.0
 40
1.0
 10
10.3872452213
 20
12.2237640479
 30
0.0
 10
10.3872452213
 20
12.2251661573
 30
0.0
 10
10.3870400501
 20
12.2279995468
 30
0.0
 10
10.3861217846
 20
12.232219159
 30
0.0
 10
10.3845973125
 20
12.236411931
 30
0.0
 10
10.3824740224
 20
12.2405657322
 30
0.0
 10
10.3797601288
 20
12.2446716962
 30
0.0
 10
10.3764639533
 20
12.2487212485
 30
0.0
 10
10.3725945563
 20
12.2527064716
 30
0.0
 10
10.3681614078
 20
12.256619088
 30
0.0
 10
10.3631751216
 20
12.2604508474
 30
0.0
 10
10.3576474138
 20
12.2641933655
 30
0.0
 10
10.3515911771
 20
12.267838075
 30
0.0
 10
10.3450207061
 20
12.2713767108
 30
0.0
 10
10.3379514424
 20
12.2748008592
 30
0.0
 10
10.3304001603
 20
12.2781024917
 30
0.0
 10
10.3223848052
 20
12.2812737466
 30
0.0
 10
10.313924465
 20
12.2843069559
 30
0.0
 10
10.3050393767
 20
12.2871949531
 30
0.0
 10
10.2957507892
 20
12.2899306551
 30
0.0
 10
10.2860809452
 20
12.2925076045
 30
0.0
 10
10.2725287833
 20
12.2957669638
 30
0.0
 10
10.2547980812
 20
12.2993814495
 30
0.0
 10
10.2326706424
 20
12.3029428884
 30
0.0
 10
10.209627387
 20
12.3057495779
 30
0.0
 10
10.1858895591
 20
12.3077741375
 30
0.0
 10
10.1616849362
 20
12.3089968812
 30
0.0
 10
10.1454145376
 20
12.3092690837
 30
0.0
 10
10.1372452213
 20
12.3092690837
 30
0.0
  0
SPLINE
  5
33F
100
AcDbEntity
  8
0
100
AcDbSpline
 62
9
  6
CONTINUOUS
 70
0
 71
3
 72
15
 73
11
 74
0
 42
0.0000001
 43
0.0000001
 44
0.0000000001
 40
0.0
 40
0.0
 40
0.0
 40
0.0
 40
0.1255100096
 40
0.2510048077
 40
0.3763379675
 40
0.5015153475
 40
0.6264848738
 40
0.7512102504
 40
0.8757401022
 40
1.0
 40
1.0
 40
1.0
 40
1.0
 10
9.2445145389
 20
4.6466124403
 30
0.0
 10
9.2445145386
 20
4.6479749197
 30
0.0
 10
9.2446983504
 20
4.6507032399
 30
0.0
 10
9.2455192408
 20
4.6547172932
 30
0.0
 10
9.2468714488
 20
4.6585818446
 30
0.0
 10
9.248728716
 20
4.6622241055
 30
0.0
 10
9.251057546
 20
4.6655765179
 30
0.0
 10
9.2538144678
 20
4.6685775642
 30
0.0
 10
9.2569478885
 20
4.6711699002
 30
0.0
 10
9.2592528139
 20
4.6725966542
 30
0.0
 10
9.2604458898
 20
4.6732260384
 30
0.0
  0
SPLINE
  5
340
100
AcDbEntity
  8
0
100
AcDbSpline
 62
9
  6
CONTINUOUS
 70
0
 71
3
 72
10
 73
6
 74
0
 42
0.0000001
 43
0.0000001
 44
0.0000000001
 40
0.0
 40
0.0
 40
0.0
 40
0.0
 40
0.3864417742
 40
0.6666868218
 40
1.0
 40
1.0
 40
1.0
 40
1.0
 10
9.2478387041
 20
4.8259087883
 30
0.0
 10
9.2533289833
 20
4.8175143209
 30
0.0
 10
9.2629746417
 20
4.803145268
 30
0.0
 10
9.2778213491
 20
4.7818540054
 30
0.0
 10
9.2871214539
 20
4.768925199
 30
0.0
 10
9.2922231966
 20
4.7619380663
 30
0.0
  0
SPLINE
  5
341
100
AcDbEntity
  8
0
100
AcDbSpline
 62
9
  6
CONTINUOUS
 70
0
 71
3
 72
33
 73
29
 74
0
 42
0.0000001
 43
0.0000001
 44
0.0000000001
 40
0.0
 40
0.0
 40
0.0
 40
0.0
 40
0.0004426986
 40
0.0009952762
 40
0.0017659311
 40
0.0039532491
 40
0.0069882104
 40
0.0108543791
 40
0.015535326
 40
0.0210146288
 40
0.0272758722
 40
0.0420785527
 40
0.0598122049
 40
0.080345797
 40
0.1035484433
 40
0.1292894169
 40
0.1574360889
 40
0.2202320226
 40
0.2903417216
 40
0.3661422544
 40
0.4460234158
 40
0.5283923746
 40
0.6117219059
 40
0.6947046575
 40
0.7761277735
 40
0.8548377708
 40
0.9297703715
 40
1.0
 40
1.0
 40
1.0
 40
1.0
 10
9.2422452213
 20
4.8438451483
 30
0.0
 10
9.2422452203
 20
4.8438479361
 30
0.0
 10
9.2422469781
 20
4.8438330226
 30
0.0
 10
9.2422484368
 20
4.8438265618
 30
0.0
 10
9.2422523094
 20
4.8438022074
 30
0.0
 10
9.2422584424
 20
4.8437668808
 30
0.0
 10
9.2422681378
 20
4.8437095633
 30
0.0
 10
9.2422804782
 20
4.843638031
 30
0.0
 10
9.2422956045
 20
4.8435508825
 30
0.0
 10
9.2423134621
 20
4.8434490681
 30
0.0
 10
9.2423426051
 20
4.843284461
 30
0.0
 10
9.2423858389
 20
4.8430440088
 30
0.0
 10
9.2424461269
 20
4.8427152921
 30
0.0
 10
9.2425173486
 20
4.8423348099
 30
0.0
 10
9.2425994878
 20
4.8419050725
 30
0.0
 10
9.2426925346
 20
4.8414286148
 30
0.0
 10
9.2428363388
 20
4.8407080367
 30
0.0
 10
9.2430420021
 20
4.8397149013
 30
0.0
 10
9.2433238714
 20
4.8384311693
 30
0.0
 10
9.2436489708
 20
4.837046907
 30
0.0
 10
9.2440171991
 20
4.8355936779
 30
0.0
 10
9.2444284811
 20
4.8341027507
 30
0.0
 10
9.2448832417
 20
4.8326040189
 30
0.0
 10
9.2453811038
 20
4.8311252426
 30
0.0
 10
9.2459219763
 20
4.829692584
 30
0.0
 10
9.2465059257
 20
4.8283316806
 30
0.0
 10
9.2471329649
 20
4.827068149
 30
0.0
 10
9.2475966483
 20
4.8262789195
 30
0.0
 10
9.2478387041
 20
4.8259087883
 30
0.0
  0
SPLINE
  5
342
100
AcDbEntity
  8
0
100
AcDbSpline
 62
9
  6
CONTINUOUS
 70
0
 71
3
 72
9
 73
5
 74
0
 42
0.0000001
 43
0.0000001
 44
0.0000000001
 40
0.0
 40
0.0
 40
0.0
 40
0.0
 40
0.49905376
 40
1.0
 40
1.0
 40
1.0
 40
1.0
 10
12.0991440489
 20
7.1478617735
 30
0.0
 10
12.105870974
 20
7.1438814036
 30
0.0
 10
12.1195167276
 20
7.1361825942
 30
0.0
 10
12.133520826
 20
7.1291500414
 30
0.0
 10
12.1406293104
 20
7.1258291146
 30
0.0
  0
LINE
  5
343
100
AcDbEntity
  8
0
100
AcDbLine
 62
9
  6
CONTINUOUS
 10
12.4631920343
 20
7.0945541006
 11
12.4597054733
 21
7.0923028374
  0
SPLINE
  5
344
100
AcDbEntity
  8
0
100
AcDbSpline
 62
9
  6
CONTINUOUS
 70
0
 71
3
 72
13
 73
9
 74
0
 42
0.0000001
 43
0.0000001
 44
0.0000000001
 40
0.0
 40
0.0
 40
0.0
 40
0.0
 40
0.2645166393
 40
0.5167707894
 40
0.6395131186
 40
0.7606212233
 40
0.8806077249
 40
1.0
 40
1.0
 40
1.0
 40
1.0
 10
9.820307701
 20
11.4783077372
 30
0.0
 10
9.819268655
 20
11.4800632286
 30
0.0
 10
9.8174241597
 20
11.4836079293
 30
0.0
 10
9.8157078055
 20
11.4882476639
 30
0.0
 10
9.8147558377
 20
11.491956074
 30
0.0
 10
9.8142498472
 20
11.4947184658
 30
0.0
 10
9.8139460677
 20
11.4974841846
 30
0.0
 10
9.8138785534
 20
11.4993309819
 30
0.0
 10
9.8138786838
 20
11.5002517309
 30
0.0
  0
LINE
  5
345
100
AcDbEntity
  8
0
100
AcDbLine
 62
9
  6
CONTINUOUS
 10
12.0647849743
 20
7.0923028322
 11
12.0612984082
 21
7.0945541006
  0
SPLINE
  5
346
100
AcDbEntity
  8
0
100
AcDbSpline
 62
9
  6
CONTINUOUS
 70
0
 71
3
 72
15
 73
11
 74
0
 42
0.0000001
 43
0.0000001
 44
0.0000000001
 40
0.0
 40
0.0
 40
0.0
 40
0.0
 40
0.189934244
 40
0.3604743971
 40
0.5118077183
 40
0.6442904031
 40
0.758452735
 40
0.8550529903
 40
0.9351405375
 40
1.0
 40
1.0
 40
1.0
 40
1.0
 10
12.0914626148
 20
7.0866602104
 30
0.0
 10
12.0897136979
 20
7.0866603231
 30
0.0
 10
12.0863936107
 20
7.0867404906
 30
0.0
 10
12.0816930887
 20
7.0871126501
 30
0.0
 10
12.0775472039
 20
7.0876948226
 30
0.0
 10
12.0739574361
 20
7.0884464259
 30
0.0
 10
12.0709172382
 20
7.0893221788
 30
0.0
 10
12.0684106669
 20
7.0902751988
 30
0.0
 10
12.0664098095
 20
7.0912538395
 30
0.0
 10
12.0652730078
 20
7.0919585895
 30
0.0
 10
12.0647849743
 20
7.0923028322
 30
0.0
  0
SPLINE
  5
347
100
AcDbEntity
  8
0
100
AcDbSpline
 62
9
  6
CONTINUOUS
 70
0
 71
3
 72
13
 73
9
 74
0
 42
0.0000001
 43
0.0000001
 44
0.0000000001
 40
0.0
 40
0.0
 40
0.0
 40
0.0
 40
0.2651199534
 40
0.5232590271
 40
0.6483027075
 40
0.7698526942
 40
0.8872999999
 40
1.0
 40
1.0
 40
1.0
 40
1.0
 10
12.2118975919
 20
7.0923028375
 30
0.0
 10
12.2056713896
 20
7.0916948707
 30
0.0
 10
12.1933944204
 20
7.0903817882
 30
0.0
 10
12.1781801908
 20
7.0887835402
 30
0.0
 10
12.1663149694
 20
7.0877494595
 30
0.0
 10
12.1577453366
 20
7.0871503575
 30
0.0
 10
12.1494550156
 20
7.0867597706
 30
0.0
 10
12.1440241845
 20
7.0866602259
 30
0.0
 10
12.1413648965
 20
7.0866602123
 30
0.0
  0
SPLINE
  5
348
100
AcDbEntity
  8
0
100
AcDbSpline
 62
9
  6
CONTINUOUS
 70
0
 71
3
 72
17
 73
13
 74
0
 42
0.0000001
 43
0.0000001
 44
0.0000000001
 40
0.0
 40
0.0
 40
0.0
 40
0.0
 40
0.1244785891
 40
0.1868994391
 40
0.2494098151
 40
0.3746286006
 40
0.4999998356
 40
0.6253710697
 40
0.7505899729
 40
0.8131004787
 40
0.875521388
 40
1.0
 40
1.0
 40
1.0
 40
1.0
 10
12.3125926563
 20
7.0923028617
 30
0.0
 10
12.30842863
 20
7.0927093043
 30
0.0
 10
12.3021663282
 20
7.0932192062
 30
0.0
 10
12.2937989544
 20
7.0937301671
 30
0.0
 10
12.2854010048
 20
7.0941396397
 30
0.0
 10
12.2748816712
 20
7.0944679694
 30
0.0
 10
12.2622451435
 20
7.0945976846
 30
0.0
 10
12.2496086103
 20
7.0944679637
 30
0.0
 10
12.2390892744
 20
7.0941394513
 30
0.0
 10
12.2306913142
 20
7.0937299971
 30
0.0
 10
12.222323925
 20
7.0932191825
 30
0.0
 10
12.2160616117
 20
7.0927093539
 30
0.0
 10
12.2118975919
 20
7.0923028375
 30
0.0
  0
SPLINE
  5
349
100
AcDbEntity
  8
0
100
AcDbSpline
 62
9
  6
CONTINUOUS
 70
0
 71
3
 72
13
 73
9
 74
0
 42
0.0000001
 43
0.0000001
 44
0.0000000001
 40
0.0
 40
0.0
 40
0.0
 40
0.0
 40
0.1127001834
 40
0.2301472605
 40
0.3516971244
 40
0.4767408632
 40
0.7348801279
 40
1.0
 40
1.0
 40
1.0
 40
1.0
 10
12.3831256532
 20
7.0866601914
 30
0.0
 10
12.3804663495
 20
7.0866602876
 30
0.0
 10
12.3750354981
 20
7.086759806
 30
0.0
 10
12.366745146
 20
7.0871504157
 30
0.0
 10
12.3581754816
 20
7.0877494815
 30
0.0
 10
12.3463102089
 20
7.0887835936
 30
0.0
 10
12.3310959112
 20
7.0903818464
 30
0.0
 10
12.3188188855
 20
7.0916949178
 30
0.0
 10
12.3125926563
 20
7.0923028617
 30
0.0
  0
SPLINE
  5
34A
100
AcDbEntity
  8
0
100
AcDbSpline
 62
9
  6
CONTINUOUS
 70
0
 71
3
 72
15
 73
11
 74
0
 42
0.0000001
 43
0.0000001
 44
0.0000000001
 40
0.0
 40
0.0
 40
0.0
 40
0.0
 40
0.064859943
 40
0.1449465821
 40
0.2415447299
 40
0.3557044237
 40
0.4881903082
 40
0.6395255841
 40
0.8100624816
 40
1.0
 40
1.0
 40
1.0
 40
1.0
 10
12.4597054733
 20
7.0923028374
 30
0.0
 10
12.4592174412
 20
7.0919585811
 30
0.0
 10
12.458080616
 20
7.0912538646
 30
0.0
 10
12.4560797898
 20
7.0902752051
 30
0.0
 10
12.4535733135
 20
7.0893220638
 30
0.0
 10
12.4505331743
 20
7.0884460894
 30
0.0
 10
12.446943296
 20
7.0876947962
 30
0.0
 10
12.4427973786
 20
7.0871127147
 30
0.0
 10
12.4380968443
 20
7.0867402311
 30
0.0
 10
12.4347767338
 20
7.0866602199
 30
0.0
 10
12.4330277803
 20
7.0866601994
 30
0.0
  0
SPLINE
  5
34B
100
AcDbEntity
  8
0
100
AcDbSpline
 62
9
  6
CONTINUOUS
 70
0
 71
3
 72
9
 73
5
 74
0
 42
0.0000001
 43
0.0000001
 44
0.0000000001
 40
0.0
 40
0.0
 40
0.0
 40
0.0
 40
0.5009497341
 40
1.0
 40
1.0
 40
1.0
 40
1.0
 10
12.3838613168
 20
7.1258291435
 30
0.0
 10
12.3909698567
 20
7.1291500104
 30
0.0
 10
12.4049738135
 20
7.1361827212
 30
0.0
 10
12.4186195403
 20
7.143881448
 30
0.0
 10
12.4253463936
 20
7.1478617735
 30
0.0
  0
SPLINE
  5
34C
100
AcDbEntity
  8
0
100
AcDbSpline
 62
9
  6
CONTINUOUS
 70
0
 71
3
 72
33
 73
29
 74
0
 42
0.0000001
 43
0.0000001
 44
0.0000000001
 40
0.0
 40
0.0
 40
0.0
 40
0.0
 40
0.0876660806
 40
0.1745855474
 40
0.2600263533
 40
0.3432713875
 40
0.4236355892
 40
0.5004740959
 40
0.5373863733
 40
0.5732003062
 40
0.6078524599
 40
0.6412843826
 40
0.6734437882
 40
0.7042845036
 40
0.7337681023
 40
0.76186446
 40
0.7885530459
 40
0.8138249681
 40
0.8376841063
 40
0.8601504294
 40
0.8812623035
 40
0.9010803113
 40
0.9196916494
 40
0.9372138965
 40
0.9537996504
 40
0.9696380781
 40
0.9849537675
 40
1.0
 40
1.0
 40
1.0
 40
1.0
 10
10.1372452213
 20
12.3092690837
 30
0.0
 10
10.1290759049
 20
12.3092690837
 30
0.0
 10
10.1128055064
 20
12.3089968812
 30
0.0
 10
10.0886008835
 20
12.3077741375
 30
0.0
 10
10.0648630555
 20
12.3057495779
 30
0.0
 10
10.0418198002
 20
12.3029428884
 30
0.0
 10
10.0196923613
 20
12.2993814495
 30
0.0
 10
10.0019616593
 20
12.2957669638
 30
0.0
 10
9.9884094974
 20
12.2925076045
 30
0.0
 10
9.9787396533
 20
12.2899306551
 30
0.0
 10
9.9694510658
 20
12.2871949531
 30
0.0
 10
9.9605659776
 20
12.2843069559
 30
0.0
 10
9.9521056373
 20
12.2812737466
 30
0.0
 10
9.9440902822
 20
12.2781024917
 30
0.0
 10
9.9365390002
 20
12.2748008592
 30
0.0
 10
9.9294697365
 20
12.2713767108
 30
0.0
 10
9.9228992655
 20
12.267838075
 30
0.0
 10
9.9168430288
 20
12.2641933655
 30
0.0
 10
9.9113153209
 20
12.2604508474
 30
0.0
 10
9.9063290348
 20
12.256619088
 30
0.0
 10
9.9018958863
 20
12.2527064716
 30
0.0
 10
9.8980264892
 20
12.2487212485
 30
0.0
 10
9.8947303137
 20
12.2446716962
 30
0.0
 10
9.8920164201
 20
12.2405657322
 30
0.0
 10
9.88989313
 20
12.236411931
 30
0.0
 10
9.8883686579
 20
12.232219159
 30
0.0
 10
9.8874503925
 20
12.2279995468
 30
0.0
 10
9.8872452213
 20
12.2251661573
 30
0.0
 10
9.8872452213
 20
12.2237640479
 30
0.0
  0
SPLINE
  5
34D
100
AcDbEntity
  8
0
100
AcDbSpline
 62
9
  6
CONTINUOUS
 70
0
 71
3
 72
9
 73
5
 74
0
 42
0.0000001
 43
0.0000001
 44
0.0000000001
 40
0.0
 40
0.0
 40
0.0
 40
0.0
 40
0.4927954378
 40
1.0
 40
1.0
 40
1.0
 40
1.0
 10
9.3145081897
 20
4.7902684959
 30
0.0
 10
9.31668832
 20
4.7873275992
 30
0.0
 10
9.3209723116
 20
4.7812545043
 30
0.0
 10
9.3249224324
 20
4.7749571023
 30
0.0
 10
9.3268236903
 20
4.7717040658
 30
0.0
  0
SPLINE
  5
34E
100
AcDbEntity
  8
0
100
AcDbSpline
 62
9
  6
CONTINUOUS
 70
0
 71
3
 72
11
 73
7
 74
0
 42
0.0000001
 43
0.0000001
 44
0.0000000001
 40
0.0
 40
0.0
 40
0.0
 40
0.0
 40
0.2491386748
 40
0.4989293808
 40
0.7492574286
 40
1.0
 40
1.0
 40
1.0
 40
1.0
 10
9.417074961
 20
4.7902681467
 30
0.0
 10
9.4564665851
 20
4.7978354486
 30
0.0
 10
9.5355479971
 20
4.8119971465
 30
0.0
 10
9.6548430535
 20
4.8300152959
 30
0.0
 10
9.7748789088
 20
4.844516845
 30
0.0
 10
9.8552571286
 20
4.8516171651
 30
0.0
 10
9.8955256171
 20
4.854480011
 30
0.0
  0
SPLINE
  5
34F
100
AcDbEntity
  8
0
100
AcDbSpline
 62
9
  6
CONTINUOUS
 70
0
 71
3
 72
61
 73
57
 74
0
 42
0.0000001
 43
0.0000001
 44
0.0000000001
 40
0.0
 40
0.0
 40
0.0
 40
0.0
 40
0.0075225775
 40
0.01518096
 40
0.0231000719
 40
0.0313928111
 40
0.0401539299
 40
0.0494595668
 40
0.0593685163
 40
0.0699244005
 40
0.0811575092
 40
0.0930870203
 40
0.1057229237
 40
0.1190671569
 40
0.133115271
 40
0.1478570037
 40
0.1632772901
 40
0.1793569204
 40
0.1960728066
 40
0.2133988054
 40
0.2313056925
 40
0.2497617484
 40
0.268732959
 40
0.2881831355
 40
0.3283650541
 40
0.3699874215
 40
0.4127074801
 40
0.4561675218
 40
0.5
 40
0.5438324782
 40
0.5872925199
 40
0.6300125785
 40
0.6716349459
 40
0.7118168645
 40
0.731267041
 40
0.7502382516
 40
0.7686943075
 40
0.7866011946
 40
0.8039271934
 40
0.8206430796
 40
0.8367227099
 40
0.8521429963
 40
0.866884729
 40
0.8809328431
 40
0.8942770763
 40
0.9069129797
 40
0.9188424908
 40
0.9300755995
 40
0.9406314837
 40
0.9505404332
 40
0.9598460701
 40
0.9686071889
 40
0.9768999281
 40
0.98481904
 40
0.9924774225
 40
1.0
 40
1.0
 40
1.0
 40
1.0
 10
10.4072452208
 20
11.1807052388
 30
0.0
 10
10.4072452208
 20
11.1822194155
 30
0.0
 10
10.4070235693
 20
11.1852794803
 30
0.0
 10
10.4060319852
 20
11.1898366918
 30
0.0
 10
10.4043854949
 20
11.1943649588
 30
0.0
 10
10.4020923175
 20
11.1988510182
 30
0.0
 10
10.3991613496
 20
11.2032854702
 30
0.0
 10
10.3956014766
 20
11.2076589953
 30
0.0
 10
10.3914225238
 20
11.2119630312
 30
0.0
 10
10.3866347301
 20
11.21618866
 30
0.0
 10
10.3812495433
 20
11.2203269605
 30
0.0
 10
10.375279621
 20
11.2243688817
 30
0.0
 10
10.3687388862
 20
11.2283051691
 30
0.0
 10
10.3616427779
 20
11.2321268972
 30
0.0
 10
10.3540079737
 20
11.2358249799
 30
0.0
 10
10.3458525891
 20
11.2393907434
 30
0.0
 10
10.3371960061
 20
11.2428157007
 30
0.0
 10
10.3280588379
 20
11.2460915682
 30
0.0
 10
10.3184629433
 20
11.2492106038
 30
0.0
 10
10.3084312626
 20
11.2521651736
 30
0.0
 10
10.2979878508
 20
11.2549482406
 30
0.0
 10
10.2871577692
 20
11.2575530601
 30
0.0
 10
10.2759669747
 20
11.2599733389
 30
0.0
 10
10.2604324234
 20
11.2629790225
 30
0.0
 10
10.2403044588
 20
11.2662183455
 30
0.0
 10
10.2154180511
 20
11.2692496115
 30
0.0
 10
10.1897810968
 20
11.2714361502
 30
0.0
 10
10.1636398817
 20
11.2727566845
 30
0.0
 10
10.1372452213
 20
11.2731983009
 30
0.0
 10
10.1108505609
 20
11.2727566845
 30
0.0
 10
10.0847093458
 20
11.2714361502
 30
0.0
 10
10.0590723915
 20
11.2692496115
 30
0.0
 10
10.0341859838
 20
11.2662183455
 30
0.0
 10
10.0140580192
 20
11.2629790225
 30
0.0
 10
9.9985234679
 20
11.2599733389
 30
0.0
 10
9.9873326734
 20
11.2575530601
 30
0.0
 10
9.9765025917
 20
11.2549482406
 30
0.0
 10
9.9660591799
 20
11.2521651736
 30
0.0
 10
9.9560274993
 20
11.2492106038
 30
0.0
 10
9.9464316047
 20
11.2460915682
 30
0.0
 10
9.9372944365
 20
11.2428157007
 30
0.0
 10
9.9286378535
 20
11.2393907434
 30
0.0
 10
9.9204824689
 20
11.2358249799
 30
0.0
 10
9.9128476647
 20
11.2321268972
 30
0.0
 10
9.9057515564
 20
11.2283051691
 30
0.0
 10
9.8992108216
 20
11.2243688817
 30
0.0
 10
9.8932408993
 20
11.2203269605
 30
0.0
 10
9.8878557125
 20
11.21618866
 30
0.0
 10
9.8830679188
 20
11.2119630312
 30
0.0
 10
9.878888966
 20
11.2076589953
 30
0.0
 10
9.875329093
 20
11.2032854702
 30
0.0
 10
9.8723981251
 20
11.1988510182
 30
0.0
 10
9.8701049476
 20
11.1943649588
 30
0.0
 10
9.8684584574
 20
11.1898366918
 30
0.0
 10
9.8674668732
 20
11.1852794803
 30
0.0
 10
9.8672452217
 20
11.1822194155
 30
0.0
 10
9.8672452217
 20
11.1807052388
 30
0.0
  0
SPLINE
  5
350
100
AcDbEntity
  8
0
100
AcDbSpline
 62
9
  6
CONTINUOUS
 70
0
 71
3
 72
61
 73
57
 74
0
 42
0.0000001
 43
0.0000001
 44
0.0000000001
 40
0.0
 40
0.0
 40
0.0
 40
0.0
 40
0.0075226437
 40
0.0151810088
 40
0.023100109
 40
0.0313928716
 40
0.0401539905
 40
0.0494596137
 40
0.0593685804
 40
0.0699244479
 40
0.0811575761
 40
0.0930870871
 40
0.1057229766
 40
0.1190672375
 40
0.133115314
 40
0.1478570728
 40
0.1632773548
 40
0.1793569669
 40
0.1960728861
 40
0.213398841
 40
0.2313057547
 40
0.2497618028
 40
0.2687329948
 40
0.2881831991
 40
0.3283650984
 40
0.3699874428
 40
0.4127074916
 40
0.4561675308
 40
0.5
 40
0.5438324692
 40
0.5872925084
 40
0.6300125572
 40
0.6716349016
 40
0.7118168009
 40
0.7312670052
 40
0.7502381972
 40
0.7686942453
 40
0.786601159
 40
0.8039271139
 40
0.8206430331
 40
0.8367226452
 40
0.8521429272
 40
0.866884686
 40
0.8809327625
 40
0.8942770234
 40
0.9069129129
 40
0.9188424239
 40
0.9300755521
 40
0.9406314196
 40
0.9505403863
 40
0.9598460095
 40
0.9686071284
 40
0.976899891
 40
0.9848189912
 40
0.9924773563
 40
1.0
 40
1.0
 40
1.0
 40
1.0
 10
10.4225643688
 20
11.1820963852
 30
0.0
 10
10.4225643688
 20
11.1836964867
 30
0.0
 10
10.4223301505
 20
11.186930184
 30
0.0
 10
10.4212822832
 20
11.1917459642
 30
0.0
 10
10.4195423783
 20
11.196531153
 30
0.0
 10
10.4171190879
 20
11.2012717425
 30
0.0
 10
10.4140218159
 20
11.2059577911
 30
0.0
 10
10.4102599724
 20
11.2105794679
 30
0.0
 10
10.4058438938
 20
11.2151276785
 30
0.0
 10
10.4007844735
 20
11.2195930892
 30
0.0
 10
10.3950937245
 20
11.223966164
 30
0.0
 10
10.3887850837
 20
11.2282374147
 30
0.0
 10
10.3818732503
 20
11.2323970565
 30
0.0
 10
10.3743745103
 20
11.2364355799
 30
0.0
 10
10.3663065429
 20
11.2403435255
 30
0.0
 10
10.35768843
 20
11.2441115694
 30
0.0
 10
10.3485406945
 20
11.2477308533
 30
0.0
 10
10.3388851104
 20
11.251192608
 30
0.0
 10
10.3287447598
 20
11.2544885645
 30
0.0
 10
10.3181439168
 20
11.257610818
 30
0.0
 10
10.3071079665
 20
11.2605517542
 30
0.0
 10
10.2956634135
 20
11.2633043685
 30
0.0
 10
10.2838376843
 20
11.2658619897
 30
0.0
 10
10.2674217331
 20
11.2690381624
 30
0.0
 10
10.2461517649
 20
11.272461305
 30
0.0
 10
10.2198533735
 20
11.2756645628
 30
0.0
 10
10.192761848
 20
11.2779751635
 30
0.0
 10
10.1651374467
 20
11.279370604
 30
0.0
 10
10.1372452213
 20
11.2798372661
 30
0.0
 10
10.1093529958
 20
11.279370604
 30
0.0
 10
10.0817285946
 20
11.2779751635
 30
0.0
 10
10.0546370691
 20
11.2756645628
 30
0.0
 10
10.0283386777
 20
11.272461305
 30
0.0
 10
10.0070687095
 20
11.2690381624
 30
0.0
 10
9.9906527583
 20
11.2658619897
 30
0.0
 10
9.9788270291
 20
11.2633043685
 30
0.0
 10
9.9673824761
 20
11.2605517542
 30
0.0
 10
9.9563465258
 20
11.257610818
 30
0.0
 10
9.9457456828
 20
11.2544885645
 30
0.0
 10
9.9356053322
 20
11.251192608
 30
0.0
 10
9.9259497481
 20
11.2477308533
 30
0.0
 10
9.9168020126
 20
11.2441115694
 30
0.0
 10
9.9081838997
 20
11.2403435255
 30
0.0
 10
9.9001159323
 20
11.2364355799
 30
0.0
 10
9.8926171923
 20
11.2323970565
 30
0.0
 10
9.8857053589
 20
11.2282374147
 30
0.0
 10
9.879396718
 20
11.223966164
 30
0.0
 10
9.8737059691
 20
11.2195930892
 30
0.0
 10
9.8686465488
 20
11.2151276785
 30
0.0
 10
9.8642304702
 20
11.2105794679
 30
0.0
 10
9.8604686266
 20
11.2059577911
 30
0.0
 10
9.8573713547
 20
11.2012717425
 30
0.0
 10
9.8549480642
 20
11.196531153
 30
0.0
 10
9.8532081594
 20
11.1917459642
 30
0.0
 10
9.8521602921
 20
11.186930184
 30
0.0
 10
9.8519260738
 20
11.1836964867
 30
0.0
 10
9.8519260738
 20
11.1820963852
 30
0.0
  0
SPLINE
  5
351
100
AcDbEntity
  8
0
100
AcDbSpline
 62
9
  6
CONTINUOUS
 70
0
 71
3
 72
17
 73
13
 74
0
 42
0.0000001
 43
0.0000001
 44
0.0000000001
 40
0.0
 40
0.0
 40
0.0
 40
0.0
 40
0.1363827974
 40
0.2697993078
 40
0.3996519504
 40
0.4632179992
 40
0.5258833612
 40
0.6485940309
 40
0.7682126896
 40
0.8270309441
 40
0.8852464658
 40
1.0
 40
1.0
 40
1.0
 40
1.0
 10
9.3293092544
 20
4.7477103753
 30
0.0
 10
9.3286196832
 20
4.7433177029
 30
0.0
 10
9.3266159805
 20
4.734715046
 30
0.0
 10
9.3218888519
 20
4.7225318061
 30
0.0
 10
9.3167224462
 20
4.7131743654
 30
0.0
 10
9.3120051298
 20
4.7062803059
 30
0.0
 10
9.3070167712
 20
4.6998723215
 30
0.0
 10
9.3002195663
 20
4.6925818612
 30
0.0
 10
9.2927438668
 20
4.6861851418
 30
0.0
 10
9.2864929015
 20
4.6816569142
 30
0.0
 10
9.2801479089
 20
4.6775476895
 30
0.0
 10
9.2751829374
 20
4.6748473235
 30
0.0
 10
9.2718113525
 20
4.6732256931
 30
0.0
  0
SPLINE
  5
352
100
AcDbEntity
  8
0
100
AcDbSpline
 62
9
  6
CONTINUOUS
 70
0
 71
3
 72
91
 73
87
 74
0
 42
0.0000001
 43
0.0000001
 44
0.0000000001
 40
0.0
 40
0.0
 40
0.0
 40
0.0
 40
0.0000029814
 40
0.0000118146
 40
0.0000264949
 40
0.0000470181
 40
0.0001055749
 40
0.0001874496
 40
0.0002926065
 40
0.00042101
 40
0.0005726245
 40
0.0007474146
 40
0.0011663795
 40
0.0016776206
 40
0.0022808114
 40
0.0029755083
 40
0.0037612482
 40
0.0046375676
 40
0.0066600917
 40
0.0090387818
 40
0.0117674628
 40
0.0148395929
 40
0.0182483264
 40
0.0219856322
 40
0.0260432052
 40
0.0350856729
 40
0.0453076153
 40
0.0566388106
 40
0.0690063671
 40
0.0823411084
 40
0.0965777114
 40
0.1116541435
 40
0.1275113677
 40
0.1613572096
 40
0.1977368171
 40
0.2363348432
 40
0.2768848354
 40
0.3191489566
 40
0.3628920476
 40
0.4078461321
 40
0.4536789222
 40
0.4768047644
 40
0.4999910287
 40
0.5231773063
 40
0.5463031323
 40
0.5693113073
 40
0.5921469892
 40
0.6371010364
 40
0.6591454536
 40
0.6808510627
 40
0.7231151406
 40
0.7636649665
 40
0.8022631313
 40
0.8386428061
 40
0.8724885676
 40
0.8883459162
 40
0.9034223829
 40
0.9176590282
 40
0.9309938718
 40
0.9433614252
 40
0.9546924751
 40
0.9649142818
 40
0.9739567474
 40
0.978014386
 40
0.9817517563
 40
0.9851605017
 40
0.988232556
 40
0.9909611152
 40
0.9933397017
 40
0.995362191
 40
0.9962385166
 40
0.9970242739
 40
0.9977189961
 40
0.9983222165
 40
0.9988334885
 40
0.9992524837
 40
0.9994272886
 40
0.9995789176
 40
0.999707335
 40
0.9998125051
 40
0.9998943924
 40
0.9999529611
 40
0.9999734898
 40
0.9999881755
 40
0.9999970137
 40
1.0
 40
1.0
 40
1.0
 40
1.0
 10
12.0872452213
 20
6.8152187254
 30
0.0
 10
12.0872454165
 20
6.8152183955
 30
0.0
 10
12.0872468692
 20
6.8152176838
 30
0.0
 10
12.08724932
 20
6.8152153865
 30
0.0
 10
12.0872539375
 20
6.8152120437
 30
0.0
 10
12.0872633984
 20
6.8152046056
 30
0.0
 10
12.087279854
 20
6.8151920278
 30
0.0
 10
12.0873048516
 20
6.8151727456
 30
0.0
 10
12.0873370245
 20
6.8151480437
 30
0.0
 10
12.0873763106
 20
6.8151178883
 30
0.0
 10
12.0874227263
 20
6.8150823142
 30
0.0
 10
12.0874988263
 20
6.8150240548
 30
0.0
 10
12.0876117225
 20
6.8149377895
 30
0.0
 10
12.0877685223
 20
6.8148182559
 30
0.0
 10
12.0879536704
 20
6.8146774289
 30
0.0
 10
12.0881670475
 20
6.8145154138
 30
0.0
 10
12.0884085252
 20
6.8143323333
 30
0.0
 10
12.088786232
 20
6.8140463369
 30
0.0
 10
12.0893275762
 20
6.8136371507
 30
0.0
 10
12.0900594567
 20
6.8130850461
 30
0.0
 10
12.0908999681
 20
6.8124528452
 30
0.0
 10
12.091847499
 20
6.8117425946
 30
0.0
 10
12.0929002697
 20
6.810956518
 30
0.0
 10
12.0940565242
 20
6.8100972545
 30
0.0
 10
12.0957975247
 20
6.8088103952
 30
0.0
 10
12.0982169511
 20
6.8070386424
 30
0.0
 10
12.1014053519
 20
6.8047341188
 30
0.0
 10
12.1049581415
 20
6.8022040375
 30
0.0
 10
12.1088604223
 20
6.7994749929
 30
0.0
 10
12.1130967784
 20
6.7965721639
 30
0.0
 10
12.1176523943
 20
6.7935195371
 30
0.0
 10
12.1225146814
 20
6.7903425265
 30
0.0
 10
12.1295457934
 20
6.7858764387
 30
0.0
 10
12.1390169968
 20
6.7801447241
 30
0.0
 10
12.151231207
 20
6.7733112169
 30
0.0
 10
12.1644833282
 20
6.7665891349
 30
0.0
 10
12.1787368136
 20
6.7602034948
 30
0.0
 10
12.1939526868
 20
6.7544056936
 30
0.0
 10
12.2100632374
 20
6.7494567035
 30
0.0
 10
12.2269554711
 20
6.7456485738
 30
0.0
 10
12.2414848708
 20
6.7436378734
 30
0.0
 10
12.2533080916
 20
6.7428167977
 30
0.0
 10
12.2622452147
 20
6.7426116764
 30
0.0
 10
12.2711822065
 20
6.7428163179
 30
0.0
 10
12.2800772023
 20
6.7434345438
 30
0.0
 10
12.2888898691
 20
6.7444529491
 30
0.0
 10
12.3004205962
 20
6.7463002634
 30
0.0
 10
12.3117037435
 20
6.7488421914
 30
0.0
 10
12.3226687274
 20
6.7519886884
 30
0.0
 10
12.3331865138
 20
6.7554152185
 30
0.0
 10
12.3457536963
 20
6.7602039111
 30
0.0
 10
12.3600073253
 20
6.76658847
 30
0.0
 10
12.3732592055
 20
6.7733112472
 30
0.0
 10
12.3854733015
 20
6.7801449169
 30
0.0
 10
12.3949447644
 20
6.7858762483
 30
0.0
 10
12.4019757119
 20
6.7903426146
 30
0.0
 10
12.4068380259
 20
6.7935196296
 30
0.0
 10
12.4113936589
 20
6.7965722733
 30
0.0
 10
12.4156299688
 20
6.7994752021
 30
0.0
 10
12.4195322412
 20
6.8022042473
 30
0.0
 10
12.4230850803
 20
6.8047341959
 30
0.0
 10
12.4262735127
 20
6.8070386138
 30
0.0
 10
12.4286929389
 20
6.8088103516
 30
0.0
 10
12.4304339181
 20
6.8100972674
 30
0.0
 10
12.4315901624
 20
6.8109565752
 30
0.0
 10
12.4326429244
 20
6.8117426636
 30
0.0
 10
12.4335904621
 20
6.8124528651
 30
0.0
 10
12.4344309847
 20
6.8130849866
 30
0.0
 10
12.4351628772
 20
6.81363702
 30
0.0
 10
12.4357042191
 20
6.814046181
 30
0.0
 10
12.4360819221
 20
6.8143321799
 30
0.0
 10
12.4363233993
 20
6.8145152717
 30
0.0
 10
12.4365367753
 20
6.8146773035
 30
0.0
 10
12.436721922
 20
6.8148181506
 30
0.0
 10
12.4368787202
 20
6.8149377056
 30
0.0
 10
12.4369916146
 20
6.8150239893
 30
0.0
 10
12.4370677133
 20
6.815082263
 30
0.0
 10
12.4371141285
 20
6.8151178469
 30
0.0
 10
12.4371534143
 20
6.8151480114
 30
0.0
 10
12.4371855871
 20
6.8151727218
 30
0.0
 10
12.4372105853
 20
6.8151920113
 30
0.0
 10
12.4372270408
 20
6.8152045952
 30
0.0
 10
12.4372365032
 20
6.8152120367
 30
0.0
 10
12.43724112
 20
6.815215383
 30
0.0
 10
12.437243574
 20
6.8152176806
 30
0.0
 10
12.437245025
 20
6.8152183954
 30
0.0
 10
12.4372452213
 20
6.8152187254
 30
0.0
  0
SPLINE
  5
353
100
AcDbEntity
  8
0
100
AcDbSpline
 62
9
  6
CONTINUOUS
 70
0
 71
3
 72
59
 73
55
 74
0
 42
0.0000001
 43
0.0000001
 44
0.0000000001
 40
0.0
 40
0.0
 40
0.0
 40
0.0
 40
0.0075226783
 40
0.0151810787
 40
0.0231002155
 40
0.0313930163
 40
0.0401541756
 40
0.0494598417
 40
0.0593688541
 40
0.0699247702
 40
0.0811579501
 40
0.0930875161
 40
0.1057234639
 40
0.1190677863
 40
0.1331159275
 40
0.1478577543
 40
0.1632781074
 40
0.1793577936
 40
0.1960737899
 40
0.2133998246
 40
0.2313068208
 40
0.249762954
 40
0.2881822227
 40
0.3283643073
 40
0.3699868436
 40
0.4127070893
 40
0.4561673288
 40
0.5
 40
0.5438326712
 40
0.5872929107
 40
0.6300131564
 40
0.6716356927
 40
0.7118177773
 40
0.750237046
 40
0.7686931792
 40
0.7866001754
 40
0.8039262101
 40
0.8206422064
 40
0.8367218926
 40
0.8521422457
 40
0.8668840725
 40
0.8809322137
 40
0.8942765361
 40
0.9069124839
 40
0.9188420499
 40
0.9300752298
 40
0.9406311459
 40
0.9505401583
 40
0.9598458244
 40
0.9686069837
 40
0.9768997845
 40
0.9848189213
 40
0.9924773217
 40
1.0
 40
1.0
 40
1.0
 40
1.0
 10
10.42067261
 20
11.3356697169
 30
0.0
 10
10.42067261
 20
11.3372592092
 30
0.0
 10
10.4204399446
 20
11.3404714661
 30
0.0
 10
10.419399025
 20
11.345255316
 30
0.0
 10
10.4176706563
 20
11.3500087775
 30
0.0
 10
10.4152634331
 20
11.3547179354
 30
0.0
 10
10.412186697
 20
11.3593729139
 30
0.0
 10
10.4084497957
 20
11.3639639475
 30
0.0
 10
10.4040629972
 20
11.368482002
 30
0.0
 10
10.3990371225
 20
11.3729178056
 30
0.0
 10
10.393384105
 20
11.3772618855
 30
0.0
 10
10.3871172925
 20
11.3815048164
 30
0.0
 10
10.3802512869
 20
11.3856368784
 30
0.0
 10
10.372802266
 20
11.3896486251
 30
0.0
 10
10.3647877917
 20
11.3935306597
 30
0.0
 10
10.3562268198
 20
11.3972737202
 30
0.0
 10
10.3471397367
 20
11.4008690073
 30
0.0
 10
10.3375481726
 20
11.4043078088
 30
0.0
 10
10.3274750544
 20
11.4075819145
 30
0.0
 10
10.3169445041
 20
11.4106834565
 30
0.0
 10
10.3059817033
 20
11.4136049324
 30
0.0
 10
10.2906174841
 20
11.4173001169
 30
0.0
 10
10.270516013
 20
11.4213978707
 30
0.0
 10
10.2454299282
 20
11.4254355264
 30
0.0
 10
10.2193055849
 20
11.4286174963
 30
0.0
 10
10.1923937738
 20
11.4309127907
 30
0.0
 10
10.1649525073
 20
11.4322989751
 30
0.0
 10
10.1372452213
 20
11.4327625444
 30
0.0
 10
10.1095379352
 20
11.4322989751
 30
0.0
 10
10.0820966688
 20
11.4309127907
 30
0.0
 10
10.0551848576
 20
11.4286174963
 30
0.0
 10
10.0290605144
 20
11.4254355264
 30
0.0
 10
10.0039744296
 20
11.4213978707
 30
0.0
 10
9.9838729585
 20
11.4173001169
 30
0.0
 10
9.9685087393
 20
11.4136049324
 30
0.0
 10
9.9575459384
 20
11.4106834565
 30
0.0
 10
9.9470153882
 20
11.4075819145
 30
0.0
 10
9.9369422699
 20
11.4043078088
 30
0.0
 10
9.9273507059
 20
11.4008690073
 30
0.0
 10
9.9182636228
 20
11.3972737202
 30
0.0
 10
9.9097026508
 20
11.3935306597
 30
0.0
 10
9.9016881766
 20
11.3896486251
 30
0.0
 10
9.8942391557
 20
11.3856368784
 30
0.0
 10
9.8873731501
 20
11.3815048164
 30
0.0
 10
9.8811063375
 20
11.3772618855
 30
0.0
 10
9.8754533201
 20
11.3729178056
 30
0.0
 10
9.8704274454
 20
11.368482002
 30
0.0
 10
9.8660406468
 20
11.3639639475
 30
0.0
 10
9.8623037455
 20
11.3593729139
 30
0.0
 10
9.8592270095
 20
11.3547179354
 30
0.0
 10
9.8568197863
 20
11.3500087775
 30
0.0
 10
9.8550914176
 20
11.345255316
 30
0.0
 10
9.8540504979
 20
11.3404714661
 30
0.0
 10
9.8538178326
 20
11.3372592092
 30
0.0
 10
9.8538178326
 20
11.3356697169
 30
0.0
  0
SPLINE
  5
354
100
AcDbEntity
  8
0
100
AcDbSpline
 62
9
  6
CONTINUOUS
 70
0
 71
3
 72
67
 73
63
 74
0
 42
0.0000001
 43
0.0000001
 44
0.0000000001
 40
0.0
 40
0.0
 40
0.0
 40
0.0
 40
0.0037551718
 40
0.0075275662
 40
0.0113337965
 40
0.0151899549
 40
0.0231088837
 40
0.0314014869
 40
0.0357197944
 40
0.0401654191
 40
0.0494707955
 40
0.059379533
 40
0.0699351264
 40
0.0811679757
 40
0.0930972086
 40
0.1057327548
 40
0.1190767075
 40
0.1331244307
 40
0.1478658071
 40
0.1632857374
 40
0.1793649157
 40
0.1960804368
 40
0.2134059733
 40
0.2313124108
 40
0.2497680333
 40
0.2687387332
 40
0.2881884545
 40
0.3283693477
 40
0.3699906742
 40
0.412709668
 40
0.4561686212
 40
0.5
 40
0.5438313788
 40
0.587290332
 40
0.6300093258
 40
0.6716306523
 40
0.7118115455
 40
0.7312612668
 40
0.7502319667
 40
0.7686875892
 40
0.7865940267
 40
0.8039195632
 40
0.8206350843
 40
0.8367142626
 40
0.8521341929
 40
0.8668755693
 40
0.8809232925
 40
0.8942672452
 40
0.9069027914
 40
0.9188320243
 40
0.9300648736
 40
0.940620467
 40
0.9505292045
 40
0.9598345809
 40
0.9642802056
 40
0.9685985131
 40
0.9768911163
 40
0.9848100451
 40
0.9886662035
 40
0.9924724338
 40
0.9962448282
 40
1.0
 40
1.0
 40
1.0
 40
1.0
 10
10.4606117588
 20
11.5002517309
 30
0.0
 10
10.4606118869
 20
11.5011570085
 30
0.0
 10
10.4605466865
 20
11.5029723984
 30
0.0
 10
10.4602531646
 20
11.5056910693
 30
0.0
 10
10.4597642145
 20
11.5084063786
 30
0.0
 10
10.4588445885
 20
11.5120509454
 30
0.0
 10
10.4571868561
 20
11.516611536
 30
0.0
 10
10.4549286937
 20
11.5210287795
 30
0.0
 10
10.4527610518
 20
11.5245247802
 30
0.0
 10
10.4502728025
 20
11.5281024544
 30
0.0
 10
10.4466664234
 20
11.5325332636
 30
0.0
 10
10.441661644
 20
11.5376876849
 30
0.0
 10
10.4359275018
 20
11.5427486551
 30
0.0
 10
10.4294779052
 20
11.547704859
 30
0.0
 10
10.4223279865
 20
11.5525456627
 30
0.0
 10
10.4144944804
 20
11.557260032
 30
0.0
 10
10.4059957659
 20
11.5618370631
 30
0.0
 10
10.3968519357
 20
11.5662661394
 30
0.0
 10
10.3870846016
 20
11.5705366766
 30
0.0
 10
10.3767170012
 20
11.5746385504
 30
0.0
 10
10.3657738543
 20
11.5785619739
 30
0.0
 10
10.3542812793
 20
11.5822974281
 30
0.0
 10
10.3422668069
 20
11.5858360177
 30
0.0
 10
10.3297592174
 20
11.5891691723
 30
0.0
 10
10.3167885232
 20
11.5922888015
 30
0.0
 10
10.3033858334
 20
11.5951875122
 30
0.0
 10
10.2847808155
 20
11.5987872201
 30
0.0
 10
10.2606744917
 20
11.6026668568
 30
0.0
 10
10.2308691953
 20
11.6062972463
 30
0.0
 10
10.2001650027
 20
11.6089159573
 30
0.0
 10
10.1688568809
 20
11.610497497
 30
0.0
 10
10.1372452213
 20
11.6110264037
 30
0.0
 10
10.1056335617
 20
11.610497497
 30
0.0
 10
10.0743254399
 20
11.6089159573
 30
0.0
 10
10.0436212473
 20
11.6062972463
 30
0.0
 10
10.0138159509
 20
11.6026668568
 30
0.0
 10
9.9897096271
 20
11.5987872201
 30
0.0
 10
9.9711046092
 20
11.5951875122
 30
0.0
 10
9.9577019194
 20
11.5922888015
 30
0.0
 10
9.9447312252
 20
11.5891691723
 30
0.0
 10
9.9322236357
 20
11.5858360177
 30
0.0
 10
9.9202091633
 20
11.5822974281
 30
0.0
 10
9.9087165883
 20
11.5785619739
 30
0.0
 10
9.8977734414
 20
11.5746385504
 30
0.0
 10
9.887405841
 20
11.5705366766
 30
0.0
 10
9.8776385069
 20
11.5662661394
 30
0.0
 10
9.8684946767
 20
11.5618370631
 30
0.0
 10
9.8599959622
 20
11.557260032
 30
0.0
 10
9.8521624561
 20
11.5525456627
 30
0.0
 10
9.8450125374
 20
11.547704859
 30
0.0
 10
9.8385629408
 20
11.5427486551
 30
0.0
 10
9.8328287986
 20
11.5376876849
 30
0.0
 10
9.8278240192
 20
11.5325332636
 30
0.0
 10
9.8242176401
 20
11.5281024544
 30
0.0
 10
9.8217293908
 20
11.5245247802
 30
0.0
 10
9.8195617489
 20
11.5210287795
 30
0.0
 10
9.8173035864
 20
11.516611536
 30
0.0
 10
9.8156458541
 20
11.5120509454
 30
0.0
 10
9.8147262281
 20
11.5084063786
 30
0.0
 10
9.814237278
 20
11.5056910693
 30
0.0
 10
9.8139437561
 20
11.5029723984
 30
0.0
 10
9.8138785556
 20
11.5011570085
 30
0.0
 10
9.8138786838
 20
11.5002517309
 30
0.0
  0
SPLINE
  5
355
100
AcDbEntity
  8
0
100
AcDbSpline
 62
9
  6
CONTINUOUS
 70
0
 71
3
 72
61
 73
57
 74
0
 42
0.0000001
 43
0.0000001
 44
0.0000000001
 40
0.0
 40
0.0
 40
0.0
 40
0.0
 40
0.0075226898
 40
0.0151810094
 40
0.0231000915
 40
0.031392876
 40
0.0401539978
 40
0.0494596052
 40
0.0593685879
 40
0.0699244436
 40
0.081157572
 40
0.0930871013
 40
0.1057229613
 40
0.1190672454
 40
0.1331153176
 40
0.1478570602
 40
0.1632773735
 40
0.1793569512
 40
0.1960728875
 40
0.2133988544
 40
0.2313057367
 40
0.2497618175
 40
0.2687329887
 40
0.2881831931
 40
0.3283650844
 40
0.3699874448
 40
0.4127074998
 40
0.4561675325
 40
0.5
 40
0.5438324675
 40
0.5872925002
 40
0.6300125552
 40
0.6716349156
 40
0.7118168069
 40
0.7312670113
 40
0.7502381825
 40
0.7686942633
 40
0.7866011456
 40
0.8039271125
 40
0.8206430488
 40
0.8367226265
 40
0.8521429398
 40
0.8668846824
 40
0.8809327546
 40
0.8942770387
 40
0.9069128987
 40
0.918842428
 40
0.9300755564
 40
0.9406314121
 40
0.9505403948
 40
0.9598460022
 40
0.968607124
 40
0.9768999085
 40
0.9848189906
 40
0.9924773102
 40
1.0
 40
1.0
 40
1.0
 40
1.0
 10
10.4677631279
 20
11.5086599818
 30
0.0
 10
10.4677631279
 20
11.5105135743
 30
0.0
 10
10.4674918213
 20
11.514259539
 30
0.0
 10
10.4662779313
 20
11.5198382006
 30
0.0
 10
10.4642624114
 20
11.5253814253
 30
0.0
 10
10.4614552427
 20
11.5308730009
 30
0.0
 10
10.4578673003
 20
11.5363013793
 30
0.0
 10
10.4535095465
 20
11.5416552164
 30
0.0
 10
10.4483938749
 20
11.5469239069
 30
0.0
 10
10.4425329837
 20
11.5520967225
 30
0.0
 10
10.4359407337
 20
11.5571625587
 30
0.0
 10
10.4286326968
 20
11.5621104109
 30
0.0
 10
10.4206259485
 20
11.5669290426
 30
0.0
 10
10.4119392823
 20
11.5716072957
 30
0.0
 10
10.4025932328
 20
11.5761343228
 30
0.0
 10
10.3926098905
 20
11.5804993045
 30
0.0
 10
10.3820130069
 20
11.5846918928
 30
0.0
 10
10.3708278483
 20
11.5887020842
 30
0.0
 10
10.3590811108
 20
11.5925201493
 30
0.0
 10
10.346800934
 20
11.596136996
 30
0.0
 10
10.3340167346
 20
11.5995438646
 30
0.0
 10
10.3207591888
 20
11.6027324855
 30
0.0
 10
10.3070600936
 20
11.6056953023
 30
0.0
 10
10.2880436189
 20
11.609374619
 30
0.0
 10
10.263404175
 20
11.6133400553
 30
0.0
 10
10.2329397236
 20
11.6170507322
 30
0.0
 10
10.2015564966
 20
11.619727357
 30
0.0
 10
10.1695559842
 20
11.621343873
 30
0.0
 10
10.1372452213
 20
11.6218844766
 30
0.0
 10
10.1049344584
 20
11.621343873
 30
0.0
 10
10.072933946
 20
11.619727357
 30
0.0
 10
10.041550719
 20
11.6170507322
 30
0.0
 10
10.0110862676
 20
11.6133400553
 30
0.0
 10
9.9864468237
 20
11.609374619
 30
0.0
 10
9.967430349
 20
11.6056953023
 30
0.0
 10
9.9537312538
 20
11.6027324855
 30
0.0
 10
9.940473708
 20
11.5995438646
 30
0.0
 10
9.9276895086
 20
11.596136996
 30
0.0
 10
9.9154093318
 20
11.5925201493
 30
0.0
 10
9.9036625943
 20
11.5887020842
 30
0.0
 10
9.8924774357
 20
11.5846918928
 30
0.0
 10
9.881880552
 20
11.5804993045
 30
0.0
 10
9.8718972098
 20
11.5761343228
 30
0.0
 10
9.8625511603
 20
11.5716072957
 30
0.0
 10
9.8538644941
 20
11.5669290426
 30
0.0
 10
9.8458577458
 20
11.5621104109
 30
0.0
 10
9.8385497089
 20
11.5571625587
 30
0.0
 10
9.8319574589
 20
11.5520967225
 30
0.0
 10
9.8260965677
 20
11.5469239069
 30
0.0
 10
9.8209808961
 20
11.5416552164
 30
0.0
 10
9.8166231423
 20
11.5363013793
 30
0.0
 10
9.8130351999
 20
11.5308730009
 30
0.0
 10
9.8102280312
 20
11.5253814253
 30
0.0
 10
9.8082125113
 20
11.5198382006
 30
0.0
 10
9.8069986213
 20
11.514259539
 30
0.0
 10
9.8067273147
 20
11.5105135743
 30
0.0
 10
9.8067273147
 20
11.5086599818
 30
0.0
  0
SPLINE
  5
356
100
AcDbEntity
  8
0
100
AcDbSpline
 62
9
  6
CONTINUOUS
 70
0
 71
3
 72
61
 73
57
 74
0
 42
0.0000001
 43
0.0000001
 44
0.0000000001
 40
0.0
 40
0.0
 40
0.0
 40
0.0
 40
0.0075226898
 40
0.0151810094
 40
0.0231000915
 40
0.031392876
 40
0.0401539978
 40
0.0494596051
 40
0.0593685879
 40
0.0699244436
 40
0.0811575719
 40
0.0930871013
 40
0.1057229613
 40
0.1190672454
 40
0.1331153176
 40
0.1478570602
 40
0.1632773735
 40
0.1793569512
 40
0.1960728875
 40
0.2133988544
 40
0.2313057367
 40
0.2497618175
 40
0.2687329887
 40
0.2881831931
 40
0.3283650844
 40
0.3699874448
 40
0.4127074998
 40
0.4561675325
 40
0.5
 40
0.5438324675
 40
0.5872925002
 40
0.6300125552
 40
0.6716349156
 40
0.7118168069
 40
0.7312670113
 40
0.7502381825
 40
0.7686942633
 40
0.7866011456
 40
0.8039271125
 40
0.8206430488
 40
0.8367226265
 40
0.8521429398
 40
0.8668846824
 40
0.8809327546
 40
0.8942770387
 40
0.9069128987
 40
0.9188424281
 40
0.9300755564
 40
0.9406314121
 40
0.9505403949
 40
0.9598460022
 40
0.968607124
 40
0.9768999085
 40
0.9848189906
 40
0.9924773102
 40
1.0
 40
1.0
 40
1.0
 40
1.0
 10
10.4697452214
 20
11.5109115342
 30
0.0
 10
10.4697452214
 20
11.5127762426
 30
0.0
 10
10.4694722878
 20
11.5165446716
 30
0.0
 10
10.4682511182
 20
11.522156788
 30
0.0
 10
10.4662235113
 20
11.5277332551
 30
0.0
 10
10.4633995083
 20
11.5332577633
 30
0.0
 10
10.4597900493
 20
11.5387186953
 30
0.0
 10
10.4554061623
 20
11.544104639
 30
0.0
 10
10.4502598123
 20
11.5494049255
 30
0.0
 10
10.4443637738
 20
11.5546087621
 30
0.0
 10
10.4377319905
 20
11.5597049778
 30
0.0
 10
10.4303801278
 20
11.564682502
 30
0.0
 10
10.4223253635
 20
11.5695300306
 30
0.0
 10
10.413586604
 20
11.5742363389
 30
0.0
 10
10.4041845069
 20
11.5787905143
 30
0.0
 10
10.3941412952
 20
11.5831816724
 30
0.0
 10
10.3834808627
 20
11.5873994034
 30
0.0
 10
10.3722286275
 20
11.5914336437
 30
0.0
 10
10.3604114457
 20
11.5952746055
 30
0.0
 10
10.3480576254
 20
11.5989131422
 30
0.0
 10
10.3351967601
 20
11.6023404415
 30
0.0
 10
10.3218597096
 20
11.6055481844
 30
0.0
 10
10.3080784619
 20
11.6085287689
 30
0.0
 10
10.2889479467
 20
11.6122301503
 30
0.0
 10
10.2641607417
 20
11.6162193671
 30
0.0
 10
10.233513597
 20
11.6199522966
 30
0.0
 10
10.201942167
 20
11.6226449729
 30
0.0
 10
10.1697497497
 20
11.6242711831
 30
0.0
 10
10.1372452213
 20
11.6248150287
 30
0.0
 10
10.1047406929
 20
11.6242711831
 30
0.0
 10
10.0725482756
 20
11.6226449729
 30
0.0
 10
10.0409768456
 20
11.6199522966
 30
0.0
 10
10.0103297009
 20
11.6162193671
 30
0.0
 10
9.9855424959
 20
11.6122301503
 30
0.0
 10
9.9664119807
 20
11.6085287689
 30
0.0
 10
9.9526307329
 20
11.6055481844
 30
0.0
 10
9.9392936825
 20
11.6023404415
 30
0.0
 10
9.9264328172
 20
11.5989131422
 30
0.0
 10
9.9140789969
 20
11.5952746055
 30
0.0
 10
9.9022618151
 20
11.5914336437
 30
0.0
 10
9.8910095798
 20
11.5873994034
 30
0.0
 10
9.8803491474
 20
11.5831816724
 30
0.0
 10
9.8703059357
 20
11.5787905143
 30
0.0
 10
9.8609038386
 20
11.5742363389
 30
0.0
 10
9.852165079
 20
11.5695300306
 30
0.0
 10
9.8441103148
 20
11.564682502
 30
0.0
 10
9.8367584521
 20
11.5597049778
 30
0.0
 10
9.8301266688
 20
11.5546087621
 30
0.0
 10
9.8242306303
 20
11.5494049255
 30
0.0
 10
9.8190842803
 20
11.544104639
 30
0.0
 10
9.8147003933
 20
11.5387186953
 30
0.0
 10
9.8110909343
 20
11.5332577633
 30
0.0
 10
9.8082669312
 20
11.5277332551
 30
0.0
 10
9.8062393244
 20
11.522156788
 30
0.0
 10
9.8050181547
 20
11.5165446716
 30
0.0
 10
9.8047452212
 20
11.5127762426
 30
0.0
 10
9.8047452212
 20
11.5109115342
 30
0.0
  0
SPLINE
  5
357
100
AcDbEntity
  8
0
100
AcDbSpline
 62
9
  6
CONTINUOUS
 70
0
 71
3
 72
15
 73
11
 74
0
 42
0.0000001
 43
0.0000001
 44
0.0000000001
 40
0.0
 40
0.0
 40
0.0
 40
0.0
 40
0.1243715238
 40
0.2489302029
 40
0.3736698187
 40
0.4986055449
 40
0.6237269231
 40
0.7490141637
 40
0.874455321
 40
1.0
 40
1.0
 40
1.0
 40
1.0
 10
12.4488126081
 20
7.1157818659
 30
0.0
 10
12.4487958533
 20
7.1146729798
 30
0.0
 10
12.4488880265
 20
7.112449617
 30
0.0
 10
12.4494006964
 20
7.1091505214
 30
0.0
 10
12.4502815898
 20
7.1059245099
 30
0.0
 10
12.4515193553
 20
7.1028126431
 30
0.0
 10
12.4530986039
 20
7.0998538799
 30
0.0
 10
12.454999423
 20
7.0970851383
 30
0.0
 10
12.4571976771
 20
7.0945416863
 30
0.0
 10
12.458843434
 20
7.0930170568
 30
0.0
 10
12.4597054723
 20
7.0923028363
 30
0.0
  0
SPLINE
  5
358
100
AcDbEntity
  8
0
100
AcDbSpline
 62
9
  6
CONTINUOUS
 70
0
 71
3
 72
15
 73
11
 74
0
 42
0.0000001
 43
0.0000001
 44
0.0000000001
 40
0.0
 40
0.0
 40
0.0
 40
0.0
 40
0.120105835
 40
0.2438169818
 40
0.3702587036
 40
0.4982612113
 40
0.6265102216
 40
0.7536679772
 40
0.8784945047
 40
1.0
 40
1.0
 40
1.0
 40
1.0
 10
12.4340669049
 20
7.1258290719
 30
0.0
 10
12.4330675085
 20
7.1244994875
 30
0.0
 10
12.4312709777
 20
7.1216188066
 30
0.0
 10
12.4292791926
 20
7.1168726944
 30
0.0
 10
12.428001302
 20
7.1117737168
 30
0.0
 10
12.4274768826
 20
7.1064812011
 30
0.0
 10
12.4277211485
 20
7.1011585575
 30
0.0
 10
12.4287272291
 20
7.0959700971
 30
0.0
 10
12.4304637669
 20
7.0910778061
 30
0.0
 10
12.4321018119
 20
7.0880652003
 30
0.0
 10
12.4330277803
 20
7.0866601994
 30
0.0
  0
SPLINE
  5
359
100
AcDbEntity
  8
0
100
AcDbSpline
 62
9
  6
CONTINUOUS
 70
0
 71
3
 72
10
 73
6
 74
0
 42
0.0000001
 43
0.0000001
 44
0.0000000001
 40
0.0
 40
0.0
 40
0.0
 40
0.0
 40
0.5155129214
 40
0.7608985055
 40
1.0
 40
1.0
 40
1.0
 40
1.0
 10
12.4909290741
 20
8.9004288322
 30
0.0
 10
12.4918084485
 20
8.9006336373
 30
0.0
 10
12.4931460717
 20
8.9008041866
 30
0.0
 10
12.494897817
 20
8.900697874
 30
0.0
 10
12.4957340646
 20
8.9005363534
 30
0.0
 10
12.4961388071
 20
8.9004288322
 30
0.0
  0
SPLINE
  5
35A
100
AcDbEntity
  8
0
100
AcDbSpline
 62
9
  6
CONTINUOUS
 70
0
 71
3
 72
13
 73
9
 74
0
 42
0.0000001
 43
0.0000001
 44
0.0000000001
 40
0.0
 40
0.0
 40
0.0
 40
0.0
 40
0.2945816893
 40
0.4310341328
 40
0.55976519
 40
0.6807109505
 40
0.7940645914
 40
1.0
 40
1.0
 40
1.0
 40
1.0
 10
12.4752826631
 20
8.9108187253
 30
0.0
 10
12.476248871
 20
8.9111184665
 30
0.0
 10
12.4776913948
 20
8.9114763293
 30
0.0
 10
12.4795989897
 20
8.9117266447
 30
0.0
 10
12.4809250957
 20
8.911790295
 30
0.0
 10
12.4821730229
 20
8.9117339365
 30
0.0
 10
12.4836687621
 20
8.9115070487
 30
0.0
 10
12.4847243429
 20
8.9111499405
 30
0.0
 10
12.4853491971
 20
8.9108187253
 30
0.0
  0
SPLINE
  5
35B
100
AcDbEntity
  8
0
100
AcDbSpline
 62
9
  6
CONTINUOUS
 70
0
 71
3
 72
10
 73
6
 74
0
 42
0.0000001
 43
0.0000001
 44
0.0000000001
 40
0.0
 40
0.0
 40
0.0
 40
0.0
 40
0.2391014964
 40
0.4844870832
 40
1.0
 40
1.0
 40
1.0
 40
1.0
 10
12.0283516354
 20
8.9004288322
 30
0.0
 10
12.0287563779
 20
8.9005363534
 30
0.0
 10
12.0295926255
 20
8.900697874
 30
0.0
 10
12.0313443709
 20
8.9008041866
 30
0.0
 10
12.032681994
 20
8.9006336373
 30
0.0
 10
12.0335613685
 20
8.9004288322
 30
0.0
  0
SPLINE
  5
35C
100
AcDbEntity
  8
0
100
AcDbSpline
 62
9
  6
CONTINUOUS
 70
0
 71
3
 72
13
 73
9
 74
0
 42
0.0000001
 43
0.0000001
 44
0.0000000001
 40
0.0
 40
0.0
 40
0.0
 40
0.0
 40
0.2059354188
 40
0.319289057
 40
0.4402348133
 40
0.5689658674
 40
0.705418309
 40
1.0
 40
1.0
 40
1.0
 40
1.0
 10
12.0391412454
 20
8.9108187253
 30
0.0
 10
12.0397660997
 20
8.9111499405
 30
0.0
 10
12.0408216805
 20
8.9115070488
 30
0.0
 10
12.0423174197
 20
8.9117339366
 30
0.0
 10
12.0435653469
 20
8.911790295
 30
0.0
 10
12.0448914528
 20
8.9117266447
 30
0.0
 10
12.0467990477
 20
8.9114763292
 30
0.0
 10
12.0482415715
 20
8.9111184665
 30
0.0
 10
12.0492077795
 20
8.9108187253
 30
0.0
  0
SPLINE
  5
35D
100
AcDbEntity
  8
0
100
AcDbSpline
 62
9
  6
CONTINUOUS
 70
0
 71
3
 72
15
 73
11
 74
0
 42
0.0000001
 43
0.0000001
 44
0.0000000001
 40
0.0
 40
0.0
 40
0.0
 40
0.0
 40
0.1144989154
 40
0.2368453095
 40
0.3649453459
 40
0.4962790847
 40
0.6281196107
 40
0.7577075673
 40
0.8824232223
 40
1.0
 40
1.0
 40
1.0
 40
1.0
 10
12.3838612824
 20
7.1258291435
 30
0.0
 10
12.3831372321
 20
7.1244681036
 30
0.0
 10
12.3818533335
 20
7.1215360405
 30
0.0
 10
12.3804594467
 20
7.1168132051
 30
0.0
 10
12.3795647699
 20
7.1117408222
 30
0.0
 10
12.3791974312
 20
7.1064761237
 30
0.0
 10
12.3793684915
 20
7.1011814467
 30
0.0
 10
12.3800729157
 20
7.0960202177
 30
0.0
 10
12.3812883893
 20
7.0911525947
 30
0.0
 10
12.382456426
 20
7.0880948713
 30
0.0
 10
12.3831256532
 20
7.0866601914
 30
0.0
  0
SPLINE
  5
35E
100
AcDbEntity
  8
0
100
AcDbSpline
 62
9
  6
CONTINUOUS
 70
0
 71
3
 72
13
 73
9
 74
0
 42
0.0000001
 43
0.0000001
 44
0.0000000001
 40
0.0
 40
0.0
 40
0.0
 40
0.0
 40
0.2827328997
 40
0.5523410355
 40
0.6779973106
 40
0.795439309
 40
0.9032208262
 40
1.0
 40
1.0
 40
1.0
 40
1.0
 10
12.3151991522
 20
7.1157818914
 30
0.0
 10
12.3148714035
 20
7.1135790871
 30
0.0
 10
12.3142680005
 20
7.1092701638
 30
0.0
 10
12.3136212996
 20
7.1039686002
 30
0.0
 10
12.3131961163
 20
7.0999524422
 30
0.0
 10
12.3129375781
 20
7.0972006445
 30
0.0
 10
12.3127348772
 20
7.0946722985
 30
0.0
 10
12.3126325705
 20
7.0930641341
 30
0.0
 10
12.3125926563
 20
7.0923028617
 30
0.0
  0
SPLINE
  5
35F
100
AcDbEntity
  8
0
100
AcDbSpline
 62
9
  6
CONTINUOUS
 70
0
 71
3
 72
13
 73
9
 74
0
 42
0.0000001
 43
0.0000001
 44
0.0000000001
 40
0.0
 40
0.0
 40
0.0
 40
0.0
 40
0.2827324849
 40
0.5523403325
 40
0.6779966095
 40
0.7954387278
 40
0.9032204825
 40
1.0
 40
1.0
 40
1.0
 40
1.0
 10
12.2092910022
 20
7.1157818723
 30
0.0
 10
12.2096189375
 20
7.1135790955
 30
0.0
 10
12.2102225773
 20
7.1092702022
 30
0.0
 10
12.2108693147
 20
7.1039686386
 30
0.0
 10
12.2112944297
 20
7.099952468
 30
0.0
 10
12.2115528847
 20
7.097200655
 30
0.0
 10
12.2117554833
 20
7.0946722911
 30
0.0
 10
12.2118577177
 20
7.0930641148
 30
0.0
 10
12.2118975931
 20
7.0923028365
 30
0.0
  0
LINE
  5
360
100
AcDbEntity
  8
0
100
AcDbLine
 62
9
  6
CONTINUOUS
 10
12.4193034509
 20
7.1607870718
 11
12.4343765536
 21
7.1607870718
  0
SPLINE
  5
361
100
AcDbEntity
  8
0
100
AcDbSpline
 62
9
  6
CONTINUOUS
 70
0
 71
3
 72
14
 73
10
 74
0
 42
0.0000001
 43
0.0000001
 44
0.0000000001
 40
0.0
 40
0.0
 40
0.0
 40
0.0
 40
0.1545258744
 40
0.301599103
 40
0.4403449088
 40
0.5702657945
 40
0.691055983
 40
0.8026935598
 40
1.0
 40
1.0
 40
1.0
 40
1.0
 10
12.4932863318
 20
8.8296184161
 30
0.0
 10
12.4938238517
 20
8.8294647618
 30
0.0
 10
12.494881492
 20
8.8291935342
 30
0.0
 10
12.4964468658
 20
8.8288921253
 30
0.0
 10
12.49794104
 20
8.8287082698
 30
0.0
 10
12.4993499496
 20
8.8286438812
 30
0.0
 10
12.5006622797
 20
8.8286996801
 30
0.0
 10
12.5022011368
 20
8.8289241326
 30
0.0
 10
12.5032817416
 20
8.8292797241
 30
0.0
 10
12.5039099799
 20
8.8296186355
 30
0.0
  0
LINE
  5
362
100
AcDbEntity
  8
0
100
AcDbLine
 62
9
  6
CONTINUOUS
 10
12.4532690572
 20
8.698733339
 11
12.4675106169
 21
8.6987333391
  0
SPLINE
  5
363
100
AcDbEntity
  8
0
100
AcDbSpline
 62
9
  6
CONTINUOUS
 70
0
 71
3
 72
15
 73
11
 74
0
 42
0.0000001
 43
0.0000001
 44
0.0000000001
 40
0.0
 40
0.0
 40
0.0
 40
0.0
 40
0.114499949
 40
0.236846202
 40
0.3649459377
 40
0.4962793388
 40
0.6281195843
 40
0.7577073687
 40
0.8824230137
 40
1.0
 40
1.0
 40
1.0
 40
1.0
 10
12.1406293214
 20
7.1258291147
 30
0.0
 10
12.1413534299
 20
7.1244680887
 30
0.0
 10
12.142637402
 20
7.1215360362
 30
0.0
 10
12.1440312823
 20
7.1168131851
 30
0.0
 10
12.1449259569
 20
7.1117408087
 30
0.0
 10
12.145293268
 20
7.106476116
 30
0.0
 10
12.1451221789
 20
7.1011814466
 30
0.0
 10
12.14441772
 20
7.0960202244
 30
0.0
 10
12.1432022064
 20
7.0911526069
 30
0.0
 10
12.1420341395
 20
7.0880948892
 30
0.0
 10
12.1413648965
 20
7.0866602123
 30
0.0
  0
SPLINE
  5
364
100
AcDbEntity
  8
0
100
AcDbSpline
 62
9
  6
CONTINUOUS
 70
0
 71
3
 72
15
 73
11
 74
0
 42
0.0000001
 43
0.0000001
 44
0.0000000001
 40
0.0
 40
0.0
 40
0.0
 40
0.0
 40
0.120106494
 40
0.2438175351
 40
0.3702589943
 40
0.498261196
 40
0.6265099561
 40
0.753667589
 40
0.8784941881
 40
1.0
 40
1.0
 40
1.0
 40
1.0
 10
12.0904234926
 20
7.1258291221
 30
0.0
 10
12.091422925
 20
7.1244995462
 30
0.0
 10
12.0932195111
 20
7.1216188736
 30
0.0
 10
12.0952113232
 20
7.1168727478
 30
0.0
 10
12.0964892309
 20
7.1117737653
 30
0.0
 10
12.0970136465
 20
7.1064812414
 30
0.0
 10
12.0967693653
 20
7.1011585892
 30
0.0
 10
12.0957632567
 20
7.0959701195
 30
0.0
 10
12.0940266784
 20
7.0910778197
 30
0.0
 10
12.0923886006
 20
7.0880652118
 30
0.0
 10
12.0914626148
 20
7.0866602104
 30
0.0
  0
SPLINE
  5
365
100
AcDbEntity
  8
0
100
AcDbSpline
 62
9
  6
CONTINUOUS
 70
0
 71
3
 72
15
 73
11
 74
0
 42
0.0000001
 43
0.0000001
 44
0.0000000001
 40
0.0
 40
0.0
 40
0.0
 40
0.0
 40
0.1243713434
 40
0.2489299213
 40
0.3736695019
 40
0.4986052451
 40
0.623726678
 40
0.7490139979
 40
0.8744552427
 40
1.0
 40
1.0
 40
1.0
 40
1.0
 10
12.075677834
 20
7.1157818548
 30
0.0
 10
12.0756945875
 20
7.114672971
 30
0.0
 10
12.0756024119
 20
7.1124496121
 30
0.0
 10
12.0750897399
 20
7.1091505217
 30
0.0
 10
12.0742088456
 20
7.1059245136
 30
0.0
 10
12.0729710803
 20
7.1028126485
 30
0.0
 10
12.071391833
 20
7.0998538853
 30
0.0
 10
12.0694910164
 20
7.0970851421
 30
0.0
 10
12.0672927658
 20
7.0945416868
 30
0.0
 10
12.0656470114
 20
7.0930170544
 30
0.0
 10
12.0647849743
 20
7.0923028322
 30
0.0
  0
LINE
  5
366
100
AcDbEntity
  8
0
100
AcDbLine
 62
9
  6
CONTINUOUS
 10
12.0901138888
 20
7.1607870718
 11
12.1051869916
 21
7.1607870718
  0
SPLINE
  5
367
100
AcDbEntity
  8
0
100
AcDbSpline
 62
9
  6
CONTINUOUS
 70
0
 71
3
 72
14
 73
10
 74
0
 42
0.0000001
 43
0.0000001
 44
0.0000000001
 40
0.0
 40
0.0
 40
0.0
 40
0.0
 40
0.1972922585
 40
0.3089334708
 40
0.4297266593
 40
0.5596508293
 40
0.6984007924
 40
0.8454736399
 40
1.0
 40
1.0
 40
1.0
 40
1.0
 10
12.0205805872
 20
8.8296184161
 30
0.0
 10
12.0212087637
 20
8.8292795399
 30
0.0
 10
12.0222893723
 20
8.8289241767
 30
0.0
 10
12.0238281392
 20
8.8286996665
 30
0.0
 10
12.0251404742
 20
8.8286438822
 30
0.0
 10
12.0265493788
 20
8.8287082825
 30
0.0
 10
12.0280435457
 20
8.8288920797
 30
0.0
 10
12.0296088666
 20
8.8291936358
 30
0.0
 10
12.0306664422
 20
8.829464983
 30
0.0
 10
12.0312039483
 20
8.8296186355
 30
0.0
  0
LINE
  5
368
100
AcDbEntity
  8
0
100
AcDbLine
 62
9
  6
CONTINUOUS
 10
12.0569798256
 20
8.698733339
 11
12.0712213853
 21
8.6987333391
  0
SPLINE
  5
369
100
AcDbEntity
  8
0
100
AcDbSpline
 62
9
  6
CONTINUOUS
 70
0
 71
3
 72
11
 73
7
 74
0
 42
0.0000001
 43
0.0000001
 44
0.0000000001
 40
0.0
 40
0.0
 40
0.0
 40
0.0
 40
0.2512907393
 40
0.5020244175
 40
0.7517199802
 40
1.0
 40
1.0
 40
1.0
 40
1.0
 10
12.5077995395
 20
8.8417043866
 30
0.0
 10
12.5077995395
 20
8.8406243894
 30
0.0
 10
12.5076317693
 20
8.8384630601
 30
0.0
 10
12.5068826348
 20
8.8353073626
 30
0.0
 10
12.5056563999
 20
8.8323185448
 30
0.0
 10
12.5045365797
 20
8.8304821706
 30
0.0
 10
12.5039098194
 20
8.8296185828
 30
0.0
  0
SPLINE
  5
36A
100
AcDbEntity
  8
0
100
AcDbSpline
 62
9
  6
CONTINUOUS
 70
0
 71
3
 72
11
 73
7
 74
0
 42
0.0000001
 43
0.0000001
 44
0.0000000001
 40
0.0
 40
0.0
 40
0.0
 40
0.0
 40
0.2656234461
 40
0.5248587973
 40
0.771557964
 40
1.0
 40
1.0
 40
1.0
 40
1.0
 10
12.4944662062
 20
8.8417041953
 30
0.0
 10
12.4944662062
 20
8.8406271538
 30
0.0
 10
12.49441659
 20
8.8384986295
 30
0.0
 10
12.494194424
 20
8.8353767912
 30
0.0
 10
12.4938309968
 20
8.8324199915
 30
0.0
 10
12.4934854868
 20
8.8305230327
 30
0.0
 10
12.4932863318
 20
8.8296184161
 30
0.0
  0
SPLINE
  5
36B
100
AcDbEntity
  8
0
100
AcDbSpline
 62
9
  6
CONTINUOUS
 70
0
 71
3
 72
11
 73
7
 74
0
 42
0.0000001
 43
0.0000001
 44
0.0000000001
 40
0.0
 40
0.0
 40
0.0
 40
0.0
 40
0.2656237862
 40
0.5248593871
 40
0.7715589103
 40
1.0
 40
1.0
 40
1.0
 40
1.0
 10
12.0300242364
 20
8.8417043866
 30
0.0
 10
12.0300242364
 20
8.8406273424
 30
0.0
 10
12.0300738577
 20
8.8384988141
 30
0.0
 10
12.0302960048
 20
8.8353769654
 30
0.0
 10
12.0306594885
 20
8.8324201729
 30
0.0
 10
12.0310049059
 20
8.8305231975
 30
0.0
 10
12.0312040563
 20
8.8296185828
 30
0.0
  0
SPLINE
  5
36C
100
AcDbEntity
  8
0
100
AcDbSpline
 62
9
  6
CONTINUOUS
 70
0
 71
3
 72
11
 73
7
 74
0
 42
0.0000001
 43
0.0000001
 44
0.0000000001
 40
0.0
 40
0.0
 40
0.0
 40
0.0
 40
0.2512909081
 40
0.5020247762
 40
0.7517205916
 40
1.0
 40
1.0
 40
1.0
 40
1.0
 10
12.016690903
 20
8.8417041953
 30
0.0
 10
12.016690903
 20
8.8406242008
 30
0.0
 10
12.0168586741
 20
8.8384628774
 30
0.0
 10
12.0176077981
 20
8.8353071834
 30
0.0
 10
12.0188340461
 20
8.8323183856
 30
0.0
 10
12.0199538245
 20
8.8304819947
 30
0.0
 10
12.0205805872
 20
8.8296184161
 30
0.0
  0
SPLINE
  5
36D
100
AcDbEntity
  8
0
100
AcDbSpline
 62
9
  6
CONTINUOUS
 70
0
 71
3
 72
13
 73
9
 74
0
 42
0.0000001
 43
0.0000001
 44
0.0000000001
 40
0.0
 40
0.0
 40
0.0
 40
0.0
 40
0.1173841663
 40
0.2369306129
 40
0.35875499
 40
0.4829442501
 40
0.7377197382
 40
1.0
 40
1.0
 40
1.0
 40
1.0
 10
12.4343765536
 20
7.1607870718
 30
0.0
 10
12.434277039
 20
7.1601601018
 30
0.0
 10
12.433998259
 20
7.158905749
 30
0.0
 10
12.4333570851
 20
7.1570703136
 30
0.0
 10
12.4324967311
 20
7.1552856839
 30
0.0
 10
12.4310605589
 20
7.1529841842
 30
0.0
 10
12.428767953
 20
7.1503487944
 30
0.0
 10
12.4265425707
 20
7.1486240623
 30
0.0
 10
12.4253463938
 20
7.1478617739
 30
0.0
  0
SPLINE
  5
36E
100
AcDbEntity
  8
0
100
AcDbSpline
 62
9
  6
CONTINUOUS
 70
0
 71
3
 72
15
 73
11
 74
0
 42
0.0000001
 43
0.0000001
 44
0.0000000001
 40
0.0
 40
0.0
 40
0.0
 40
0.0
 40
0.0578806888
 40
0.1306377887
 40
0.2206571601
 40
0.3302089105
 40
0.4613267407
 40
0.6157185017
 40
0.7948463752
 40
1.0
 40
1.0
 40
1.0
 40
1.0
 10
12.4488126083
 20
7.1157818657
 30
0.0
 10
12.4485689252
 20
7.1160256115
 30
0.0
 10
12.4479938977
 20
7.1165507742
 30
0.0
 10
12.4469689774
 20
7.1173739211
 30
0.0
 10
12.445656254
 20
7.1183267979
 30
0.0
 10
12.4440269581
 20
7.1194330017
 30
0.0
 10
12.4420554425
 20
7.1207166211
 30
0.0
 10
12.4397236804
 20
7.1222059315
 30
0.0
 10
12.4370179978
 20
7.1239288216
 30
0.0
 10
12.4350925643
 20
7.1251653785
 30
0.0
 10
12.4340669314
 20
7.1258290593
 30
0.0
  0
SPLINE
  5
36F
100
AcDbEntity
  8
0
100
AcDbSpline
 62
9
  6
CONTINUOUS
 70
0
 71
3
 72
13
 73
9
 74
0
 42
0.0000001
 43
0.0000001
 44
0.0000000001
 40
0.0
 40
0.0
 40
0.0
 40
0.0
 40
0.2952368738
 40
0.5681458178
 40
0.6923475212
 40
0.806499171
 40
0.9094082385
 40
1.0
 40
1.0
 40
1.0
 40
1.0
 10
12.4193034509
 20
7.1607870718
 30
0.0
 10
12.4200104286
 20
7.1595705255
 30
0.0
 10
12.4213266836
 20
7.157203392
 30
0.0
 10
12.4228074839
 20
7.1542531673
 30
0.0
 10
12.4238112204
 20
7.1520325787
 30
0.0
 10
12.4244350138
 20
7.1505301985
 30
0.0
 10
12.4249467189
 20
7.1491557898
 30
0.0
 10
12.4252283085
 20
7.1482770582
 30
0.0
 10
12.4253463938
 20
7.1478617739
 30
0.0
  0
SPLINE
  5
370
100
AcDbEntity
  8
0
100
AcDbSpline
 62
9
  6
CONTINUOUS
 70
0
 71
3
 72
14
 73
10
 74
0
 42
0.0000001
 43
0.0000001
 44
0.0000000001
 40
0.0
 40
0.0
 40
0.0
 40
0.0
 40
0.1203648855
 40
0.2426401295
 40
0.3664942182
 40
0.491642385
 40
0.6178028496
 40
0.7447268247
 40
1.0
 40
1.0
 40
1.0
 40
1.0
 10
12.3838620145
 20
7.1258293928
 30
0.0
 10
12.3811668745
 20
7.1251158921
 30
0.0
 10
12.3757037506
 20
7.1237894361
 30
0.0
 10
12.367387815
 20
7.1220771119
 30
0.0
 10
12.3589151544
 20
7.1205970725
 30
0.0
 10
12.3503186447
 20
7.1193217344
 30
0.0
 10
12.3416262334
 20
7.1182235145
 30
0.0
 10
12.3299186855
 20
7.1169610231
 30
0.0
 10
12.3210961863
 20
7.1162127555
 30
0.0
 10
12.3151990705
 20
7.1157818729
 30
0.0
  0
SPLINE
  5
371
100
AcDbEntity
  8
0
100
AcDbSpline
 62
9
  6
CONTINUOUS
 70
0
 71
3
 72
13
 73
9
 74
0
 42
0.0000001
 43
0.0000001
 44
0.0000000001
 40
0.0
 40
0.0
 40
0.0
 40
0.0
 40
0.2952367357
 40
0.5681455661
 40
0.6923472159
 40
0.806498749
 40
0.9094079201
 40
1.0
 40
1.0
 40
1.0
 40
1.0
 10
12.1051869916
 20
7.1607870718
 30
0.0
 10
12.1044800122
 20
7.1595705268
 30
0.0
 10
12.1031637425
 20
7.157203402
 30
0.0
 10
12.1016829401
 20
7.1542531784
 30
0.0
 10
12.1006792052
 20
7.1520325899
 30
0.0
 10
12.1000553999
 20
7.1505302146
 30
0.0
 10
12.0995436991
 20
7.1491558014
 30
0.0
 10
12.0992621351
 20
7.1482770596
 30
0.0
 10
12.0991440487
 20
7.1478617739
 30
0.0
  0
SPLINE
  5
372
100
AcDbEntity
  8
0
100
AcDbSpline
 62
9
  6
CONTINUOUS
 70
0
 71
3
 72
13
 73
9
 74
0
 42
0.0000001
 43
0.0000001
 44
0.0000000001
 40
0.0
 40
0.0
 40
0.0
 40
0.0
 40
0.2552759584
 40
0.5083525766
 40
0.6335019963
 40
0.7573577975
 40
0.8796342672
 40
1.0
 40
1.0
 40
1.0
 40
1.0
 10
12.2092909906
 20
7.115781873
 30
0.0
 10
12.2033939547
 20
7.1162125741
 30
0.0
 10
12.1916602654
 20
7.1172086056
 30
0.0
 10
12.1770799985
 20
7.1188902642
 30
0.0
 10
12.1655756055
 20
7.1205970982
 30
0.0
 10
12.1571030624
 20
7.1220770702
 30
0.0
 10
12.1487872258
 20
7.1237891807
 30
0.0
 10
12.1433242018
 20
7.1251156335
 30
0.0
 10
12.1406291336
 20
7.1258291916
 30
0.0
  0
SPLINE
  5
373
100
AcDbEntity
  8
0
100
AcDbSpline
 62
9
  6
CONTINUOUS
 70
0
 71
3
 72
13
 73
9
 74
0
 42
0.0000001
 43
0.0000001
 44
0.0000000001
 40
0.0
 40
0.0
 40
0.0
 40
0.0
 40
0.1173844034
 40
0.2369309728
 40
0.3587553305
 40
0.4829445966
 40
0.7377201106
 40
1.0
 40
1.0
 40
1.0
 40
1.0
 10
12.0901138888
 20
7.1607870718
 30
0.0
 10
12.0902134035
 20
7.1601601003
 30
0.0
 10
12.0904921811
 20
7.1589057446
 30
0.0
 10
12.091133354
 20
7.157070306
 30
0.0
 10
12.0919937086
 20
7.1552856751
 30
0.0
 10
12.0934298807
 20
7.1529841746
 30
0.0
 10
12.0957224788
 20
7.1503487769
 30
0.0
 10
12.0979478732
 20
7.1486240618
 30
0.0
 10
12.0991440487
 20
7.1478617739
 30
0.0
  0
SPLINE
  5
374
100
AcDbEntity
  8
0
100
AcDbSpline
 62
9
  6
CONTINUOUS
 70
0
 71
3
 72
15
 73
11
 74
0
 42
0.0000001
 43
0.0000001
 44
0.0000000001
 40
0.0
 40
0.0
 40
0.0
 40
0.0
 40
0.2051548079
 40
0.384284198
 40
0.5386721354
 40
0.6697925977
 40
0.7793457752
 40
0.8693632038
 40
0.9421203088
 40
1.0
 40
1.0
 40
1.0
 40
1.0
 10
12.0904236065
 20
7.1258294135
 30
0.0
 10
12.0893979974
 20
7.1251656444
 30
0.0
 10
12.0874725862
 20
7.1239289499
 30
0.0
 10
12.0847668826
 20
7.1222060031
 30
0.0
 10
12.0824350568
 20
7.1207167006
 30
0.0
 10
12.0804635188
 20
7.1194330391
 30
0.0
 10
12.0788341993
 20
7.1183267865
 30
0.0
 10
12.0775214967
 20
7.1173738394
 30
0.0
 10
12.0764965879
 20
7.1165506698
 30
0.0
 10
12.0759215428
 20
7.1160255204
 30
0.0
 10
12.0756778217
 20
7.1157818125
 30
0.0
  0
ENDSEC
  0
SECTION
  2
OBJECTS
  0
DICTIONARY
  5
C
100
AcDbDictionary
280
0
281
1
  3
ACAD_GROUP
350
D
  3
ACAD_MLINESTYLE
350
17
  3
ACAD_LAYOUT
350
1A
  3
ACAD_PLOTSETTINGS
350
19
  3
ACAD_PLOTSTYLENAME
350
E
  0
DICTIONARY
  5
D
102
{ACAD_REACTORS
330
C
102
}
100
AcDbDictionary
280
0
281
1
  0
ACDBDICTIONARYWDFLT
  5
E
102
{ACAD_REACTORS
330
C
102
}
100
AcDbDictionary
281
1
  3
Normal
350
F
100
AcDbDictionaryWithDefault
340
F
  0
DICTIONARY
  5
17
102
{ACAD_REACTORS
330
C
102
}
100
AcDbDictionary
280
0
281
1
  3
Standard
350
18
  0
DICTIONARY
  5
19
102
{ACAD_REACTORS
330
C
102
}
100
AcDbDictionary
281
1
  0
DICTIONARY
  5
1A
102
{ACAD_REACTORS
330
C
102
}
100
AcDbDictionary
281
1
  3
Model
350
375
  3
Layout1
350
376
  0
ACDBPLACEHOLDER
  5
F
102
{ACAD_REACTORS
330
E
102
}
  0
MLINESTYLE
  5
18
102
{ACAD_REACTORS
330
17
102
}
100
AcDbMlineStyle
  2
STANDARD
 70
0
  3

 62
256
 51
90.0
 52
90.0
 71
2
 49
0.5
 62
256
  6
BYLAYER
 49
-0.5
 62
256
  6
BYLAYER
  0
LAYOUT
  5
375
102
{ACAD_REACTORS
330
1A
102
}
100
AcDbPlotSettings
  1

  2
none_device
  4
ANSI_C_(22.00_x_17.00_Inches)
  6

 40
0.0
 41
0.0
 42
0.0
 43
0.0
 44
558.8
 45
431.8
 46
0.0
 47
0.0
 48
0.0
 49
0.0
140
0.0
141
0.0
142
1.0
143
1.0
 70
1024
 72
0
 73
0
 74
0
  7

 75
0
147
1.0
148
0.0
149
0.0
100
AcDbLayout
  1
Model
 70
0
 71
0
 10
0.0
 20
0.0
 11
22.0
 21
17.0
 12
0.0
 22
0.0
 32
0.0
 14
0.0
 24
0.0
 34
0.0
 15
0.0
 25
0.0
 35
0.0
146
0.0
 13
0.0
 23
0.0
 33
0.0
 16
1.0
 26
0.0
 36
0.0
 17
0.0
 27
1.0
 37
0.0
 76
0
330
205
345
0
346
0
  0
LAYOUT
  5
376
102
{ACAD_REACTORS
330
1A
102
}
100
AcDbPlotSettings
  1

  2
none_device
  4
ANSI_C_(22.00_x_17.00_Inches)
  6

 40
0.0
 41
0.0
 42
0.0
 43
0.0
 44
558.8
 45
431.8
 46
0.0
 47
0.0
 48
0.0
 49
0.0
140
0.0
141
0.0
142
1.0
143
1.0
 70
0
 72
0
 73
0
 74
0
  7

 75
0
147
1.0
148
0.0
149
0.0
100
AcDbLayout
  1
Layout1
 70
0
 71
1
 10
0.0
 20
0.0
 11
22.0
 21
17.0
 12
0.0
 22
0.0
 32
0.0
 14
0.0
 24
0.0
 34
0.0
 15
0.0
 25
0.0
 35
0.0
146
0.0
 13
0.0
 23
0.0
 33
0.0
 16
1.0
 26
0.0
 36
0.0
 17
0.0
 27
1.0
 37
0.0
 76
0
330
206
345
0
346
0
  0
ENDSEC
  0
EOF
