999
DXF file: E:\BT Custom\CADOUTPUT\_RIGHT.dxf
999
Pro/ENGINEER 2018400 by Parametric Technology Corporation
  0
SECTION
  2
HEADER
  9
$ACADVER
  1
AC1018
  9
$DWGCODEPAGE
  3
ANSI_1252
  9
$EXTMAX
 10
22.0
 20
17.0
 30
0.0
  9
$EXTMIN
 10
0.0
 20
0.0
 30
0.0
  9
$LIMMIN
 10
0.0
 20
0.0
  9
$LIMMAX
 10
22.0
 20
17.0
  9
$VIEWCTR
 10
11.0
 20
8.5
  9
$VIEWSIZE
 40
17.0
  9
$CLAYER
  8
0
  9
$LTSCALE
 40
1.21
  9
$CELTYPE
  6
BYLAYER
  9
$DIMSCALE
 40
1.0
  9
$DIMASZ
 40
0.1
  9
$DIMEXO
 40
0.0625
  9
$DIMDLI
 40
0.836
  9
$DIMEXE
 40
0.125
  9
$DIMCEN
 40
0.198
  9
$DIMLFAC
 40
1.0
  9
$DIMBLK
  1
_FILLED
  9
$DIMALT
 70
1
  9
$DIMALTD
 70
2
  9
$DIMALTTD
 70
2
  9
$DIMALTF
 40
25.4
  9
$DIMTXT
 40
0.08
  9
$DIMTOL
 70
1
  9
$DIMLIM
 70
0
  9
$DIMTFAC
 40
1.0
  9
$DIMTP
 40
0.001
  9
$DIMTM
 40
0.001
  9
$DIMGAP
 40
0.09
  9
$DIMDSEP
 70
46
  9
$AUNITS
 70
0
  9
$PDMODE
 70
3
  9
$PDSIZE
 40
0.06
  9
$HANDSEED
  5
34B
  9
$TILEMODE
 70
1
  9
$MEASUREMENT
 70
0
  9
$INSUNITS
 70
1
  0
ENDSEC
  0
SECTION
  2
CLASSES
  0
CLASS
  1
ACDBDICTIONARYWDFLT
  2
AcDbDictionaryWithDefault
  3
AutoCAD 2000
 90
0
 91
1
280
0
281
0
  0
CLASS
  1
ACDBPLACEHOLDER
  2
AcDbPlaceHolder
  3
AutoCAD 2000
 90
0
 91
1
280
0
281
0
  0
CLASS
  1
LAYOUT
  2
AcDbLayout
  3
AutoCAD 2000
 90
0
 91
0
280
0
281
0
  0
ENDSEC
  0
SECTION
  2
TABLES
  0
TABLE
  2
VPORT
  5
8
100
AcDbSymbolTable
 70
2
  0
VPORT
  5
1F4
100
AcDbSymbolTableRecord
100
AcDbViewportTableRecord
  2
*ACTIVE
 70
0
 10
0.0
 20
0.0
 11
1.0
 21
1.0
 12
11.0
 22
8.5
 13
0.0
 23
0.0
 14
1.0
 24
1.0
 15
0.0
 25
0.0
 16
0.0
 26
0.0
 36
1.0
 17
0.0
 27
0.0
 37
0.0
 40
17.0
 41
1.2941176471
 42
50.0
 43
0.0
 44
0.0
 50
0.0
 51
0.0
 71
0
 72
100
 73
1
 74
1
 75
0
 76
0
 77
0
 78
0
  0
ENDTAB
  0
TABLE
  2
LTYPE
  5
5
100
AcDbSymbolTable
 70
6
  0
LTYPE
  5
14
100
AcDbSymbolTableRecord
100
AcDbLinetypeTableRecord
  2
BYBLOCK
 70
0
  3

 72
65
 73
0
 40
0.0
  0
LTYPE
  5
15
100
AcDbSymbolTableRecord
100
AcDbLinetypeTableRecord
  2
BYLAYER
 70
0
  3

 72
65
 73
0
 40
0.0
  0
LTYPE
  5
16
100
AcDbSymbolTableRecord
100
AcDbLinetypeTableRecord
  2
CONTINUOUS
 70
64
  3
Solid line
 72
65
 73
0
 40
0.0
  0
LTYPE
  5
1F5
100
AcDbSymbolTableRecord
100
AcDbLinetypeTableRecord
  2
CENTER
 70
64
  3
____ _ ____ _ ____ _ ____ _ ____ _ ____ _ ____
 72
65
 73
4
 40
0.6
 49
0.375
 74
0
 49
-0.075
 74
0
 49
0.075
 74
0
 49
-0.075
 74
0
  0
LTYPE
  5
1F6
100
AcDbSymbolTableRecord
100
AcDbLinetypeTableRecord
  2
HIDDEN
 70
64
  3
- - - - - - - - - - - - - - - - - - - -
 72
65
 73
2
 40
0.2
 49
0.1
 74
0
 49
-0.1
 74
0
  0
LTYPE
  5
1F7
100
AcDbSymbolTableRecord
100
AcDbLinetypeTableRecord
  2
PHANTOM
 70
64
  3
_____ _ _ _____ _ _ _____ _ _ _____
 72
65
 73
6
 40
0.8
 49
0.45
 74
0
 49
-0.05
 74
0
 49
0.1
 74
0
 49
-0.05
 74
0
 49
0.1
 74
0
 49
-0.05
 74
0
  0
LTYPE
  5
1F8
100
AcDbSymbolTableRecord
100
AcDbLinetypeTableRecord
  2
DOT
 70
64
  3
. . . . . . . . . . . . . . . . . . . .
 72
65
 73
2
 40
0.2
 49
0.1
 74
0
 49
-0.1
 74
0
  0
LTYPE
  5
1F9
100
AcDbSymbolTableRecord
100
AcDbLinetypeTableRecord
  2
DASHED
 70
64
  3
- - - - - - - - - - - - - - - - - - - -
 72
65
 73
2
 40
0.2
 49
0.1
 74
0
 49
-0.1
 74
0
  0
ENDTAB
  0
TABLE
  2
LAYER
  5
2
100
AcDbSymbolTable
 70
36
  0
LAYER
  5
10
100
AcDbSymbolTableRecord
100
AcDbLayerTableRecord
  2
0
 70
0
 62
7
  6
CONTINUOUS
370
-3
390
F
  0
LAYER
  5
1FA
100
AcDbSymbolTableRecord
100
AcDbLayerTableRecord
  2
DEFAULT_1
 70
0
 62
7
  6
CENTER
370
-3
390
F
  0
LAYER
  5
1FB
100
AcDbSymbolTableRecord
100
AcDbLayerTableRecord
  2
DEFAULT_2
 70
0
 62
8
  6
HIDDEN
370
-3
390
F
  0
LAYER
  5
1FC
100
AcDbSymbolTableRecord
100
AcDbLayerTableRecord
  2
DEFAULT_3
 70
0
 62
7
  6
PHANTOM
370
-3
390
F
  0
LAYER
  5
1FD
100
AcDbSymbolTableRecord
100
AcDbLayerTableRecord
  2
ALL_FEATURES
 70
0
 62
7
  6
CONTINUOUS
370
-3
390
F
  0
LAYER
  5
1FE
100
AcDbSymbolTableRecord
100
AcDbLayerTableRecord
  2
AXES_FEATURES
 70
0
 62
7
  6
CONTINUOUS
370
-3
390
F
  0
LAYER
  5
1FF
100
AcDbSymbolTableRecord
100
AcDbLayerTableRecord
  2
DEFAULT_COORDINATE_SYSTEM
 70
0
 62
7
  6
CONTINUOUS
370
-3
390
F
  0
LAYER
  5
200
100
AcDbSymbolTableRecord
100
AcDbLayerTableRecord
  2
DEFAULT_DATUM_AXES
 70
0
 62
7
  6
CONTINUOUS
370
-3
390
F
  0
LAYER
  5
201
100
AcDbSymbolTableRecord
100
AcDbLayerTableRecord
  2
DEFAULT_DATUM_PLANES
 70
0
 62
7
  6
CONTINUOUS
370
-3
390
F
  0
LAYER
  5
202
100
AcDbSymbolTableRecord
100
AcDbLayerTableRecord
  2
DIMENSIONS
 70
0
 62
7
  6
CONTINUOUS
370
-3
390
F
  0
ENDTAB
  0
TABLE
  2
STYLE
  5
3
100
AcDbSymbolTable
 70
1
  0
STYLE
  5
11
100
AcDbSymbolTableRecord
100
AcDbTextStyleTableRecord
  2
STANDARD
 70
0
 40
0.0
 41
0.8
 50
0.0
 71
0
 42
0.2
  3
txt
  4

  0
STYLE
  5
203
100
AcDbSymbolTableRecord
100
AcDbTextStyleTableRecord
  2
TEXTSTYLE_1
 70
0
 40
0.0
 41
0.8
 50
0.0
 71
0
 42
0.2
  3
gdt
  4

  0
ENDTAB
  0
TABLE
  2
VIEW
  5
6
100
AcDbSymbolTable
 70
0
  0
ENDTAB
  0
TABLE
  2
UCS
  5
7
100
AcDbSymbolTable
 70
0
  0
ENDTAB
  0
TABLE
  2
APPID
  5
9
100
AcDbSymbolTable
 70
1
  0
APPID
  5
204
100
AcDbSymbolTableRecord
100
AcDbRegAppTableRecord
  2
ACAD
 70
0
  0
ENDTAB
  0
TABLE
  2
BLOCK_RECORD
  5
1
100
AcDbSymbolTable
 70
0
  0
BLOCK_RECORD
  5
205
100
AcDbSymbolTableRecord
100
AcDbBlockTableRecord
  2
*Model_Space
  0
BLOCK_RECORD
  5
206
100
AcDbSymbolTableRecord
100
AcDbBlockTableRecord
  2
*Paper_Space
  0
BLOCK_RECORD
  5
207
100
AcDbSymbolTableRecord
100
AcDbBlockTableRecord
  2
_FILLED
  0
ENDTAB
  0
TABLE
  2
DIMSTYLE
  5
A
100
AcDbSymbolTable
 70
1
100
AcDbDimStyleTable
 71
0
  0
DIMSTYLE
105
208
100
AcDbSymbolTableRecord
100
AcDbDimStyleTableRecord
  2
STANDARD
 70
0
  3

  4

 40
1.0
 41
0.1
 42
0.0625
 43
0.38
 44
0.125
 45
0.0
 46
0.0
 47
0.001
 48
0.001
140
0.08
141
0.09
142
0.0
143
25.4
144
1.0
145
0.0
146
1.0
147
0.09
 71
1.0
 72
0.0
 73
1
 74
1
 75
0
 76
0
 77
0
 78
4
 79
1
170
1
171
2
172
0
173
0
174
0
175
0
176
0
177
0
178
0
270
2
179
3
271
3
272
3
273
2
274
2
275
0
280
0
281
0
282
0
283
1
284
4
285
0
286
0
287
3
288
0
340
11
278
46
341
207
342
207
343
207
344
207
  0
ENDTAB
  0
ENDSEC
  0
SECTION
  2
BLOCKS
  0
BLOCK
  5
20
100
AcDbEntity
  8
0
100
AcDbBlockBegin
  2
*Model_Space
 70
0
 10
0.0
 20
0.0
 30
0.0
  3
*Model_Space
  1

  0
ENDBLK
  5
21
100
AcDbEntity
  8
0
100
AcDbBlockEnd
  0
BLOCK
  5
1C
100
AcDbEntity
  8
0
100
AcDbBlockBegin
  2
*Paper_Space
 70
0
 10
0.0
 20
0.0
 30
0.0
  3
*Paper_Space
  1

  0
ENDBLK
  5
1D
100
AcDbEntity
  8
0
100
AcDbBlockEnd
  0
BLOCK
  5
209
100
AcDbEntity
  8
0
100
AcDbBlockBegin
  2
_FILLED
 70
64
 10
0.0
 20
0.0
  3
_FILLED
  1

  0
SOLID
  5
20A
100
AcDbEntity
  8
0
  6
BYBLOCK
 62
0
100
AcDbTrace
 10
0.0
 20
0.0
 11
-1.0
 21
0.2
 12
-1.0
 22
-0.2
 13
-1.0
 23
-0.2
  0
ENDBLK
  5
20B
100
AcDbEntity
  8
0
  6
BYBLOCK
 62
0
100
AcDbBlockEnd
  0
ENDSEC
  0
SECTION
  2
ENTITIES
  0
LINE
  5
20C
100
AcDbEntity
  8
0
100
AcDbLine
 62
7
  6
CONTINUOUS
 10
11.7771154657
 20
4.3234410273
 11
13.7071146869
 21
4.3234410273
  0
LINE
  5
20D
100
AcDbEntity
  8
0
100
AcDbLine
 62
9
  6
CONTINUOUS
 10
13.7071150763
 20
4.3888347422
 11
11.7771150763
 21
4.3888343944
  0
LINE
  5
20E
100
AcDbEntity
  8
0
100
AcDbLine
 62
9
  6
CONTINUOUS
 10
13.6909612301
 20
4.4154483482
 11
13.6189144069
 21
4.4154483403
  0
LINE
  5
20F
100
AcDbEntity
  8
0
100
AcDbLine
 62
9
  6
CONTINUOUS
 10
13.6075489451
 20
4.415447995
 11
11.8766818911
 21
4.4154479925
  0
LINE
  5
210
100
AcDbEntity
  8
0
100
AcDbLine
 62
9
  6
CONTINUOUS
 10
11.8653158654
 20
4.415447995
 11
11.7932689225
 21
4.4154480003
  0
LINE
  5
211
100
AcDbEntity
  8
0
100
AcDbLine
 62
9
  6
CONTINUOUS
 10
11.8471150763
 20
4.5041600203
 11
11.8970933056
 21
4.5041600203
  0
LINE
  5
212
100
AcDbEntity
  8
0
100
AcDbLine
 62
9
  6
CONTINUOUS
 10
12.0242873587
 20
4.5041600203
 11
13.4599427939
 21
4.5041600203
  0
LINE
  5
213
100
AcDbEntity
  8
0
100
AcDbLine
 62
9
  6
CONTINUOUS
 10
13.587137101
 20
4.5041603682
 11
13.6371150763
 21
4.5041603682
  0
LINE
  5
214
100
AcDbEntity
  8
0
100
AcDbLine
 62
9
  6
CONTINUOUS
 10
13.6103668032
 20
4.5967023129
 11
12.9838346805
 21
4.5967023129
  0
LINE
  5
215
100
AcDbEntity
  8
0
100
AcDbLine
 62
9
  6
CONTINUOUS
 10
12.5003954721
 20
4.5967023129
 11
11.8738633494
 21
4.5967023129
  0
LINE
  5
216
100
AcDbEntity
  8
0
100
AcDbLine
 62
9
  6
CONTINUOUS
 10
11.8606844885
 20
4.6329984099
 11
13.6235456641
 21
4.6329984099
  0
LINE
  5
217
100
AcDbEntity
  8
0
100
AcDbLine
 62
9
  6
CONTINUOUS
 10
11.8668465365
 20
4.670671108
 11
13.6173836161
 21
4.670671108
  0
LINE
  5
218
100
AcDbEntity
  8
0
100
AcDbLine
 62
9
  6
CONTINUOUS
 10
11.8732188587
 20
4.7120387473
 11
13.6110112939
 21
4.7120387473
  0
LINE
  5
219
100
AcDbEntity
  8
0
100
AcDbLine
 62
7
  6
CONTINUOUS
 10
13.5835723851
 20
4.7484410273
 11
11.900656743
 21
4.7484410273
  0
LINE
  5
21A
100
AcDbEntity
  8
0
100
AcDbLine
 62
7
  6
CONTINUOUS
 10
7.8113862474
 20
11.4194141098
 11
7.8108817967
 21
11.4185474512
  0
LINE
  5
21B
100
AcDbEntity
  8
0
100
AcDbLine
 62
7
  6
CONTINUOUS
 10
8.1428835243
 20
12.0514913856
 11
7.9137300283
 21
11.4218973297
  0
LINE
  5
21C
100
AcDbEntity
  8
0
100
AcDbLine
 62
7
  6
CONTINUOUS
 10
7.7787896591
 20
11.1503852118
 11
7.7882321503
 21
11.1748298956
  0
LINE
  5
21D
100
AcDbEntity
  8
0
100
AcDbLine
 62
7
  6
CONTINUOUS
 10
8.6127298347
 20
11.880481314
 11
8.3835763387
 21
11.250887258
  0
LINE
  5
21E
100
AcDbEntity
  8
0
100
AcDbLine
 62
7
  6
CONTINUOUS
 10
8.4183348814
 20
11.1318761635
 11
8.4281153227
 21
11.1378385022
  0
LINE
  5
21F
100
AcDbEntity
  8
0
100
AcDbLine
 62
7
  6
CONTINUOUS
 10
8.4307973795
 20
11.1394121387
 11
8.4281153229
 21
11.1378385019
  0
LINE
  5
220
100
AcDbEntity
  8
0
100
AcDbLine
 62
7
  6
CONTINUOUS
 10
8.4603800404
 20
11.1831996869
 11
8.4602093946
 21
11.1822115333
  0
LINE
  5
221
100
AcDbEntity
  8
0
100
AcDbLine
 62
7
  6
CONTINUOUS
 10
8.3124220334
 20
10.9561589115
 11
8.3209014054
 21
10.9809541421
  0
LINE
  5
222
100
AcDbEntity
  8
0
100
AcDbLine
 62
9
  6
CONTINUOUS
 10
12.5671150763
 20
6.6647909621
 11
12.9171150763
 21
6.6647909621
  0
LINE
  5
223
100
AcDbEntity
  8
0
100
AcDbLine
 62
9
  6
CONTINUOUS
 10
12.5509825647
 20
6.6913934576
 11
12.9332475879
 21
6.6913934576
  0
LINE
  5
224
100
AcDbEntity
  8
0
100
AcDbLine
 62
9
  6
CONTINUOUS
 10
12.9476465201
 20
6.7392478585
 11
12.5365836325
 21
6.7392478585
  0
LINE
  5
225
100
AcDbEntity
  8
0
100
AcDbLine
 62
9
  6
CONTINUOUS
 10
12.9508739204
 20
6.7730215226
 11
12.5333562322
 21
6.7730215226
  0
LINE
  5
226
100
AcDbEntity
  8
0
100
AcDbLine
 62
9
  6
CONTINUOUS
 10
12.6212346591
 20
6.8288825013
 11
12.5713325198
 21
6.8288824933
  0
LINE
  5
227
100
AcDbEntity
  8
0
100
AcDbLine
 62
9
  6
CONTINUOUS
 10
12.9128976879
 20
6.8288825142
 11
12.8629954111
 21
6.8288825123
  0
LINE
  5
228
100
AcDbEntity
  8
0
100
AcDbLine
 62
9
  6
CONTINUOUS
 10
12.9139368057
 20
6.8680514166
 11
12.8637310218
 21
6.868051424
  0
LINE
  5
229
100
AcDbEntity
  8
0
100
AcDbLine
 62
9
  6
CONTINUOUS
 10
12.6204991674
 20
6.8680513738
 11
12.570293445
 21
6.8680514454
  0
LINE
  5
22A
100
AcDbEntity
  8
0
100
AcDbLine
 62
7
  6
CONTINUOUS
 10
13.6271150763
 20
7.0464410273
 11
12.935598426
 21
7.0464410273
  0
LINE
  5
22B
100
AcDbEntity
  8
0
100
AcDbLine
 62
7
  6
CONTINUOUS
 10
12.5486317266
 20
7.0464410273
 11
11.8571150763
 21
7.0464410273
  0
LINE
  5
22C
100
AcDbEntity
  8
0
100
AcDbLine
 62
9
  6
CONTINUOUS
 10
11.8271150763
 20
7.0764410273
 11
12.547846149
 21
7.0764410273
  0
LINE
  5
22D
100
AcDbEntity
  8
0
100
AcDbLine
 62
9
  6
CONTINUOUS
 10
12.9363840036
 20
7.0764410273
 11
13.6571150763
 21
7.0764410273
  0
LINE
  5
22E
100
AcDbEntity
  8
0
100
AcDbLine
 62
9
  6
CONTINUOUS
 10
11.8271150763
 20
7.1475117192
 11
12.5459850974
 21
7.1475117192
  0
LINE
  5
22F
100
AcDbEntity
  8
0
100
AcDbLine
 62
9
  6
CONTINUOUS
 10
12.9382450552
 20
7.1475117192
 11
13.6571150763
 21
7.1475117192
  0
LINE
  5
230
100
AcDbEntity
  8
0
100
AcDbLine
 62
9
  6
CONTINUOUS
 10
11.841235986
 20
7.1729647051
 11
12.5453185875
 21
7.1729647051
  0
LINE
  5
231
100
AcDbEntity
  8
0
100
AcDbLine
 62
9
  6
CONTINUOUS
 10
12.9389115651
 20
7.1729647051
 11
13.6429941666
 21
7.1729647051
  0
LINE
  5
232
100
AcDbEntity
  8
0
100
AcDbLine
 62
7
  6
CONTINUOUS
 10
7.8059017869
 20
11.3668555339
 11
7.8069448472
 21
11.3639260655
  0
LINE
  5
233
100
AcDbEntity
  8
0
100
AcDbLine
 62
7
  6
CONTINUOUS
 10
7.8106045828
 20
11.3530719026
 11
7.8069448475
 21
11.3639260656
  0
LINE
  5
234
100
AcDbEntity
  8
0
100
AcDbLine
 62
9
  6
CONTINUOUS
 10
12.0283272853
 20
7.3653236939
 11
12.5402814901
 21
7.3653236939
  0
LINE
  5
235
100
AcDbEntity
  8
0
100
AcDbLine
 62
9
  6
CONTINUOUS
 10
12.9439486625
 20
7.3653236939
 11
13.4559028673
 21
7.3653236939
  0
LINE
  5
236
100
AcDbEntity
  8
0
100
AcDbLine
 62
9
  6
CONTINUOUS
 10
12.0456985595
 20
7.378924175
 11
12.539925349
 21
7.378924175
  0
LINE
  5
237
100
AcDbEntity
  8
0
100
AcDbLine
 62
9
  6
CONTINUOUS
 10
12.9443048036
 20
7.378924175
 11
13.4385315931
 21
7.378924175
  0
LINE
  5
238
100
AcDbEntity
  8
0
100
AcDbLine
 62
9
  6
CONTINUOUS
 10
12.1752990339
 20
7.4105415949
 11
12.5390974177
 21
7.4105415949
  0
LINE
  5
239
100
AcDbEntity
  8
0
100
AcDbLine
 62
9
  6
CONTINUOUS
 10
12.9451327349
 20
7.4105415949
 11
13.3089311187
 21
7.4105415949
  0
LINE
  5
23A
100
AcDbEntity
  8
0
100
AcDbLine
 62
9
  6
CONTINUOUS
 10
12.1978343723
 20
7.4501586136
 11
12.5380600095
 21
7.4501586136
  0
LINE
  5
23B
100
AcDbEntity
  8
0
100
AcDbLine
 62
9
  6
CONTINUOUS
 10
12.946170143
 20
7.4501586136
 11
13.2863957803
 21
7.4501586136
  0
LINE
  5
23C
100
AcDbEntity
  8
0
100
AcDbLine
 62
9
  6
CONTINUOUS
 10
12.2015744308
 20
7.4892461471
 11
12.5370364665
 21
7.4892461471
  0
LINE
  5
23D
100
AcDbEntity
  8
0
100
AcDbLine
 62
9
  6
CONTINUOUS
 10
12.9471936861
 20
7.4892461471
 11
13.2826557218
 21
7.4892461471
  0
LINE
  5
23E
100
AcDbEntity
  8
0
100
AcDbLine
 62
9
  6
CONTINUOUS
 10
12.2052940274
 20
7.5326636871
 11
12.5358995382
 21
7.5326636871
  0
LINE
  5
23F
100
AcDbEntity
  8
0
100
AcDbLine
 62
9
  6
CONTINUOUS
 10
12.9483306144
 20
7.5326636871
 11
13.2789361252
 21
7.5326636871
  0
LINE
  5
240
100
AcDbEntity
  8
0
100
AcDbLine
 62
7
  6
CONTINUOUS
 10
13.2481150763
 20
7.5774561823
 11
12.9495035472
 21
7.5774561823
  0
LINE
  5
241
100
AcDbEntity
  8
0
100
AcDbLine
 62
7
  6
CONTINUOUS
 10
12.5347266054
 20
7.5774561823
 11
12.2361150763
 21
7.5774561823
  0
LINE
  5
242
100
AcDbEntity
  8
0
100
AcDbLine
 62
9
  6
CONTINUOUS
 10
12.9721150763
 20
8.4409556411
 11
12.9473804719
 21
8.4409556411
  0
LINE
  5
243
100
AcDbEntity
  8
0
100
AcDbLine
 62
9
  6
CONTINUOUS
 10
12.9331389122
 20
8.4409556411
 11
12.5510912404
 21
8.4409556411
  0
LINE
  5
244
100
AcDbEntity
  8
0
100
AcDbLine
 62
9
  6
CONTINUOUS
 10
12.5368496807
 20
8.4409556411
 11
12.5121150763
 21
8.4409556411
  0
LINE
  5
245
100
AcDbEntity
  8
0
100
AcDbLine
 62
9
  6
CONTINUOUS
 10
12.4661798151
 20
8.5718408518
 11
12.500450485
 21
8.5718408758
  0
LINE
  5
246
100
AcDbEntity
  8
0
100
AcDbLine
 62
9
  6
CONTINUOUS
 10
12.5110739085
 20
8.5718408847
 11
12.9731562402
 21
8.5718408758
  0
LINE
  5
247
100
AcDbEntity
  8
0
100
AcDbLine
 62
9
  6
CONTINUOUS
 10
12.9837796735
 20
8.5718408847
 11
13.0180503375
 21
8.5718408518
  0
LINE
  5
248
100
AcDbEntity
  8
0
100
AcDbLine
 62
9
  6
CONTINUOUS
 10
12.4621150763
 20
8.5839266885
 11
13.0221150763
 21
8.5839266885
  0
LINE
  5
249
100
AcDbEntity
  8
0
100
AcDbLine
 62
9
  6
CONTINUOUS
 10
12.4621150763
 20
8.6242410273
 11
13.0221150763
 21
8.6242410273
  0
LINE
  5
24A
100
AcDbEntity
  8
0
100
AcDbLine
 62
9
  6
CONTINUOUS
 10
13.0099296759
 20
8.6426511341
 11
12.9760086621
 21
8.6426511341
  0
LINE
  5
24B
100
AcDbEntity
  8
0
100
AcDbLine
 62
9
  6
CONTINUOUS
 10
12.9707989291
 20
8.6426511341
 11
12.5134312503
 21
8.6426511341
  0
LINE
  5
24C
100
AcDbEntity
  8
0
100
AcDbLine
 62
9
  6
CONTINUOUS
 10
12.5082214904
 20
8.6426511341
 11
12.4743004767
 21
8.6426511341
  0
LINE
  5
24D
100
AcDbEntity
  8
0
100
AcDbLine
 62
9
  6
CONTINUOUS
 10
12.9951535426
 20
8.6530410273
 11
12.9652190521
 21
8.6530410273
  0
LINE
  5
24E
100
AcDbEntity
  8
0
100
AcDbLine
 62
9
  6
CONTINUOUS
 10
12.9551525181
 20
8.6530410273
 11
12.5290776345
 21
8.6530410273
  0
LINE
  5
24F
100
AcDbEntity
  8
0
100
AcDbLine
 62
9
  6
CONTINUOUS
 10
12.5190111005
 20
8.6530410273
 11
12.48907661
 21
8.6530410273
  0
LINE
  5
250
100
AcDbEntity
  8
0
100
AcDbLine
 62
7
  6
CONTINUOUS
 10
12.5677658723
 20
8.6874410273
 11
12.9164642803
 21
8.6874410273
  0
LWPOLYLINE
  5
251
100
AcDbEntity
  8
0
100
AcDbPolyline
 62
7
  6
CONTINUOUS
 90
9
 70
0
 10
12.9430618691
 20
6.8367764585
 10
12.9411420297
 20
6.8383023742
 10
12.9382707761
 20
6.8411416961
 10
12.9358068541
 20
6.8443408758
 10
12.9337948961
 20
6.8478419472
 10
12.9322713448
 20
6.8515814778
 10
12.9312637945
 20
6.8554917132
 10
12.9307904898
 20
6.8595018059
 10
12.9307630746
 20
6.8617905441
  0
LINE
  5
252
100
AcDbEntity
  8
0
100
AcDbLine
 62
7
  6
CONTINUOUS
 10
11.7771150763
 20
4.3234410273
 11
11.7771150763
 21
4.3888343944
  0
LINE
  5
253
100
AcDbEntity
  8
0
100
AcDbLine
 62
7
  6
CONTINUOUS
 10
11.8271150763
 20
7.1475117192
 11
11.8271150763
 21
7.0764410273
  0
LINE
  5
254
100
AcDbEntity
  8
0
100
AcDbLine
 62
7
  6
CONTINUOUS
 10
11.8471150763
 20
4.5041600203
 11
11.8471150763
 21
4.5860657577
  0
LINE
  5
255
100
AcDbEntity
  8
0
100
AcDbLine
 62
9
  6
CONTINUOUS
 10
11.849384394
 20
4.3888343944
 11
11.849384394
 21
4.3234410273
  0
LINE
  5
256
100
AcDbEntity
  8
0
100
AcDbLine
 62
7
  6
CONTINUOUS
 10
8.2518813276
 20
10.8305821022
 11
7.7444473133
 21
11.0152729793
  0
LINE
  5
257
100
AcDbEntity
  8
0
100
AcDbLine
 62
9
  6
CONTINUOUS
 10
7.7305583588
 20
11.0219035829
 11
8.2667829538
 21
10.8267337914
  0
LINE
  5
258
100
AcDbEntity
  8
0
100
AcDbLine
 62
9
  6
CONTINUOUS
 10
7.7168514312
 20
11.038132149
 11
8.2877145908
 21
10.830354951
  0
LINE
  5
259
100
AcDbEntity
  8
0
100
AcDbLine
 62
9
  6
CONTINUOUS
 10
7.7199372827
 20
11.0773375344
 11
8.3105514274
 21
10.8623715658
  0
LINE
  5
25A
100
AcDbEntity
  8
0
100
AcDbLine
 62
9
  6
CONTINUOUS
 10
7.7346964064
 20
11.0937394849
 11
8.3097882533
 21
10.8844231707
  0
LINE
  5
25B
100
AcDbEntity
  8
0
100
AcDbLine
 62
9
  6
CONTINUOUS
 10
7.7787896591
 20
11.1503852118
 11
8.3124220334
 21
10.9561589115
  0
LINE
  5
25C
100
AcDbEntity
  8
0
100
AcDbLine
 62
9
  6
CONTINUOUS
 10
7.7882321521
 20
11.174829895
 11
8.3209014036
 21
10.9809541427
  0
LINE
  5
25D
100
AcDbEntity
  8
0
100
AcDbLine
 62
9
  6
CONTINUOUS
 10
7.8136741928
 20
11.2604179975
 11
8.3564266416
 21
11.0628722616
  0
LINE
  5
25E
100
AcDbEntity
  8
0
100
AcDbLine
 62
9
  6
CONTINUOUS
 10
11.8740108307
 20
4.3888343944
 11
11.8740108307
 21
4.3234410273
  0
LINE
  5
25F
100
AcDbEntity
  8
0
100
AcDbLine
 62
7
  6
CONTINUOUS
 10
11.9371150763
 20
4.7484410273
 11
11.9371150763
 21
7.0464410273
  0
LINE
  5
260
100
AcDbEntity
  8
0
100
AcDbLine
 62
9
  6
CONTINUOUS
 10
7.8106045828
 20
11.3530719026
 11
8.4183348814
 21
11.1318761635
  0
LINE
  5
261
100
AcDbEntity
  8
0
100
AcDbLine
 62
9
  6
CONTINUOUS
 10
7.8069448472
 20
11.3639260655
 11
8.4281153229
 21
11.1378385019
  0
LINE
  5
262
100
AcDbEntity
  8
0
100
AcDbLine
 62
9
  6
CONTINUOUS
 10
7.8059017866
 20
11.3668555338
 11
8.4307973796
 21
11.1394121384
  0
LINE
  5
263
100
AcDbEntity
  8
0
100
AcDbLine
 62
9
  6
CONTINUOUS
 10
7.8108817967
 20
11.4185474512
 11
8.4602093946
 21
11.1822115333
  0
LINE
  5
264
100
AcDbEntity
  8
0
100
AcDbLine
 62
9
  6
CONTINUOUS
 10
7.8113862526
 20
11.4194141067
 11
8.4603800344
 21
11.1831996879
  0
LINE
  5
265
100
AcDbEntity
  8
0
100
AcDbLine
 62
9
  6
CONTINUOUS
 10
7.824431141
 20
11.4328707407
 11
8.4590368277
 21
11.2018931603
  0
LINE
  5
266
100
AcDbEntity
  8
0
100
AcDbLine
 62
7
  6
CONTINUOUS
 10
8.4272720469
 20
11.2349833209
 11
7.8700345949
 21
11.4378011668
  0
LINE
  5
267
100
AcDbEntity
  8
0
100
AcDbLine
 62
7
  6
CONTINUOUS
 10
12.5121150763
 20
8.4409556411
 11
12.5534669696
 21
6.861790548
  0
LINE
  5
268
100
AcDbEntity
  8
0
100
AcDbLine
 62
7
  6
CONTINUOUS
 10
12.4621150763
 20
8.6242410273
 11
12.4621150763
 21
8.5839266885
  0
LINE
  5
269
100
AcDbEntity
  8
0
100
AcDbLine
 62
7
  6
CONTINUOUS
 10
12.4921150763
 20
7.5774410273
 11
12.4921150763
 21
8.528079615
  0
LINE
  5
26A
100
AcDbEntity
  8
0
100
AcDbLine
 62
7
  6
CONTINUOUS
 10
12.4921150763
 20
8.6560035193
 11
12.4921150763
 21
11.1964410273
  0
LINE
  5
26B
100
AcDbEntity
  8
0
100
AcDbLine
 62
9
  6
CONTINUOUS
 10
12.4965607581
 20
8.5839266885
 11
12.4965607581
 21
8.6242410273
  0
LINE
  5
26C
100
AcDbEntity
  8
0
100
AcDbLine
 62
9
  6
CONTINUOUS
 10
12.5098940914
 20
8.5839266885
 11
12.5098940914
 21
8.6242410273
  0
LINE
  5
26D
100
AcDbEntity
  8
0
100
AcDbLine
 62
7
  6
CONTINUOUS
 10
12.5671150763
 20
6.6647909621
 11
12.5671150763
 21
6.4849023315
  0
LWPOLYLINE
  5
26E
100
AcDbEntity
  8
0
100
AcDbPolyline
 62
7
  6
CONTINUOUS
 90
9
 70
0
 10
12.553467078
 20
6.8617905441
 10
12.5534396628
 20
6.8595018059
 10
12.5529663581
 20
6.8554917132
 10
12.5519588078
 20
6.8515814778
 10
12.5504352565
 20
6.8478419472
 10
12.5484232985
 20
6.8443408758
 10
12.5459593765
 20
6.8411416961
 10
12.5430881229
 20
6.8383023742
 10
12.5411682835
 20
6.8367764585
  0
LWPOLYLINE
  5
26F
100
AcDbEntity
  8
0
100
AcDbPolyline
 62
7
  6
CONTINUOUS
 90
3
 70
0
 10
12.9174861116
 20
6.4779839152
 10
12.9174046799
 20
6.4785295337
 10
12.9171139564
 20
6.4849023288
  0
LINE
  5
270
100
AcDbEntity
  8
0
100
AcDbLine
 62
7
  6
CONTINUOUS
 10
12.9171150763
 20
6.6647909621
 11
12.9171150763
 21
6.4849023289
  0
LINE
  5
271
100
AcDbEntity
  8
0
100
AcDbLine
 62
9
  6
CONTINUOUS
 10
12.9743360612
 20
8.5839266885
 11
12.9743360612
 21
8.6242410273
  0
LWPOLYLINE
  5
272
100
AcDbEntity
  8
0
100
AcDbPolyline
 62
7
  6
CONTINUOUS
 90
3
 70
0
 10
12.5671161973
 20
6.4849023314
 10
12.566825473
 20
6.4785295287
 10
12.5667440417
 20
6.4779839156
  0
LINE
  5
273
100
AcDbEntity
  8
0
100
AcDbLine
 62
9
  6
CONTINUOUS
 10
12.4921150763
 20
11.1964410273
 11
12.9921150763
 21
11.1964410273
  0
LINE
  5
274
100
AcDbEntity
  8
0
100
AcDbLine
 62
9
  6
CONTINUOUS
 10
8.6127298347
 20
11.880481314
 11
8.1428835243
 21
12.0514913856
  0
LINE
  5
275
100
AcDbEntity
  8
0
100
AcDbLine
 62
9
  6
CONTINUOUS
 10
12.9876693945
 20
8.5839266885
 11
12.9876693945
 21
8.6242410273
  0
LINE
  5
276
100
AcDbEntity
  8
0
100
AcDbLine
 62
7
  6
CONTINUOUS
 10
12.9921150763
 20
7.5774410273
 11
12.9921150763
 21
8.528079615
  0
LINE
  5
277
100
AcDbEntity
  8
0
100
AcDbLine
 62
7
  6
CONTINUOUS
 10
12.9921150763
 20
8.6560035193
 11
12.9921150763
 21
11.1964410273
  0
LINE
  5
278
100
AcDbEntity
  8
0
100
AcDbLine
 62
7
  6
CONTINUOUS
 10
13.0221150763
 20
8.6242410273
 11
13.0221150763
 21
8.5839266885
  0
LINE
  5
279
100
AcDbEntity
  8
0
100
AcDbLine
 62
7
  6
CONTINUOUS
 10
12.9721150763
 20
8.4409556411
 11
12.930763183
 21
6.861790548
  0
LINE
  5
27A
100
AcDbEntity
  8
0
100
AcDbLine
 62
7
  6
CONTINUOUS
 10
13.5471150763
 20
4.7484410273
 11
13.5471150763
 21
7.0464410273
  0
LINE
  5
27B
100
AcDbEntity
  8
0
100
AcDbLine
 62
9
  6
CONTINUOUS
 10
13.6102193219
 20
4.3888343944
 11
13.6102193219
 21
4.3234410273
  0
LINE
  5
27C
100
AcDbEntity
  8
0
100
AcDbLine
 62
9
  6
CONTINUOUS
 10
13.6348457586
 20
4.3888347422
 11
13.6348457586
 21
4.3234410273
  0
LINE
  5
27D
100
AcDbEntity
  8
0
100
AcDbLine
 62
7
  6
CONTINUOUS
 10
13.6371150763
 20
4.5041603682
 11
13.6371150763
 21
4.5860674502
  0
LINE
  5
27E
100
AcDbEntity
  8
0
100
AcDbLine
 62
7
  6
CONTINUOUS
 10
13.6571150763
 20
7.1475117192
 11
13.6571150763
 21
7.0764410273
  0
LINE
  5
27F
100
AcDbEntity
  8
0
100
AcDbLine
 62
7
  6
CONTINUOUS
 10
13.7071150763
 20
4.3234410273
 11
13.7071150763
 21
4.3888347422
  0
LWPOLYLINE
  5
280
100
AcDbEntity
  8
0
100
AcDbPolyline
 62
7
  6
CONTINUOUS
 90
7
 70
0
 10
11.8544056398
 20
4.6056694307
 10
11.8529551021
 20
4.6038511248
 10
11.8507773529
 20
4.6004306289
 10
11.8490807462
 20
4.5967476387
 10
11.8478963246
 20
4.5928695348
 10
11.8472457182
 20
4.5888672788
 10
11.8471146245
 20
4.5860657576
  0
ARC
  5
281
100
AcDbEntity
  8
0
100
AcDbCircle
 62
7
  6
CONTINUOUS
 10
10.4921150763
 20
11.1964410273
 40
2.5
100
AcDbArc
 50
0.0
 51
160.0
  0
ARC
  5
282
100
AcDbEntity
  8
0
100
AcDbCircle
 62
7
  6
CONTINUOUS
 10
10.4921150763
 20
11.1964410273
 40
2.0
100
AcDbArc
 50
0.0
 51
160.0
  0
ARC
  5
283
100
AcDbEntity
  8
0
100
AcDbCircle
 62
7
  6
CONTINUOUS
 10
9.0190930204
 20
10.7268331752
 40
0.743
100
AcDbArc
 50
153.1103674819
 51
159.9999999124
  0
ARC
  5
284
100
AcDbEntity
  8
0
100
AcDbCircle
 62
7
  6
CONTINUOUS
 10
7.0900405345
 20
11.4289508604
 40
0.743
100
AcDbArc
 50
340.0000000876
 51
346.8896325181
  0
ARC
  5
285
100
AcDbEntity
  8
0
100
AcDbCircle
 62
7
  6
CONTINUOUS
 10
8.5160730515
 20
10.9819153344
 40
0.1790000008
100
AcDbArc
 50
123.0946198465
 51
153.1103674819
  0
ARC
  5
286
100
AcDbEntity
  8
0
100
AcDbCircle
 62
7
  6
CONTINUOUS
 10
7.6393398378
 20
11.3010201276
 40
0.1790000008
100
AcDbArc
 50
346.8896325181
 51
16.9053801535
  0
ARC
  5
287
100
AcDbEntity
  8
0
100
AcDbCircle
 62
7
  6
CONTINUOUS
 10
8.4390843763
 20
10.9155922687
 40
0.1330000004
100
AcDbArc
 50
162.2410938151
 51
193.553553377
  0
ARC
  5
288
100
AcDbEntity
  8
0
100
AcDbCircle
 62
7
  6
CONTINUOUS
 10
7.6556849398
 20
11.2007263451
 40
0.1330000004
100
AcDbArc
 50
306.446446623
 51
337.7589061849
  0
ARC
  5
289
100
AcDbEntity
  8
0
100
AcDbCircle
 62
7
  6
CONTINUOUS
 10
8.2792429391
 20
10.9057575118
 40
0.08
100
AcDbArc
 50
250.0
 51
261.0397140499
  0
ARC
  5
28A
100
AcDbEntity
  8
0
100
AcDbCircle
 62
7
  6
CONTINUOUS
 10
7.7718089247
 20
11.0904483889
 40
0.08
100
AcDbArc
 50
238.9602859501
 51
250.0
  0
ARC
  5
28B
100
AcDbEntity
  8
0
100
AcDbCircle
 62
7
  6
CONTINUOUS
 10
8.3981967181
 20
11.1933212879
 40
0.0629999962
100
AcDbArc
 50
301.1627534366
 51
349.8430419522
  0
ARC
  5
28C
100
AcDbEntity
  8
0
100
AcDbCircle
 62
7
  6
CONTINUOUS
 10
7.8655274755
 20
11.3871970369
 40
0.0629999962
100
AcDbArc
 50
150.1569580478
 51
198.8372465634
  0
ARC
  5
28D
100
AcDbEntity
  8
0
100
AcDbCircle
 62
7
  6
CONTINUOUS
 10
8.2563199303
 20
10.8715336938
 40
0.0549999988
100
AcDbArc
 50
350.4107267091
 51
13.553553377
  0
ARC
  5
28E
100
AcDbEntity
  8
0
100
AcDbCircle
 62
7
  6
CONTINUOUS
 10
7.767370322
 20
11.0494967973
 40
0.0549999988
100
AcDbArc
 50
126.446446623
 51
149.5892732909
  0
ARC
  5
28F
100
AcDbEntity
  8
0
100
AcDbCircle
 62
7
  6
CONTINUOUS
 10
8.4094869995
 20
11.1861193046
 40
0.052
100
AcDbArc
 50
17.6585253029
 51
70.0
  0
ARC
  5
290
100
AcDbEntity
  8
0
100
AcDbCircle
 62
7
  6
CONTINUOUS
 10
7.8522492726
 20
11.3889372506
 40
0.052
100
AcDbArc
 50
70.0
 51
122.3414746971
  0
ARC
  5
291
100
AcDbEntity
  8
0
100
AcDbCircle
 62
7
  6
CONTINUOUS
 10
8.2661801883
 20
10.8698678547
 40
0.0450000005
100
AcDbArc
 50
298.5902386693
 51
350.4107267091
  0
ARC
  5
292
100
AcDbEntity
  8
0
100
AcDbCircle
 62
7
  6
CONTINUOUS
 10
7.7587461454
 20
11.0545587422
 40
0.0450000005
100
AcDbArc
 50
149.5892732909
 51
201.4097613307
  0
ARC
  5
293
100
AcDbEntity
  8
0
100
AcDbCircle
 62
7
  6
CONTINUOUS
 10
8.4209215749
 20
11.189759425
 40
0.0400000021
100
AcDbArc
 50
350.561234851
 51
17.6585253029
  0
ARC
  5
294
100
AcDbEntity
  8
0
100
AcDbCircle
 62
7
  6
CONTINUOUS
 10
7.845829704
 20
11.399075748
 40
0.0400000021
100
AcDbArc
 50
122.3414746971
 51
149.438765149
  0
ARC
  5
295
100
AcDbEntity
  8
0
100
AcDbCircle
 62
7
  6
CONTINUOUS
 10
8.2719226978
 20
10.8593310765
 40
0.0329999994
100
AcDbArc
 50
261.0397140499
 51
298.5902386693
  0
ARC
  5
296
100
AcDbEntity
  8
0
100
AcDbCircle
 62
7
  6
CONTINUOUS
 10
7.7475742175
 20
11.0501783157
 40
0.0329999994
100
AcDbArc
 50
201.4097613307
 51
238.9602859501
  0
ARC
  5
297
100
AcDbEntity
  8
0
100
AcDbCircle
 62
9
  6
CONTINUOUS
 10
12.818625247
 20
0.1497771066
 40
4.4013558692
100
AcDbArc
 50
80.4340980129
 51
81.6216581312
  0
ARC
  5
298
100
AcDbEntity
  8
0
100
AcDbCircle
 62
9
  6
CONTINUOUS
 10
12.6648013734
 20
0.1552216726
 40
4.3958524137
100
AcDbArc
 50
98.3783205738
 51
99.5673640028
  0
ARC
  5
299
100
AcDbEntity
  8
0
100
AcDbCircle
 62
9
  6
CONTINUOUS
 10
12.799439866
 20
1.0813307853
 40
3.514237775
100
AcDbArc
 50
77.6256105206
 51
79.1279070665
  0
ARC
  5
29A
100
AcDbEntity
  8
0
100
AcDbCircle
 62
9
  6
CONTINUOUS
 10
12.6797391086
 20
1.105916476
 40
3.4891406565
100
AcDbArc
 50
100.8667851143
 51
102.3798757687
  0
ARC
  5
29B
100
AcDbEntity
  8
0
100
AcDbCircle
 62
9
  6
CONTINUOUS
 10
13.3125152496
 20
5.5682172918
 40
1.7359610146
100
AcDbArc
 50
214.0309749596
 51
216.6289359365
  0
ARC
  5
29C
100
AcDbEntity
  8
0
100
AcDbCircle
 62
9
  6
CONTINUOUS
 10
12.1717247878
 20
5.5682103015
 40
1.7359489107
100
AcDbArc
 50
323.3710689128
 51
325.9690336599
  0
ARC
  5
29D
100
AcDbEntity
  8
0
100
AcDbCircle
 62
7
  6
CONTINUOUS
 10
13.7371150763
 20
4.5041603682
 40
0.1
100
AcDbArc
 50
180.0
 51
242.5135737496
  0
ARC
  5
29E
100
AcDbEntity
  8
0
100
AcDbCircle
 62
7
  6
CONTINUOUS
 10
11.7471150763
 20
4.5041600203
 40
0.1
100
AcDbArc
 50
297.4864262504
 51
360.0
  0
ARC
  5
29F
100
AcDbEntity
  8
0
100
AcDbCircle
 62
7
  6
CONTINUOUS
 10
11.825152492
 20
4.6982683298
 40
0.05
100
AcDbArc
 50
326.4994880157
 51
15.9863506381
  0
ARC
  5
2A0
100
AcDbEntity
  8
0
100
AcDbCircle
 62
7
  6
CONTINUOUS
 10
13.6590776606
 20
4.6982683298
 40
0.05
100
AcDbArc
 50
164.0136493619
 51
213.5005119843
  0
ARC
  5
2A1
100
AcDbEntity
  8
0
100
AcDbCircle
 62
7
  6
CONTINUOUS
 10
11.905656743
 20
4.644982694
 40
0.0465416667
100
AcDbArc
 50
146.4994880157
 51
194.921523935
  0
ARC
  5
2A2
100
AcDbEntity
  8
0
100
AcDbCircle
 62
7
  6
CONTINUOUS
 10
13.5785734096
 20
4.644982694
 40
0.0465416667
100
AcDbArc
 50
345.078476065
 51
33.5005119843
  0
ARC
  5
2A3
100
AcDbEntity
  8
0
100
AcDbCircle
 62
9
  6
CONTINUOUS
 10
13.6014710514
 20
4.567993634
 40
0.0300533825
100
AcDbArc
 50
0.2620784959
 51
72.7837357566
  0
ARC
  5
2A4
100
AcDbEntity
  8
0
100
AcDbCircle
 62
9
  6
CONTINUOUS
 10
11.8827588793
 20
4.5679938144
 40
0.0300531518
100
AcDbArc
 50
107.2159621415
 51
179.7382633851
  0
ARC
  5
2A5
100
AcDbEntity
  8
0
100
AcDbCircle
 62
7
  6
CONTINUOUS
 10
13.6525340466
 20
4.6252735357
 40
0.03
100
AcDbArc
 50
165.078476065
 51
220.8010713068
  0
ARC
  5
2A6
100
AcDbEntity
  8
0
100
AcDbCircle
 62
7
  6
CONTINUOUS
 10
13.6071150763
 20
4.5860674502
 40
0.03
100
AcDbArc
 50
0.0
 51
40.8010713068
  0
ARC
  5
2A7
100
AcDbEntity
  8
0
100
AcDbCircle
 62
7
  6
CONTINUOUS
 10
11.831696106
 20
4.6252735357
 40
0.03
100
AcDbArc
 50
319.1974536684
 51
14.921523935
  0
ARC
  5
2A8
100
AcDbEntity
  8
0
100
AcDbCircle
 62
7
  6
CONTINUOUS
 10
13.6771150763
 20
4.3888347422
 40
0.03
100
AcDbArc
 50
0.0
 51
62.5135737496
  0
ARC
  5
2A9
100
AcDbEntity
  8
0
100
AcDbCircle
 62
7
  6
CONTINUOUS
 10
11.8071150763
 20
4.3888343944
 40
0.03
100
AcDbArc
 50
117.4864262504
 51
180.0
  0
ARC
  5
2AA
100
AcDbEntity
  8
0
100
AcDbCircle
 62
7
  6
CONTINUOUS
 10
11.900656743
 20
4.7198993606
 40
0.0285416667
100
AcDbArc
 50
90.0
 51
195.9863506381
  0
ARC
  5
2AB
100
AcDbEntity
  8
0
100
AcDbCircle
 62
7
  6
CONTINUOUS
 10
13.5835734096
 20
4.7198993606
 40
0.0285416667
100
AcDbArc
 50
344.0136493619
 51
90.0
  0
ARC
  5
2AC
100
AcDbEntity
  8
0
100
AcDbCircle
 62
9
  6
CONTINUOUS
 10
11.535668916
 20
6.3352731968
 40
1.4776586235
100
AcDbArc
 50
21.1343265651
 51
22.0531302033
  0
ARC
  5
2AD
100
AcDbEntity
  8
0
100
AcDbCircle
 62
7
  6
CONTINUOUS
 10
12.4367151774
 20
6.0575650246
 40
1.378
100
AcDbArc
 50
100.9356812119
 51
106.4845399258
  0
ARC
  5
2AE
100
AcDbEntity
  8
0
100
AcDbCircle
 62
9
  6
CONTINUOUS
 10
12.1576317859
 20
6.6354966014
 40
0.8025140304
100
AcDbArc
 50
16.0969284017
 51
19.4718336892
  0
ARC
  5
2AF
100
AcDbEntity
  8
0
100
AcDbCircle
 62
7
  6
CONTINUOUS
 10
12.7421150763
 20
6.1074410273
 40
0.595
100
AcDbArc
 50
107.3100678063
 51
72.6899321937
  0
ARC
  5
2B0
100
AcDbEntity
  8
0
100
AcDbCircle
 62
9
  6
CONTINUOUS
 10
12.7421150763
 20
6.1074410273
 40
0.5901399629
100
AcDbArc
 50
107.3197709772
 51
72.6802290228
  0
ARC
  5
2B1
100
AcDbEntity
  8
0
100
AcDbCircle
 62
7
  6
CONTINUOUS
 10
12.7421150763
 20
6.1074410273
 40
0.4835
100
AcDbArc
 50
111.2277777932
 51
68.7722222068
  0
ARC
  5
2B2
100
AcDbEntity
  8
0
100
AcDbCircle
 62
9
  6
CONTINUOUS
 10
12.7421150763
 20
6.1074410273
 40
0.4752811972
100
AcDbArc
 50
111.6169133608
 51
68.3830866392
  0
ARC
  5
2B3
100
AcDbEntity
  8
0
100
AcDbCircle
 62
7
  6
CONTINUOUS
 10
12.7421150763
 20
6.1074410273
 40
0.4715
100
AcDbArc
 50
111.8000750282
 51
68.1999249718
  0
ARC
  5
2B4
100
AcDbEntity
  8
0
100
AcDbCircle
 62
9
  6
CONTINUOUS
 10
12.7421150763
 20
6.1074410273
 40
0.4476
100
AcDbArc
 50
113.0296341283
 51
66.9703658717
  0
ARC
  5
2B5
100
AcDbEntity
  8
0
100
AcDbCircle
 62
9
  6
CONTINUOUS
 10
12.7421150763
 20
6.1074410273
 40
0.44
100
AcDbArc
 50
113.4487261592
 51
66.5512738439
  0
CIRCLE
  5
2B6
100
AcDbEntity
  8
0
100
AcDbCircle
 62
7
  6
CONTINUOUS
 10
12.7421150763
 20
6.1074410273
 40
0.41
  0
CIRCLE
  5
2B7
100
AcDbEntity
  8
0
100
AcDbCircle
 62
9
  6
CONTINUOUS
 10
12.7421150763
 20
6.1074410273
 40
0.3574596669
  0
ARC
  5
2B8
100
AcDbEntity
  8
0
100
AcDbCircle
 62
7
  6
CONTINUOUS
 10
12.5671150763
 20
6.8012410273
 40
0.044
100
AcDbArc
 50
126.1356793028
 51
219.89273707
  0
ARC
  5
2B9
100
AcDbEntity
  8
0
100
AcDbCircle
 62
7
  6
CONTINUOUS
 10
12.5671150763
 20
6.7223410273
 40
0.0349
100
AcDbArc
 50
151.0244449213
 51
242.4676334307
  0
ARC
  5
2BA
100
AcDbEntity
  8
0
100
AcDbCircle
 62
7
  6
CONTINUOUS
 10
12.5371150763
 20
6.6647909621
 40
0.03
100
AcDbArc
 50
0.0
 51
62.4676334307
  0
ARC
  5
2BB
100
AcDbEntity
  8
0
100
AcDbCircle
 62
7
  6
CONTINUOUS
 10
12.5103388385
 20
6.7537809513
 40
0.03
100
AcDbArc
 50
331.0244449213
 51
39.89273707
  0
ARC
  5
2BC
100
AcDbEntity
  8
0
100
AcDbCircle
 62
7
  6
CONTINUOUS
 10
12.054211258
 20
7.350157285
 40
0.03
100
AcDbArc
 50
106.4845399258
 51
149.632332158
  0
ARC
  5
2BD
100
AcDbEntity
  8
0
100
AcDbCircle
 62
7
  6
CONTINUOUS
 10
11.8571150763
 20
7.1475117192
 40
0.03
100
AcDbArc
 50
121.9583741621
 51
180.0
  0
ARC
  5
2BE
100
AcDbEntity
  8
0
100
AcDbCircle
 62
7
  6
CONTINUOUS
 10
11.8571150763
 20
7.0764410273
 40
0.03
100
AcDbArc
 50
180.0
 51
270.0
  0
ARC
  5
2BF
100
AcDbEntity
  8
0
100
AcDbCircle
 62
7
  6
CONTINUOUS
 10
11.5442969969
 20
7.6489355412
 40
0.561
100
AcDbArc
 50
301.9583741621
 51
329.632332158
  0
ARC
  5
2C0
100
AcDbEntity
  8
0
100
AcDbCircle
 62
7
  6
CONTINUOUS
 10
12.2857926579
 20
8.43502918
 40
0.2264
100
AcDbArc
 50
1.5
 51
37.1779001706
  0
ARC
  5
2C1
100
AcDbEntity
  8
0
100
AcDbCircle
 62
7
  6
CONTINUOUS
 10
12.5677658723
 20
8.5802410273
 40
0.1072
100
AcDbArc
 50
90.0
 51
137.2262966616
  0
ARC
  5
2C2
100
AcDbEntity
  8
0
100
AcDbCircle
 62
9
  6
CONTINUOUS
 10
12.5856194105
 20
8.6086867323
 40
0.0787542956
100
AcDbArc
 50
89.9928109918
 51
102.8241361469
  0
ARC
  5
2C3
100
AcDbEntity
  8
0
100
AcDbCircle
 62
7
  6
CONTINUOUS
 10
12.1585954684
 20
7.5147962701
 40
0.05
100
AcDbArc
 50
329.2693737715
 51
20.9374374986
  0
ARC
  5
2C4
100
AcDbEntity
  8
0
100
AcDbCircle
 62
7
  6
CONTINUOUS
 10
12.2411150763
 20
7.4657400339
 40
0.046
100
AcDbArc
 50
149.2693737715
 51
199.7993062591
  0
ARC
  5
2C5
100
AcDbEntity
  8
0
100
AcDbCircle
 62
7
  6
CONTINUOUS
 10
12.4574834584
 20
8.682269684
 40
0.04304
100
AcDbArc
 50
292.9999284612
 51
317.2262966616
  0
ARC
  5
2C6
100
AcDbEntity
  8
0
100
AcDbCircle
 62
7
  6
CONTINUOUS
 10
12.2361150763
 20
7.5444561823
 40
0.033
100
AcDbArc
 50
90.0
 51
200.9374374986
  0
ARC
  5
2C7
100
AcDbEntity
  8
0
100
AcDbCircle
 62
7
  6
CONTINUOUS
 10
12.1696078262
 20
7.4399968178
 40
0.03
100
AcDbArc
 50
280.9356812119
 51
19.7993062591
  0
ARC
  5
2C8
100
AcDbEntity
  8
0
100
AcDbCircle
 62
7
  6
CONTINUOUS
 10
12.4821150763
 20
8.5839266885
 40
0.02
100
AcDbArc
 50
180.0
 51
217.1779001706
  0
ARC
  5
2C9
100
AcDbEntity
  8
0
100
AcDbCircle
 62
7
  6
CONTINUOUS
 10
12.4821150763
 20
8.6242410273
 40
0.02
100
AcDbArc
 50
112.9999284612
 51
180.0
  0
ARC
  5
2CA
100
AcDbEntity
  8
0
100
AcDbCircle
 62
9
  6
CONTINUOUS
 10
13.9720438662
 20
6.3259842752
 40
1.5029108624
100
AcDbArc
 50
157.9547851708
 51
158.8581481468
  0
ARC
  5
2CB
100
AcDbEntity
  8
0
100
AcDbCircle
 62
7
  6
CONTINUOUS
 10
13.0475149752
 20
6.0575650246
 40
1.378
100
AcDbArc
 50
73.5154600742
 51
79.0643187881
  0
ARC
  5
2CC
100
AcDbEntity
  8
0
100
AcDbCircle
 62
9
  6
CONTINUOUS
 10
13.3077183445
 20
6.6415521587
 40
0.78269548
100
AcDbArc
 50
160.4853923421
 51
163.9457774781
  0
ARC
  5
2CD
100
AcDbEntity
  8
0
100
AcDbCircle
 62
7
  6
CONTINUOUS
 10
12.9171150763
 20
6.8012410273
 40
0.044
100
AcDbArc
 50
320.10726293
 51
53.8643206972
  0
ARC
  5
2CE
100
AcDbEntity
  8
0
100
AcDbCircle
 62
7
  6
CONTINUOUS
 10
12.9171150763
 20
6.7223410273
 40
0.0349
100
AcDbArc
 50
297.5323665693
 51
28.9755550787
  0
ARC
  5
2CF
100
AcDbEntity
  8
0
100
AcDbCircle
 62
7
  6
CONTINUOUS
 10
12.9471150763
 20
6.6647909621
 40
0.03
100
AcDbArc
 50
117.5323665693
 51
180.0
  0
ARC
  5
2D0
100
AcDbEntity
  8
0
100
AcDbCircle
 62
7
  6
CONTINUOUS
 10
12.9738913141
 20
6.7537809513
 40
0.03
100
AcDbArc
 50
140.10726293
 51
208.9755550787
  0
ARC
  5
2D1
100
AcDbEntity
  8
0
100
AcDbCircle
 62
7
  6
CONTINUOUS
 10
13.4300188946
 20
7.350157285
 40
0.03
100
AcDbArc
 50
30.367667842
 51
73.5154600742
  0
ARC
  5
2D2
100
AcDbEntity
  8
0
100
AcDbCircle
 62
7
  6
CONTINUOUS
 10
13.6271150763
 20
7.1475117192
 40
0.03
100
AcDbArc
 50
0.0
 51
58.0416258379
  0
ARC
  5
2D3
100
AcDbEntity
  8
0
100
AcDbCircle
 62
7
  6
CONTINUOUS
 10
13.6271150763
 20
7.0764410273
 40
0.03
100
AcDbArc
 50
270.0
 51
360.0
  0
ARC
  5
2D4
100
AcDbEntity
  8
0
100
AcDbCircle
 62
7
  6
CONTINUOUS
 10
13.9399331557
 20
7.6489355412
 40
0.561
100
AcDbArc
 50
210.367667842
 51
238.0416258379
  0
ARC
  5
2D5
100
AcDbEntity
  8
0
100
AcDbCircle
 62
7
  6
CONTINUOUS
 10
13.1984374947
 20
8.43502918
 40
0.2264
100
AcDbArc
 50
142.8220998294
 51
178.5
  0
ARC
  5
2D6
100
AcDbEntity
  8
0
100
AcDbCircle
 62
7
  6
CONTINUOUS
 10
12.9164642803
 20
8.5802410273
 40
0.1072
100
AcDbArc
 50
42.7737033384
 51
90.0
  0
ARC
  5
2D7
100
AcDbEntity
  8
0
100
AcDbCircle
 62
9
  6
CONTINUOUS
 10
12.8986106993
 20
8.6086864178
 40
0.0787546101
100
AcDbArc
 50
77.1759405246
 51
90.0071578157
  0
ARC
  5
2D8
100
AcDbEntity
  8
0
100
AcDbCircle
 62
7
  6
CONTINUOUS
 10
13.3256346842
 20
7.5147962701
 40
0.05
100
AcDbArc
 50
159.0625625014
 51
210.7306262285
  0
ARC
  5
2D9
100
AcDbEntity
  8
0
100
AcDbCircle
 62
7
  6
CONTINUOUS
 10
13.2431150763
 20
7.4657400339
 40
0.046
100
AcDbArc
 50
340.2006937409
 51
30.7306262285
  0
ARC
  5
2DA
100
AcDbEntity
  8
0
100
AcDbCircle
 62
7
  6
CONTINUOUS
 10
13.0267466942
 20
8.682269684
 40
0.04304
100
AcDbArc
 50
222.7737033384
 51
247.0000715388
  0
ARC
  5
2DB
100
AcDbEntity
  8
0
100
AcDbCircle
 62
7
  6
CONTINUOUS
 10
13.2481150763
 20
7.5444561823
 40
0.033
100
AcDbArc
 50
339.0625625014
 51
90.0
  0
ARC
  5
2DC
100
AcDbEntity
  8
0
100
AcDbCircle
 62
7
  6
CONTINUOUS
 10
13.3146223264
 20
7.4399968178
 40
0.03
100
AcDbArc
 50
160.2006937409
 51
259.0643187881
  0
ARC
  5
2DD
100
AcDbEntity
  8
0
100
AcDbCircle
 62
7
  6
CONTINUOUS
 10
13.0021150763
 20
8.5839266885
 40
0.02
100
AcDbArc
 50
322.8220998294
 51
360.0
  0
ARC
  5
2DE
100
AcDbEntity
  8
0
100
AcDbCircle
 62
7
  6
CONTINUOUS
 10
13.0021150763
 20
8.6242410273
 40
0.02
100
AcDbArc
 50
0.0
 51
67.0000715388
  0
SPLINE
  5
2DF
100
AcDbEntity
  8
0
100
AcDbSpline
 62
9
  6
CONTINUOUS
 70
0
 71
3
 72
35
 73
31
 74
0
 42
0.0000001
 43
0.0000001
 44
0.0000000001
 40
0.0
 40
0.0
 40
0.0
 40
0.0
 40
0.0702274543
 40
0.1451576016
 40
0.223864439
 40
0.3052832637
 40
0.388260173
 40
0.4715819003
 40
0.5539496447
 40
0.6338421173
 40
0.7096625684
 40
0.7797968077
 40
0.8426178771
 40
0.87077554
 40
0.8965213568
 40
0.9197227421
 40
0.9402502893
 40
0.9579744357
 40
0.9727654748
 40
0.9790205113
 40
0.9844935711
 40
0.9891684052
 40
0.9930287576
 40
0.9960583654
 40
0.9972565562
 40
0.9982409594
 40
0.9990095403
 40
0.9995602639
 40
0.9998910951
 40
1.0
 40
1.0
 40
1.0
 40
1.0
 10
13.6315215934
 20
4.5681310902
 30
0.0
 10
13.6317636454
 20
4.5685012079
 30
0.0
 10
13.6322273222
 20
4.5692904079
 30
0.0
 10
13.6328543577
 20
4.5705538873
 30
0.0
 10
13.6334383075
 20
4.5719147234
 30
0.0
 10
13.6339791838
 20
4.5733472919
 30
0.0
 10
13.6344770471
 20
4.5748259494
 30
0.0
 10
13.6349318361
 20
4.5763245758
 30
0.0
 10
13.6353431368
 20
4.5778155142
 30
0.0
 10
13.6357113616
 20
4.5792689405
 30
0.0
 10
13.6360364612
 20
4.5806535644
 30
0.0
 10
13.6363183248
 20
4.5819377472
 30
0.0
 10
13.6365239777
 20
4.5829312756
 30
0.0
 10
13.636667757
 20
4.5836521221
 30
0.0
 10
13.6367607923
 20
4.5841286759
 30
0.0
 10
13.6368429206
 20
4.5845583994
 30
0.0
 10
13.6369141321
 20
4.5849387773
 30
0.0
 10
13.6369744115
 20
4.5852673179
 30
0.0
 10
13.637017644
 20
4.5855076049
 30
0.0
 10
13.6370467866
 20
4.5856720423
 30
0.0
 10
13.6370646481
 20
4.5857737747
 30
0.0
 10
13.6370797666
 20
4.5858606979
 30
0.0
 10
13.6370921388
 20
4.5859324241
 30
0.0
 10
13.6371007225
 20
4.5859827251
 30
0.0
 10
13.6371062152
 20
4.5860149365
 30
0.0
 10
13.6371093224
 20
4.5860335726
 30
0.0
 10
13.6371117183
 20
4.5860470673
 30
0.0
 10
13.6371134816
 20
4.5860591547
 30
0.0
 10
13.6371144495
 20
4.5860620765
 30
0.0
 10
13.6371149824
 20
4.5860681296
 30
0.0
 10
13.6371150763
 20
4.5860674502
 30
0.0
  0
SPLINE
  5
2E0
100
AcDbEntity
  8
0
100
AcDbSpline
 62
9
  6
CONTINUOUS
 70
0
 71
3
 72
15
 73
11
 74
0
 42
0.0000001
 43
0.0000001
 44
0.0000000001
 40
0.0
 40
0.0
 40
0.0
 40
0.0
 40
0.1255098191
 40
0.2510044676
 40
0.3763372998
 40
0.5015144436
 40
0.6264837584
 40
0.7512086121
 40
0.8757389101
 40
1.0
 40
1.0
 40
1.0
 40
1.0
 10
11.849384394
 20
4.3888343944
 30
0.0
 10
11.849384394
 20
4.3901968747
 30
0.0
 10
11.8495682407
 20
4.3929251959
 30
0.0
 10
11.8503891441
 20
4.3969392459
 30
0.0
 10
11.8517413399
 20
4.4008038032
 30
0.0
 10
11.8535986117
 20
4.4044460636
 30
0.0
 10
11.8559274466
 20
4.4077984697
 30
0.0
 10
11.8586843582
 20
4.4107995335
 30
0.0
 10
11.8618178113
 20
4.4133918681
 30
0.0
 10
11.864122774
 20
4.4148186051
 30
0.0
 10
11.865315865
 20
4.415447995
 30
0.0
  0
SPLINE
  5
2E1
100
AcDbEntity
  8
0
100
AcDbSpline
 62
9
  6
CONTINUOUS
 70
0
 71
3
 72
17
 73
13
 74
0
 42
0.0000001
 43
0.0000001
 44
0.0000000001
 40
0.0
 40
0.0
 40
0.0
 40
0.0
 40
0.1520456528
 40
0.3014038479
 40
0.4452760184
 40
0.5811514512
 40
0.7065945874
 40
0.819410067
 40
0.8704909612
 40
0.9177407093
 40
0.9609683638
 40
1.0
 40
1.0
 40
1.0
 40
1.0
 10
13.6102193219
 20
4.3888343944
 30
0.0
 10
13.610219324
 20
4.3901938786
 30
0.0
 10
13.6101893266
 20
4.3928889194
 30
0.0
 10
13.6100542266
 20
4.3968683166
 30
0.0
 10
13.6098315903
 20
4.4006990116
 30
0.0
 10
13.6095263305
 20
4.4043095452
 30
0.0
 10
13.6091441411
 20
4.4076334247
 30
0.0
 10
13.6087563583
 20
4.4101921041
 30
0.0
 10
13.6084072871
 20
4.4120476536
 30
0.0
 10
13.6081399323
 20
4.4132849996
 30
0.0
 10
13.6078597279
 20
4.4144087725
 30
0.0
 10
13.6076546525
 20
4.4151153957
 30
0.0
 10
13.6075489458
 20
4.415447995
 30
0.0
  0
LINE
  5
2E2
100
AcDbEntity
  8
0
100
AcDbLine
 62
9
  6
CONTINUOUS
 10
12.9307631679
 20
6.861791176
 11
12.9286824669
 21
6.8580041661
  0
SPLINE
  5
2E3
100
AcDbEntity
  8
0
100
AcDbSpline
 62
9
  6
CONTINUOUS
 70
0
 71
3
 72
16
 73
12
 74
0
 42
0.0000001
 43
0.0000001
 44
0.0000000001
 40
0.0
 40
0.0
 40
0.0
 40
0.0
 40
0.0278159798
 40
0.0617239425
 40
0.1015097172
 40
0.1469241972
 40
0.2535197433
 40
0.3788802829
 40
0.5198806066
 40
0.672981803
 40
1.0
 40
1.0
 40
1.0
 40
1.0
 10
12.9838346805
 20
4.5967023129
 30
0.0
 10
12.9838553691
 20
4.5964379056
 30
0.0
 10
12.983888323
 20
4.5958501823
 30
0.0
 10
12.9839182392
 20
4.5948827366
 30
0.0
 10
12.9839327079
 20
4.5937471207
 30
0.0
 10
12.9839309409
 20
4.591918377
 30
0.0
 10
12.9838844075
 20
4.5892739912
 30
0.0
 10
12.9837712047
 20
4.5857197142
 30
0.0
 10
12.9835994692
 20
4.5817239053
 30
0.0
 10
12.983290943
 20
4.5758097389
 30
0.0
 10
12.9829969656
 20
4.5712411817
 30
0.0
 10
12.982774993
 20
4.5681310902
 30
0.0
  0
SPLINE
  5
2E4
100
AcDbEntity
  8
0
100
AcDbSpline
 62
9
  6
CONTINUOUS
 70
0
 71
3
 72
18
 73
14
 74
0
 42
0.0000001
 43
0.0000001
 44
0.0000000001
 40
0.0
 40
0.0
 40
0.0
 40
0.0
 40
0.0268546332
 40
0.0596309391
 40
0.0982808306
 40
0.1426538299
 40
0.1925420798
 40
0.2476768324
 40
0.3723353307
 40
0.5136083191
 40
0.6679480881
 40
0.8314844422
 40
1.0
 40
1.0
 40
1.0
 40
1.0
 10
12.0219448161
 20
4.5324904486
 30
0.0
 10
12.0218704885
 20
4.5322458557
 30
0.0
 10
12.0217453672
 20
4.5316907409
 30
0.0
 10
12.0216169798
 20
4.5307634901
 30
0.0
 10
12.0215316545
 20
4.5296639147
 30
0.0
 10
12.0214901906
 20
4.528399082
 30
0.0
 10
12.0214931705
 20
4.526976702
 30
0.0
 10
12.0215596174
 20
4.5247910831
 30
0.0
 10
12.0217628132
 20
4.5217405585
 30
0.0
 10
12.0221655619
 20
4.5177596458
 30
0.0
 10
12.0227279473
 20
4.5134246783
 30
0.0
 10
12.0234359168
 20
4.5088486251
 30
0.0
 10
12.0239893686
 20
4.5057362476
 30
0.0
 10
12.0242873587
 20
4.5041600203
 30
0.0
  0
SPLINE
  5
2E5
100
AcDbEntity
  8
0
100
AcDbSpline
 62
9
  6
CONTINUOUS
 70
0
 71
3
 72
12
 73
8
 74
0
 42
0.0000001
 43
0.0000001
 44
0.0000000001
 40
0.0
 40
0.0
 40
0.0
 40
0.0
 40
0.2496585456
 40
0.4996093154
 40
0.6246673114
 40
0.7497655782
 40
1.0
 40
1.0
 40
1.0
 40
1.0
 10
12.7950693067
 20
6.8580041579
 30
0.0
 10
12.7906986805
 20
6.8586764683
 30
0.0
 10
12.7819190636
 20
6.8598117334
 30
0.0
 10
12.7708942655
 20
6.8607776383
 30
0.0
 10
12.7620515843
 20
6.8613065027
 30
0.0
 10
12.753196069
 20
6.8616804728
 30
0.0
 10
12.7465473093
 20
6.861790371
 30
0.0
 10
12.7421150763
 20
6.8617903759
 30
0.0
  0
SPLINE
  5
2E6
100
AcDbEntity
  8
0
100
AcDbSpline
 62
9
  6
CONTINUOUS
 70
0
 71
3
 72
12
 73
8
 74
0
 42
0.0000001
 43
0.0000001
 44
0.0000000001
 40
0.0
 40
0.0
 40
0.0
 40
0.0
 40
0.2502344068
 40
0.375332705
 40
0.5003907622
 40
0.750341483
 40
1.0
 40
1.0
 40
1.0
 40
1.0
 10
12.7421150763
 20
6.8617903759
 30
0.0
 10
12.7376828464
 20
6.8617903749
 30
0.0
 10
12.7310340908
 20
6.8616804824
 30
0.0
 10
12.7221785782
 20
6.8613065527
 30
0.0
 10
12.7133358977
 20
6.8607777626
 30
0.0
 10
12.7023111027
 20
6.8598118646
 30
0.0
 10
12.6935315131
 20
6.8586764562
 30
0.0
 10
12.6891608874
 20
6.8580041644
 30
0.0
  0
SPLINE
  5
2E7
100
AcDbEntity
  8
0
100
AcDbSpline
 62
9
  6
CONTINUOUS
 70
0
 71
3
 72
13
 73
9
 74
0
 42
0.0000001
 43
0.0000001
 44
0.0000000001
 40
0.0
 40
0.0
 40
0.0
 40
0.0
 40
0.2486178353
 40
0.4982156903
 40
0.6233722981
 40
0.7487333368
 40
0.8742869061
 40
1.0
 40
1.0
 40
1.0
 40
1.0
 10
12.5850568469
 20
6.9030093738
 30
0.0
 10
12.5931560207
 20
6.8981718674
 30
0.0
 10
12.6096197061
 20
6.888860895
 30
0.0
 10
12.6308725964
 20
6.8784339211
 30
0.0
 10
12.6483480629
 20
6.8710242889
 30
0.0
 10
12.6617091762
 20
6.8659992042
 30
0.0
 10
12.675308211
 20
6.861588362
 30
0.0
 10
12.6845212046
 20
6.859112478
 30
0.0
 10
12.6891608874
 20
6.8580041644
 30
0.0
  0
LINE
  5
2E8
100
AcDbEntity
  8
0
100
AcDbLine
 62
9
  6
CONTINUOUS
 10
12.5850568469
 20
6.9030093738
 11
12.5510912404
 21
8.4409556411
  0
LINE
  5
2E9
100
AcDbEntity
  8
0
100
AcDbLine
 62
9
  6
CONTINUOUS
 10
12.8991733057
 20
6.9030093738
 11
12.9331389122
 21
8.4409556411
  0
SPLINE
  5
2EA
100
AcDbEntity
  8
0
100
AcDbSpline
 62
9
  6
CONTINUOUS
 70
0
 71
3
 72
13
 73
9
 74
0
 42
0.0000001
 43
0.0000001
 44
0.0000000001
 40
0.0
 40
0.0
 40
0.0
 40
0.0
 40
0.1257131038
 40
0.2512667209
 40
0.3766277385
 40
0.5017843571
 40
0.7513822333
 40
1.0
 40
1.0
 40
1.0
 40
1.0
 10
12.7950693067
 20
6.8580041579
 30
0.0
 10
12.7997089947
 20
6.859112444
 30
0.0
 10
12.8089219636
 20
6.8615884221
 30
0.0
 10
12.8225209966
 20
6.8659992459
 30
0.0
 10
12.835882138
 20
6.8710242492
 30
0.0
 10
12.8533575828
 20
6.8784339202
 30
0.0
 10
12.874610432
 20
6.888860951
 30
0.0
 10
12.8910741317
 20
6.8981718793
 30
0.0
 10
12.8991733057
 20
6.9030093738
 30
0.0
  0
SPLINE
  5
2EB
100
AcDbEntity
  8
0
100
AcDbSpline
 62
9
  6
CONTINUOUS
 70
0
 71
3
 72
15
 73
11
 74
0
 42
0.0000001
 43
0.0000001
 44
0.0000000001
 40
0.0
 40
0.0
 40
0.0
 40
0.0
 40
0.1301090342
 40
0.2595261923
 40
0.3877806943
 40
0.5144608734
 40
0.6392371374
 40
0.7618568785
 40
0.8821488183
 40
1.0
 40
1.0
 40
1.0
 40
1.0
 10
12.9331389122
 20
8.4409556411
 30
0.0
 10
12.9332783023
 20
8.4469646352
 30
0.0
 10
12.9339809487
 20
8.4589450429
 30
0.0
 10
12.9362815979
 20
8.4767249913
 30
0.0
 10
12.9397921769
 20
8.4941452392
 30
0.0
 10
12.944446697
 20
8.511072361
 30
0.0
 10
12.9501721615
 20
8.527391845
 30
0.0
 10
12.9568845962
 20
8.5430098614
 30
0.0
 10
12.9645010656
 20
8.55784757
 30
0.0
 10
12.9701860014
 20
8.5672781466
 30
0.0
 10
12.9731562402
 20
8.5718408758
 30
0.0
  0
SPLINE
  5
2EC
100
AcDbEntity
  8
0
100
AcDbSpline
 62
9
  6
CONTINUOUS
 70
0
 71
3
 72
15
 73
11
 74
0
 42
0.0000001
 43
0.0000001
 44
0.0000000001
 40
0.0
 40
0.0
 40
0.0
 40
0.0
 40
0.130109088
 40
0.259526164
 40
0.3877807168
 40
0.5144608484
 40
0.6392371512
 40
0.7618568345
 40
0.8821486261
 40
1.0
 40
1.0
 40
1.0
 40
1.0
 10
12.5510912404
 20
8.4409556411
 30
0.0
 10
12.5509518687
 20
8.4469646374
 30
0.0
 10
12.5502486102
 20
8.4589449978
 30
0.0
 10
12.5479487177
 20
8.4767250324
 30
0.0
 10
12.5444378179
 20
8.4941452245
 30
0.0
 10
12.5397834943
 20
8.5110723915
 30
0.0
 10
12.5340579027
 20
8.5273918327
 30
0.0
 10
12.5273455249
 20
8.5430098533
 30
0.0
 10
12.5197292359
 20
8.5578476582
 30
0.0
 10
12.5140441711
 20
8.5672781611
 30
0.0
 10
12.5110739085
 20
8.5718408847
 30
0.0
  0
SPLINE
  5
2ED
100
AcDbEntity
  8
0
100
AcDbSpline
 62
9
  6
CONTINUOUS
 70
0
 71
3
 72
18
 73
14
 74
0
 42
0.0000001
 43
0.0000001
 44
0.0000000001
 40
0.0
 40
0.0
 40
0.0
 40
0.0
 40
0.1537602435
 40
0.3045215763
 40
0.449366263
 40
0.5187065727
 40
0.5855538627
 40
0.710560647
 40
0.8222597087
 40
0.8725935955
 40
0.9190465735
 40
0.9615292393
 40
1.0
 40
1.0
 40
1.0
 40
1.0
 10
12.9743360612
 20
8.6242410273
 30
0.0
 10
12.9743360616
 20
8.6252122563
 30
0.0
 10
12.974295579
 20
8.627136038
 30
0.0
 10
12.974114122
 20
8.6299694956
 30
0.0
 10
12.9738623694
 20
8.6322618882
 30
0.0
 10
12.9736010192
 20
8.6340178826
 30
0.0
 10
12.9733139308
 20
8.6356427248
 30
0.0
 10
12.9728997847
 20
8.6375161055
 30
0.0
 10
12.9723851882
 20
8.6392569596
 30
0.0
 10
12.9719237947
 20
8.6404909237
 30
0.0
 10
12.9715719014
 20
8.641297737
 30
0.0
 10
12.9712039493
 20
8.6420140962
 30
0.0
 10
12.9709360987
 20
8.6424505498
 30
0.0
 10
12.9707989291
 20
8.6426511341
 30
0.0
  0
SPLINE
  5
2EE
100
AcDbEntity
  8
0
100
AcDbSpline
 62
9
  6
CONTINUOUS
 70
0
 71
3
 72
18
 73
14
 74
0
 42
0.0000001
 43
0.0000001
 44
0.0000000001
 40
0.0
 40
0.0
 40
0.0
 40
0.0
 40
0.1537602435
 40
0.3045215763
 40
0.449366263
 40
0.5187065727
 40
0.5855538627
 40
0.710560647
 40
0.8222597087
 40
0.8725935955
 40
0.9190465735
 40
0.9615292393
 40
1.0
 40
1.0
 40
1.0
 40
1.0
 10
12.5098940914
 20
8.6242410273
 30
0.0
 10
12.509894091
 20
8.6252122563
 30
0.0
 10
12.5099345736
 20
8.627136038
 30
0.0
 10
12.5101160306
 20
8.6299694956
 30
0.0
 10
12.5103677832
 20
8.6322618882
 30
0.0
 10
12.5106291334
 20
8.6340178826
 30
0.0
 10
12.5109162218
 20
8.6356427248
 30
0.0
 10
12.5113303679
 20
8.6375161055
 30
0.0
 10
12.5118449644
 20
8.6392569596
 30
0.0
 10
12.5123063579
 20
8.6404909237
 30
0.0
 10
12.5126582512
 20
8.641297737
 30
0.0
 10
12.5130262033
 20
8.6420140962
 30
0.0
 10
12.5132940539
 20
8.6424505498
 30
0.0
 10
12.5134312235
 20
8.6426511341
 30
0.0
  0
SPLINE
  5
2EF
100
AcDbEntity
  8
0
100
AcDbSpline
 62
9
  6
CONTINUOUS
 70
0
 71
3
 72
9
 73
5
 74
0
 42
0.0000001
 43
0.0000001
 44
0.0000000001
 40
0.0
 40
0.0
 40
0.0
 40
0.0
 40
0.4913671093
 40
1.0
 40
1.0
 40
1.0
 40
1.0
 10
12.9707989291
 20
8.6426511341
 30
0.0
 10
12.9679334946
 20
8.6438129296
 30
0.0
 10
12.9623210601
 20
8.646756413
 30
0.0
 10
12.9574054191
 20
8.6507675713
 30
0.0
 10
12.9551525181
 20
8.6530410273
 30
0.0
  0
SPLINE
  5
2F0
100
AcDbEntity
  8
0
100
AcDbSpline
 62
9
  6
CONTINUOUS
 70
0
 71
3
 72
9
 73
5
 74
0
 42
0.0000001
 43
0.0000001
 44
0.0000000001
 40
0.0
 40
0.0
 40
0.0
 40
0.0
 40
0.491367853
 40
1.0
 40
1.0
 40
1.0
 40
1.0
 10
12.5134312503
 20
8.6426511341
 30
0.0
 10
12.5162966853
 20
8.6438129342
 30
0.0
 10
12.5219091223
 20
8.6467563839
 30
0.0
 10
12.5268247984
 20
8.6507675173
 30
0.0
 10
12.5290776345
 20
8.6530410273
 30
0.0
  0
SPLINE
  5
2F1
100
AcDbEntity
  8
0
100
AcDbSpline
 62
9
  6
CONTINUOUS
 70
0
 71
3
 72
19
 73
15
 74
0
 42
0.0000001
 43
0.0000001
 44
0.0000000001
 40
0.0
 40
0.0
 40
0.0
 40
0.0
 40
0.1434726322
 40
0.280476733
 40
0.3466671082
 40
0.4113794975
 40
0.4746893066
 40
0.536689574
 40
0.6571234908
 40
0.7737001371
 40
0.8309219375
 40
0.8876075532
 40
0.9439128737
 40
1.0
 40
1.0
 40
1.0
 40
1.0
 10
12.9551525181
 20
8.6530410273
 30
0.0
 10
12.9533287687
 20
8.6557889397
 30
0.0
 10
12.9494995451
 20
8.6609917892
 30
0.0
 10
12.9441187784
 20
8.6668922193
 30
0.0
 10
12.9395972632
 20
8.6710777392
 30
0.0
 10
12.93615032
 20
8.673918947
 30
0.0
 10
12.932618864
 20
8.6764944468
 30
0.0
 10
12.9278583345
 20
8.6795408629
 30
0.0
 10
12.9217324954
 20
8.682701644
 30
0.0
 10
12.91534687
 20
8.68499612
 30
0.0
 10
12.9102002871
 20
8.6862692703
 30
0.0
 10
12.906343145
 20
8.6869458027
 30
0.0
 10
12.9024745541
 20
8.6873494412
 30
0.0
 10
12.8998901494
 20
8.6874398701
 30
0.0
 10
12.8986008606
 20
8.6874410273
 30
0.0
  0
SPLINE
  5
2F2
100
AcDbEntity
  8
0
100
AcDbSpline
 62
9
  6
CONTINUOUS
 70
0
 71
3
 72
19
 73
15
 74
0
 42
0.0000001
 43
0.0000001
 44
0.0000000001
 40
0.0
 40
0.0
 40
0.0
 40
0.0
 40
0.1434719814
 40
0.2804770033
 40
0.3466680705
 40
0.4113805211
 40
0.474689631
 40
0.536689374
 40
0.6571238051
 40
0.7736999059
 40
0.8309210784
 40
0.8876065314
 40
0.9439124328
 40
1.0
 40
1.0
 40
1.0
 40
1.0
 10
12.5290776345
 20
8.6530410273
 30
0.0
 10
12.5309013841
 20
8.6557889214
 30
0.0
 10
12.534730461
 20
8.6609918882
 30
0.0
 10
12.5401113819
 20
8.6668922218
 30
0.0
 10
12.5446329931
 20
8.6710776905
 30
0.0
 10
12.5480799388
 20
8.6739188943
 30
0.0
 10
12.5516113266
 20
8.6764944405
 30
0.0
 10
12.5563718134
 20
8.6795408968
 30
0.0
 10
12.5624976745
 20
8.6827016085
 30
0.0
 10
12.568883268
 20
8.6849961151
 30
0.0
 10
12.5740298166
 20
8.6862692784
 30
0.0
 10
12.5778869538
 20
8.6869458105
 30
0.0
 10
12.5817555652
 20
8.6873494413
 30
0.0
 10
12.5843399931
 20
8.6874398701
 30
0.0
 10
12.585629292
 20
8.6874410273
 30
0.0
  0
SPLINE
  5
2F3
100
AcDbEntity
  8
0
100
AcDbSpline
 62
9
  6
CONTINUOUS
 70
0
 71
3
 72
55
 73
51
 74
0
 42
0.0000001
 43
0.0000001
 44
0.0000000001
 40
0.0
 40
0.0
 40
0.0
 40
0.0
 40
0.0000062093
 40
0.0000139697
 40
0.0000248336
 40
0.0000558701
 40
0.0000993161
 40
0.0001551687
 40
0.000223425
 40
0.0003971377
 40
0.0006204314
 40
0.0008932834
 40
0.0012156711
 40
0.0015875717
 40
0.0020089628
 40
0.0024798215
 40
0.0035698409
 40
0.0048568107
 40
0.0063389516
 40
0.0080144041
 40
0.0098813096
 40
0.011937812
 40
0.0141820394
 40
0.0192248424
 40
0.0249909401
 40
0.0314613372
 40
0.0386162754
 40
0.0464347448
 40
0.0548956747
 40
0.063977276
 40
0.0736561664
 40
0.09471238
 40
0.1178890879
 40
0.1430256491
 40
0.1699748118
 40
0.1986004161
 40
0.2287833195
 40
0.2604156506
 40
0.2934054091
 40
0.3276700523
 40
0.3997417857
 40
0.4761481582
 40
0.5564740909
 40
0.6403180838
 40
0.7272247695
 40
0.8166318856
 40
0.8620648978
 40
0.907844514
 40
0.953865707
 40
1.0
 40
1.0
 40
1.0
 40
1.0
 10
12.5671150763
 20
6.4849023314
 30
0.0
 10
12.5671153476
 20
6.4849020358
 30
0.0
 10
12.5671160717
 20
6.4849035176
 30
0.0
 10
12.5671172429
 20
6.4849041303
 30
0.0
 10
12.5671196492
 20
6.48490653
 30
0.0
 10
12.5671237452
 20
6.4849100171
 30
0.0
 10
12.5671300193
 20
6.4849157346
 30
0.0
 10
12.5671380735
 20
6.4849229319
 30
0.0
 10
12.56715239
 20
6.4849358108
 30
0.0
 10
12.567174745
 20
6.4849559014
 30
0.0
 10
12.5672069198
 20
6.4849848612
 30
0.0
 10
12.5672462219
 20
6.4850202556
 30
0.0
 10
12.5672926448
 20
6.4850620952
 30
0.0
 10
12.5673461811
 20
6.4851103781
 30
0.0
 10
12.5674068235
 20
6.4851651069
 30
0.0
 10
12.5675018876
 20
6.4852509551
 30
0.0
 10
12.5676383937
 20
6.4853743659
 30
0.0
 10
12.567823314
 20
6.4855416664
 30
0.0
 10
12.5680363577
 20
6.4857342681
 30
0.0
 10
12.5682773615
 20
6.4859518219
 30
0.0
 10
12.5685461664
 20
6.486193966
 30
0.0
 10
12.5688426109
 20
6.4864603396
 30
0.0
 10
12.5692922702
 20
6.4868632452
 30
0.0
 10
12.5699218145
 20
6.4874245941
 30
0.0
 10
12.5707578193
 20
6.4881647239
 30
0.0
 10
12.5716992265
 20
6.4889916806
 30
0.0
 10
12.5727440562
 20
6.4899018356
 30
0.0
 10
12.5738902441
 20
6.4908914366
 30
0.0
 10
12.5751355868
 20
6.4919566728
 30
0.0
 10
12.5764778808
 20
6.4930934806
 30
0.0
 10
12.5784504203
 20
6.4947453974
 30
0.0
 10
12.5811421954
 20
6.4969569699
 30
0.0
 10
12.5846446047
 20
6.4997547234
 30
0.0
 10
12.5884894272
 20
6.5027331446
 30
0.0
 10
12.5926640453
 20
6.5058597371
 30
0.0
 10
12.5971575405
 20
6.5091031895
 30
0.0
 10
12.6019604653
 20
6.5124333349
 30
0.0
 10
12.6070650606
 20
6.5158212056
 30
0.0
 10
12.6124645318
 20
6.5192392675
 30
0.0
 10
12.6201801118
 20
6.52387986
 30
0.0
 10
12.6305205771
 20
6.5295932478
 30
0.0
 10
12.643829661
 20
6.5360495258
 30
0.0
 10
12.6581969065
 20
6.5420112492
 30
0.0
 10
12.6735536845
 20
6.5472808228
 30
0.0
 10
12.6898008565
 20
6.5516490965
 30
0.0
 10
12.7038825366
 20
6.554374426
 30
0.0
 10
12.7154499404
 20
6.5559455973
 30
0.0
 10
12.7242785087
 20
6.5568025983
 30
0.0
 10
12.7331784358
 20
6.5573231992
 30
0.0
 10
12.7391339724
 20
6.5574409157
 30
0.0
 10
12.7421150763
 20
6.5574410273
 30
0.0
  0
SPLINE
  5
2F4
100
AcDbEntity
  8
0
100
AcDbSpline
 62
9
  6
CONTINUOUS
 70
0
 71
3
 72
15
 73
11
 74
0
 42
0.0000001
 43
0.0000001
 44
0.0000000001
 40
0.0
 40
0.0
 40
0.0
 40
0.0
 40
0.1253583958
 40
0.2509489787
 40
0.376563999
 40
0.5020549281
 40
0.6272537241
 40
0.7520218393
 40
0.8762952989
 40
1.0
 40
1.0
 40
1.0
 40
1.0
 10
13.5648521079
 20
4.5324907978
 30
0.0
 10
13.5664016338
 20
4.5320542208
 30
0.0
 10
13.569439591
 20
4.5309322737
 30
0.0
 10
13.57367388
 20
4.5285573555
 30
0.0
 10
13.5774867937
 20
4.5255475403
 30
0.0
 10
13.5807783823
 20
4.5219821877
 30
0.0
 10
13.5834630091
 20
4.517952919
 30
0.0
 10
13.5854714725
 20
4.5135640548
 30
0.0
 10
13.586750161
 20
4.5089308325
 30
0.0
 10
13.5870950913
 20
4.5057484299
 30
0.0
 10
13.587137101
 20
4.5041603682
 30
0.0
  0
LINE
  5
2F5
100
AcDbEntity
  8
0
100
AcDbLine
 62
9
  6
CONTINUOUS
 10
12.555547665
 20
6.8580041934
 11
12.5534669853
 21
6.8617911752
  0
SPLINE
  5
2F6
100
AcDbEntity
  8
0
100
AcDbSpline
 62
9
  6
CONTINUOUS
 70
0
 71
3
 72
9
 73
5
 74
0
 42
0.0000001
 43
0.0000001
 44
0.0000000001
 40
0.0
 40
0.0
 40
0.0
 40
0.0
 40
0.4933063534
 40
1.0
 40
1.0
 40
1.0
 40
1.0
 10
11.8970933056
 20
4.5041600203
 30
0.0
 10
11.8992294138
 20
4.501909625
 30
0.0
 10
11.9034721471
 20
4.497263793
 30
0.0
 10
11.9075038726
 20
4.4924323107
 30
0.0
 10
11.9094809189
 20
4.4899326825
 30
0.0
  0
SPLINE
  5
2F7
100
AcDbEntity
  8
0
100
AcDbSpline
 62
9
  6
CONTINUOUS
 70
0
 71
3
 72
11
 73
7
 74
0
 42
0.0000001
 43
0.0000001
 44
0.0000000001
 40
0.0
 40
0.0
 40
0.0
 40
0.0
 40
0.2704109865
 40
0.5254081646
 40
0.7673281887
 40
1.0
 40
1.0
 40
1.0
 40
1.0
 10
11.8766822693
 20
4.4154478829
 30
0.0
 10
11.8756892617
 20
4.41577226
 30
0.0
 10
11.8737133258
 20
4.4162726824
 30
0.0
 10
11.8707477265
 20
4.4165430264
 30
0.0
 10
11.8679241854
 20
4.4162989876
 30
0.0
 10
11.8661486329
 20
4.4157862074
 30
0.0
 10
11.8653158446
 20
4.4154479775
 30
0.0
  0
LINE
  5
2F8
100
AcDbEntity
  8
0
100
AcDbLine
 62
9
  6
CONTINUOUS
 10
12.5699837451
 20
6.9030093738
 11
12.5368496807
 21
8.4409556411
  0
SPLINE
  5
2F9
100
AcDbEntity
  8
0
100
AcDbSpline
 62
9
  6
CONTINUOUS
 70
0
 71
3
 72
22
 73
18
 74
0
 42
0.0000001
 43
0.0000001
 44
0.0000000001
 40
0.0
 40
0.0
 40
0.0
 40
0.0
 40
0.0099695547
 40
0.0214351861
 40
0.0344508828
 40
0.0490465414
 40
0.0830182699
 40
0.1233345516
 40
0.1698678833
 40
0.2224131357
 40
0.280695961
 40
0.3444083815
 40
0.4866450491
 40
0.6458471755
 40
0.7306681219
 40
0.8183398873
 40
1.0
 40
1.0
 40
1.0
 40
1.0
 10
11.9094804112
 20
4.4899317915
 30
0.0
 10
11.9095512528
 20
4.4899742157
 30
0.0
 10
11.9097095334
 20
4.4900555246
 30
0.0
 10
11.9099742515
 20
4.4901626823
 30
0.0
 10
11.9102821083
 20
4.4902632593
 30
0.0
 10
11.9107750483
 20
4.4903950516
 30
0.0
 10
11.9114982271
 20
4.4905367979
 30
0.0
 10
11.9124901125
 20
4.4906718645
 30
0.0
 10
11.9136400993
 20
4.4907776864
 30
0.0
 10
11.9149414321
 20
4.4908534346
 30
0.0
 10
11.9163865148
 20
4.4908985449
 30
0.0
 10
11.9185750861
 20
4.490917693
 30
0.0
 10
11.9215994785
 20
4.4908568102
 30
0.0
 10
11.924795213
 20
4.4907003161
 30
0.0
 10
11.9275364153
 20
4.4905169994
 30
0.0
 10
11.9304610138
 20
4.4902910571
 30
0.0
 10
11.9326826031
 20
4.4900866376
 30
0.0
 10
11.9341791937
 20
4.4899315246
 30
0.0
  0
SPLINE
  5
2FA
100
AcDbEntity
  8
0
100
AcDbSpline
 62
9
  6
CONTINUOUS
 70
0
 71
3
 72
14
 73
10
 74
0
 42
0.0000001
 43
0.0000001
 44
0.0000000001
 40
0.0
 40
0.0
 40
0.0
 40
0.0
 40
0.1312822
 40
0.2617140433
 40
0.3907128045
 40
0.5177760434
 40
0.6425020942
 40
0.7645916768
 40
1.0
 40
1.0
 40
1.0
 40
1.0
 10
12.5368496807
 20
8.4409556411
 30
0.0
 10
12.5367236301
 20
8.4469630472
 30
0.0
 10
12.5360909042
 20
8.4589345271
 30
0.0
 10
12.5340070028
 20
8.4767070715
 30
0.0
 10
12.5308296334
 20
8.494121483
 30
0.0
 10
12.526610884
 20
8.5110435378
 30
0.0
 10
12.5214144019
 20
8.5273613108
 30
0.0
 10
12.5133768852
 20
8.5479271871
 30
0.0
 10
12.5059603896
 20
8.562581742
 30
0.0
 10
12.500450485
 20
8.5718408758
 30
0.0
  0
SPLINE
  5
2FB
100
AcDbEntity
  8
0
100
AcDbSpline
 62
9
  6
CONTINUOUS
 70
0
 71
3
 72
11
 73
7
 74
0
 42
0.0000001
 43
0.0000001
 44
0.0000000001
 40
0.0
 40
0.0
 40
0.0
 40
0.0
 40
0.2326704235
 40
0.4745913907
 40
0.7295897189
 40
1.0
 40
1.0
 40
1.0
 40
1.0
 10
13.6189148549
 20
4.4154480284
 30
0.0
 10
13.6180820956
 20
4.4157862607
 30
0.0
 10
13.6163066045
 20
4.4162990875
 30
0.0
 10
13.6134831309
 20
4.4165432005
 30
0.0
 10
13.6105175853
 20
4.4162729441
 30
0.0
 10
13.6085416872
 20
4.4157725461
 30
0.0
 10
13.607548704
 20
4.4154481799
 30
0.0
  0
SPLINE
  5
2FC
100
AcDbEntity
  8
0
100
AcDbSpline
 62
9
  6
CONTINUOUS
 70
0
 71
3
 72
21
 73
17
 74
0
 42
0.0000001
 43
0.0000001
 44
0.0000000001
 40
0.0
 40
0.0
 40
0.0
 40
0.0
 40
0.1816530921
 40
0.354143317
 40
0.5133523707
 40
0.6555984841
 40
0.7193175659
 40
0.7776073056
 40
0.8301611062
 40
0.8767076421
 40
0.9170373019
 40
0.9510054084
 40
0.9655879167
 40
0.9785864601
 40
0.9900363775
 40
1.0
 40
1.0
 40
1.0
 40
1.0
 10
13.5500512793
 20
4.4899317825
 30
0.0
 10
13.5515478666
 20
4.490086794
 30
0.0
 10
13.5544686274
 20
4.4903601745
 30
0.0
 10
13.5587098037
 20
4.4906680271
 30
0.0
 10
13.5626311778
 20
4.4908583312
 30
0.0
 10
13.5656558822
 20
4.4909181268
 30
0.0
 10
13.5678446978
 20
4.4908977619
 30
0.0
 10
13.5692899853
 20
4.4908520339
 30
0.0
 10
13.5705915624
 20
4.4907756646
 30
0.0
 10
13.571741776
 20
4.4906686766
 30
0.0
 10
13.5727337132
 20
4.4905323956
 30
0.0
 10
13.5734568974
 20
4.4903909846
 30
0.0
 10
13.5739499423
 20
4.4902606614
 30
0.0
 10
13.5742577844
 20
4.4901612443
 30
0.0
 10
13.5745225439
 20
4.4900550165
 30
0.0
 10
13.574680804
 20
4.4899740084
 30
0.0
 10
13.574751598
 20
4.4899315957
 30
0.0
  0
SPLINE
  5
2FD
100
AcDbEntity
  8
0
100
AcDbSpline
 62
9
  6
CONTINUOUS
 70
0
 71
3
 72
15
 73
11
 74
0
 42
0.0000001
 43
0.0000001
 44
0.0000000001
 40
0.0
 40
0.0
 40
0.0
 40
0.0
 40
0.147579896
 40
0.2895208889
 40
0.4245562245
 40
0.5523182269
 40
0.6730601544
 40
0.7873890413
 40
0.8961067973
 40
1.0
 40
1.0
 40
1.0
 40
1.0
 10
11.9094809189
 20
4.4899326825
 30
0.0
 10
11.9089537831
 20
4.4855650213
 30
0.0
 10
11.9074394887
 20
4.4770462016
 30
0.0
 10
11.9038371038
 20
4.4648875685
 30
0.0
 10
11.8991386277
 20
4.4537476075
 30
0.0
 10
11.893550099
 20
4.4437467133
 30
0.0
 10
11.8872556708
 20
4.434924067
 30
0.0
 10
11.8804066503
 20
4.4272719275
 30
0.0
 10
11.8731256899
 20
4.4207642055
 30
0.0
 10
11.8679423163
 20
4.4170891873
 30
0.0
 10
11.8653158654
 20
4.415447995
 30
0.0
  0
SPLINE
  5
2FE
100
AcDbEntity
  8
0
100
AcDbSpline
 62
9
  6
CONTINUOUS
 70
0
 71
3
 72
15
 73
11
 74
0
 42
0.0000001
 43
0.0000001
 44
0.0000000001
 40
0.0
 40
0.0
 40
0.0
 40
0.0
 40
0.1268414389
 40
0.25345831
 40
0.3796439223
 40
0.5052262827
 40
0.6300825759
 40
0.7541500004
 40
0.877432164
 40
1.0
 40
1.0
 40
1.0
 40
1.0
 10
12.4965607581
 20
8.6242410273
 30
0.0
 10
12.4965607576
 20
8.6252144174
 30
0.0
 10
12.4966970232
 20
8.627162223
 30
0.0
 10
12.4973060996
 20
8.6300205898
 30
0.0
 10
12.4983069776
 20
8.6327568293
 30
0.0
 10
12.4996785938
 20
8.6353120075
 30
0.0
 10
12.5013919566
 20
8.637631842
 30
0.0
 10
12.5034110487
 20
8.6396667973
 30
0.0
 10
12.5056922879
 20
8.6413729172
 30
0.0
 10
12.5073616866
 20
8.642269749
 30
0.0
 10
12.5082214904
 20
8.6426511341
 30
0.0
  0
SPLINE
  5
2FF
100
AcDbEntity
  8
0
100
AcDbSpline
 62
9
  6
CONTINUOUS
 70
0
 71
3
 72
11
 73
7
 74
0
 42
0.0000001
 43
0.0000001
 44
0.0000000001
 40
0.0
 40
0.0
 40
0.0
 40
0.0
 40
0.2310035201
 40
0.4734204816
 40
0.7291807956
 40
1.0
 40
1.0
 40
1.0
 40
1.0
 10
12.5082214904
 20
8.6426511341
 30
0.0
 10
12.5092254482
 20
8.6432369598
 30
0.0
 10
12.5112091533
 20
8.6445681668
 30
0.0
 10
12.5140019675
 20
8.6469594707
 30
0.0
 10
12.5166489997
 20
8.6497920486
 30
0.0
 10
12.5182461054
 20
8.6519132852
 30
0.0
 10
12.5190111005
 20
8.6530410273
 30
0.0
  0
SPLINE
  5
300
100
AcDbEntity
  8
0
100
AcDbSpline
 62
9
  6
CONTINUOUS
 70
0
 71
3
 72
15
 73
11
 74
0
 42
0.0000001
 43
0.0000001
 44
0.0000000001
 40
0.0
 40
0.0
 40
0.0
 40
0.0
 40
0.1336311947
 40
0.2643646434
 40
0.3923299972
 40
0.5177516858
 40
0.640893144
 40
0.7620728808
 40
0.8816505871
 40
1.0
 40
1.0
 40
1.0
 40
1.0
 10
12.5190111005
 20
8.6530410273
 30
0.0
 10
12.5206456932
 20
8.6551579226
 30
0.0
 10
12.5240470513
 20
8.6592197627
 30
0.0
 10
12.5295702963
 20
8.6648131442
 30
0.0
 10
12.5354177425
 20
8.6698185237
 30
0.0
 10
12.5415472296
 20
8.6742185641
 30
0.0
 10
12.547918676
 20
8.678000935
 30
0.0
 10
12.5544929415
 20
8.6811576157
 30
0.0
 10
12.5612316498
 20
8.6836830335
 30
0.0
 10
12.5658296424
 20
8.6849505004
 30
0.0
 10
12.568139165
 20
8.685476576
 30
0.0
  0
SPLINE
  5
301
100
AcDbEntity
  8
0
100
AcDbSpline
 62
9
  6
CONTINUOUS
 70
0
 71
3
 72
18
 73
14
 74
0
 42
0.0000001
 43
0.0000001
 44
0.0000000001
 40
0.0
 40
0.0
 40
0.0
 40
0.0
 40
0.1363721353
 40
0.2035401325
 40
0.2698582253
 40
0.3997002557
 40
0.463261393
 40
0.5259220708
 40
0.6486227676
 40
0.7682316186
 40
0.8270451236
 40
0.8852558726
 40
1.0
 40
1.0
 40
1.0
 40
1.0
 10
11.9341795932
 20
4.4899312386
 30
0.0
 10
11.9334892887
 20
4.4855387564
 30
0.0
 10
11.9319772862
 20
4.4790456868
 30
0.0
 10
11.9290785154
 20
4.4707329278
 30
0.0
 10
11.925698362
 20
4.4628342511
 30
0.0
 10
11.9215920686
 20
4.4553957082
 30
0.0
 10
11.9168748052
 20
4.4485021821
 30
0.0
 10
11.9118863688
 20
4.4420943417
 30
0.0
 10
11.9050894149
 20
4.4348039632
 30
0.0
 10
11.8976138997
 20
4.4284073074
 30
0.0
 10
11.8913630844
 20
4.4238791411
 30
0.0
 10
11.8850182523
 20
4.4197699491
 30
0.0
 10
11.8800534023
 20
4.4170695994
 30
0.0
 10
11.8766818911
 20
4.4154479925
 30
0.0
  0
SPLINE
  5
302
100
AcDbEntity
  8
0
100
AcDbSpline
 62
9
  6
CONTINUOUS
 70
0
 71
3
 72
16
 73
12
 74
0
 42
0.0000001
 43
0.0000001
 44
0.0000000001
 40
0.0
 40
0.0
 40
0.0
 40
0.0
 40
0.1520454196
 40
0.3014034702
 40
0.4452753848
 40
0.5811508225
 40
0.7065942199
 40
0.8194091957
 40
0.9177339472
 40
0.9609657837
 40
1.0
 40
1.0
 40
1.0
 40
1.0
 10
11.8740108307
 20
4.3888343899
 30
0.0
 10
11.8740108307
 20
4.3901938651
 30
0.0
 10
11.8740410296
 20
4.3928888879
 30
0.0
 10
11.8741762188
 20
4.3968682508
 30
0.0
 10
11.8743987562
 20
4.4006989365
 30
0.0
 10
11.874704049
 20
4.4043094216
 30
0.0
 10
11.8750862415
 20
4.4076333724
 30
0.0
 10
11.8755374237
 20
4.4106095192
 30
0.0
 10
11.8759800686
 20
4.4128417594
 30
0.0
 10
11.876371261
 20
4.4144086475
 30
0.0
 10
11.8765765538
 20
4.415115264
 30
0.0
 10
11.8766822693
 20
4.4154478829
 30
0.0
  0
SPLINE
  5
303
100
AcDbEntity
  8
0
100
AcDbSpline
 62
9
  6
CONTINUOUS
 70
0
 71
3
 72
15
 73
11
 74
0
 42
0.0000001
 43
0.0000001
 44
0.0000000001
 40
0.0
 40
0.0
 40
0.0
 40
0.0
 40
0.1255101074
 40
0.2510050084
 40
0.3763382599
 40
0.5015157335
 40
0.6264853451
 40
0.7512108971
 40
0.8757405936
 40
1.0
 40
1.0
 40
1.0
 40
1.0
 10
13.6348459235
 20
4.3888345639
 30
0.0
 10
13.6348459238
 20
4.3901970313
 30
0.0
 10
13.6346621151
 20
4.3929253277
 30
0.0
 10
13.6338412394
 20
4.3969393473
 30
0.0
 10
13.6324890543
 20
4.4008038686
 30
0.0
 10
13.630631818
 20
4.4044461044
 30
0.0
 10
13.6283030299
 20
4.4077985035
 30
0.0
 10
13.6255461443
 20
4.4107995319
 30
0.0
 10
13.622412788
 20
4.4133918734
 30
0.0
 10
13.6201079126
 20
4.4148186485
 30
0.0
 10
13.6189148549
 20
4.4154480284
 30
0.0
  0
SPLINE
  5
304
100
AcDbEntity
  8
0
100
AcDbSpline
 62
9
  6
CONTINUOUS
 70
0
 71
3
 72
28
 73
24
 74
0
 42
0.0000001
 43
0.0000001
 44
0.0000000001
 40
0.0
 40
0.0
 40
0.0
 40
0.0
 40
0.0620623436
 40
0.1243000722
 40
0.1866890726
 40
0.2492032109
 40
0.3118147224
 40
0.3431488198
 40
0.3744980962
 40
0.4058604028
 40
0.4372338015
 40
0.4686149093
 40
0.499999837
 40
0.5313847029
 40
0.5627656344
 40
0.5941387714
 40
0.6255009093
 40
0.656850176
 40
0.6881843778
 40
0.7507962751
 40
0.813310799
 40
0.8757001559
 40
1.0
 40
1.0
 40
1.0
 40
1.0
 10
12.5003954721
 20
4.5967023129
 30
0.0
 10
12.5103977767
 20
4.5970674459
 30
0.0
 10
12.5304269905
 20
4.5978998024
 30
0.0
 10
12.5605004104
 20
4.5993409189
 30
0.0
 10
12.590642613
 20
4.6008654519
 30
0.0
 10
12.6208464905
 20
4.6023638372
 30
0.0
 10
12.646054198
 20
4.6034918643
 30
0.0
 10
12.6662462946
 20
4.6042609106
 30
0.0
 10
12.6814053129
 20
4.6047558501
 30
0.0
 10
12.69657357
 20
4.6051536242
 30
0.0
 10
12.7117495228
 20
4.6054384794
 30
0.0
 10
12.726930828
 20
4.6056096215
 30
0.0
 10
12.74211484
 20
4.6056670265
 30
0.0
 10
12.7572988268
 20
4.6056104191
 30
0.0
 10
12.7724800587
 20
4.6054397444
 30
0.0
 10
12.7876559047
 20
4.6051543139
 30
0.0
 10
12.8028240706
 20
4.6047557896
 30
0.0
 10
12.8179830647
 20
4.6042605071
 30
0.0
 10
12.8381752321
 20
4.6034912559
 30
0.0
 10
12.8633830778
 20
4.6023634202
 30
0.0
 10
12.8935872081
 20
4.6008655849
 30
0.0
 10
12.9337254809
 20
4.5988356478
 30
0.0
 10
12.9638018418
 20
4.5974336026
 30
0.0
 10
12.9838346805
 20
4.5967023129
 30
0.0
  0
SPLINE
  5
305
100
AcDbEntity
  8
0
100
AcDbSpline
 62
9
  6
CONTINUOUS
 70
0
 71
3
 72
39
 73
35
 74
0
 42
0.0000001
 43
0.0000001
 44
0.0000000001
 40
0.0
 40
0.0
 40
0.0
 40
0.0
 40
0.2164407793
 40
0.3161790601
 40
0.4101303934
 40
0.4981550765
 40
0.5800741532
 40
0.6556667631
 40
0.7246669724
 40
0.7867703674
 40
0.8416376835
 40
0.866243504
 40
0.8888988635
 40
0.9095552864
 40
0.9281768633
 40
0.9447322407
 40
0.9591894167
 40
0.9715157501
 40
0.9768694942
 40
0.9816780052
 40
0.9859370317
 40
0.9896422853
 40
0.9927894421
 40
0.9953741427
 40
0.9964542005
 40
0.9973919936
 40
0.9981869674
 40
0.9988385652
 40
0.9993462281
 40
0.9997093955
 40
0.9998366177
 40
0.9999275051
 40
0.9999819878
 40
1.0
 40
1.0
 40
1.0
 40
1.0
 10
13.6103668032
 20
4.5967023129
 30
0.0
 10
13.6118859004
 20
4.5970487934
 30
0.0
 10
13.614085907
 20
4.5976461575
 30
0.0
 10
13.6168816054
 20
4.5985969812
 30
0.0
 10
13.61877489
 20
4.5993253413
 30
0.0
 10
13.6205210377
 20
4.6000747196
 30
0.0
 10
13.6221188458
 20
4.6008314677
 30
0.0
 10
13.6235671978
 20
4.601581271
 30
0.0
 10
13.624865443
 20
4.6023088308
 30
0.0
 10
13.6260128149
 20
4.6029990024
 30
0.0
 10
13.6268711994
 20
4.6035486958
 30
0.0
 10
13.6274825898
 20
4.6039570368
 30
0.0
 10
13.6278860554
 20
4.6042332101
 30
0.0
 10
13.628251409
 20
4.6044887494
 30
0.0
 10
13.6285785128
 20
4.6047223254
 30
0.0
 10
13.6288672812
 20
4.6049327623
 30
0.0
 10
13.6291176722
 20
4.6051188889
 30
0.0
 10
13.6293020552
 20
4.6052586277
 30
0.0
 10
13.6294303735
 20
4.6053573347
 30
0.0
 10
13.6295123721
 20
4.6054210057
 30
0.0
 10
13.6295847438
 20
4.6054777235
 30
0.0
 10
13.6296474831
 20
4.6055273425
 30
0.0
 10
13.6297005842
 20
4.605569716
 30
0.0
 10
13.6297387834
 20
4.6056004663
 30
0.0
 10
13.6297645239
 20
4.6056213262
 30
0.0
 10
13.6297802302
 20
4.6056341103
 30
0.0
 10
13.6297935192
 20
4.6056449625
 30
0.0
 10
13.6298044044
 20
4.605653907
 30
0.0
 10
13.6298128465
 20
4.6056608124
 30
0.0
 10
13.6298184297
 20
4.6056655083
 30
0.0
 10
13.6298215998
 20
4.6056680079
 30
0.0
 10
13.6298232062
 20
4.6056695278
 30
0.0
 10
13.6298239516
 20
4.6056697962
 30
0.0
 10
13.6298245257
 20
4.6056706176
 30
0.0
 10
13.6298245614
 20
4.605670493
 30
0.0
  0
SPLINE
  5
306
100
AcDbEntity
  8
0
100
AcDbSpline
 62
9
  6
CONTINUOUS
 70
0
 71
3
 72
17
 73
13
 74
0
 42
0.0000001
 43
0.0000001
 44
0.0000000001
 40
0.0
 40
0.0
 40
0.0
 40
0.0
 40
0.1363827877
 40
0.2697993028
 40
0.3996519433
 40
0.4632179923
 40
0.5258833561
 40
0.6485940268
 40
0.7682126862
 40
0.8270309418
 40
0.885246465
 40
1.0
 40
1.0
 40
1.0
 40
1.0
 10
13.5500510653
 20
4.4899326736
 30
0.0
 10
13.5507406365
 20
4.4855400019
 30
0.0
 10
13.5527443062
 20
4.476937338
 30
0.0
 10
13.5574714524
 20
4.4647541045
 30
0.0
 10
13.5626378532
 20
4.4553966631
 30
0.0
 10
13.56735517
 20
4.4485026045
 30
0.0
 10
13.5723435286
 20
4.442094621
 30
0.0
 10
13.5791407331
 20
4.4348041613
 30
0.0
 10
13.5866164323
 20
4.4284074427
 30
0.0
 10
13.5928673972
 20
4.4238792155
 30
0.0
 10
13.5992123889
 20
4.4197699905
 30
0.0
 10
13.6041773601
 20
4.4170696245
 30
0.0
 10
13.6075489451
 20
4.415447995
 30
0.0
  0
SPLINE
  5
307
100
AcDbEntity
  8
0
100
AcDbSpline
 62
9
  6
CONTINUOUS
 70
0
 71
3
 72
10
 73
6
 74
0
 42
0.0000001
 43
0.0000001
 44
0.0000000001
 40
0.0
 40
0.0
 40
0.0
 40
0.0
 40
0.3864415783
 40
0.666686679
 40
1.0
 40
1.0
 40
1.0
 40
1.0
 10
11.8527085592
 20
4.5681310902
 30
0.0
 10
11.8581988616
 20
4.5597365778
 30
0.0
 10
11.8678445783
 20
4.545367453
 30
0.0
 10
11.8826913693
 20
4.5240760738
 30
0.0
 10
11.8919915309
 20
4.5111471935
 30
0.0
 10
11.8970933056
 20
4.5041600203
 30
0.0
  0
SPLINE
  5
308
100
AcDbEntity
  8
0
100
AcDbSpline
 62
9
  6
CONTINUOUS
 70
0
 71
3
 72
15
 73
11
 74
0
 42
0.0000001
 43
0.0000001
 44
0.0000000001
 40
0.0
 40
0.0
 40
0.0
 40
0.0
 40
0.1255214607
 40
0.2512251725
 40
0.3768560488
 40
0.5023219595
 40
0.6274661792
 40
0.7521550928
 40
0.8763774878
 40
1.0
 40
1.0
 40
1.0
 40
1.0
 10
13.5525383159
 20
4.5139254841
 30
0.0
 10
13.553931386
 20
4.5135512147
 30
0.0
 10
13.5566705956
 20
4.5126043516
 30
0.0
 10
13.5605380275
 20
4.5106254907
 30
0.0
 10
13.5640910477
 20
4.5081253595
 30
0.0
 10
13.5672552547
 20
4.5051579767
 30
0.0
 10
13.5699642547
 20
4.5017836629
 30
0.0
 10
13.5721629713
 20
4.4980728503
 30
0.0
 10
13.5738031562
 20
4.4941032267
 30
0.0
 10
13.5745043893
 20
4.4913305702
 30
0.0
 10
13.574751598
 20
4.4899315957
 30
0.0
  0
SPLINE
  5
309
100
AcDbEntity
  8
0
100
AcDbSpline
 62
9
  6
CONTINUOUS
 70
0
 71
3
 72
18
 73
14
 74
0
 42
0.0000001
 43
0.0000001
 44
0.0000000001
 40
0.0
 40
0.0
 40
0.0
 40
0.0
 40
0.0266703622
 40
0.0590318443
 40
0.097048206
 40
0.1406068679
 40
0.1895352437
 40
0.2436362381
 40
0.366306456
 40
0.5062432384
 40
0.6606136077
 40
0.8263740837
 40
1.0
 40
1.0
 40
1.0
 40
1.0
 10
13.5525383159
 20
4.5139254841
 30
0.0
 10
13.5525901638
 20
4.5137165485
 30
0.0
 10
13.5526743343
 20
4.5132465807
 30
0.0
 10
13.5527527752
 20
4.5124667973
 30
0.0
 10
13.5527941287
 20
4.5115476849
 30
0.0
 10
13.552797789
 20
4.5104941074
 30
0.0
 10
13.5527636746
 20
4.5093112277
 30
0.0
 10
13.5526631633
 20
4.5074920819
 30
0.0
 10
13.5524366956
 20
4.5049451037
 30
0.0
 10
13.5520331942
 20
4.5016033159
 30
0.0
 10
13.5514939886
 20
4.4979288287
 30
0.0
 10
13.5508307691
 20
4.4939987387
 30
0.0
 10
13.550323401
 20
4.4913065488
 30
0.0
 10
13.5500512793
 20
4.4899317825
 30
0.0
  0
SPLINE
  5
30A
100
AcDbEntity
  8
0
100
AcDbSpline
 62
9
  6
CONTINUOUS
 70
0
 71
3
 72
18
 73
14
 74
0
 42
0.0000001
 43
0.0000001
 44
0.0000000001
 40
0.0
 40
0.0
 40
0.0
 40
0.0
 40
0.0268546331
 40
0.0596309392
 40
0.0982808308
 40
0.1426538304
 40
0.1925420805
 40
0.2476768333
 40
0.3723353318
 40
0.5136083201
 40
0.6679480889
 40
0.8314844426
 40
1.0
 40
1.0
 40
1.0
 40
1.0
 10
13.4622853365
 20
4.5324904486
 30
0.0
 10
13.4623596641
 20
4.5322458557
 30
0.0
 10
13.4624847854
 20
4.5316907409
 30
0.0
 10
13.4626131728
 20
4.5307634901
 30
0.0
 10
13.4626984982
 20
4.5296639147
 30
0.0
 10
13.4627399621
 20
4.528399082
 30
0.0
 10
13.4627369822
 20
4.526976702
 30
0.0
 10
13.4626705354
 20
4.5247910831
 30
0.0
 10
13.4624673397
 20
4.5217405585
 30
0.0
 10
13.4620645911
 20
4.5177596458
 30
0.0
 10
13.4615022056
 20
4.5134246783
 30
0.0
 10
13.460794236
 20
4.5088486251
 30
0.0
 10
13.4602407841
 20
4.5057362476
 30
0.0
 10
13.4599427939
 20
4.5041600203
 30
0.0
  0
SPLINE
  5
30B
100
AcDbEntity
  8
0
100
AcDbSpline
 62
9
  6
CONTINUOUS
 70
0
 71
3
 72
16
 73
12
 74
0
 42
0.0000001
 43
0.0000001
 44
0.0000000001
 40
0.0
 40
0.0
 40
0.0
 40
0.0
 40
0.0278159802
 40
0.0617239431
 40
0.1015097179
 40
0.1469241979
 40
0.2535197439
 40
0.3788802834
 40
0.5198806069
 40
0.6729818032
 40
1.0
 40
1.0
 40
1.0
 40
1.0
 10
12.5003954721
 20
4.5967023129
 30
0.0
 10
12.5003747835
 20
4.5964379056
 30
0.0
 10
12.5003418295
 20
4.5958501823
 30
0.0
 10
12.5003119132
 20
4.5948827366
 30
0.0
 10
12.5002974445
 20
4.5937471207
 30
0.0
 10
12.5002992115
 20
4.591918377
 30
0.0
 10
12.5003457449
 20
4.5892739912
 30
0.0
 10
12.5004589478
 20
4.5857197141
 30
0.0
 10
12.5006306834
 20
4.5817239053
 30
0.0
 10
12.5009392097
 20
4.5758097389
 30
0.0
 10
12.501233187
 20
4.5712411817
 30
0.0
 10
12.5014551595
 20
4.5681310902
 30
0.0
  0
SPLINE
  5
30C
100
AcDbEntity
  8
0
100
AcDbSpline
 62
9
  6
CONTINUOUS
 70
0
 71
3
 72
18
 73
14
 74
0
 42
0.0000001
 43
0.0000001
 44
0.0000000001
 40
0.0
 40
0.0
 40
0.0
 40
0.0
 40
0.0266631843
 40
0.0590134735
 40
0.0970226112
 40
0.1405797098
 40
0.1895088861
 40
0.2436106438
 40
0.3662823047
 40
0.5062227556
 40
0.6605973631
 40
0.8263653264
 40
1.0
 40
1.0
 40
1.0
 40
1.0
 10
11.9316925083
 20
4.5139254959
 30
0.0
 10
11.9316406713
 20
4.5137166191
 30
0.0
 10
11.9315568282
 20
4.5132467319
 30
0.0
 10
11.931479115
 20
4.512467096
 30
0.0
 10
11.9314382343
 20
4.5115481389
 30
0.0
 10
11.9314345528
 20
4.5104946395
 30
0.0
 10
11.9314684902
 20
4.5093117639
 30
0.0
 10
11.9315688992
 20
4.5074926013
 30
0.0
 10
11.9317955284
 20
4.5049456122
 30
0.0
 10
11.9321987698
 20
4.5016037438
 30
0.0
 10
11.9327386297
 20
4.4979292553
 30
0.0
 10
11.9334012216
 20
4.493998944
 30
0.0
 10
11.9339070749
 20
4.4913063517
 30
0.0
 10
11.9341791937
 20
4.4899315246
 30
0.0
  0
SPLINE
  5
30D
100
AcDbEntity
  8
0
100
AcDbSpline
 62
9
  6
CONTINUOUS
 70
0
 71
3
 72
15
 73
11
 74
0
 42
0.0000001
 43
0.0000001
 44
0.0000000001
 40
0.0
 40
0.0
 40
0.0
 40
0.0
 40
0.1255214337
 40
0.2512263988
 40
0.3768584082
 40
0.50232573
 40
0.6274711282
 40
0.7521624267
 40
0.876382987
 40
1.0
 40
1.0
 40
1.0
 40
1.0
 10
11.9316925083
 20
4.5139254959
 30
0.0
 10
11.9302995054
 20
4.5135512109
 30
0.0
 10
11.9275605324
 20
4.512603954
 30
0.0
 10
11.9236934017
 20
4.5106249089
 30
0.0
 10
11.920140493
 20
4.508124855
 30
0.0
 10
11.9169765151
 20
4.5051574308
 30
0.0
 10
11.9142676233
 20
4.5017831896
 30
0.0
 10
11.9120691645
 20
4.4980724095
 30
0.0
 10
11.9104290216
 20
4.4941030483
 30
0.0
 10
11.9097276248
 20
4.4913306405
 30
0.0
 10
11.9094804112
 20
4.4899317915
 30
0.0
  0
SPLINE
  5
30E
100
AcDbEntity
  8
0
100
AcDbSpline
 62
9
  6
CONTINUOUS
 70
0
 71
3
 72
15
 73
11
 74
0
 42
0.0000001
 43
0.0000001
 44
0.0000000001
 40
0.0
 40
0.0
 40
0.0
 40
0.0
 40
0.1253583963
 40
0.2509489813
 40
0.3765640043
 40
0.5020549362
 40
0.6272537338
 40
0.7520218486
 40
0.8762953051
 40
1.0
 40
1.0
 40
1.0
 40
1.0
 10
11.9193783036
 20
4.5324904486
 30
0.0
 10
11.9178287775
 20
4.5320538717
 30
0.0
 10
11.9147908201
 20
4.5309319249
 30
0.0
 10
11.9105565306
 20
4.5285570069
 30
0.0
 10
11.9067436163
 20
4.5255471919
 30
0.0
 10
11.9034520271
 20
4.5219818394
 30
0.0
 10
11.9007673996
 20
4.5179525709
 30
0.0
 10
11.8987589355
 20
4.5135637068
 30
0.0
 10
11.8974802463
 20
4.5089304846
 30
0.0
 10
11.8971353155
 20
4.505748082
 30
0.0
 10
11.8970933056
 20
4.5041600203
 30
0.0
  0
LINE
  5
30F
100
AcDbEntity
  8
0
100
AcDbLine
 62
9
  6
CONTINUOUS
 10
12.9142464075
 20
6.9030093738
 11
12.9473804719
 21
8.4409556411
  0
SPLINE
  5
310
100
AcDbEntity
  8
0
100
AcDbSpline
 62
9
  6
CONTINUOUS
 70
0
 71
3
 72
17
 73
13
 74
0
 42
0.0000001
 43
0.0000001
 44
0.0000000001
 40
0.0
 40
0.0
 40
0.0
 40
0.0
 40
0.0743698043
 40
0.1476213835
 40
0.289544543
 40
0.3579835791
 40
0.4246173127
 40
0.55236404
 40
0.6730932535
 40
0.7874104679
 40
0.8961172446
 40
1.0
 40
1.0
 40
1.0
 40
1.0
 10
13.5747495534
 20
4.4899313058
 30
0.0
 10
13.5750149686
 20
4.4877300822
 30
0.0
 10
13.5756661236
 20
4.4833744907
 30
0.0
 10
13.5774211024
 20
4.4749194873
 30
0.0
 10
13.5798288724
 20
4.4667921273
 30
0.0
 10
13.5828355616
 20
4.4590972446
 30
0.0
 10
13.5860879006
 20
4.4519650007
 30
0.0
 10
13.5906805381
 20
4.4437462371
 30
0.0
 10
13.5969746991
 20
4.4349242261
 30
0.0
 10
13.6038237335
 20
4.4272720959
 30
0.0
 10
13.6111046385
 20
4.4207644932
 30
0.0
 10
13.6162879763
 20
4.4170895141
 30
0.0
 10
13.6189144069
 20
4.4154483403
 30
0.0
  0
SPLINE
  5
311
100
AcDbEntity
  8
0
100
AcDbSpline
 62
9
  6
CONTINUOUS
 70
0
 71
3
 72
11
 73
7
 74
0
 42
0.0000001
 43
0.0000001
 44
0.0000000001
 40
0.0
 40
0.0
 40
0.0
 40
0.0
 40
0.2549084867
 40
0.5067312477
 40
0.7551737648
 40
1.0
 40
1.0
 40
1.0
 40
1.0
 10
13.5747495534
 20
4.4899313058
 30
0.0
 10
13.5757442768
 20
4.4911890103
 30
0.0
 10
13.5777539422
 20
4.4936638628
 30
0.0
 10
13.5808389453
 20
4.4972768886
 30
0.0
 10
13.5839622991
 20
4.5007721052
 30
0.0
 10
13.5860768159
 20
4.5030433581
 30
0.0
 10
13.587137101
 20
4.5041603682
 30
0.0
  0
SPLINE
  5
312
100
AcDbEntity
  8
0
100
AcDbSpline
 62
9
  6
CONTINUOUS
 70
0
 71
3
 72
14
 73
10
 74
0
 42
0.0000001
 43
0.0000001
 44
0.0000000001
 40
0.0
 40
0.0
 40
0.0
 40
0.0
 40
0.1312820544
 40
0.2617141333
 40
0.3907128089
 40
0.517776114
 40
0.6425020221
 40
0.7645917099
 40
1.0
 40
1.0
 40
1.0
 40
1.0
 10
12.9473804719
 20
8.4409556411
 30
0.0
 10
12.9475065379
 20
8.4469630411
 30
0.0
 10
12.9481390854
 20
8.4589345378
 30
0.0
 10
12.9502231945
 20
8.4767070636
 30
0.0
 10
12.9534004793
 20
8.4941214994
 30
0.0
 10
12.9576192822
 20
8.5110435377
 30
0.0
 10
12.9628157271
 20
8.527361325
 30
0.0
 10
12.9708532776
 20
8.5479271902
 30
0.0
 10
12.9782697877
 20
8.5625817398
 30
0.0
 10
12.9837796735
 20
8.5718408847
 30
0.0
  0
SPLINE
  5
313
100
AcDbEntity
  8
0
100
AcDbSpline
 62
9
  6
CONTINUOUS
 70
0
 71
3
 72
15
 73
11
 74
0
 42
0.0000001
 43
0.0000001
 44
0.0000000001
 40
0.0
 40
0.0
 40
0.0
 40
0.0
 40
0.1268414389
 40
0.25345831
 40
0.3796439223
 40
0.5052262827
 40
0.6300825759
 40
0.7541500004
 40
0.877432164
 40
1.0
 40
1.0
 40
1.0
 40
1.0
 10
12.9876693945
 20
8.6242410273
 30
0.0
 10
12.9876693949
 20
8.6252144174
 30
0.0
 10
12.9875331294
 20
8.627162223
 30
0.0
 10
12.986924053
 20
8.6300205898
 30
0.0
 10
12.985923175
 20
8.6327568293
 30
0.0
 10
12.9845515588
 20
8.6353120075
 30
0.0
 10
12.982838196
 20
8.637631842
 30
0.0
 10
12.9808191039
 20
8.6396667973
 30
0.0
 10
12.9785378647
 20
8.6413729172
 30
0.0
 10
12.976868466
 20
8.642269749
 30
0.0
 10
12.9760086621
 20
8.6426511341
 30
0.0
  0
SPLINE
  5
314
100
AcDbEntity
  8
0
100
AcDbSpline
 62
9
  6
CONTINUOUS
 70
0
 71
3
 72
11
 73
7
 74
0
 42
0.0000001
 43
0.0000001
 44
0.0000000001
 40
0.0
 40
0.0
 40
0.0
 40
0.0
 40
0.2310035397
 40
0.4734169863
 40
0.7291799838
 40
1.0
 40
1.0
 40
1.0
 40
1.0
 10
12.9760086621
 20
8.6426511341
 30
0.0
 10
12.9750047044
 20
8.6432369596
 30
0.0
 10
12.9730210096
 20
8.6445681518
 30
0.0
 10
12.9702282204
 20
8.6469594757
 30
0.0
 10
12.9675811565
 20
8.6497920238
 30
0.0
 10
12.9659840621
 20
8.6519132906
 30
0.0
 10
12.9652190521
 20
8.6530410273
 30
0.0
  0
SPLINE
  5
315
100
AcDbEntity
  8
0
100
AcDbSpline
 62
9
  6
CONTINUOUS
 70
0
 71
3
 72
36
 73
32
 74
0
 42
0.0000001
 43
0.0000001
 44
0.0000000001
 40
0.0
 40
0.0
 40
0.0
 40
0.0
 40
0.0000681296
 40
0.0002750807
 40
0.000620877
 40
0.0011055314
 40
0.0017290551
 40
0.0024914595
 40
0.0044329536
 40
0.0069301011
 40
0.0099829892
 40
0.0135917046
 40
0.0177563344
 40
0.0224769653
 40
0.0277536843
 40
0.0399754625
 40
0.0544022689
 40
0.0709820082
 40
0.0896603046
 40
0.1103839715
 40
0.1331012308
 40
0.15776187
 40
0.212719742
 40
0.2748925836
 40
0.3439468355
 40
0.4195852138
 40
0.5015521779
 40
0.5896297636
 40
0.6836374001
 40
0.7834344123
 40
1.0
 40
1.0
 40
1.0
 40
1.0
 10
11.8544059453
 20
4.6056480202
 30
0.0
 10
11.8544059508
 20
4.6056485103
 30
0.0
 10
11.8544085493
 20
4.6056454912
 30
0.0
 10
11.8544111963
 20
4.6056446774
 30
0.0
 10
11.8544177706
 20
4.605639231
 30
0.0
 10
11.8544259588
 20
4.6056335019
 30
0.0
 10
11.8544368959
 20
4.6056253525
 30
0.0
 10
11.8544561292
 20
4.6056112478
 30
0.0
 10
11.8544862791
 20
4.6055889933
 30
0.0
 10
11.8545296359
 20
4.6055570227
 30
0.0
 10
11.8545826485
 20
4.6055178798
 30
0.0
 10
11.854645293
 20
4.6054716067
 30
0.0
 10
11.854717578
 20
4.6054181845
 30
0.0
 10
11.8547994998
 20
4.6053576144
 30
0.0
 10
11.854928017
 20
4.6052625667
 30
0.0
 10
11.8551126006
 20
4.6051258978
 30
0.0
 10
11.8553627423
 20
4.6049411205
 30
0.0
 10
11.8556513813
 20
4.6047302891
 30
0.0
 10
11.8559784018
 20
4.6044952191
 30
0.0
 10
11.8563437245
 20
4.6042378155
 30
0.0
 10
11.8567472577
 20
4.6039599656
 30
0.0
 10
11.8573585782
 20
4.603549703
 30
0.0
 10
11.8582168967
 20
4.6029982633
 30
0.0
 10
11.8593643726
 20
4.6023069611
 30
0.0
 10
11.8606628389
 20
4.6015792722
 30
0.0
 10
11.862111703
 20
4.6008304575
 30
0.0
 10
11.8637098113
 20
4.6000746039
 30
0.0
 10
11.8654559815
 20
4.5993255826
 30
0.0
 10
11.8673491616
 20
4.5985972923
 30
0.0
 10
11.8701445813
 20
4.5976463056
 30
0.0
 10
11.8723443709
 20
4.597048764
 30
0.0
 10
11.8738633494
 20
4.5967023129
 30
0.0
  0
LINE
  5
316
100
AcDbEntity
  8
0
100
AcDbLine
 62
9
  6
CONTINUOUS
 10
12.9430617529
 20
6.8367767296
 11
12.9395753286
 21
6.8345251394
  0
SPLINE
  5
317
100
AcDbEntity
  8
0
100
AcDbSpline
 62
9
  6
CONTINUOUS
 70
0
 71
3
 72
15
 73
11
 74
0
 42
0.0000001
 43
0.0000001
 44
0.0000000001
 40
0.0
 40
0.0
 40
0.0
 40
0.0
 40
0.133631866
 40
0.2643649664
 40
0.3923287953
 40
0.5177501557
 40
0.6408929471
 40
0.76207252
 40
0.8816499347
 40
1.0
 40
1.0
 40
1.0
 40
1.0
 10
12.9652190521
 20
8.6530410273
 30
0.0
 10
12.963584455
 20
8.6551579406
 30
0.0
 10
12.9601830573
 20
8.6592197661
 30
0.0
 10
12.9546598288
 20
8.6648131408
 30
0.0
 10
12.9488124384
 20
8.6698185335
 30
0.0
 10
12.9426829524
 20
8.6742185771
 30
0.0
 10
12.9363114666
 20
8.6780009331
 30
0.0
 10
12.929737181
 20
8.681157633
 30
0.0
 10
12.9229984585
 20
8.6836830525
 30
0.0
 10
12.9184004511
 20
8.6849505168
 30
0.0
 10
12.9160909118
 20
8.6854765915
 30
0.0
  0
SPLINE
  5
318
100
AcDbEntity
  8
0
100
AcDbSpline
 62
9
  6
CONTINUOUS
 70
0
 71
3
 72
9
 73
5
 74
0
 42
0.0000001
 43
0.0000001
 44
0.0000000001
 40
0.0
 40
0.0
 40
0.0
 40
0.0
 40
0.5009463316
 40
1.0
 40
1.0
 40
1.0
 40
1.0
 10
12.8637310218
 20
6.868051424
 30
0.0
 10
12.8708395093
 20
6.8713723338
 30
0.0
 10
12.8848435847
 20
6.8784049093
 30
0.0
 10
12.8984893278
 20
6.8861037123
 30
0.0
 10
12.9052162486
 20
6.8900840754
 30
0.0
  0
SPLINE
  5
319
100
AcDbEntity
  8
0
100
AcDbSpline
 62
9
  6
CONTINUOUS
 70
0
 71
3
 72
11
 73
7
 74
0
 42
0.0000001
 43
0.0000001
 44
0.0000000001
 40
0.0
 40
0.0
 40
0.0
 40
0.0
 40
0.2507405952
 40
0.5011864507
 40
0.751034757
 40
1.0
 40
1.0
 40
1.0
 40
1.0
 10
12.7421150763
 20
6.8367764025
 30
0.0
 10
12.737901303
 20
6.836776403
 30
0.0
 10
12.7294784527
 20
6.8366904856
 30
0.0
 10
12.7168622611
 20
6.8362958484
 30
0.0
 10
12.7042881863
 20
6.83561113
 30
0.0
 10
12.6959315876
 20
6.8349316559
 30
0.0
 10
12.6917674453
 20
6.8345251393
 30
0.0
  0
LINE
  5
31A
100
AcDbEntity
  8
0
100
AcDbLine
 62
9
  6
CONTINUOUS
 10
12.5446548034
 20
6.8345251637
 11
12.5411683997
 21
6.8367767296
  0
SPLINE
  5
31B
100
AcDbEntity
  8
0
100
AcDbSpline
 62
9
  6
CONTINUOUS
 70
0
 71
3
 72
15
 73
11
 74
0
 42
0.0000001
 43
0.0000001
 44
0.0000000001
 40
0.0
 40
0.0
 40
0.0
 40
0.0
 40
0.1899370712
 40
0.3604731558
 40
0.5118102005
 40
0.6442974596
 40
0.7584556753
 40
0.8550534938
 40
0.9351401743
 40
1.0
 40
1.0
 40
1.0
 40
1.0
 10
12.5713325198
 20
6.8288824933
 30
0.0
 10
12.5695835685
 20
6.8288825827
 30
0.0
 10
12.5662634658
 20
6.8289625252
 30
0.0
 10
12.5615629262
 20
6.8293350936
 30
0.0
 10
12.5574169789
 20
6.8299171082
 30
0.0
 10
12.5538270479
 20
6.8306682724
 30
0.0
 10
12.5507869534
 20
6.8315444067
 30
0.0
 10
12.5482804954
 20
6.8324975471
 30
0.0
 10
12.5462796633
 20
6.8334761948
 30
0.0
 10
12.5451428413
 20
6.8341809164
 30
0.0
 10
12.5446548034
 20
6.8345251637
 30
0.0
  0
SPLINE
  5
31C
100
AcDbEntity
  8
0
100
AcDbSpline
 62
9
  6
CONTINUOUS
 70
0
 71
3
 72
13
 73
9
 74
0
 42
0.0000001
 43
0.0000001
 44
0.0000000001
 40
0.0
 40
0.0
 40
0.0
 40
0.0
 40
0.2651199244
 40
0.5232586635
 40
0.6483026603
 40
0.769852793
 40
0.8872999132
 40
1.0
 40
1.0
 40
1.0
 40
1.0
 10
12.6917674453
 20
6.8345251393
 30
0.0
 10
12.6855412354
 20
6.8339171783
 30
0.0
 10
12.6732642624
 20
6.8326040645
 30
0.0
 10
12.6580499967
 20
6.8310059998
 30
0.0
 10
12.6461847692
 20
6.8299717933
 30
0.0
 10
12.6376151217
 20
6.8293726399
 30
0.0
 10
12.6293247866
 20
6.8289821174
 30
0.0
 10
12.6238939525
 20
6.8288825234
 30
0.0
 10
12.6212346591
 20
6.8288825013
 30
0.0
  0
SPLINE
  5
31D
100
AcDbEntity
  8
0
100
AcDbSpline
 62
9
  6
CONTINUOUS
 70
0
 71
3
 72
13
 73
9
 74
0
 42
0.0000001
 43
0.0000001
 44
0.0000000001
 40
0.0
 40
0.0
 40
0.0
 40
0.0
 40
0.24915626
 40
0.3739875018
 40
0.4989613988
 40
0.6240649575
 40
0.7492881368
 40
1.0
 40
1.0
 40
1.0
 40
1.0
 10
12.0242873587
 20
4.5041600203
 30
0.0
 10
12.0635791443
 20
4.5116898161
 30
0.0
 10
12.122702091
 20
4.5222566342
 30
0.0
 10
12.2018423878
 20
4.5347453953
 30
0.0
 10
12.2614342307
 20
4.5432870222
 30
0.0
 10
12.3212085747
 20
4.5509550425
 30
0.0
 10
12.4011562808
 20
4.5599603442
 30
0.0
 10
12.4613000029
 20
4.5652755782
 30
0.0
 10
12.5014551595
 20
4.5681310902
 30
0.0
  0
SPLINE
  5
31E
100
AcDbEntity
  8
0
100
AcDbSpline
 62
9
  6
CONTINUOUS
 70
0
 71
3
 72
11
 73
7
 74
0
 42
0.0000001
 43
0.0000001
 44
0.0000000001
 40
0.0
 40
0.0
 40
0.0
 40
0.0
 40
0.2489652545
 40
0.4988136183
 40
0.7492594392
 40
1.0
 40
1.0
 40
1.0
 40
1.0
 10
12.7924627513
 20
6.8345251341
 30
0.0
 10
12.7882986065
 20
6.834931664
 30
0.0
 10
12.7799419966
 20
6.8356111101
 30
0.0
 10
12.767367911
 20
6.8362958275
 30
0.0
 10
12.7547517092
 20
6.8366904874
 30
0.0
 10
12.7463288526
 20
6.8367764012
 30
0.0
 10
12.7421150763
 20
6.8367764025
 30
0.0
  0
SPLINE
  5
31F
100
AcDbEntity
  8
0
100
AcDbSpline
 62
9
  6
CONTINUOUS
 70
0
 71
3
 72
13
 73
9
 74
0
 42
0.0000001
 43
0.0000001
 44
0.0000000001
 40
0.0
 40
0.0
 40
0.0
 40
0.0
 40
0.1127009666
 40
0.2301470448
 40
0.3516972974
 40
0.4767423154
 40
0.7348805826
 40
1.0
 40
1.0
 40
1.0
 40
1.0
 10
12.8629954111
 20
6.8288825123
 30
0.0
 10
12.860336102
 20
6.8288826336
 30
0.0
 10
12.8549052886
 20
6.8289823563
 30
0.0
 10
12.8466149561
 20
6.8293725692
 30
0.0
 10
12.8380453293
 20
6.8299718635
 30
0.0
 10
12.8261801368
 20
6.8310063625
 30
0.0
 10
12.8109658508
 20
6.8326039346
 30
0.0
 10
12.7986889399
 20
6.8339172002
 30
0.0
 10
12.7924627513
 20
6.8345251341
 30
0.0
  0
SPLINE
  5
320
100
AcDbEntity
  8
0
100
AcDbSpline
 62
9
  6
CONTINUOUS
 70
0
 71
3
 72
15
 73
11
 74
0
 42
0.0000001
 43
0.0000001
 44
0.0000000001
 40
0.0
 40
0.0
 40
0.0
 40
0.0
 40
0.0648599033
 40
0.1449460871
 40
0.2415428658
 40
0.3557021123
 40
0.4881894259
 40
0.6395254392
 40
0.8100617542
 40
1.0
 40
1.0
 40
1.0
 40
1.0
 10
12.9395753286
 20
6.8345251394
 30
0.0
 10
12.9390873009
 20
6.8341808785
 30
0.0
 10
12.9379504688
 20
6.8334761834
 30
0.0
 10
12.9359496817
 20
6.8324974956
 30
0.0
 10
12.9334432639
 20
6.8315442651
 30
0.0
 10
12.930403136
 20
6.8306682611
 30
0.0
 10
12.9268132208
 20
6.8299170789
 30
0.0
 10
12.9226672909
 20
6.8293350357
 30
0.0
 10
12.9179667574
 20
6.8289624857
 30
0.0
 10
12.9146466465
 20
6.8288825269
 30
0.0
 10
12.9128976879
 20
6.8288825142
 30
0.0
  0
SPLINE
  5
321
100
AcDbEntity
  8
0
100
AcDbSpline
 62
9
  6
CONTINUOUS
 70
0
 71
3
 72
29
 73
25
 74
0
 42
0.0000001
 43
0.0000001
 44
0.0000000001
 40
0.0
 40
0.0
 40
0.0
 40
0.0
 40
0.0624554404
 40
0.1249307889
 40
0.1874240059
 40
0.249925491
 40
0.2811772477
 40
0.312429947
 40
0.3436853528
 40
0.3749463516
 40
0.4062113925
 40
0.4374768101
 40
0.5000003366
 40
0.5625233315
 40
0.5937885074
 40
0.6250535851
 40
0.6563150069
 40
0.6875706953
 40
0.7188233852
 40
0.7500749437
 40
0.8125758853
 40
0.8750689366
 40
0.937544434
 40
1.0
 40
1.0
 40
1.0
 40
1.0
 10
12.5014551595
 20
4.5681310902
 30
0.0
 10
12.5114817152
 20
4.5688441324
 30
0.0
 10
12.5315238202
 20
4.5704721304
 30
0.0
 10
12.5615552836
 20
4.5733100516
 30
0.0
 10
12.5915755066
 20
4.5763358386
 30
0.0
 10
12.6165976682
 20
4.578840236
 30
0.0
 10
12.636630101
 20
4.5807064256
 30
0.0
 10
12.6516643825
 20
4.5820055432
 30
0.0
 10
12.6667110848
 20
4.5831726709
 30
0.0
 10
12.6817717642
 20
4.5841746551
 30
0.0
 10
12.6968455251
 20
4.5849886863
 30
0.0
 10
12.7169564878
 20
4.585798116
 30
0.0
 10
12.7421151464
 20
4.5862437535
 30
0.0
 10
12.7672738162
 20
4.5857993158
 30
0.0
 10
12.7873846163
 20
4.5849886914
 30
0.0
 10
12.8024583698
 20
4.5841739363
 30
0.0
 10
12.8175191736
 20
4.5831720582
 30
0.0
 10
12.8325660155
 20
4.5820052803
 30
0.0
 10
12.8476003335
 20
4.5807064427
 30
0.0
 10
12.8676326749
 20
4.5788405711
 30
0.0
 10
12.8926546767
 20
4.5763360336
 30
0.0
 10
12.9226747638
 20
4.5733097964
 30
0.0
 10
12.9527062583
 20
4.5704720031
 30
0.0
 10
12.9727484151
 20
4.5688441038
 30
0.0
 10
12.982774993
 20
4.5681310902
 30
0.0
  0
SPLINE
  5
322
100
AcDbEntity
  8
0
100
AcDbSpline
 62
9
  6
CONTINUOUS
 70
0
 71
3
 72
53
 73
49
 74
0
 42
0.0000001
 43
0.0000001
 44
0.0000000001
 40
0.0
 40
0.0
 40
0.0
 40
0.0
 40
0.1832276023
 40
0.2726486817
 40
0.3595688983
 40
0.4019165339
 40
0.4434370921
 40
0.4840765756
 40
0.5237846086
 40
0.6002025376
 40
0.6722854669
 40
0.7065555093
 40
0.7395497987
 40
0.7711862927
 40
0.8013736837
 40
0.8300040169
 40
0.8569577842
 40
0.8820983718
 40
0.9052781773
 40
0.9263365437
 40
0.9360163979
 40
0.9450991848
 40
0.9535617126
 40
0.9613820301
 40
0.9685387357
 40
0.9750104948
 40
0.9807773674
 40
0.985820269
 40
0.9880642655
 40
0.9901203697
 40
0.9919867748
 40
0.9936616919
 40
0.9951433306
 40
0.9964298992
 40
0.9975196813
 40
0.9979904857
 40
0.9984118588
 40
0.9987837729
 40
0.9991062005
 40
0.9993791139
 40
0.9996024854
 40
0.9997762874
 40
0.9998445912
 40
0.9999004923
 40
0.9999439871
 40
0.9999750723
 40
0.9999937444
 40
1.0
 40
1.0
 40
1.0
 40
1.0
 10
12.7421150763
 20
6.5574410273
 30
0.0
 10
12.7539531079
 20
6.5574406188
 30
0.0
 10
12.7716075824
 20
6.556067074
 30
0.0
 10
12.7944279324
 20
6.5516491639
 30
0.0
 10
12.8080858828
 20
6.5479775194
 30
0.0
 10
12.8185817058
 20
6.5445675955
 30
0.0
 10
12.8261486855
 20
6.5418337262
 30
0.0
 10
12.8334674169
 20
6.5389266149
 30
0.0
 10
12.842763596
 20
6.5349028544
 30
0.0
 10
12.8537104802
 20
6.5295930357
 30
0.0
 10
12.864050745
 20
6.5238794721
 30
0.0
 10
12.8717661527
 20
6.5192385138
 30
0.0
 10
12.8771657718
 20
6.5158207756
 30
0.0
 10
12.882270548
 20
6.5124332807
 30
0.0
 10
12.8870734438
 20
6.5091030987
 30
0.0
 10
12.8915668323
 20
6.5058593806
 30
0.0
 10
12.8957413384
 20
6.502732494
 30
0.0
 10
12.8995860858
 20
6.4997539221
 30
0.0
 10
12.903088476
 20
6.4969562554
 30
0.0
 10
12.9057802953
 20
6.4947449214
 30
0.0
 10
12.9077528416
 20
6.4930931761
 30
0.0
 10
12.9090951294
 20
6.4919563911
 30
0.0
 10
12.9103404226
 20
6.4908910116
 30
0.0
 10
12.9114865394
 20
6.4899011576
 30
0.0
 10
12.9125312948
 20
6.4889907417
 30
0.0
 10
12.9134726443
 20
6.48816362
 30
0.0
 10
12.914308604
 20
6.4874234722
 30
0.0
 10
12.91493813
 20
6.4868622293
 30
0.0
 10
12.9153877845
 20
6.4864595044
 30
0.0
 10
12.9156842143
 20
6.4861933125
 30
0.0
 10
12.9159530037
 20
6.4859513701
 30
0.0
 10
12.9161939915
 20
6.4857340191
 30
0.0
 10
12.9164070187
 20
6.4855416014
 30
0.0
 10
12.9165919225
 20
6.4853744479
 30
0.0
 10
12.9167284065
 20
6.4852511203
 30
0.0
 10
12.91682345
 20
6.4851653075
 30
0.0
 10
12.91688408
 20
6.4851105889
 30
0.0
 10
12.9169376041
 20
6.4850623047
 30
0.0
 10
12.9169840131
 20
6.485020454
 30
0.0
 10
12.917023306
 20
6.4849850396
 30
0.0
 10
12.9170554585
 20
6.4849560542
 30
0.0
 10
12.9170778234
 20
6.484935934
 30
0.0
 10
12.9170920961
 20
6.4849230332
 30
0.0
 10
12.9171002137
 20
6.4849158104
 30
0.0
 10
12.9171063009
 20
6.484910091
 30
0.0
 10
12.9171111724
 20
6.4849062284
 30
0.0
 10
12.9171131611
 20
6.4849035012
 30
0.0
 10
12.9171150783
 20
6.484902733
 30
0.0
 10
12.9171150763
 20
6.4849023288
 30
0.0
  0
SPLINE
  5
323
100
AcDbEntity
  8
0
100
AcDbSpline
 62
9
  6
CONTINUOUS
 70
0
 71
3
 72
13
 73
9
 74
0
 42
0.0000001
 43
0.0000001
 44
0.0000000001
 40
0.0
 40
0.0
 40
0.0
 40
0.0
 40
0.2507118615
 40
0.3759350403
 40
0.5010386003
 40
0.6260124988
 40
0.7508437408
 40
1.0
 40
1.0
 40
1.0
 40
1.0
 10
12.982774993
 20
4.5681310902
 30
0.0
 10
13.0229301497
 20
4.5652755814
 30
0.0
 10
13.0830738716
 20
4.5599603486
 30
0.0
 10
13.1630215776
 20
4.5509550467
 30
0.0
 10
13.2227959219
 20
4.5432870262
 30
0.0
 10
13.2823877651
 20
4.534745398
 30
0.0
 10
13.3615280613
 20
4.5222566315
 30
0.0
 10
13.4206510074
 20
4.5116898108
 30
0.0
 10
13.4599427939
 20
4.5041600203
 30
0.0
  0
SPLINE
  5
324
100
AcDbEntity
  8
0
100
AcDbSpline
 62
9
  6
CONTINUOUS
 70
0
 71
3
 72
10
 73
6
 74
0
 42
0.0000001
 43
0.0000001
 44
0.0000000001
 40
0.0
 40
0.0
 40
0.0
 40
0.0
 40
0.5155129192
 40
0.7608985041
 40
1.0
 40
1.0
 40
1.0
 40
1.0
 10
12.9707989291
 20
8.6426511341
 30
0.0
 10
12.9716783035
 20
8.6428559392
 30
0.0
 10
12.9730159267
 20
8.6430264885
 30
0.0
 10
12.9747676721
 20
8.6429201759
 30
0.0
 10
12.9756039196
 20
8.6427586554
 30
0.0
 10
12.9760086621
 20
8.6426511341
 30
0.0
  0
SPLINE
  5
325
100
AcDbEntity
  8
0
100
AcDbSpline
 62
9
  6
CONTINUOUS
 70
0
 71
3
 72
13
 73
9
 74
0
 42
0.0000001
 43
0.0000001
 44
0.0000000001
 40
0.0
 40
0.0
 40
0.0
 40
0.0
 40
0.2945816893
 40
0.4310341328
 40
0.55976519
 40
0.6807109505
 40
0.7940645914
 40
1.0
 40
1.0
 40
1.0
 40
1.0
 10
12.9551525181
 20
8.6530410272
 30
0.0
 10
12.956118726
 20
8.6533407684
 30
0.0
 10
12.9575612498
 20
8.6536986312
 30
0.0
 10
12.9594688447
 20
8.6539489466
 30
0.0
 10
12.9607949507
 20
8.6540125969
 30
0.0
 10
12.9620428779
 20
8.6539562384
 30
0.0
 10
12.9635386171
 20
8.6537293506
 30
0.0
 10
12.9645941979
 20
8.6533722424
 30
0.0
 10
12.9652190521
 20
8.6530410272
 30
0.0
  0
SPLINE
  5
326
100
AcDbEntity
  8
0
100
AcDbSpline
 62
9
  6
CONTINUOUS
 70
0
 71
3
 72
10
 73
6
 74
0
 42
0.0000001
 43
0.0000001
 44
0.0000000001
 40
0.0
 40
0.0
 40
0.0
 40
0.0
 40
0.2391014964
 40
0.4844870832
 40
1.0
 40
1.0
 40
1.0
 40
1.0
 10
12.5082214904
 20
8.6426511341
 30
0.0
 10
12.5086262329
 20
8.6427586554
 30
0.0
 10
12.5094624805
 20
8.6429201759
 30
0.0
 10
12.5112142259
 20
8.6430264885
 30
0.0
 10
12.5125518491
 20
8.6428559392
 30
0.0
 10
12.5134312235
 20
8.6426511341
 30
0.0
  0
SPLINE
  5
327
100
AcDbEntity
  8
0
100
AcDbSpline
 62
9
  6
CONTINUOUS
 70
0
 71
3
 72
13
 73
9
 74
0
 42
0.0000001
 43
0.0000001
 44
0.0000000001
 40
0.0
 40
0.0
 40
0.0
 40
0.0
 40
0.2059354181
 40
0.3192890557
 40
0.4402348115
 40
0.5689658648
 40
0.705418306
 40
1.0
 40
1.0
 40
1.0
 40
1.0
 10
12.5190111005
 20
8.6530410272
 30
0.0
 10
12.5196359547
 20
8.6533722424
 30
0.0
 10
12.5206915355
 20
8.6537293507
 30
0.0
 10
12.5221872748
 20
8.6539562385
 30
0.0
 10
12.5234352019
 20
8.6540125969
 30
0.0
 10
12.5247613078
 20
8.6539489466
 30
0.0
 10
12.5266689027
 20
8.6536986311
 30
0.0
 10
12.5281114265
 20
8.6533407684
 30
0.0
 10
12.5290776345
 20
8.6530410272
 30
0.0
  0
SPLINE
  5
328
100
AcDbEntity
  8
0
100
AcDbSpline
 62
9
  6
CONTINUOUS
 70
0
 71
3
 72
11
 73
7
 74
0
 42
0.0000001
 43
0.0000001
 44
0.0000000001
 40
0.0
 40
0.0
 40
0.0
 40
0.0
 40
0.2491387068
 40
0.4989294152
 40
0.7492574481
 40
1.0
 40
1.0
 40
1.0
 40
1.0
 10
12.0219448161
 20
4.5324904486
 30
0.0
 10
12.0613364451
 20
4.5400577517
 30
0.0
 10
12.1404178625
 20
4.554219451
 30
0.0
 10
12.2597129222
 20
4.5722375997
 30
0.0
 10
12.3797487722
 20
4.5867391507
 30
0.0
 10
12.460126987
 20
4.5938394636
 30
0.0
 10
12.5003954721
 20
4.5967023129
 30
0.0
  0
SPLINE
  5
329
100
AcDbEntity
  8
0
100
AcDbSpline
 62
9
  6
CONTINUOUS
 70
0
 71
3
 72
33
 73
29
 74
0
 42
0.0000001
 43
0.0000001
 44
0.0000000001
 40
0.0
 40
0.0
 40
0.0
 40
0.0
 40
0.0004366983
 40
0.0009865549
 40
0.0017546602
 40
0.0039373496
 40
0.0069682352
 40
0.0108307922
 40
0.0155085023
 40
0.0209848543
 40
0.027243344
 40
0.0420407534
 40
0.0597688584
 40
0.0802959189
 40
0.1034903425
 40
0.1292206976
 40
0.1573547357
 40
0.2201380766
 40
0.2902514271
 40
0.36606738
 40
0.4459712733
 40
0.5283658562
 40
0.6117153213
 40
0.6947074258
 40
0.7761326294
 40
0.8548407504
 40
0.9297707247
 40
1.0
 40
1.0
 40
1.0
 40
1.0
 10
11.8471150764
 20
4.5860657453
 30
0.0
 10
11.8471150542
 20
4.5860684949
 30
0.0
 10
11.8471168546
 20
4.5860537309
 30
0.0
 10
11.8471182837
 20
4.5860473262
 30
0.0
 10
11.8471221724
 20
4.5860230353
 30
0.0
 10
11.8471282932
 20
4.5859877876
 30
0.0
 10
11.8471379931
 20
4.585930551
 30
0.0
 10
11.8471503305
 20
4.5858590959
 30
0.0
 10
11.8471654573
 20
4.5857720174
 30
0.0
 10
11.8471833145
 20
4.5856702694
 30
0.0
 10
11.8472124586
 20
4.5855057474
 30
0.0
 10
11.847255693
 20
4.5852654039
 30
0.0
 10
11.8473159814
 20
4.5849368279
 30
0.0
 10
11.8473872038
 20
4.5845565101
 30
0.0
 10
11.8474693441
 20
4.5841269744
 30
0.0
 10
11.847562393
 20
4.5836507621
 30
0.0
 10
11.8477062282
 20
4.5829304856
 30
0.0
 10
11.8479118976
 20
4.5819375807
 30
0.0
 10
11.8481937545
 20
4.5806539216
 30
0.0
 10
11.8485188398
 20
4.5792695131
 30
0.0
 10
11.8488870568
 20
4.5778160017
 30
0.0
 10
11.8492983166
 20
4.576324762
 30
0.0
 10
11.8497530639
 20
4.5748258067
 30
0.0
 10
11.8502509369
 20
4.5733469683
 30
0.0
 10
11.8507918184
 20
4.5719143906
 30
0.0
 10
11.8513757785
 20
4.5705536482
 30
0.0
 10
11.8520028304
 20
4.5692902938
 30
0.0
 10
11.8524665111
 20
4.5685011778
 30
0.0
 10
11.8527085592
 20
4.5681310902
 30
0.0
  0
LINE
  5
32A
100
AcDbEntity
  8
0
100
AcDbLine
 62
9
  6
CONTINUOUS
 10
12.8991733059
 20
6.9030093737
 11
12.9142464087
 21
6.9030093737
  0
SPLINE
  5
32B
100
AcDbEntity
  8
0
100
AcDbSpline
 62
9
  6
CONTINUOUS
 70
0
 71
3
 72
14
 73
10
 74
0
 42
0.0000001
 43
0.0000001
 44
0.0000000001
 40
0.0
 40
0.0
 40
0.0
 40
0.0
 40
0.1545258744
 40
0.301599103
 40
0.4403449088
 40
0.5702657945
 40
0.691055983
 40
0.8026935598
 40
1.0
 40
1.0
 40
1.0
 40
1.0
 10
12.9731561868
 20
8.571840718
 30
0.0
 10
12.9736937067
 20
8.5716870637
 30
0.0
 10
12.974751347
 20
8.5714158361
 30
0.0
 10
12.9763167209
 20
8.5711144272
 30
0.0
 10
12.9778108951
 20
8.5709305717
 30
0.0
 10
12.9792198046
 20
8.5708661831
 30
0.0
 10
12.9805321347
 20
8.570921982
 30
0.0
 10
12.9820709918
 20
8.5711464345
 30
0.0
 10
12.9831515967
 20
8.571502026
 30
0.0
 10
12.983779835
 20
8.5718409374
 30
0.0
  0
LINE
  5
32C
100
AcDbEntity
  8
0
100
AcDbLine
 62
9
  6
CONTINUOUS
 10
12.9331389122
 20
8.4409556409
 11
12.9473804719
 21
8.440955641
  0
LINE
  5
32D
100
AcDbEntity
  8
0
100
AcDbLine
 62
9
  6
CONTINUOUS
 10
12.5699837439
 20
6.9030093737
 11
12.5850568466
 21
6.9030093737
  0
SPLINE
  5
32E
100
AcDbEntity
  8
0
100
AcDbSpline
 62
9
  6
CONTINUOUS
 70
0
 71
3
 72
14
 73
10
 74
0
 42
0.0000001
 43
0.0000001
 44
0.0000000001
 40
0.0
 40
0.0
 40
0.0
 40
0.0
 40
0.1972922585
 40
0.3089334708
 40
0.4297266593
 40
0.5596508293
 40
0.6984007924
 40
0.8454736399
 40
1.0
 40
1.0
 40
1.0
 40
1.0
 10
12.5004504422
 20
8.571840718
 30
0.0
 10
12.5010786187
 20
8.5715018418
 30
0.0
 10
12.5021592273
 20
8.5711464786
 30
0.0
 10
12.5036979943
 20
8.5709219684
 30
0.0
 10
12.5050103293
 20
8.5708661841
 30
0.0
 10
12.5064192338
 20
8.5709305844
 30
0.0
 10
12.5079134007
 20
8.5711143816
 30
0.0
 10
12.5094787217
 20
8.5714159377
 30
0.0
 10
12.5105362972
 20
8.5716872849
 30
0.0
 10
12.5110738033
 20
8.5718409374
 30
0.0
  0
LINE
  5
32F
100
AcDbEntity
  8
0
100
AcDbLine
 62
9
  6
CONTINUOUS
 10
12.5368496807
 20
8.4409556409
 11
12.5510912404
 21
8.440955641
  0
SPLINE
  5
330
100
AcDbEntity
  8
0
100
AcDbSpline
 62
9
  6
CONTINUOUS
 70
0
 71
3
 72
9
 73
5
 74
0
 42
0.0000001
 43
0.0000001
 44
0.0000000001
 40
0.0
 40
0.0
 40
0.0
 40
0.0
 40
0.4927901943
 40
1.0
 40
1.0
 40
1.0
 40
1.0
 10
11.9193783036
 20
4.5324904486
 30
0.0
 10
11.9215583833
 20
4.5295495711
 30
0.0
 10
11.9258421014
 20
4.5234763167
 30
0.0
 10
11.9297929115
 20
4.5171793701
 30
0.0
 10
11.9316943113
 20
4.5139263795
 30
0.0
  0
SPLINE
  5
331
100
AcDbEntity
  8
0
100
AcDbSpline
 62
9
  6
CONTINUOUS
 70
0
 71
3
 72
10
 73
6
 74
0
 42
0.0000001
 43
0.0000001
 44
0.0000000001
 40
0.0
 40
0.0
 40
0.0
 40
0.0
 40
0.3333131537
 40
0.6135581568
 40
1.0
 40
1.0
 40
1.0
 40
1.0
 10
13.587137101
 20
4.5041603682
 30
0.0
 10
13.5922388414
 20
4.5111475018
 30
0.0
 10
13.601538948
 20
4.5240763046
 30
0.0
 10
13.616385661
 20
4.5453675635
 30
0.0
 10
13.6260313091
 20
4.5597366241
 30
0.0
 10
13.6315215934
 20
4.5681310902
 30
0.0
  0
SPLINE
  5
332
100
AcDbEntity
  8
0
100
AcDbSpline
 62
9
  6
CONTINUOUS
 70
0
 71
3
 72
11
 73
7
 74
0
 42
0.0000001
 43
0.0000001
 44
0.0000000001
 40
0.0
 40
0.0
 40
0.0
 40
0.0
 40
0.2512907393
 40
0.5020244175
 40
0.7517199802
 40
1.0
 40
1.0
 40
1.0
 40
1.0
 10
12.9876693945
 20
8.5839266885
 30
0.0
 10
12.9876693945
 20
8.5828466913
 30
0.0
 10
12.9875016244
 20
8.580685362
 30
0.0
 10
12.9867524898
 20
8.5775296645
 30
0.0
 10
12.9855262549
 20
8.5745408467
 30
0.0
 10
12.9844064347
 20
8.5727044725
 30
0.0
 10
12.9837796744
 20
8.5718408847
 30
0.0
  0
SPLINE
  5
333
100
AcDbEntity
  8
0
100
AcDbSpline
 62
9
  6
CONTINUOUS
 70
0
 71
3
 72
11
 73
7
 74
0
 42
0.0000001
 43
0.0000001
 44
0.0000000001
 40
0.0
 40
0.0
 40
0.0
 40
0.0
 40
0.2656234461
 40
0.5248587973
 40
0.7715579641
 40
1.0
 40
1.0
 40
1.0
 40
1.0
 10
12.9743360612
 20
8.5839264972
 30
0.0
 10
12.9743360612
 20
8.5828494557
 30
0.0
 10
12.9742864451
 20
8.5807209314
 30
0.0
 10
12.9740642791
 20
8.5775990931
 30
0.0
 10
12.9737008519
 20
8.5746422934
 30
0.0
 10
12.9733553418
 20
8.5727453346
 30
0.0
 10
12.9731561868
 20
8.571840718
 30
0.0
  0
SPLINE
  5
334
100
AcDbEntity
  8
0
100
AcDbSpline
 62
9
  6
CONTINUOUS
 70
0
 71
3
 72
11
 73
7
 74
0
 42
0.0000001
 43
0.0000001
 44
0.0000000001
 40
0.0
 40
0.0
 40
0.0
 40
0.0
 40
0.2656237862
 40
0.5248593871
 40
0.7715589103
 40
1.0
 40
1.0
 40
1.0
 40
1.0
 10
12.5098940914
 20
8.5839266885
 30
0.0
 10
12.5098940914
 20
8.5828496443
 30
0.0
 10
12.5099437127
 20
8.580721116
 30
0.0
 10
12.5101658598
 20
8.5775992673
 30
0.0
 10
12.5105293435
 20
8.5746424748
 30
0.0
 10
12.5108747609
 20
8.5727454994
 30
0.0
 10
12.5110739114
 20
8.5718408847
 30
0.0
  0
SPLINE
  5
335
100
AcDbEntity
  8
0
100
AcDbSpline
 62
9
  6
CONTINUOUS
 70
0
 71
3
 72
11
 73
7
 74
0
 42
0.0000001
 43
0.0000001
 44
0.0000000001
 40
0.0
 40
0.0
 40
0.0
 40
0.0
 40
0.2512909081
 40
0.5020247762
 40
0.7517205916
 40
1.0
 40
1.0
 40
1.0
 40
1.0
 10
12.4965607581
 20
8.5839264972
 30
0.0
 10
12.4965607581
 20
8.5828465027
 30
0.0
 10
12.4967285292
 20
8.5806851793
 30
0.0
 10
12.4974776532
 20
8.5775294853
 30
0.0
 10
12.4987039011
 20
8.5745406875
 30
0.0
 10
12.4998236795
 20
8.5727042967
 30
0.0
 10
12.5004504422
 20
8.571840718
 30
0.0
  0
SPLINE
  5
336
100
AcDbEntity
  8
0
100
AcDbSpline
 62
9
  6
CONTINUOUS
 70
0
 71
3
 72
9
 73
5
 74
0
 42
0.0000001
 43
0.0000001
 44
0.0000000001
 40
0.0
 40
0.0
 40
0.0
 40
0.0
 40
0.4990533575
 40
1.0
 40
1.0
 40
1.0
 40
1.0
 10
12.579013904
 20
6.8900840754
 30
0.0
 10
12.5857408303
 20
6.8861037141
 30
0.0
 10
12.5993866297
 20
6.8784049748
 30
0.0
 10
12.6133906934
 20
6.8713723449
 30
0.0
 10
12.6204991674
 20
6.8680513738
 30
0.0
  0
SPLINE
  5
337
100
AcDbEntity
  8
0
100
AcDbSpline
 62
9
  6
CONTINUOUS
 70
0
 71
3
 72
9
 73
5
 74
0
 42
0.0000001
 43
0.0000001
 44
0.0000000001
 40
0.0
 40
0.0
 40
0.0
 40
0.0
 40
0.5072049307
 40
1.0
 40
1.0
 40
1.0
 40
1.0
 10
13.5525366109
 20
4.5139263677
 30
0.0
 10
13.5544378936
 20
4.5171793922
 30
0.0
 10
13.5583880134
 20
4.5234767914
 30
0.0
 10
13.5626719795
 20
4.5295499037
 30
0.0
 10
13.5648521079
 20
4.5324907978
 30
0.0
  0
SPLINE
  5
338
100
AcDbEntity
  8
0
100
AcDbSpline
 62
9
  6
CONTINUOUS
 70
0
 71
3
 72
15
 73
11
 74
0
 42
0.0000001
 43
0.0000001
 44
0.0000000001
 40
0.0
 40
0.0
 40
0.0
 40
0.0
 40
0.0578808258
 40
0.1306387587
 40
0.2206550446
 40
0.3302065759
 40
0.4613271851
 40
0.6157148847
 40
0.7948432621
 40
1.0
 40
1.0
 40
1.0
 40
1.0
 10
12.9286824615
 20
6.8580041749
 30
0.0
 10
12.9284387642
 20
6.8582479096
 30
0.0
 10
12.9278637521
 20
6.8587730992
 30
0.0
 10
12.92683885
 20
6.8595962613
 30
0.0
 10
12.9255260554
 20
6.8605490263
 30
0.0
 10
12.9238967539
 20
6.8616552259
 30
0.0
 10
12.9219253242
 20
6.8629389785
 30
0.0
 10
12.9195934772
 20
6.8644281681
 30
0.0
 10
12.9168877373
 20
6.866150986
 30
0.0
 10
12.9149623668
 20
6.8673876983
 30
0.0
 10
12.9139367803
 20
6.8680514936
 30
0.0
  0
SPLINE
  5
339
100
AcDbEntity
  8
0
100
AcDbSpline
 62
9
  6
CONTINUOUS
 70
0
 71
3
 72
13
 73
9
 74
0
 42
0.0000001
 43
0.0000001
 44
0.0000000001
 40
0.0
 40
0.0
 40
0.0
 40
0.0
 40
0.1173842624
 40
0.2369307484
 40
0.3587550916
 40
0.4829443368
 40
0.7377197876
 40
1.0
 40
1.0
 40
1.0
 40
1.0
 10
12.9142464087
 20
6.9030093737
 30
0.0
 10
12.914146894
 20
6.9023824031
 30
0.0
 10
12.913868115
 20
6.9011280493
 30
0.0
 10
12.9132269414
 20
6.899292613
 30
0.0
 10
12.9123665867
 20
6.8975079835
 30
0.0
 10
12.9109304147
 20
6.895206484
 30
0.0
 10
12.9086378087
 20
6.8925710946
 30
0.0
 10
12.9064124258
 20
6.8908463639
 30
0.0
 10
12.9052162489
 20
6.8900840758
 30
0.0
  0
SPLINE
  5
33A
100
AcDbEntity
  8
0
100
AcDbSpline
 62
9
  6
CONTINUOUS
 70
0
 71
3
 72
13
 73
9
 74
0
 42
0.0000001
 43
0.0000001
 44
0.0000000001
 40
0.0
 40
0.0
 40
0.0
 40
0.0
 40
0.2952368319
 40
0.5681457495
 40
0.6923474412
 40
0.8064990661
 40
0.9094081605
 40
1.0
 40
1.0
 40
1.0
 40
1.0
 10
12.8991733059
 20
6.9030093737
 30
0.0
 10
12.899880284
 20
6.9017928277
 30
0.0
 10
12.9011965449
 20
6.8994256976
 30
0.0
 10
12.9026773443
 20
6.8964754724
 30
0.0
 10
12.9036810803
 20
6.8942548837
 30
0.0
 10
12.9043048761
 20
6.8927525045
 30
0.0
 10
12.9048165799
 20
6.8913780946
 30
0.0
 10
12.9050981634
 20
6.8904993605
 30
0.0
 10
12.9052162489
 20
6.8900840758
 30
0.0
  0
SPLINE
  5
33B
100
AcDbEntity
  8
0
100
AcDbSpline
 62
9
  6
CONTINUOUS
 70
0
 71
3
 72
13
 73
9
 74
0
 42
0.0000001
 43
0.0000001
 44
0.0000000001
 40
0.0
 40
0.0
 40
0.0
 40
0.0
 40
0.120365837
 40
0.2426425895
 40
0.366498491
 40
0.4916479273
 40
0.7447244606
 40
1.0
 40
1.0
 40
1.0
 40
1.0
 10
12.8637316633
 20
6.8680517154
 30
0.0
 10
12.8610365524
 20
6.8673381988
 30
0.0
 10
12.8555734611
 20
6.8660117537
 30
0.0
 10
12.8472575573
 20
6.8642994926
 30
0.0
 10
12.8387849316
 20
6.8628194222
 30
0.0
 10
12.827280397
 20
6.8611127441
 30
0.0
 10
12.8127000407
 20
6.8594306918
 30
0.0
 10
12.8009662293
 20
6.8584347743
 30
0.0
 10
12.7950691402
 20
6.8580041144
 30
0.0
  0
SPLINE
  5
33C
100
AcDbEntity
  8
0
100
AcDbSpline
 62
9
  6
CONTINUOUS
 70
0
 71
3
 72
11
 73
7
 74
0
 42
0.0000001
 43
0.0000001
 44
0.0000000001
 40
0.0
 40
0.0
 40
0.0
 40
0.0
 40
0.2507425666
 40
0.501070608
 40
0.7508613171
 40
1.0
 40
1.0
 40
1.0
 40
1.0
 10
12.9838346805
 20
4.5967023129
 30
0.0
 10
13.0241031681
 20
4.5938394653
 30
0.0
 10
13.1044813864
 20
4.5867391492
 30
0.0
 10
13.2245172401
 20
4.5722375977
 30
0.0
 10
13.343812298
 20
4.554219452
 30
0.0
 10
13.4228937108
 20
4.5400577483
 30
0.0
 10
13.4622853365
 20
4.5324904486
 30
0.0
  0
SPLINE
  5
33D
100
AcDbEntity
  8
0
100
AcDbSpline
 62
9
  6
CONTINUOUS
 70
0
 71
3
 72
15
 73
11
 74
0
 42
0.0000001
 43
0.0000001
 44
0.0000000001
 40
0.0
 40
0.0
 40
0.0
 40
0.0
 40
0.2051518044
 40
0.3842836854
 40
0.5386759261
 40
0.6697935585
 40
0.7793473272
 40
0.8693671072
 40
0.9421189681
 40
1.0
 40
1.0
 40
1.0
 40
1.0
 10
12.570293496
 20
6.8680516947
 30
0.0
 10
12.5692678896
 20
6.867387957
 30
0.0
 10
12.567342527
 20
6.8661511977
 30
0.0
 10
12.564636822
 20
6.8644282177
 30
0.0
 10
12.5623049363
 20
6.8629389713
 30
0.0
 10
12.5603333877
 20
6.8616553079
 30
0.0
 10
12.5587040752
 20
6.8605490484
 30
0.0
 10
12.5573913526
 20
6.8595961572
 30
0.0
 10
12.5563663729
 20
6.8587730963
 30
0.0
 10
12.5557913434
 20
6.8582479548
 30
0.0
 10
12.5555476836
 20
6.8580041748
 30
0.0
  0
SPLINE
  5
33E
100
AcDbEntity
  8
0
100
AcDbSpline
 62
9
  6
CONTINUOUS
 70
0
 71
3
 72
13
 73
9
 74
0
 42
0.0000001
 43
0.0000001
 44
0.0000000001
 40
0.0
 40
0.0
 40
0.0
 40
0.0
 40
0.1173844908
 40
0.2369311032
 40
0.3587554476
 40
0.482944712
 40
0.7377202244
 40
1.0
 40
1.0
 40
1.0
 40
1.0
 10
12.5699837439
 20
6.9030093737
 30
0.0
 10
12.5700832585
 20
6.9023824016
 30
0.0
 10
12.5703620353
 20
6.9011280449
 30
0.0
 10
12.5710032077
 20
6.8992926052
 30
0.0
 10
12.5718635627
 20
6.897507974
 30
0.0
 10
12.5732997347
 20
6.8952064734
 30
0.0
 10
12.5755923307
 20
6.8925710736
 30
0.0
 10
12.5778177287
 20
6.8908463635
 30
0.0
 10
12.5790139037
 20
6.8900840758
 30
0.0
  0
SPLINE
  5
33F
100
AcDbEntity
  8
0
100
AcDbSpline
 62
9
  6
CONTINUOUS
 70
0
 71
3
 72
13
 73
9
 74
0
 42
0.0000001
 43
0.0000001
 44
0.0000000001
 40
0.0
 40
0.0
 40
0.0
 40
0.0
 40
0.2552760551
 40
0.5083528199
 40
0.633502319
 40
0.7573580024
 40
0.8796347059
 40
1.0
 40
1.0
 40
1.0
 40
1.0
 10
12.6891608744
 20
6.8580041676
 30
0.0
 10
12.6832638481
 20
6.8584349175
 30
0.0
 10
12.6715301501
 20
6.8594307554
 30
0.0
 10
12.6569499393
 20
6.8611127554
 30
0.0
 10
12.6454455177
 20
6.8628193004
 30
0.0
 10
12.6369730103
 20
6.8642994525
 30
0.0
 10
12.6286572165
 20
6.8660116514
 30
0.0
 10
12.6231941519
 20
6.8673378775
 30
0.0
 10
12.6204990785
 20
6.8680513612
 30
0.0
  0
SPLINE
  5
340
100
AcDbEntity
  8
0
100
AcDbSpline
 62
9
  6
CONTINUOUS
 70
0
 71
3
 72
13
 73
9
 74
0
 42
0.0000001
 43
0.0000001
 44
0.0000000001
 40
0.0
 40
0.0
 40
0.0
 40
0.0
 40
0.295236705
 40
0.5681455309
 40
0.6923471801
 40
0.8064987139
 40
0.9094078966
 40
1.0
 40
1.0
 40
1.0
 40
1.0
 10
12.5850568466
 20
6.9030093737
 30
0.0
 10
12.5843498672
 20
6.9017928288
 30
0.0
 10
12.5830335905
 20
6.8994257079
 30
0.0
 10
12.5815527918
 20
6.8964754824
 30
0.0
 10
12.5805490573
 20
6.8942548936
 30
0.0
 10
12.5799252524
 20
6.892752518
 30
0.0
 10
12.5794135524
 20
6.8913781042
 30
0.0
 10
12.5791319899
 20
6.8904993617
 30
0.0
 10
12.5790139037
 20
6.8900840758
 30
0.0
  0
SPLINE
  5
341
100
AcDbEntity
  8
0
100
AcDbSpline
 62
9
  6
CONTINUOUS
 70
0
 71
3
 72
15
 73
11
 74
0
 42
0.0000001
 43
0.0000001
 44
0.0000000001
 40
0.0
 40
0.0
 40
0.0
 40
0.0
 40
0.1243713665
 40
0.2489299637
 40
0.3736695581
 40
0.498605307
 40
0.6237267367
 40
0.7490140425
 40
0.8744552656
 40
1.0
 40
1.0
 40
1.0
 40
1.0
 10
12.5555476772
 20
6.8580041933
 30
0.0
 10
12.5555644303
 20
6.8568953087
 30
0.0
 10
12.5554722538
 20
6.8546719484
 30
0.0
 10
12.5549595802
 20
6.8513728561
 30
0.0
 10
12.5540786843
 20
6.8481468464
 30
0.0
 10
12.5528409173
 20
6.84503498
 30
0.0
 10
12.5512616682
 20
6.842076216
 30
0.0
 10
12.5493608495
 20
6.8393074726
 30
0.0
 10
12.5471625966
 20
6.8367640178
 30
0.0
 10
12.545516841
 20
6.8352393857
 30
0.0
 10
12.5446548034
 20
6.8345251637
 30
0.0
  0
SPLINE
  5
342
100
AcDbEntity
  8
0
100
AcDbSpline
 62
9
  6
CONTINUOUS
 70
0
 71
3
 72
15
 73
11
 74
0
 42
0.0000001
 43
0.0000001
 44
0.0000000001
 40
0.0
 40
0.0
 40
0.0
 40
0.0
 40
0.1201065969
 40
0.2438175293
 40
0.370258948
 40
0.4982611669
 40
0.6265099774
 40
0.7536676532
 40
0.8784942515
 40
1.0
 40
1.0
 40
1.0
 40
1.0
 10
12.5702934206
 20
6.8680514454
 30
0.0
 10
12.5712928607
 20
6.8667218716
 30
0.0
 10
12.5730894544
 20
6.8638411987
 30
0.0
 10
12.5750812532
 20
6.8590950626
 30
0.0
 10
12.5763591518
 20
6.8539960751
 30
0.0
 10
12.5768835567
 20
6.8487035449
 30
0.0
 10
12.5766392698
 20
6.843380887
 30
0.0
 10
12.5756331587
 20
6.8381924118
 30
0.0
 10
12.5738965813
 20
6.8333001071
 30
0.0
 10
12.5722585049
 20
6.8302874961
 30
0.0
 10
12.5713325198
 20
6.8288824933
 30
0.0
  0
SPLINE
  5
343
100
AcDbEntity
  8
0
100
AcDbSpline
 62
9
  6
CONTINUOUS
 70
0
 71
3
 72
15
 73
11
 74
0
 42
0.0000001
 43
0.0000001
 44
0.0000000001
 40
0.0
 40
0.0
 40
0.0
 40
0.0
 40
0.1144999611
 40
0.2368462192
 40
0.3649459492
 40
0.4962793357
 40
0.6281195641
 40
0.7577073364
 40
0.8824229842
 40
1.0
 40
1.0
 40
1.0
 40
1.0
 10
12.6204991688
 20
6.8680513738
 30
0.0
 10
12.6212232728
 20
6.8666903467
 30
0.0
 10
12.6225072361
 20
6.8637582931
 30
0.0
 10
12.6239011044
 20
6.8590354427
 30
0.0
 10
12.6247957674
 20
6.8539630689
 30
0.0
 10
12.6251630674
 20
6.8486983804
 30
0.0
 10
12.624991968
 20
6.8434037164
 30
0.0
 10
12.6242874997
 20
6.8382425002
 30
0.0
 10
12.6230719773
 20
6.833374889
 30
0.0
 10
12.6219039048
 20
6.8303171759
 30
0.0
 10
12.6212346591
 20
6.8288825013
 30
0.0
  0
SPLINE
  5
344
100
AcDbEntity
  8
0
100
AcDbSpline
 62
9
  6
CONTINUOUS
 70
0
 71
3
 72
13
 73
9
 74
0
 42
0.0000001
 43
0.0000001
 44
0.0000000001
 40
0.0
 40
0.0
 40
0.0
 40
0.0
 40
0.2827329304
 40
0.5523411239
 40
0.6779974155
 40
0.7954394119
 40
0.9032208988
 40
1.0
 40
1.0
 40
1.0
 40
1.0
 10
12.6891608711
 20
6.8580041678
 30
0.0
 10
12.6894885971
 20
6.8558013595
 30
0.0
 10
12.6900919733
 20
6.8514924312
 30
0.0
 10
12.6907386782
 20
6.8461908666
 30
0.0
 10
12.6911638847
 20
6.8421747098
 30
0.0
 10
12.6914224481
 20
6.8394229142
 30
0.0
 10
12.6916251814
 20
6.8368945712
 30
0.0
 10
12.6917275159
 20
6.8352864092
 30
0.0
 10
12.6917674456
 20
6.8345251382
 30
0.0
  0
SPLINE
  5
345
100
AcDbEntity
  8
0
100
AcDbSpline
 62
9
  6
CONTINUOUS
 70
0
 71
3
 72
13
 73
9
 74
0
 42
0.0000001
 43
0.0000001
 44
0.0000000001
 40
0.0
 40
0.0
 40
0.0
 40
0.0
 40
0.2827328396
 40
0.5523409482
 40
0.6779972258
 40
0.7954392409
 40
0.9032207896
 40
1.0
 40
1.0
 40
1.0
 40
1.0
 10
12.7950693163
 20
6.8580041567
 30
0.0
 10
12.7947415607
 20
6.8558013538
 30
0.0
 10
12.794138144
 20
6.851492433
 30
0.0
 10
12.793491426
 20
6.846190872
 30
0.0
 10
12.7930662306
 20
6.8421747152
 30
0.0
 10
12.7928076854
 20
6.8394229177
 30
0.0
 10
12.79260498
 20
6.8368945712
 30
0.0
 10
12.7925026683
 20
6.8352864066
 30
0.0
 10
12.7924627515
 20
6.8345251341
 30
0.0
  0
SPLINE
  5
346
100
AcDbEntity
  8
0
100
AcDbSpline
 62
9
  6
CONTINUOUS
 70
0
 71
3
 72
15
 73
11
 74
0
 42
0.0000001
 43
0.0000001
 44
0.0000000001
 40
0.0
 40
0.0
 40
0.0
 40
0.0
 40
0.114499067
 40
0.2368453561
 40
0.3649453417
 40
0.4962790774
 40
0.6281196317
 40
0.7577076164
 40
0.8824232702
 40
1.0
 40
1.0
 40
1.0
 40
1.0
 10
12.8637310002
 20
6.868051424
 30
0.0
 10
12.8630069429
 20
6.866690388
 30
0.0
 10
12.861723043
 20
6.863758328
 30
0.0
 10
12.8603291871
 20
6.8590354906
 30
0.0
 10
12.8594345295
 20
6.8539631143
 30
0.0
 10
12.8590672089
 20
6.8486984225
 30
0.0
 10
12.8592382762
 20
6.8434037529
 30
0.0
 10
12.8599426993
 20
6.8382425307
 30
0.0
 10
12.8611581632
 20
6.8333749132
 30
0.0
 10
12.8623261898
 20
6.8303171917
 30
0.0
 10
12.8629954111
 20
6.8288825123
 30
0.0
  0
SPLINE
  5
347
100
AcDbEntity
  8
0
100
AcDbSpline
 62
9
  6
CONTINUOUS
 70
0
 71
3
 72
15
 73
11
 74
0
 42
0.0000001
 43
0.0000001
 44
0.0000000001
 40
0.0
 40
0.0
 40
0.0
 40
0.0
 40
0.120105741
 40
0.2438168226
 40
0.3702585063
 40
0.498261003
 40
0.6265100288
 40
0.753667825
 40
0.8784944168
 40
1.0
 40
1.0
 40
1.0
 40
1.0
 10
12.9139368136
 20
6.8680514166
 30
0.0
 10
12.9129374156
 20
6.8667218331
 30
0.0
 10
12.9111408816
 20
6.863841153
 30
0.0
 10
12.9091490924
 20
6.8590950403
 30
0.0
 10
12.9078711989
 20
6.85399606
 30
0.0
 10
12.907346778
 20
6.84870354
 30
0.0
 10
12.9075910441
 20
6.8433808908
 30
0.0
 10
12.9085971267
 20
6.8381924242
 30
0.0
 10
12.9103336685
 20
6.8333001266
 30
0.0
 10
12.9119717174
 20
6.8302875169
 30
0.0
 10
12.9128976879
 20
6.8288825142
 30
0.0
  0
SPLINE
  5
348
100
AcDbEntity
  8
0
100
AcDbSpline
 62
9
  6
CONTINUOUS
 70
0
 71
3
 72
15
 73
11
 74
0
 42
0.0000001
 43
0.0000001
 44
0.0000000001
 40
0.0
 40
0.0
 40
0.0
 40
0.0
 40
0.1243702784
 40
0.248928355
 40
0.3736678534
 40
0.4986037887
 40
0.623725569
 40
0.7490132915
 40
0.8744549193
 40
1.0
 40
1.0
 40
1.0
 40
1.0
 10
12.9286824624
 20
6.8580041742
 30
0.0
 10
12.9286657155
 20
6.8568953003
 30
0.0
 10
12.9287579029
 20
6.8546719571
 30
0.0
 10
12.9292705846
 20
6.8513728849
 30
0.0
 10
12.9301514824
 20
6.8481468833
 30
0.0
 10
12.9313892465
 20
6.8450350152
 30
0.0
 10
12.9329684893
 20
6.8420762421
 30
0.0
 10
12.9348692994
 20
6.8393074841
 30
0.0
 10
12.9370675426
 20
6.8367640116
 30
0.0
 10
12.9387132929
 20
6.8352393669
 30
0.0
 10
12.9395753278
 20
6.8345251384
 30
0.0
  0
ENDSEC
  0
SECTION
  2
OBJECTS
  0
DICTIONARY
  5
C
100
AcDbDictionary
280
0
281
1
  3
ACAD_GROUP
350
D
  3
ACAD_MLINESTYLE
350
17
  3
ACAD_LAYOUT
350
1A
  3
ACAD_PLOTSETTINGS
350
19
  3
ACAD_PLOTSTYLENAME
350
E
  0
DICTIONARY
  5
D
102
{ACAD_REACTORS
330
C
102
}
100
AcDbDictionary
280
0
281
1
  0
ACDBDICTIONARYWDFLT
  5
E
102
{ACAD_REACTORS
330
C
102
}
100
AcDbDictionary
281
1
  3
Normal
350
F
100
AcDbDictionaryWithDefault
340
F
  0
DICTIONARY
  5
17
102
{ACAD_REACTORS
330
C
102
}
100
AcDbDictionary
280
0
281
1
  3
Standard
350
18
  0
DICTIONARY
  5
19
102
{ACAD_REACTORS
330
C
102
}
100
AcDbDictionary
281
1
  0
DICTIONARY
  5
1A
102
{ACAD_REACTORS
330
C
102
}
100
AcDbDictionary
281
1
  3
Model
350
349
  3
Layout1
350
34A
  0
ACDBPLACEHOLDER
  5
F
102
{ACAD_REACTORS
330
E
102
}
  0
MLINESTYLE
  5
18
102
{ACAD_REACTORS
330
17
102
}
100
AcDbMlineStyle
  2
STANDARD
 70
0
  3

 62
256
 51
90.0
 52
90.0
 71
2
 49
0.5
 62
256
  6
BYLAYER
 49
-0.5
 62
256
  6
BYLAYER
  0
LAYOUT
  5
349
102
{ACAD_REACTORS
330
1A
102
}
100
AcDbPlotSettings
  1

  2
none_device
  4
ANSI_C_(22.00_x_17.00_Inches)
  6

 40
0.0
 41
0.0
 42
0.0
 43
0.0
 44
558.8
 45
431.8
 46
0.0
 47
0.0
 48
0.0
 49
0.0
140
0.0
141
0.0
142
1.0
143
1.0
 70
1024
 72
0
 73
0
 74
0
  7

 75
0
147
1.0
148
0.0
149
0.0
100
AcDbLayout
  1
Model
 70
0
 71
0
 10
0.0
 20
0.0
 11
22.0
 21
17.0
 12
0.0
 22
0.0
 32
0.0
 14
0.0
 24
0.0
 34
0.0
 15
0.0
 25
0.0
 35
0.0
146
0.0
 13
0.0
 23
0.0
 33
0.0
 16
1.0
 26
0.0
 36
0.0
 17
0.0
 27
1.0
 37
0.0
 76
0
330
205
345
0
346
0
  0
LAYOUT
  5
34A
102
{ACAD_REACTORS
330
1A
102
}
100
AcDbPlotSettings
  1

  2
none_device
  4
ANSI_C_(22.00_x_17.00_Inches)
  6

 40
0.0
 41
0.0
 42
0.0
 43
0.0
 44
558.8
 45
431.8
 46
0.0
 47
0.0
 48
0.0
 49
0.0
140
0.0
141
0.0
142
1.0
143
1.0
 70
0
 72
0
 73
0
 74
0
  7

 75
0
147
1.0
148
0.0
149
0.0
100
AcDbLayout
  1
Layout1
 70
0
 71
1
 10
0.0
 20
0.0
 11
22.0
 21
17.0
 12
0.0
 22
0.0
 32
0.0
 14
0.0
 24
0.0
 34
0.0
 15
0.0
 25
0.0
 35
0.0
146
0.0
 13
0.0
 23
0.0
 33
0.0
 16
1.0
 26
0.0
 36
0.0
 17
0.0
 27
1.0
 37
0.0
 76
0
330
206
345
0
346
0
  0
ENDSEC
  0
EOF
