999
DXF file: 3160-5711_right.dxf
999
Pro/ENGINEER 2018400 by Parametric Technology Corporation
  0
SECTION
  2
HEADER
  9
$ACADVER
  1
AC1027
  9
$DWGCODEPAGE
  3
ANSI_1252
  9
$EXTMAX
 10
11.0
 20
8.5
 30
0.0
  9
$EXTMIN
 10
0.0
 20
0.0
 30
0.0
  9
$LIMMIN
 10
0.0
 20
0.0
  9
$LIMMAX
 10
11.0
 20
8.5
  9
$VIEWCTR
 10
5.5
 20
4.25
  9
$VIEWSIZE
 40
8.5
  9
$CLAYER
  8
0
  9
$LTSCALE
 40
0.605
  9
$CELTYPE
  6
BYLAYER
  9
$DIMSCALE
 40
1.0
  9
$DIMASZ
 40
0.1
  9
$DIMEXO
 40
0.0625
  9
$DIMDLI
 40
0.418
  9
$DIMEXE
 40
0.125
  9
$DIMCEN
 40
0.099
  9
$DIMLFAC
 40
1.0
  9
$DIMBLK
  1
_FILLED
  9
$DIMALT
 70
1
  9
$DIMALTD
 70
1
  9
$DIMALTTD
 70
2
  9
$DIMALTF
 40
25.4
  9
$DIMTXT
 40
0.08
  9
$DIMTOL
 70
1
  9
$DIMLIM
 70
0
  9
$DIMTFAC
 40
1.0
  9
$DIMTP
 40
0.01
  9
$DIMTM
 40
0.01
  9
$DIMGAP
 40
0.09
  9
$DIMDSEP
 70
46
  9
$AUNITS
 70
0
  9
$PDMODE
 70
3
  9
$PDSIZE
 40
0.3125
  9
$HANDSEED
  5
40C
  9
$TILEMODE
 70
1
  9
$MEASUREMENT
 70
0
  9
$INSUNITS
 70
1
  0
ENDSEC
  0
SECTION
  2
CLASSES
  0
CLASS
  1
ACDBDICTIONARYWDFLT
  2
AcDbDictionaryWithDefault
  3
AutoCAD 2000
 90
0
 91
1
280
0
281
0
  0
CLASS
  1
ACDBPLACEHOLDER
  2
AcDbPlaceHolder
  3
AutoCAD 2000
 90
0
 91
1
280
0
281
0
  0
CLASS
  1
LAYOUT
  2
AcDbLayout
  3
AutoCAD 2000
 90
0
 91
0
280
0
281
0
  0
ENDSEC
  0
SECTION
  2
TABLES
  0
TABLE
  2
VPORT
  5
8
100
AcDbSymbolTable
 70
2
  0
VPORT
  5
1F4
100
AcDbSymbolTableRecord
100
AcDbViewportTableRecord
  2
*ACTIVE
 70
0
 10
0.0
 20
0.0
 11
1.0
 21
1.0
 12
5.5
 22
4.25
 13
0.0
 23
0.0
 14
1.0
 24
1.0
 15
0.0
 25
0.0
 16
0.0
 26
0.0
 36
1.0
 17
0.0
 27
0.0
 37
0.0
 40
8.5
 41
1.2941176471
 42
50.0
 43
0.0
 44
0.0
 50
0.0
 51
0.0
 71
0
 72
100
 73
1
 74
1
 75
0
 76
0
 77
0
 78
0
  0
ENDTAB
  0
TABLE
  2
LTYPE
  5
5
100
AcDbSymbolTable
 70
6
  0
LTYPE
  5
14
100
AcDbSymbolTableRecord
100
AcDbLinetypeTableRecord
  2
BYBLOCK
 70
0
  3

 72
65
 73
0
 40
0.0
  0
LTYPE
  5
15
100
AcDbSymbolTableRecord
100
AcDbLinetypeTableRecord
  2
BYLAYER
 70
0
  3

 72
65
 73
0
 40
0.0
  0
LTYPE
  5
16
100
AcDbSymbolTableRecord
100
AcDbLinetypeTableRecord
  2
CONTINUOUS
 70
64
  3
Solid line
 72
65
 73
0
 40
0.0
  0
LTYPE
  5
1F5
100
AcDbSymbolTableRecord
100
AcDbLinetypeTableRecord
  2
CENTER
 70
64
  3
____ _ ____ _ ____ _ ____ _ ____ _ ____ _ ____
 72
65
 73
4
 40
0.6
 49
0.375
 74
0
 49
-0.075
 74
0
 49
0.075
 74
0
 49
-0.075
 74
0
  0
LTYPE
  5
1F6
100
AcDbSymbolTableRecord
100
AcDbLinetypeTableRecord
  2
HIDDEN
 70
64
  3
- - - - - - - - - - - - - - - - - - - -
 72
65
 73
2
 40
0.2
 49
0.1
 74
0
 49
-0.1
 74
0
  0
LTYPE
  5
1F7
100
AcDbSymbolTableRecord
100
AcDbLinetypeTableRecord
  2
PHANTOM
 70
64
  3
_____ _ _ _____ _ _ _____ _ _ _____
 72
65
 73
6
 40
0.8
 49
0.45
 74
0
 49
-0.05
 74
0
 49
0.1
 74
0
 49
-0.05
 74
0
 49
0.1
 74
0
 49
-0.05
 74
0
  0
LTYPE
  5
1F8
100
AcDbSymbolTableRecord
100
AcDbLinetypeTableRecord
  2
DOT
 70
64
  3
. . . . . . . . . . . . . . . . . . . .
 72
65
 73
2
 40
0.2
 49
0.1
 74
0
 49
-0.1
 74
0
  0
LTYPE
  5
1F9
100
AcDbSymbolTableRecord
100
AcDbLinetypeTableRecord
  2
DASHED
 70
64
  3
- - - - - - - - - - - - - - - - - - - -
 72
65
 73
2
 40
0.2
 49
0.1
 74
0
 49
-0.1
 74
0
  0
ENDTAB
  0
TABLE
  2
LAYER
  5
2
100
AcDbSymbolTable
 70
36
  0
LAYER
  5
10
100
AcDbSymbolTableRecord
100
AcDbLayerTableRecord
  2
0
 70
0
 62
7
  6
CONTINUOUS
370
-3
390
F
  0
LAYER
  5
1FA
100
AcDbSymbolTableRecord
100
AcDbLayerTableRecord
  2
DEFAULT_1
 70
0
 62
7
  6
CENTER
370
-3
390
F
  0
LAYER
  5
1FB
100
AcDbSymbolTableRecord
100
AcDbLayerTableRecord
  2
DEFAULT_2
 70
0
 62
8
  6
HIDDEN
370
-3
390
F
  0
LAYER
  5
1FC
100
AcDbSymbolTableRecord
100
AcDbLayerTableRecord
  2
DEFAULT_3
 70
0
 62
7
  6
PHANTOM
370
-3
390
F
  0
LAYER
  5
1FD
100
AcDbSymbolTableRecord
100
AcDbLayerTableRecord
  2
DEFAULT_COORDINATE_SYSTEM
 70
0
 62
7
  6
CONTINUOUS
370
-3
390
F
  0
LAYER
  5
1FE
100
AcDbSymbolTableRecord
100
AcDbLayerTableRecord
  2
DEFAULT_DATUM_AXES
 70
0
 62
7
  6
CONTINUOUS
370
-3
390
F
  0
LAYER
  5
1FF
100
AcDbSymbolTableRecord
100
AcDbLayerTableRecord
  2
DEFAULT_DATUM_PLANES
 70
0
 62
7
  6
CONTINUOUS
370
-3
390
F
  0
ENDTAB
  0
TABLE
  2
STYLE
  5
3
100
AcDbSymbolTable
 70
1
  0
STYLE
  5
11
100
AcDbSymbolTableRecord
100
AcDbTextStyleTableRecord
  2
STANDARD
 70
0
 40
0.0
 41
0.8
 50
0.0
 71
0
 42
0.2
  3
txt
  4

  0
STYLE
  5
200
100
AcDbSymbolTableRecord
100
AcDbTextStyleTableRecord
  2
TEXTSTYLE_1
 70
0
 40
0.0
 41
0.8
 50
0.0
 71
0
 42
0.2
  3
gdt
  4

  0
ENDTAB
  0
TABLE
  2
VIEW
  5
6
100
AcDbSymbolTable
 70
0
  0
ENDTAB
  0
TABLE
  2
UCS
  5
7
100
AcDbSymbolTable
 70
0
  0
ENDTAB
  0
TABLE
  2
APPID
  5
9
100
AcDbSymbolTable
 70
1
  0
APPID
  5
201
100
AcDbSymbolTableRecord
100
AcDbRegAppTableRecord
  2
ACAD
 70
0
  0
ENDTAB
  0
TABLE
  2
BLOCK_RECORD
  5
1
100
AcDbSymbolTable
 70
0
  0
BLOCK_RECORD
  5
202
100
AcDbSymbolTableRecord
100
AcDbBlockTableRecord
  2
*Model_Space
  0
BLOCK_RECORD
  5
203
100
AcDbSymbolTableRecord
100
AcDbBlockTableRecord
  2
*Paper_Space
  0
BLOCK_RECORD
  5
204
100
AcDbSymbolTableRecord
100
AcDbBlockTableRecord
  2
_FILLED
  0
ENDTAB
  0
TABLE
  2
DIMSTYLE
  5
A
100
AcDbSymbolTable
 70
1
100
AcDbDimStyleTable
 71
0
  0
DIMSTYLE
105
205
100
AcDbSymbolTableRecord
100
AcDbDimStyleTableRecord
  2
STANDARD
 70
0
  3

  4

 40
1.0
 41
0.1
 42
0.0625
 43
0.38
 44
0.125
 45
0.0
 46
0.0
 47
0.01
 48
0.01
140
0.08
141
0.09
142
0.0
143
25.4
144
1.0
145
0.0
146
1.0
147
0.09
 71
1.0
 72
0.0
 73
1
 74
1
 75
0
 76
0
 77
0
 78
4
 79
1
170
1
171
1
172
0
173
0
174
0
175
0
176
0
177
0
178
0
270
2
179
2
271
2
272
2
273
2
274
2
275
0
280
0
281
0
282
0
283
1
284
4
285
0
286
0
287
3
288
0
340
11
278
46
341
204
342
204
343
204
344
204
  0
ENDTAB
  0
ENDSEC
  0
SECTION
  2
BLOCKS
  0
BLOCK
  5
20
100
AcDbEntity
  8
0
100
AcDbBlockBegin
  2
*Model_Space
 70
0
 10
0.0
 20
0.0
 30
0.0
  3
*Model_Space
  1

  0
ENDBLK
  5
21
100
AcDbEntity
  8
0
100
AcDbBlockEnd
  0
BLOCK
  5
1C
100
AcDbEntity
  8
0
100
AcDbBlockBegin
  2
*Paper_Space
 70
0
 10
0.0
 20
0.0
 30
0.0
  3
*Paper_Space
  1

  0
ENDBLK
  5
1D
100
AcDbEntity
  8
0
100
AcDbBlockEnd
  0
BLOCK
  5
206
100
AcDbEntity
  8
0
100
AcDbBlockBegin
  2
_FILLED
 70
64
 10
0.0
 20
0.0
  3
_FILLED
  1

  0
SOLID
  5
207
100
AcDbEntity
  8
0
  6
BYBLOCK
 62
0
100
AcDbTrace
 10
0.0
 20
0.0
 11
-1.0
 21
0.2
 12
-1.0
 22
-0.2
 13
-1.0
 23
-0.2
  0
ENDBLK
  5
208
100
AcDbEntity
  8
0
  6
BYBLOCK
 62
0
100
AcDbBlockEnd
  0
ENDSEC
  0
SECTION
  2
ENTITIES
  0
MTEXT
  5
209
100
AcDbEntity
  8
0
100
AcDbMText
 62
2
  6
CONTINUOUS
  7
STANDARD
 71
3
 72
1
 10
5.3452822004
 20
1.2914285714
 30
0.0
 11
1.0
 21
0.0
 31
0.0
 73
2
 44
0.9
  1
SCALE  .500
 40
0.08
 41
0.704
  0
LINE
  5
20A
100
AcDbEntity
  8
0
100
AcDbLine
 62
7
  6
CONTINUOUS
 10
0.0
 20
0.0
 11
0.0
 21
8.5
  0
LINE
  5
20B
100
AcDbEntity
  8
0
100
AcDbLine
 62
7
  6
CONTINUOUS
 10
0.0
 20
0.0
 11
11.0
 21
0.0
  0
LINE
  5
20C
100
AcDbEntity
  8
0
100
AcDbLine
 62
7
  6
CONTINUOUS
 10
0.0
 20
8.5
 11
11.0
 21
8.5
  0
LINE
  5
20D
100
AcDbEntity
  8
0
100
AcDbLine
 62
7
  6
CONTINUOUS
 10
11.0
 20
0.0
 11
11.0
 21
8.5
  0
LINE
  5
20E
100
AcDbEntity
  8
0
100
AcDbLine
 62
7
  6
CONTINUOUS
 10
4.8171428571
 20
2.1358462733
 11
5.1221428571
 21
2.1358462733
  0
LINE
  5
20F
100
AcDbEntity
  8
0
100
AcDbLine
 62
7
  6
CONTINUOUS
 10
4.8171428571
 20
2.1505962733
 11
5.1221428571
 21
2.1505962733
  0
LINE
  5
210
100
AcDbEntity
  8
0
100
AcDbLine
 62
7
  6
CONTINUOUS
 10
4.8171428571
 20
2.1800962733
 11
5.1221428571
 21
2.1800962733
  0
LINE
  5
211
100
AcDbEntity
  8
0
100
AcDbLine
 62
7
  6
CONTINUOUS
 10
4.8171428571
 20
2.2585962733
 11
5.1221428571
 21
2.2585962733
  0
LINE
  5
212
100
AcDbEntity
  8
0
100
AcDbLine
 62
7
  6
CONTINUOUS
 10
4.8171428571
 20
2.2880962733
 11
5.1221428571
 21
2.2880962733
  0
LINE
  5
213
100
AcDbEntity
  8
0
100
AcDbLine
 62
7
  6
CONTINUOUS
 10
4.8171428571
 20
2.3665962733
 11
5.1221428571
 21
2.3665962733
  0
LINE
  5
214
100
AcDbEntity
  8
0
100
AcDbLine
 62
7
  6
CONTINUOUS
 10
4.8171428571
 20
2.3960962733
 11
5.1221428571
 21
2.3960962733
  0
LINE
  5
215
100
AcDbEntity
  8
0
100
AcDbLine
 62
7
  6
CONTINUOUS
 10
4.8171428571
 20
2.4745962733
 11
5.1221428571
 21
2.4745962733
  0
LINE
  5
216
100
AcDbEntity
  8
0
100
AcDbLine
 62
7
  6
CONTINUOUS
 10
4.8171428571
 20
2.5040962733
 11
5.1221428571
 21
2.5040962733
  0
LINE
  5
217
100
AcDbEntity
  8
0
100
AcDbLine
 62
7
  6
CONTINUOUS
 10
4.8171428571
 20
2.5825962733
 11
5.1221428571
 21
2.5825962733
  0
LINE
  5
218
100
AcDbEntity
  8
0
100
AcDbLine
 62
7
  6
CONTINUOUS
 10
4.8171428571
 20
2.6120962733
 11
5.1221428571
 21
2.6120962733
  0
LINE
  5
219
100
AcDbEntity
  8
0
100
AcDbLine
 62
7
  6
CONTINUOUS
 10
4.8171428571
 20
2.6905962733
 11
5.1221428571
 21
2.6905962733
  0
LINE
  5
21A
100
AcDbEntity
  8
0
100
AcDbLine
 62
7
  6
CONTINUOUS
 10
4.8171428571
 20
2.7200962733
 11
5.1221428571
 21
2.7200962733
  0
LWPOLYLINE
  5
21B
100
AcDbEntity
  8
0
100
AcDbPolyline
 62
7
  6
CONTINUOUS
 90
12
 70
0
 10
4.5257881389
 20
5.370710475
 10
4.5251414679
 20
5.3699071125
 10
4.5245545173
 20
5.3690658316
 10
4.5240264449
 20
5.3681864138
 10
4.5235597178
 20
5.3672729735
 10
4.5231565161
 20
5.3663297837
 10
4.5228187223
 20
5.3653612561
 10
4.5225479135
 20
5.364371921
 10
4.5223453531
 20
5.3633664055
 10
4.5222119851
 20
5.3623494117
 10
4.5221484302
 20
5.3613256951
 10
4.5221426312
 20
5.3609086385
  0
LINE
  5
21C
100
AcDbEntity
  8
0
100
AcDbLine
 62
7
  6
CONTINUOUS
 10
4.9834575082
 20
3.6258462733
 11
4.9558282061
 21
3.6258462733
  0
LINE
  5
21D
100
AcDbEntity
  8
0
100
AcDbLine
 62
7
  6
CONTINUOUS
 10
4.6771428571
 20
3.6390962733
 11
5.2621428571
 21
3.6390962733
  0
LINE
  5
21E
100
AcDbEntity
  8
0
100
AcDbLine
 62
7
  6
CONTINUOUS
 10
4.4871428571
 20
5.2295962733
 11
4.4871428571
 21
5.2622929568
  0
LINE
  5
21F
100
AcDbEntity
  8
0
100
AcDbLine
 62
7
  6
CONTINUOUS
 10
4.5196428571
 20
4.7045962733
 11
4.5196428571
 21
4.7695962733
  0
LINE
  5
220
100
AcDbEntity
  8
0
100
AcDbLine
 62
7
  6
CONTINUOUS
 10
4.5221428571
 20
5.3199557698
 11
4.5221428571
 21
5.3609086385
  0
LINE
  5
221
100
AcDbEntity
  8
0
100
AcDbLine
 62
7
  6
CONTINUOUS
 10
4.523277516
 20
5.2622929568
 11
4.523277516
 21
5.2295962733
  0
LINE
  5
222
100
AcDbEntity
  8
0
100
AcDbLine
 62
7
  6
CONTINUOUS
 10
4.5296428571
 20
4.6795962733
 11
4.5296428571
 21
4.7045962733
  0
LINE
  5
223
100
AcDbEntity
  8
0
100
AcDbLine
 62
7
  6
CONTINUOUS
 10
4.5355907344
 20
5.2622929568
 11
4.5355907344
 21
5.2295962733
  0
LINE
  5
224
100
AcDbEntity
  8
0
100
AcDbLine
 62
7
  6
CONTINUOUS
 10
4.5522948342
 20
5.4442261126
 11
4.5608928571
 21
5.5041666152
  0
LINE
  5
225
100
AcDbEntity
  8
0
100
AcDbLine
 62
7
  6
CONTINUOUS
 10
4.5608928571
 20
5.5041666152
 11
4.5608928571
 21
5.7820962733
  0
LINE
  5
226
100
AcDbEntity
  8
0
100
AcDbLine
 62
7
  6
CONTINUOUS
 10
4.5608928571
 20
5.8795962733
 11
4.5608928571
 21
5.9790962733
  0
LINE
  5
227
100
AcDbEntity
  8
0
100
AcDbLine
 62
7
  6
CONTINUOUS
 10
4.5608928571
 20
6.0765962733
 11
4.5608928571
 21
6.4220962733
  0
LINE
  5
228
100
AcDbEntity
  8
0
100
AcDbLine
 62
7
  6
CONTINUOUS
 10
4.6146428571
 20
4.4645962733
 11
4.6146428571
 21
4.6395962733
  0
LINE
  5
229
100
AcDbEntity
  8
0
100
AcDbLine
 62
7
  6
CONTINUOUS
 10
4.6372501104
 20
4.6395962733
 11
4.6372501104
 21
4.4845962733
  0
LINE
  5
22A
100
AcDbEntity
  8
0
100
AcDbLine
 62
7
  6
CONTINUOUS
 10
4.6548928571
 20
4.4551466411
 11
4.6548928571
 21
4.4645962733
  0
LINE
  5
22B
100
AcDbEntity
  8
0
100
AcDbLine
 62
7
  6
CONTINUOUS
 10
4.6548928571
 20
4.7695962733
 11
4.6548928571
 21
4.7758709055
  0
LINE
  5
22C
100
AcDbEntity
  8
0
100
AcDbLine
 62
7
  6
CONTINUOUS
 10
4.6548928571
 20
4.7996466411
 11
4.6548928571
 21
4.8103209055
  0
LINE
  5
22D
100
AcDbEntity
  8
0
100
AcDbLine
 62
7
  6
CONTINUOUS
 10
4.6548928571
 20
4.8340966411
 11
4.6548928571
 21
4.8447709055
  0
LINE
  5
22E
100
AcDbEntity
  8
0
100
AcDbLine
 62
7
  6
CONTINUOUS
 10
4.6548928571
 20
4.8685466411
 11
4.6548928571
 21
4.8792209055
  0
LINE
  5
22F
100
AcDbEntity
  8
0
100
AcDbLine
 62
7
  6
CONTINUOUS
 10
4.6548928571
 20
4.9029966411
 11
4.6548928571
 21
4.9136709055
  0
LINE
  5
230
100
AcDbEntity
  8
0
100
AcDbLine
 62
7
  6
CONTINUOUS
 10
4.6548928571
 20
4.9374466411
 11
4.6548928571
 21
4.9481209054
  0
LINE
  5
231
100
AcDbEntity
  8
0
100
AcDbLine
 62
7
  6
CONTINUOUS
 10
4.6548928571
 20
4.9718966411
 11
4.6548928571
 21
4.9825709054
  0
LINE
  5
232
100
AcDbEntity
  8
0
100
AcDbLine
 62
7
  6
CONTINUOUS
 10
4.6548928571
 20
5.0063466411
 11
4.6548928571
 21
5.0170209055
  0
LINE
  5
233
100
AcDbEntity
  8
0
100
AcDbLine
 62
7
  6
CONTINUOUS
 10
4.6548928571
 20
5.0407966411
 11
4.6548928571
 21
5.0514709055
  0
LINE
  5
234
100
AcDbEntity
  8
0
100
AcDbLine
 62
7
  6
CONTINUOUS
 10
4.6548928571
 20
5.0752466411
 11
4.6548928571
 21
5.0859209055
  0
LINE
  5
235
100
AcDbEntity
  8
0
100
AcDbLine
 62
7
  6
CONTINUOUS
 10
4.6548928571
 20
5.1096966411
 11
4.6548928571
 21
5.1203709055
  0
LINE
  5
236
100
AcDbEntity
  8
0
100
AcDbLine
 62
7
  6
CONTINUOUS
 10
4.6548928571
 20
5.1441466411
 11
4.6548928571
 21
5.1548209054
  0
LINE
  5
237
100
AcDbEntity
  8
0
100
AcDbLine
 62
7
  6
CONTINUOUS
 10
4.6548928571
 20
5.1785966411
 11
4.6548928571
 21
5.1892709055
  0
LINE
  5
238
100
AcDbEntity
  8
0
100
AcDbLine
 62
7
  6
CONTINUOUS
 10
4.6548928571
 20
5.2130466411
 11
4.6548928571
 21
5.2237209054
  0
LINE
  5
239
100
AcDbEntity
  8
0
100
AcDbLine
 62
7
  6
CONTINUOUS
 10
4.6752428571
 20
5.2295962733
 11
4.6752428571
 21
5.2291807712
  0
LINE
  5
23A
100
AcDbEntity
  8
0
100
AcDbLine
 62
7
  6
CONTINUOUS
 10
4.6752428571
 20
5.2077837733
 11
4.6752428571
 21
5.1947307712
  0
LINE
  5
23B
100
AcDbEntity
  8
0
100
AcDbLine
 62
7
  6
CONTINUOUS
 10
4.6752428571
 20
5.1733337733
 11
4.6752428571
 21
5.1602807712
  0
LINE
  5
23C
100
AcDbEntity
  8
0
100
AcDbLine
 62
7
  6
CONTINUOUS
 10
4.6752428571
 20
5.1388837733
 11
4.6752428571
 21
5.1258307712
  0
LINE
  5
23D
100
AcDbEntity
  8
0
100
AcDbLine
 62
7
  6
CONTINUOUS
 10
4.6752428571
 20
5.1044337733
 11
4.6752428571
 21
5.0913807712
  0
LINE
  5
23E
100
AcDbEntity
  8
0
100
AcDbLine
 62
7
  6
CONTINUOUS
 10
4.6752428571
 20
5.0699837733
 11
4.6752428571
 21
5.0569307712
  0
LINE
  5
23F
100
AcDbEntity
  8
0
100
AcDbLine
 62
7
  6
CONTINUOUS
 10
4.6752428571
 20
5.0355337733
 11
4.6752428571
 21
5.0224807712
  0
LINE
  5
240
100
AcDbEntity
  8
0
100
AcDbLine
 62
7
  6
CONTINUOUS
 10
4.6752428571
 20
5.0010837733
 11
4.6752428571
 21
4.9880307712
  0
LINE
  5
241
100
AcDbEntity
  8
0
100
AcDbLine
 62
7
  6
CONTINUOUS
 10
4.6752428571
 20
4.9666337733
 11
4.6752428571
 21
4.9535807712
  0
LINE
  5
242
100
AcDbEntity
  8
0
100
AcDbLine
 62
7
  6
CONTINUOUS
 10
4.6752428571
 20
4.9321837733
 11
4.6752428571
 21
4.9191307712
  0
LINE
  5
243
100
AcDbEntity
  8
0
100
AcDbLine
 62
7
  6
CONTINUOUS
 10
4.6752428571
 20
4.8977337733
 11
4.6752428571
 21
4.8846807712
  0
LINE
  5
244
100
AcDbEntity
  8
0
100
AcDbLine
 62
7
  6
CONTINUOUS
 10
4.6752428571
 20
4.8632837733
 11
4.6752428571
 21
4.8502307712
  0
LINE
  5
245
100
AcDbEntity
  8
0
100
AcDbLine
 62
7
  6
CONTINUOUS
 10
4.6752428571
 20
4.8288337733
 11
4.6752428571
 21
4.8157807712
  0
LINE
  5
246
100
AcDbEntity
  8
0
100
AcDbLine
 62
7
  6
CONTINUOUS
 10
4.6752428571
 20
4.7943837733
 11
4.6752428571
 21
4.7813307712
  0
LINE
  5
247
100
AcDbEntity
  8
0
100
AcDbLine
 62
7
  6
CONTINUOUS
 10
4.6752428571
 20
4.4498837733
 11
4.6752428571
 21
4.4368307712
  0
LINE
  5
248
100
AcDbEntity
  8
0
100
AcDbLine
 62
7
  6
CONTINUOUS
 10
4.6771428571
 20
3.6390962733
 11
4.6771428571
 21
4.4343462733
  0
LINE
  5
249
100
AcDbEntity
  8
0
100
AcDbLine
 62
7
  6
CONTINUOUS
 10
4.7196428571
 20
5.8820962733
 11
4.7196428571
 21
5.8795962733
  0
LINE
  5
24A
100
AcDbEntity
  8
0
100
AcDbLine
 62
7
  6
CONTINUOUS
 10
4.7561428571
 20
3.4392019734
 11
4.7561428571
 21
3.0307812539
  0
LINE
  5
24B
100
AcDbEntity
  8
0
100
AcDbLine
 62
7
  6
CONTINUOUS
 10
4.7561428571
 20
2.9734143277
 11
4.7561428571
 21
2.9061639332
  0
LINE
  5
24C
100
AcDbEntity
  8
0
100
AcDbLine
 62
7
  6
CONTINUOUS
 10
4.7561428571
 20
2.848762426
 11
4.7561428571
 21
2.7815466125
  0
LINE
  5
24D
100
AcDbEntity
  8
0
100
AcDbLine
 62
7
  6
CONTINUOUS
 10
4.7561428571
 20
2.7241451053
 11
4.7561428571
 21
2.6569292918
  0
LINE
  5
24E
100
AcDbEntity
  8
0
100
AcDbLine
 62
7
  6
CONTINUOUS
 10
4.7561428571
 20
2.5995277846
 11
4.7561428571
 21
2.532311971
  0
LINE
  5
24F
100
AcDbEntity
  8
0
100
AcDbLine
 62
7
  6
CONTINUOUS
 10
4.7561428571
 20
2.4749104639
 11
4.7561428571
 21
2.4076946503
  0
LINE
  5
250
100
AcDbEntity
  8
0
100
AcDbLine
 62
7
  6
CONTINUOUS
 10
4.8171428571
 20
5.8820962733
 11
4.8171428571
 21
5.8795962733
  0
LINE
  5
251
100
AcDbEntity
  8
0
100
AcDbLine
 62
7
  6
CONTINUOUS
 10
4.8171428571
 20
2.1358462733
 11
4.8171428571
 21
2.1505962733
  0
LINE
  5
252
100
AcDbEntity
  8
0
100
AcDbLine
 62
7
  6
CONTINUOUS
 10
4.8171428571
 20
2.1800962733
 11
4.8171428571
 21
2.2585962733
  0
LINE
  5
253
100
AcDbEntity
  8
0
100
AcDbLine
 62
7
  6
CONTINUOUS
 10
4.8171428571
 20
2.2880962733
 11
4.8171428571
 21
2.3665962733
  0
LINE
  5
254
100
AcDbEntity
  8
0
100
AcDbLine
 62
7
  6
CONTINUOUS
 10
4.8171428571
 20
2.3960962733
 11
4.8171428571
 21
2.4745962733
  0
LINE
  5
255
100
AcDbEntity
  8
0
100
AcDbLine
 62
7
  6
CONTINUOUS
 10
4.8171428571
 20
2.5040962733
 11
4.8171428571
 21
2.5825962733
  0
LINE
  5
256
100
AcDbEntity
  8
0
100
AcDbLine
 62
7
  6
CONTINUOUS
 10
4.8171428571
 20
2.6120962733
 11
4.8171428571
 21
2.6905962733
  0
LINE
  5
257
100
AcDbEntity
  8
0
100
AcDbLine
 62
7
  6
CONTINUOUS
 10
4.8171428571
 20
2.7200962733
 11
4.8171428571
 21
3.4324564901
  0
LINE
  5
258
100
AcDbEntity
  8
0
100
AcDbLine
 62
7
  6
CONTINUOUS
 10
4.8421428571
 20
5.8420962733
 11
4.8421428571
 21
5.9230962733
  0
LINE
  5
259
100
AcDbEntity
  8
0
100
AcDbLine
 62
7
  6
CONTINUOUS
 10
4.8489881973
 20
5.912755849
 11
4.8489881973
 21
5.8903515915
  0
LINE
  5
25A
100
AcDbEntity
  8
0
100
AcDbLine
 62
7
  6
CONTINUOUS
 10
4.8489881973
 20
5.8800111672
 11
4.8489881973
 21
5.8420962733
  0
LINE
  5
25B
100
AcDbEntity
  8
0
100
AcDbLine
 62
7
  6
CONTINUOUS
 10
4.8786513389
 20
5.8903515915
 11
4.8786513389
 21
5.8800111672
  0
LINE
  5
25C
100
AcDbEntity
  8
0
100
AcDbLine
 62
7
  6
CONTINUOUS
 10
4.8832148979
 20
5.9230962733
 11
4.8832148979
 21
5.912755849
  0
LINE
  5
25D
100
AcDbEntity
  8
0
100
AcDbLine
 62
7
  6
CONTINUOUS
 10
4.8923420192
 20
5.9230962733
 11
4.8923420192
 21
5.8420962733
  0
LINE
  5
25E
100
AcDbEntity
  8
0
100
AcDbLine
 62
7
  6
CONTINUOUS
 10
4.899187356
 20
5.9230962733
 11
4.899187356
 21
5.8524366988
  0
LINE
  5
25F
100
AcDbEntity
  8
0
100
AcDbLine
 62
7
  6
CONTINUOUS
 10
4.9334140566
 20
5.8524366988
 11
4.9334140566
 21
5.8420962733
  0
LINE
  5
260
100
AcDbEntity
  8
0
100
AcDbLine
 62
7
  6
CONTINUOUS
 10
4.9471428571
 20
4.6395962733
 11
4.9471428571
 21
4.4845962733
  0
LINE
  5
261
100
AcDbEntity
  8
0
100
AcDbLine
 62
7
  6
CONTINUOUS
 10
4.9921428571
 20
4.6395962733
 11
4.9921428571
 21
4.4845962733
  0
LINE
  5
262
100
AcDbEntity
  8
0
100
AcDbLine
 62
7
  6
CONTINUOUS
 10
5.1221428571
 20
2.1358462733
 11
5.1221428571
 21
2.1505962733
  0
LINE
  5
263
100
AcDbEntity
  8
0
100
AcDbLine
 62
7
  6
CONTINUOUS
 10
5.1221428571
 20
2.1800962733
 11
5.1221428571
 21
2.2585962733
  0
LINE
  5
264
100
AcDbEntity
  8
0
100
AcDbLine
 62
7
  6
CONTINUOUS
 10
5.1221428571
 20
2.2880962733
 11
5.1221428571
 21
2.3665962733
  0
LINE
  5
265
100
AcDbEntity
  8
0
100
AcDbLine
 62
7
  6
CONTINUOUS
 10
5.1221428571
 20
2.3960962733
 11
5.1221428571
 21
2.4745962733
  0
LINE
  5
266
100
AcDbEntity
  8
0
100
AcDbLine
 62
7
  6
CONTINUOUS
 10
5.1221428571
 20
2.5040962733
 11
5.1221428571
 21
2.5825962733
  0
LINE
  5
267
100
AcDbEntity
  8
0
100
AcDbLine
 62
7
  6
CONTINUOUS
 10
5.1221428571
 20
2.6120962733
 11
5.1221428571
 21
2.6905962733
  0
LINE
  5
268
100
AcDbEntity
  8
0
100
AcDbLine
 62
7
  6
CONTINUOUS
 10
5.1221428571
 20
2.7200962733
 11
5.1221428571
 21
3.4324564901
  0
LINE
  5
269
100
AcDbEntity
  8
0
100
AcDbLine
 62
7
  6
CONTINUOUS
 10
4.6656605132
 20
4.4343462733
 11
5.2843928243
 21
4.4343462733
  0
LINE
  5
26A
100
AcDbEntity
  8
0
100
AcDbLine
 62
7
  6
CONTINUOUS
 10
5.3246428571
 20
4.4645962733
 11
4.6146428571
 21
4.4645962733
  0
LINE
  5
26B
100
AcDbEntity
  8
0
100
AcDbLine
 62
7
  6
CONTINUOUS
 10
5.3246428571
 20
4.4845962733
 11
5.3020356039
 21
4.4845962733
  0
LINE
  5
26C
100
AcDbEntity
  8
0
100
AcDbLine
 62
7
  6
CONTINUOUS
 10
4.9921428571
 20
4.4845962733
 11
4.9471428571
 21
4.4845962733
  0
LINE
  5
26D
100
AcDbEntity
  8
0
100
AcDbLine
 62
7
  6
CONTINUOUS
 10
4.6372501104
 20
4.4845962733
 11
4.6146428571
 21
4.4845962733
  0
LINE
  5
26E
100
AcDbEntity
  8
0
100
AcDbLine
 62
7
  6
CONTINUOUS
 10
4.6556044527
 20
4.4547778844
 11
4.6751949975
 21
4.4496991852
  0
LINE
  5
26F
100
AcDbEntity
  8
0
100
AcDbLine
 62
7
  6
CONTINUOUS
 10
5.1831428571
 20
3.4392019734
 11
5.1831428571
 21
3.0307812539
  0
LINE
  5
270
100
AcDbEntity
  8
0
100
AcDbLine
 62
7
  6
CONTINUOUS
 10
5.1831428571
 20
2.9733933228
 11
5.1831428571
 21
2.9061639332
  0
LINE
  5
271
100
AcDbEntity
  8
0
100
AcDbLine
 62
7
  6
CONTINUOUS
 10
5.1831428571
 20
2.8487984112
 11
5.1831428571
 21
2.7815466125
  0
LINE
  5
272
100
AcDbEntity
  8
0
100
AcDbLine
 62
7
  6
CONTINUOUS
 10
5.1831428571
 20
2.7241810905
 11
5.1831428571
 21
2.6569292918
  0
LINE
  5
273
100
AcDbEntity
  8
0
100
AcDbLine
 62
7
  6
CONTINUOUS
 10
5.1831428571
 20
2.5995637698
 11
5.1831428571
 21
2.532311971
  0
LINE
  5
274
100
AcDbEntity
  8
0
100
AcDbLine
 62
7
  6
CONTINUOUS
 10
5.1831428571
 20
2.4749464491
 11
5.1831428571
 21
2.4076946503
  0
LINE
  5
275
100
AcDbEntity
  8
0
100
AcDbLine
 62
7
  6
CONTINUOUS
 10
5.2621428571
 20
3.6390962733
 11
5.2621428571
 21
4.4343462733
  0
LINE
  5
276
100
AcDbEntity
  8
0
100
AcDbLine
 62
7
  6
CONTINUOUS
 10
5.2640428571
 20
4.4538587733
 11
5.2640428571
 21
4.4645962733
  0
LINE
  5
277
100
AcDbEntity
  8
0
100
AcDbLine
 62
7
  6
CONTINUOUS
 10
5.2640428571
 20
4.7695962733
 11
5.2640428571
 21
4.7769617763
  0
LINE
  5
278
100
AcDbEntity
  8
0
100
AcDbLine
 62
7
  6
CONTINUOUS
 10
5.2640428571
 20
4.7983587733
 11
5.2640428571
 21
4.8114117763
  0
LINE
  5
279
100
AcDbEntity
  8
0
100
AcDbLine
 62
7
  6
CONTINUOUS
 10
5.2640428571
 20
4.8328087733
 11
5.2640428571
 21
4.8458617763
  0
LINE
  5
27A
100
AcDbEntity
  8
0
100
AcDbLine
 62
7
  6
CONTINUOUS
 10
5.2640428571
 20
4.8672587733
 11
5.2640428571
 21
4.8803117763
  0
LINE
  5
27B
100
AcDbEntity
  8
0
100
AcDbLine
 62
7
  6
CONTINUOUS
 10
5.2640428571
 20
4.9017087733
 11
5.2640428571
 21
4.9147617763
  0
LINE
  5
27C
100
AcDbEntity
  8
0
100
AcDbLine
 62
7
  6
CONTINUOUS
 10
5.2640428571
 20
4.9361587733
 11
5.2640428571
 21
4.9492117763
  0
LINE
  5
27D
100
AcDbEntity
  8
0
100
AcDbLine
 62
7
  6
CONTINUOUS
 10
5.2640428571
 20
4.9706087733
 11
5.2640428571
 21
4.9836617763
  0
LINE
  5
27E
100
AcDbEntity
  8
0
100
AcDbLine
 62
7
  6
CONTINUOUS
 10
5.2640428571
 20
5.0050587733
 11
5.2640428571
 21
5.0181117763
  0
LINE
  5
27F
100
AcDbEntity
  8
0
100
AcDbLine
 62
7
  6
CONTINUOUS
 10
5.2640428571
 20
5.0395087733
 11
5.2640428571
 21
5.0525617763
  0
LINE
  5
280
100
AcDbEntity
  8
0
100
AcDbLine
 62
7
  6
CONTINUOUS
 10
5.2640428571
 20
5.0739587733
 11
5.2640428571
 21
5.0870117763
  0
LINE
  5
281
100
AcDbEntity
  8
0
100
AcDbLine
 62
7
  6
CONTINUOUS
 10
5.2640428571
 20
5.1084087733
 11
5.2640428571
 21
5.1214617763
  0
LINE
  5
282
100
AcDbEntity
  8
0
100
AcDbLine
 62
7
  6
CONTINUOUS
 10
5.2640428571
 20
5.1428587733
 11
5.2640428571
 21
5.1559117763
  0
LINE
  5
283
100
AcDbEntity
  8
0
100
AcDbLine
 62
7
  6
CONTINUOUS
 10
5.2640428571
 20
5.1773087733
 11
5.2640428571
 21
5.1903617763
  0
LINE
  5
284
100
AcDbEntity
  8
0
100
AcDbLine
 62
7
  6
CONTINUOUS
 10
5.2640428571
 20
5.2117587733
 11
5.2640428571
 21
5.2248117763
  0
LINE
  5
285
100
AcDbEntity
  8
0
100
AcDbLine
 62
7
  6
CONTINUOUS
 10
5.2843928571
 20
4.4343462733
 11
5.2843928571
 21
4.4485959055
  0
LINE
  5
286
100
AcDbEntity
  8
0
100
AcDbLine
 62
7
  6
CONTINUOUS
 10
5.2843928571
 20
4.7824216411
 11
5.2843928571
 21
4.7930959055
  0
LINE
  5
287
100
AcDbEntity
  8
0
100
AcDbLine
 62
7
  6
CONTINUOUS
 10
5.2843928571
 20
4.8168716411
 11
5.2843928571
 21
4.8275459055
  0
LINE
  5
288
100
AcDbEntity
  8
0
100
AcDbLine
 62
7
  6
CONTINUOUS
 10
5.2843928571
 20
4.8513216411
 11
5.2843928571
 21
4.8619959055
  0
LINE
  5
289
100
AcDbEntity
  8
0
100
AcDbLine
 62
7
  6
CONTINUOUS
 10
5.2843928571
 20
4.8857716411
 11
5.2843928571
 21
4.8964459055
  0
LINE
  5
28A
100
AcDbEntity
  8
0
100
AcDbLine
 62
7
  6
CONTINUOUS
 10
5.2843928571
 20
4.9202216411
 11
5.2843928571
 21
4.9308959055
  0
LINE
  5
28B
100
AcDbEntity
  8
0
100
AcDbLine
 62
7
  6
CONTINUOUS
 10
5.2843928571
 20
4.9546716411
 11
5.2843928571
 21
4.9653459054
  0
LINE
  5
28C
100
AcDbEntity
  8
0
100
AcDbLine
 62
7
  6
CONTINUOUS
 10
5.2843928571
 20
4.9891216411
 11
5.2843928571
 21
4.9997959054
  0
LINE
  5
28D
100
AcDbEntity
  8
0
100
AcDbLine
 62
7
  6
CONTINUOUS
 10
5.2843928571
 20
5.0235716411
 11
5.2843928571
 21
5.0342459055
  0
LINE
  5
28E
100
AcDbEntity
  8
0
100
AcDbLine
 62
7
  6
CONTINUOUS
 10
5.2843928571
 20
5.0580216411
 11
5.2843928571
 21
5.0686959055
  0
LINE
  5
28F
100
AcDbEntity
  8
0
100
AcDbLine
 62
7
  6
CONTINUOUS
 10
5.2843928571
 20
5.0924716411
 11
5.2843928571
 21
5.1031459055
  0
LINE
  5
290
100
AcDbEntity
  8
0
100
AcDbLine
 62
7
  6
CONTINUOUS
 10
5.2843928571
 20
5.1269216411
 11
5.2843928571
 21
5.1375959055
  0
LINE
  5
291
100
AcDbEntity
  8
0
100
AcDbLine
 62
7
  6
CONTINUOUS
 10
5.2843928571
 20
5.1613716411
 11
5.2843928571
 21
5.1720459055
  0
LINE
  5
292
100
AcDbEntity
  8
0
100
AcDbLine
 62
7
  6
CONTINUOUS
 10
5.2843928571
 20
5.1958216411
 11
5.2843928571
 21
5.2064959054
  0
LINE
  5
293
100
AcDbEntity
  8
0
100
AcDbLine
 62
7
  6
CONTINUOUS
 10
4.6760032679
 20
4.4370279338
 11
4.6656599356
 21
4.4343462733
  0
LINE
  5
294
100
AcDbEntity
  8
0
100
AcDbLine
 62
7
  6
CONTINUOUS
 10
4.5696428571
 20
4.6395962733
 11
5.3696428571
 21
4.6395962733
  0
LINE
  5
295
100
AcDbEntity
  8
0
100
AcDbLine
 62
7
  6
CONTINUOUS
 10
5.2836812617
 20
4.4489646622
 11
5.2640428571
 21
4.4540557712
  0
LINE
  5
296
100
AcDbEntity
  8
0
100
AcDbLine
 62
7
  6
CONTINUOUS
 10
5.3020356039
 20
4.6395962733
 11
5.3020356039
 21
4.4845962733
  0
LINE
  5
297
100
AcDbEntity
  8
0
100
AcDbLine
 62
7
  6
CONTINUOUS
 10
5.3246428571
 20
4.6395962733
 11
5.3246428571
 21
4.4645962733
  0
LINE
  5
298
100
AcDbEntity
  8
0
100
AcDbLine
 62
7
  6
CONTINUOUS
 10
5.3783928571
 20
5.5041666152
 11
5.3783928571
 21
6.4220962733
  0
LINE
  5
299
100
AcDbEntity
  8
0
100
AcDbLine
 62
7
  6
CONTINUOUS
 10
5.4036949799
 20
5.2622929568
 11
5.4036949799
 21
5.2295962733
  0
LINE
  5
29A
100
AcDbEntity
  8
0
100
AcDbLine
 62
7
  6
CONTINUOUS
 10
5.4096428571
 20
4.6795962733
 11
5.4096428571
 21
4.7045962733
  0
LINE
  5
29B
100
AcDbEntity
  8
0
100
AcDbLine
 62
7
  6
CONTINUOUS
 10
5.4160081983
 20
5.2622931308
 11
5.4160081983
 21
5.2295962733
  0
LINE
  5
29C
100
AcDbEntity
  8
0
100
AcDbLine
 62
7
  6
CONTINUOUS
 10
5.4171428571
 20
5.3199559437
 11
5.4171428571
 21
5.3609094848
  0
LINE
  5
29D
100
AcDbEntity
  8
0
100
AcDbLine
 62
7
  6
CONTINUOUS
 10
5.4196428571
 20
4.7045962733
 11
5.4196428571
 21
4.7695962733
  0
LINE
  5
29E
100
AcDbEntity
  8
0
100
AcDbLine
 62
7
  6
CONTINUOUS
 10
5.2632824463
 20
4.7767646128
 11
5.2836812616
 21
4.7820528844
  0
LINE
  5
29F
100
AcDbEntity
  8
0
100
AcDbLine
 62
7
  6
CONTINUOUS
 10
5.2632824463
 20
4.8112146128
 11
5.2836812616
 21
4.8165028844
  0
LINE
  5
2A0
100
AcDbEntity
  8
0
100
AcDbLine
 62
7
  6
CONTINUOUS
 10
5.2632824463
 20
4.8456646128
 11
5.2836812616
 21
4.8509528844
  0
LINE
  5
2A1
100
AcDbEntity
  8
0
100
AcDbLine
 62
7
  6
CONTINUOUS
 10
5.2632824463
 20
4.8801146128
 11
5.2836812616
 21
4.8854028844
  0
LINE
  5
2A2
100
AcDbEntity
  8
0
100
AcDbLine
 62
7
  6
CONTINUOUS
 10
4.5296428571
 20
4.6795962733
 11
5.4096428571
 21
4.6795962733
  0
LINE
  5
2A3
100
AcDbEntity
  8
0
100
AcDbLine
 62
7
  6
CONTINUOUS
 10
5.4196428571
 20
4.7045962733
 11
4.5196428571
 21
4.7045962733
  0
LINE
  5
2A4
100
AcDbEntity
  8
0
100
AcDbLine
 62
7
  6
CONTINUOUS
 10
5.4196428571
 20
4.7695962733
 11
4.5196428571
 21
4.7695962733
  0
LINE
  5
2A5
100
AcDbEntity
  8
0
100
AcDbLine
 62
7
  6
CONTINUOUS
 10
4.6556044527
 20
4.7992778844
 11
4.6751949975
 21
4.7941991852
  0
LINE
  5
2A6
100
AcDbEntity
  8
0
100
AcDbLine
 62
7
  6
CONTINUOUS
 10
4.6556044527
 20
4.8337278844
 11
4.6751949975
 21
4.8286491852
  0
LINE
  5
2A7
100
AcDbEntity
  8
0
100
AcDbLine
 62
7
  6
CONTINUOUS
 10
4.6556044527
 20
4.8681778844
 11
4.6751949975
 21
4.8630991852
  0
LINE
  5
2A8
100
AcDbEntity
  8
0
100
AcDbLine
 62
7
  6
CONTINUOUS
 10
4.6556044527
 20
4.9026278844
 11
4.6751949975
 21
4.8975491852
  0
LINE
  5
2A9
100
AcDbEntity
  8
0
100
AcDbLine
 62
7
  6
CONTINUOUS
 10
5.4521428571
 20
5.2295962733
 11
5.4521428571
 21
5.2622931308
  0
LINE
  5
2AA
100
AcDbEntity
  8
0
100
AcDbLine
 62
7
  6
CONTINUOUS
 10
5.2632824463
 20
4.9145646128
 11
5.2836812616
 21
4.9198528844
  0
LINE
  5
2AB
100
AcDbEntity
  8
0
100
AcDbLine
 62
7
  6
CONTINUOUS
 10
4.6760032679
 20
4.7815279338
 11
4.6556044526
 21
4.7762396622
  0
LINE
  5
2AC
100
AcDbEntity
  8
0
100
AcDbLine
 62
7
  6
CONTINUOUS
 10
5.2632824463
 20
4.9490146128
 11
5.2836812616
 21
4.9543028844
  0
LINE
  5
2AD
100
AcDbEntity
  8
0
100
AcDbLine
 62
7
  6
CONTINUOUS
 10
4.6760032679
 20
4.8159779338
 11
4.6556044526
 21
4.8106896622
  0
LINE
  5
2AE
100
AcDbEntity
  8
0
100
AcDbLine
 62
7
  6
CONTINUOUS
 10
5.2632824463
 20
4.9834646128
 11
5.2836812616
 21
4.9887528844
  0
LINE
  5
2AF
100
AcDbEntity
  8
0
100
AcDbLine
 62
7
  6
CONTINUOUS
 10
4.6760032679
 20
4.8504279338
 11
4.6556044526
 21
4.8451396622
  0
LINE
  5
2B0
100
AcDbEntity
  8
0
100
AcDbLine
 62
7
  6
CONTINUOUS
 10
5.2632824463
 20
5.0179146128
 11
5.2836812616
 21
5.0232028844
  0
LINE
  5
2B1
100
AcDbEntity
  8
0
100
AcDbLine
 62
7
  6
CONTINUOUS
 10
4.6760032679
 20
4.8848779338
 11
4.6556044526
 21
4.8795896622
  0
LINE
  5
2B2
100
AcDbEntity
  8
0
100
AcDbLine
 62
7
  6
CONTINUOUS
 10
5.2632824463
 20
5.0523646128
 11
5.2836812616
 21
5.0576528844
  0
LINE
  5
2B3
100
AcDbEntity
  8
0
100
AcDbLine
 62
7
  6
CONTINUOUS
 10
4.6556044527
 20
4.9370778844
 11
4.6751949975
 21
4.9319991852
  0
LINE
  5
2B4
100
AcDbEntity
  8
0
100
AcDbLine
 62
7
  6
CONTINUOUS
 10
5.2836812617
 20
4.7934646622
 11
5.2640428571
 21
4.7985557712
  0
LINE
  5
2B5
100
AcDbEntity
  8
0
100
AcDbLine
 62
7
  6
CONTINUOUS
 10
4.6556044527
 20
4.9715278844
 11
4.6751949975
 21
4.9664491852
  0
LINE
  5
2B6
100
AcDbEntity
  8
0
100
AcDbLine
 62
7
  6
CONTINUOUS
 10
5.2836812617
 20
4.8279146622
 11
5.2640428571
 21
4.8330057712
  0
LINE
  5
2B7
100
AcDbEntity
  8
0
100
AcDbLine
 62
7
  6
CONTINUOUS
 10
4.6556044527
 20
5.0059778844
 11
4.6751949975
 21
5.0008991852
  0
LINE
  5
2B8
100
AcDbEntity
  8
0
100
AcDbLine
 62
7
  6
CONTINUOUS
 10
5.2836812617
 20
4.8623646622
 11
5.2640428571
 21
4.8674557712
  0
LINE
  5
2B9
100
AcDbEntity
  8
0
100
AcDbLine
 62
7
  6
CONTINUOUS
 10
4.6556044527
 20
5.0404278844
 11
4.6751949975
 21
5.0353491852
  0
LINE
  5
2BA
100
AcDbEntity
  8
0
100
AcDbLine
 62
7
  6
CONTINUOUS
 10
5.3869908801
 20
5.4442261126
 11
5.3783928571
 21
5.5041666152
  0
LINE
  5
2BB
100
AcDbEntity
  8
0
100
AcDbLine
 62
7
  6
CONTINUOUS
 10
4.6760032679
 20
4.9193279338
 11
4.6556044526
 21
4.9140396622
  0
LINE
  5
2BC
100
AcDbEntity
  8
0
100
AcDbLine
 62
7
  6
CONTINUOUS
 10
5.2632824463
 20
5.0868146128
 11
5.2836812616
 21
5.0921028844
  0
LINE
  5
2BD
100
AcDbEntity
  8
0
100
AcDbLine
 62
7
  6
CONTINUOUS
 10
4.6760032679
 20
4.9537779338
 11
4.6556044526
 21
4.9484896622
  0
LINE
  5
2BE
100
AcDbEntity
  8
0
100
AcDbLine
 62
7
  6
CONTINUOUS
 10
5.2632824463
 20
5.1212646128
 11
5.2836812616
 21
5.1265528844
  0
LINE
  5
2BF
100
AcDbEntity
  8
0
100
AcDbLine
 62
7
  6
CONTINUOUS
 10
4.6760032679
 20
4.9882279338
 11
4.6556044526
 21
4.9829396622
  0
LINE
  5
2C0
100
AcDbEntity
  8
0
100
AcDbLine
 62
7
  6
CONTINUOUS
 10
5.2632824463
 20
5.1557146128
 11
5.2836812616
 21
5.1610028844
  0
LINE
  5
2C1
100
AcDbEntity
  8
0
100
AcDbLine
 62
7
  6
CONTINUOUS
 10
4.6760032679
 20
5.0226779338
 11
4.6556044526
 21
5.0173896622
  0
LINE
  5
2C2
100
AcDbEntity
  8
0
100
AcDbLine
 62
7
  6
CONTINUOUS
 10
5.2632824463
 20
5.1901646128
 11
5.2836812616
 21
5.1954528844
  0
LINE
  5
2C3
100
AcDbEntity
  8
0
100
AcDbLine
 62
7
  6
CONTINUOUS
 10
5.0125631256
 20
5.0608334055
 11
4.9696428571
 21
5.0600834055
  0
LINE
  5
2C4
100
AcDbEntity
  8
0
100
AcDbLine
 62
7
  6
CONTINUOUS
 10
4.9696428571
 20
5.0838591411
 11
5.0125631256
 21
5.0846091411
  0
LINE
  5
2C5
100
AcDbEntity
  8
0
100
AcDbLine
 62
7
  6
CONTINUOUS
 10
5.2836812617
 20
4.8968146622
 11
5.2640428571
 21
4.9019057712
  0
LINE
  5
2C6
100
AcDbEntity
  8
0
100
AcDbLine
 62
7
  6
CONTINUOUS
 10
4.6556044527
 20
5.0748778844
 11
4.6751949975
 21
5.0697991852
  0
LINE
  5
2C7
100
AcDbEntity
  8
0
100
AcDbLine
 62
7
  6
CONTINUOUS
 10
5.2836812617
 20
4.9312646622
 11
5.2640428571
 21
4.9363557712
  0
LINE
  5
2C8
100
AcDbEntity
  8
0
100
AcDbLine
 62
7
  6
CONTINUOUS
 10
4.6556044527
 20
5.1093278844
 11
4.6751949975
 21
5.1042491852
  0
LINE
  5
2C9
100
AcDbEntity
  8
0
100
AcDbLine
 62
7
  6
CONTINUOUS
 10
5.2836812617
 20
4.9657146622
 11
5.2640428571
 21
4.9708057712
  0
LINE
  5
2CA
100
AcDbEntity
  8
0
100
AcDbLine
 62
7
  6
CONTINUOUS
 10
4.6556044527
 20
5.1437778844
 11
4.6751949975
 21
5.1386991852
  0
LINE
  5
2CB
100
AcDbEntity
  8
0
100
AcDbLine
 62
7
  6
CONTINUOUS
 10
5.2836812617
 20
5.0001646622
 11
5.2640428571
 21
5.0052557712
  0
LINE
  5
2CC
100
AcDbEntity
  8
0
100
AcDbLine
 62
7
  6
CONTINUOUS
 10
4.6556044527
 20
5.1782278844
 11
4.6751949975
 21
5.1731491852
  0
LINE
  5
2CD
100
AcDbEntity
  8
0
100
AcDbLine
 62
7
  6
CONTINUOUS
 10
5.2836812617
 20
5.0346146622
 11
5.2640428571
 21
5.0397057712
  0
LINE
  5
2CE
100
AcDbEntity
  8
0
100
AcDbLine
 62
7
  6
CONTINUOUS
 10
4.6556044527
 20
5.2126778844
 11
4.6751949975
 21
5.2075991852
  0
LINE
  5
2CF
100
AcDbEntity
  8
0
100
AcDbLine
 62
7
  6
CONTINUOUS
 10
4.6760032679
 20
5.0571279338
 11
4.6556044526
 21
5.0518396622
  0
LINE
  5
2D0
100
AcDbEntity
  8
0
100
AcDbLine
 62
7
  6
CONTINUOUS
 10
5.2632824463
 20
5.2246146128
 11
5.2824983748
 21
5.2295962733
  0
LINE
  5
2D1
100
AcDbEntity
  8
0
100
AcDbLine
 62
7
  6
CONTINUOUS
 10
4.6760032679
 20
5.0915779338
 11
4.6556044526
 21
5.0862896622
  0
LINE
  5
2D2
100
AcDbEntity
  8
0
100
AcDbLine
 62
7
  6
CONTINUOUS
 10
4.6760032679
 20
5.1260279338
 11
4.6556044526
 21
5.1207396622
  0
LINE
  5
2D3
100
AcDbEntity
  8
0
100
AcDbLine
 62
7
  6
CONTINUOUS
 10
4.6760032679
 20
5.1604779338
 11
4.6556044526
 21
5.1551896622
  0
LINE
  5
2D4
100
AcDbEntity
  8
0
100
AcDbLine
 62
7
  6
CONTINUOUS
 10
4.6760032679
 20
5.1949279338
 11
4.6556044526
 21
5.1896396622
  0
LINE
  5
2D5
100
AcDbEntity
  8
0
100
AcDbLine
 62
7
  6
CONTINUOUS
 10
4.6767907938
 20
5.1950962733
 11
4.6760032679
 21
5.1949279338
  0
LINE
  5
2D6
100
AcDbEntity
  8
0
100
AcDbLine
 62
7
  6
CONTINUOUS
 10
4.6565477929
 20
5.1898334055
 11
4.6556044526
 21
5.1896396622
  0
LINE
  5
2D7
100
AcDbEntity
  8
0
100
AcDbLine
 62
7
  6
CONTINUOUS
 10
4.4871428571
 20
5.2295962733
 11
5.4521428571
 21
5.2295962733
  0
LINE
  5
2D8
100
AcDbEntity
  8
0
100
AcDbLine
 62
7
  6
CONTINUOUS
 10
5.2836812617
 20
5.0690646622
 11
5.2640428571
 21
5.0741557712
  0
LINE
  5
2D9
100
AcDbEntity
  8
0
100
AcDbLine
 62
7
  6
CONTINUOUS
 10
5.2836812617
 20
5.1035146622
 11
5.2640428571
 21
5.1086057712
  0
LINE
  5
2DA
100
AcDbEntity
  8
0
100
AcDbLine
 62
7
  6
CONTINUOUS
 10
5.2836812617
 20
5.1379646622
 11
5.2640428571
 21
5.1430557712
  0
LINE
  5
2DB
100
AcDbEntity
  8
0
100
AcDbLine
 62
7
  6
CONTINUOUS
 10
5.2836812617
 20
5.1724146622
 11
5.2640428571
 21
5.1775057712
  0
LINE
  5
2DC
100
AcDbEntity
  8
0
100
AcDbLine
 62
7
  6
CONTINUOUS
 10
4.6760032679
 20
5.2293779338
 11
4.6556044526
 21
5.2240896622
  0
LINE
  5
2DD
100
AcDbEntity
  8
0
100
AcDbLine
 62
7
  6
CONTINUOUS
 10
4.6770779143
 20
5.2295962733
 11
4.6760032679
 21
5.2293779338
  0
LINE
  5
2DE
100
AcDbEntity
  8
0
100
AcDbLine
 62
7
  6
CONTINUOUS
 10
5.3721428571
 20
5.4420962733
 11
5.3869908801
 21
5.4442261126
  0
LINE
  5
2DF
100
AcDbEntity
  8
0
100
AcDbLine
 62
7
  6
CONTINUOUS
 10
5.4521428571
 20
5.2622931308
 11
4.4871428571
 21
5.2622929568
  0
LINE
  5
2E0
100
AcDbEntity
  8
0
100
AcDbLine
 62
7
  6
CONTINUOUS
 10
4.5312432517
 20
5.2755997571
 11
4.4952197802
 21
5.2755997598
  0
LINE
  5
2E1
100
AcDbEntity
  8
0
100
AcDbLine
 62
7
  6
CONTINUOUS
 10
5.4023597915
 20
5.2755997572
 11
4.5369262646
 21
5.2755997559
  0
LINE
  5
2E2
100
AcDbEntity
  8
0
100
AcDbLine
 62
7
  6
CONTINUOUS
 10
5.4440659341
 20
5.2755999337
 11
5.4080425224
 21
5.2755999298
  0
LINE
  5
2E3
100
AcDbEntity
  8
0
100
AcDbLine
 62
7
  6
CONTINUOUS
 10
4.5221428571
 20
5.3199557698
 11
4.5471319718
 21
5.3199557698
  0
LINE
  5
2E4
100
AcDbEntity
  8
0
100
AcDbLine
 62
7
  6
CONTINUOUS
 10
4.6107289983
 20
5.3199557698
 11
5.3285567159
 21
5.3199557698
  0
LINE
  5
2E5
100
AcDbEntity
  8
0
100
AcDbLine
 62
7
  6
CONTINUOUS
 10
5.3921538695
 20
5.3199559437
 11
5.4171428571
 21
5.3199559437
  0
LINE
  5
2E6
100
AcDbEntity
  8
0
100
AcDbLine
 62
7
  6
CONTINUOUS
 10
5.4037687206
 20
5.3662269161
 11
5.0905026592
 21
5.3662269161
  0
LINE
  5
2E7
100
AcDbEntity
  8
0
100
AcDbLine
 62
7
  6
CONTINUOUS
 10
4.8487830551
 20
5.3662269161
 11
4.5355169937
 21
5.3662269161
  0
LINE
  5
2E8
100
AcDbEntity
  8
0
100
AcDbLine
 62
7
  6
CONTINUOUS
 10
4.5289275632
 20
5.3843749646
 11
5.410358151
 21
5.3843749646
  0
LINE
  5
2E9
100
AcDbEntity
  8
0
100
AcDbLine
 62
7
  6
CONTINUOUS
 10
4.5320085873
 20
5.4032113136
 11
5.407277127
 21
5.4032113136
  0
LINE
  5
2EA
100
AcDbEntity
  8
0
100
AcDbLine
 62
7
  6
CONTINUOUS
 10
4.5671428571
 20
5.4420962733
 11
4.5522948342
 21
5.4442261126
  0
LINE
  5
2EB
100
AcDbEntity
  8
0
100
AcDbLine
 62
7
  6
CONTINUOUS
 10
5.2836812617
 20
5.2068646622
 11
5.2640428571
 21
5.2119557712
  0
LINE
  5
2EC
100
AcDbEntity
  8
0
100
AcDbLine
 62
7
  6
CONTINUOUS
 10
4.5351947483
 20
5.4238951333
 11
5.404090966
 21
5.4238951333
  0
LINE
  5
2ED
100
AcDbEntity
  8
0
100
AcDbLine
 62
7
  6
CONTINUOUS
 10
5.3903720238
 20
5.4420962733
 11
4.5489136905
 21
5.4420962733
  0
LINE
  5
2EE
100
AcDbEntity
  8
0
100
AcDbLine
 62
7
  6
CONTINUOUS
 10
5.3869908801
 20
5.4442261126
 11
4.5522948342
 21
5.4442261126
  0
LINE
  5
2EF
100
AcDbEntity
  8
0
100
AcDbLine
 62
7
  6
CONTINUOUS
 10
5.3783928571
 20
5.5041666152
 11
4.5608928571
 21
5.5041666152
  0
LINE
  5
2F0
100
AcDbEntity
  8
0
100
AcDbLine
 62
7
  6
CONTINUOUS
 10
4.6120501244
 20
5.7820962733
 11
4.5608928571
 21
5.7820962733
  0
LINE
  5
2F1
100
AcDbEntity
  8
0
100
AcDbLine
 62
7
  6
CONTINUOUS
 10
4.9334140566
 20
5.8420962733
 11
4.8923420192
 21
5.8420962733
  0
LINE
  5
2F2
100
AcDbEntity
  8
0
100
AcDbLine
 62
7
  6
CONTINUOUS
 10
4.8489881973
 20
5.8420962733
 11
4.8421428571
 21
5.8420962733
  0
LINE
  5
2F3
100
AcDbEntity
  8
0
100
AcDbLine
 62
7
  6
CONTINUOUS
 10
4.9334140566
 20
5.8524366988
 11
4.899187356
 21
5.8524366988
  0
LINE
  5
2F4
100
AcDbEntity
  8
0
100
AcDbLine
 62
7
  6
CONTINUOUS
 10
4.8171428571
 20
5.8795962733
 11
4.7196428571
 21
5.8795962733
  0
LINE
  5
2F5
100
AcDbEntity
  8
0
100
AcDbLine
 62
7
  6
CONTINUOUS
 10
4.6120501244
 20
5.8795962733
 11
4.5608928571
 21
5.8795962733
  0
LINE
  5
2F6
100
AcDbEntity
  8
0
100
AcDbLine
 62
7
  6
CONTINUOUS
 10
4.8786513389
 20
5.8800111672
 11
4.8489881973
 21
5.8800111672
  0
LINE
  5
2F7
100
AcDbEntity
  8
0
100
AcDbLine
 62
7
  6
CONTINUOUS
 10
4.8171428571
 20
5.8820962733
 11
4.7196428571
 21
5.8820962733
  0
LINE
  5
2F8
100
AcDbEntity
  8
0
100
AcDbLine
 62
7
  6
CONTINUOUS
 10
4.8489881973
 20
5.8903515915
 11
4.8786513389
 21
5.8903515915
  0
LINE
  5
2F9
100
AcDbEntity
  8
0
100
AcDbLine
 62
7
  6
CONTINUOUS
 10
4.8832148979
 20
5.912755849
 11
4.8489881973
 21
5.912755849
  0
LINE
  5
2FA
100
AcDbEntity
  8
0
100
AcDbLine
 62
7
  6
CONTINUOUS
 10
4.899187356
 20
5.9230962733
 11
4.8923420192
 21
5.9230962733
  0
LINE
  5
2FB
100
AcDbEntity
  8
0
100
AcDbLine
 62
7
  6
CONTINUOUS
 10
4.8421428571
 20
5.9230962733
 11
4.8832148979
 21
5.9230962733
  0
LINE
  5
2FC
100
AcDbEntity
  8
0
100
AcDbLine
 62
7
  6
CONTINUOUS
 10
4.6120501244
 20
5.9790962733
 11
4.5608928571
 21
5.9790962733
  0
LINE
  5
2FD
100
AcDbEntity
  8
0
100
AcDbLine
 62
7
  6
CONTINUOUS
 10
4.6120501244
 20
6.0765962733
 11
4.5608928571
 21
6.0765962733
  0
LINE
  5
2FE
100
AcDbEntity
  8
0
100
AcDbLine
 62
7
  6
CONTINUOUS
 10
5.3783928571
 20
6.4220962733
 11
4.5608928571
 21
6.4220962733
  0
LINE
  5
2FF
100
AcDbEntity
  8
0
100
AcDbLine
 62
7
  6
CONTINUOUS
 10
5.2633928571
 20
6.5370962733
 11
4.6758928571
 21
6.5370962733
  0
ARC
  5
300
100
AcDbEntity
  8
0
100
AcDbCircle
 62
7
  6
CONTINUOUS
 10
4.931007081
 20
3.1454892616
 40
2.1979268972
100
AcDbArc
 50
98.3788742288
 51
99.567917304
  0
ARC
  5
301
100
AcDbEntity
  8
0
100
AcDbCircle
 62
7
  6
CONTINUOUS
 10
4.9384548733
 20
3.6208339977
 40
1.7445703282
100
AcDbArc
 50
100.8667851143
 51
102.3798757687
  0
ARC
  5
302
100
AcDbEntity
  8
0
100
AcDbCircle
 62
7
  6
CONTINUOUS
 10
4.8205258359
 20
2.1653462733
 40
0.0151329787
100
AcDbArc
 50
102.9176327574
 51
257.0823672426
  0
ARC
  5
303
100
AcDbEntity
  8
0
100
AcDbCircle
 62
7
  6
CONTINUOUS
 10
4.8205258359
 20
2.2733462733
 40
0.0151329787
100
AcDbArc
 50
102.9176327574
 51
257.0823672426
  0
ARC
  5
304
100
AcDbEntity
  8
0
100
AcDbCircle
 62
7
  6
CONTINUOUS
 10
4.8205258359
 20
2.3813462733
 40
0.0151329787
100
AcDbArc
 50
102.9176327574
 51
257.0823672426
  0
ARC
  5
305
100
AcDbEntity
  8
0
100
AcDbCircle
 62
7
  6
CONTINUOUS
 10
4.8205258359
 20
2.4893462733
 40
0.0151329787
100
AcDbArc
 50
102.9176327574
 51
257.0823672426
  0
ARC
  5
306
100
AcDbEntity
  8
0
100
AcDbCircle
 62
7
  6
CONTINUOUS
 10
4.8205258359
 20
2.5973462733
 40
0.0151329787
100
AcDbArc
 50
102.9176327574
 51
257.0823672426
  0
ARC
  5
307
100
AcDbEntity
  8
0
100
AcDbCircle
 62
7
  6
CONTINUOUS
 10
4.8205258359
 20
2.7053462733
 40
0.0151329787
100
AcDbArc
 50
102.9176327574
 51
257.0823672426
  0
ARC
  5
308
100
AcDbEntity
  8
0
100
AcDbCircle
 62
7
  6
CONTINUOUS
 10
4.6844393414
 20
5.8519868443
 40
0.867984714
100
AcDbArc
 50
323.3710842681
 51
325.9690183047
  0
ARC
  5
309
100
AcDbEntity
  8
0
100
AcDbCircle
 62
7
  6
CONTINUOUS
 10
4.6758928571
 20
6.4220962733
 40
0.115
100
AcDbArc
 50
90.0
 51
180.0
  0
ARC
  5
30A
100
AcDbEntity
  8
0
100
AcDbCircle
 62
7
  6
CONTINUOUS
 10
4.4721428571
 20
5.3199557698
 40
0.05
100
AcDbArc
 50
297.4864262504
 51
360.0
  0
ARC
  5
30B
100
AcDbEntity
  8
0
100
AcDbCircle
 62
7
  6
CONTINUOUS
 10
4.5696428571
 20
4.6795962733
 40
0.04
100
AcDbArc
 50
180.0
 51
270.0
  0
ARC
  5
30C
100
AcDbEntity
  8
0
100
AcDbCircle
 62
7
  6
CONTINUOUS
 10
4.511161565
 20
5.4170099245
 40
0.025
100
AcDbArc
 50
326.4994880157
 51
15.9863506381
  0
ARC
  5
30D
100
AcDbEntity
  8
0
100
AcDbCircle
 62
7
  6
CONTINUOUS
 10
4.5514136905
 20
5.3903671066
 40
0.0232708333
100
AcDbArc
 50
146.4994880157
 51
194.921523935
  0
ARC
  5
30E
100
AcDbEntity
  8
0
100
AcDbCircle
 62
7
  6
CONTINUOUS
 10
4.5399646714
 20
5.3518727316
 40
0.015026455
100
AcDbArc
 50
107.2157175784
 51
179.7385088948
  0
ARC
  5
30F
100
AcDbEntity
  8
0
100
AcDbCircle
 62
7
  6
CONTINUOUS
 10
4.514433372
 20
5.3805125275
 40
0.015
100
AcDbArc
 50
319.1974536684
 51
14.921523935
  0
ARC
  5
310
100
AcDbEntity
  8
0
100
AcDbCircle
 62
7
  6
CONTINUOUS
 10
4.5021428571
 20
5.2622929568
 40
0.015
100
AcDbArc
 50
117.4864262504
 51
180.0
  0
ARC
  5
311
100
AcDbEntity
  8
0
100
AcDbCircle
 62
7
  6
CONTINUOUS
 10
4.5489136905
 20
5.42782544
 40
0.0142708333
100
AcDbArc
 50
90.0
 51
195.9863506381
  0
ARC
  5
312
100
AcDbEntity
  8
0
100
AcDbCircle
 62
7
  6
CONTINUOUS
 10
5.0051595175
 20
3.1255028904
 40
2.2181544553
100
AcDbArc
 50
80.4384423992
 51
81.6166456598
  0
ARC
  5
313
100
AcDbEntity
  8
0
100
AcDbCircle
 62
7
  6
CONTINUOUS
 10
4.998305252
 20
3.6085411523
 40
1.7571188874
100
AcDbArc
 50
77.6256105206
 51
79.1279070666
  0
ARC
  5
314
100
AcDbEntity
  8
0
100
AcDbCircle
 62
7
  6
CONTINUOUS
 10
4.9696428571
 20
3.6390962733
 40
0.2925
100
AcDbArc
 50
311.0443782716
 51
360.0
  0
ARC
  5
315
100
AcDbEntity
  8
0
100
AcDbCircle
 62
7
  6
CONTINUOUS
 10
4.9696428571
 20
3.6390962733
 40
0.2925
100
AcDbArc
 50
180.0
 51
228.9556217284
  0
ARC
  5
316
100
AcDbEntity
  8
0
100
AcDbCircle
 62
7
  6
CONTINUOUS
 10
5.1187598784
 20
2.1653462733
 40
0.0151329787
100
AcDbArc
 50
282.9176327574
 51
77.0823672426
  0
ARC
  5
317
100
AcDbEntity
  8
0
100
AcDbCircle
 62
7
  6
CONTINUOUS
 10
5.1187598784
 20
2.2733462733
 40
0.0151329787
100
AcDbArc
 50
282.9176327574
 51
77.0823672426
  0
ARC
  5
318
100
AcDbEntity
  8
0
100
AcDbCircle
 62
7
  6
CONTINUOUS
 10
5.1187598784
 20
2.3813462733
 40
0.0151329787
100
AcDbArc
 50
282.9176327574
 51
77.0823672426
  0
ARC
  5
319
100
AcDbEntity
  8
0
100
AcDbCircle
 62
7
  6
CONTINUOUS
 10
5.1187598784
 20
2.4893462733
 40
0.0151329787
100
AcDbArc
 50
282.9176327574
 51
77.0823672426
  0
ARC
  5
31A
100
AcDbEntity
  8
0
100
AcDbCircle
 62
7
  6
CONTINUOUS
 10
5.1187598784
 20
2.5973462733
 40
0.0151329787
100
AcDbArc
 50
282.9176327574
 51
77.0823672426
  0
ARC
  5
31B
100
AcDbEntity
  8
0
100
AcDbCircle
 62
7
  6
CONTINUOUS
 10
5.1187598784
 20
2.7053462733
 40
0.0151329787
100
AcDbArc
 50
282.9176327574
 51
77.0823672426
  0
ARC
  5
31C
100
AcDbEntity
  8
0
100
AcDbCircle
 62
7
  6
CONTINUOUS
 10
5.2548448735
 20
5.8519857733
 40
0.867982872
100
AcDbArc
 50
214.0309784991
 51
216.628932397
  0
ARC
  5
31D
100
AcDbEntity
  8
0
100
AcDbCircle
 62
7
  6
CONTINUOUS
 10
5.2633928571
 20
6.4220962733
 40
0.115
100
AcDbArc
 50
0.0
 51
90.0
  0
ARC
  5
31E
100
AcDbEntity
  8
0
100
AcDbCircle
 62
7
  6
CONTINUOUS
 10
5.4671428571
 20
5.3199559437
 40
0.05
100
AcDbArc
 50
180.0
 51
242.5135737496
  0
ARC
  5
31F
100
AcDbEntity
  8
0
100
AcDbCircle
 62
7
  6
CONTINUOUS
 10
5.3696428571
 20
4.6795962733
 40
0.04
100
AcDbArc
 50
270.0
 51
360.0
  0
ARC
  5
320
100
AcDbEntity
  8
0
100
AcDbCircle
 62
7
  6
CONTINUOUS
 10
5.4281241493
 20
5.4170099245
 40
0.025
100
AcDbArc
 50
164.0136493619
 51
213.5005119843
  0
ARC
  5
321
100
AcDbEntity
  8
0
100
AcDbCircle
 62
7
  6
CONTINUOUS
 10
5.3878720238
 20
5.3903671066
 40
0.0232708333
100
AcDbArc
 50
345.078476065
 51
33.5005119843
  0
ARC
  5
322
100
AcDbEntity
  8
0
100
AcDbCircle
 62
7
  6
CONTINUOUS
 10
5.3993209317
 20
5.3518726413
 40
0.0150265703
100
AcDbArc
 50
0.2618333917
 51
72.7839798152
  0
ARC
  5
323
100
AcDbEntity
  8
0
100
AcDbCircle
 62
7
  6
CONTINUOUS
 10
5.4248523423
 20
5.3805125275
 40
0.015
100
AcDbArc
 50
165.078476065
 51
220.8010713068
  0
ARC
  5
324
100
AcDbEntity
  8
0
100
AcDbCircle
 62
7
  6
CONTINUOUS
 10
5.4021428571
 20
5.3609094848
 40
0.015
100
AcDbArc
 50
0.0
 51
40.8010713068
  0
ARC
  5
325
100
AcDbEntity
  8
0
100
AcDbCircle
 62
7
  6
CONTINUOUS
 10
5.4371428571
 20
5.2622931308
 40
0.015
100
AcDbArc
 50
0.0
 51
62.5135737496
  0
ARC
  5
326
100
AcDbEntity
  8
0
100
AcDbCircle
 62
7
  6
CONTINUOUS
 10
5.3903720238
 20
5.42782544
 40
0.0142708333
100
AcDbArc
 50
344.0136493619
 51
90.0
  0
ARC
  5
327
100
AcDbEntity
  8
0
100
AcDbCircle
 62
7
  6
CONTINUOUS
 10
5.2614151356
 20
4.7839772171
 40
0.0074504006
100
AcDbArc
 50
282.9305469617
 51
284.5148429375
  0
LINE
  5
328
100
AcDbEntity
  8
0
100
AcDbLine
 62
7
  6
CONTINUOUS
 10
4.6548928659
 20
5.2130466412
 11
4.6556044521
 21
5.2126778843
  0
LINE
  5
329
100
AcDbEntity
  8
0
100
AcDbLine
 62
7
  6
CONTINUOUS
 10
4.6548929686
 20
5.1785966411
 11
4.6556044737
 21
5.1782278844
  0
LINE
  5
32A
100
AcDbEntity
  8
0
100
AcDbLine
 62
7
  6
CONTINUOUS
 10
4.6548929686
 20
5.1441466411
 11
4.6556044737
 21
5.1437778844
  0
LINE
  5
32B
100
AcDbEntity
  8
0
100
AcDbLine
 62
7
  6
CONTINUOUS
 10
4.6548929686
 20
5.1096966411
 11
4.6556044737
 21
5.1093278844
  0
LINE
  5
32C
100
AcDbEntity
  8
0
100
AcDbLine
 62
7
  6
CONTINUOUS
 10
4.6548929687
 20
5.0752466411
 11
4.6556044737
 21
5.0748778844
  0
LINE
  5
32D
100
AcDbEntity
  8
0
100
AcDbLine
 62
7
  6
CONTINUOUS
 10
4.6548929686
 20
5.0407966411
 11
4.6556044737
 21
5.0404278844
  0
LINE
  5
32E
100
AcDbEntity
  8
0
100
AcDbLine
 62
7
  6
CONTINUOUS
 10
4.6548929686
 20
5.0063466411
 11
4.6556044737
 21
5.0059778844
  0
LINE
  5
32F
100
AcDbEntity
  8
0
100
AcDbLine
 62
7
  6
CONTINUOUS
 10
4.6548929686
 20
4.9718966411
 11
4.6556044737
 21
4.9715278844
  0
LINE
  5
330
100
AcDbEntity
  8
0
100
AcDbLine
 62
7
  6
CONTINUOUS
 10
4.6548929687
 20
4.9374466411
 11
4.6556044737
 21
4.9370778844
  0
LINE
  5
331
100
AcDbEntity
  8
0
100
AcDbLine
 62
7
  6
CONTINUOUS
 10
4.6548929686
 20
4.9029966411
 11
4.6556044737
 21
4.9026278844
  0
LINE
  5
332
100
AcDbEntity
  8
0
100
AcDbLine
 62
7
  6
CONTINUOUS
 10
4.6548929686
 20
4.8685466411
 11
4.6556044737
 21
4.8681778844
  0
LINE
  5
333
100
AcDbEntity
  8
0
100
AcDbLine
 62
7
  6
CONTINUOUS
 10
4.6548929676
 20
4.8340966411
 11
4.6556044591
 21
4.8337278844
  0
LINE
  5
334
100
AcDbEntity
  8
0
100
AcDbLine
 62
7
  6
CONTINUOUS
 10
4.6548929686
 20
4.7996466411
 11
4.6556044737
 21
4.7992778844
  0
LINE
  5
335
100
AcDbEntity
  8
0
100
AcDbLine
 62
7
  6
CONTINUOUS
 10
5.2843927457
 20
5.1958216411
 11
5.2836812406
 21
5.1954528844
  0
LINE
  5
336
100
AcDbEntity
  8
0
100
AcDbLine
 62
7
  6
CONTINUOUS
 10
5.2843927457
 20
5.1613716411
 11
5.2836812406
 21
5.1610028844
  0
LINE
  5
337
100
AcDbEntity
  8
0
100
AcDbLine
 62
7
  6
CONTINUOUS
 10
5.2843927457
 20
5.1269216411
 11
5.2836812406
 21
5.1265528844
  0
LINE
  5
338
100
AcDbEntity
  8
0
100
AcDbLine
 62
7
  6
CONTINUOUS
 10
5.2843927636
 20
5.0924716412
 11
5.2836811965
 21
5.0921028844
  0
LINE
  5
339
100
AcDbEntity
  8
0
100
AcDbLine
 62
7
  6
CONTINUOUS
 10
5.2843927457
 20
5.0580216411
 11
5.2836812406
 21
5.0576528844
  0
LINE
  5
33A
100
AcDbEntity
  8
0
100
AcDbLine
 62
7
  6
CONTINUOUS
 10
5.2843927457
 20
5.0235716411
 11
5.2836812406
 21
5.0232028844
  0
LINE
  5
33B
100
AcDbEntity
  8
0
100
AcDbLine
 62
7
  6
CONTINUOUS
 10
5.2843927457
 20
4.9891216411
 11
5.2836812406
 21
4.9887528844
  0
LINE
  5
33C
100
AcDbEntity
  8
0
100
AcDbLine
 62
7
  6
CONTINUOUS
 10
5.2843928571
 20
4.954671641
 11
5.28368118
 21
4.9543028844
  0
LINE
  5
33D
100
AcDbEntity
  8
0
100
AcDbLine
 62
7
  6
CONTINUOUS
 10
5.2843927457
 20
4.9202216411
 11
5.2836812406
 21
4.9198528844
  0
LINE
  5
33E
100
AcDbEntity
  8
0
100
AcDbLine
 62
7
  6
CONTINUOUS
 10
5.2843927457
 20
4.8857716411
 11
5.2836812406
 21
4.8854028844
  0
LINE
  5
33F
100
AcDbEntity
  8
0
100
AcDbLine
 62
7
  6
CONTINUOUS
 10
5.2843927457
 20
4.8513216411
 11
5.2836812406
 21
4.8509528844
  0
LINE
  5
340
100
AcDbEntity
  8
0
100
AcDbLine
 62
7
  6
CONTINUOUS
 10
5.2843927456
 20
4.8168716411
 11
5.2836812406
 21
4.8165028844
  0
LINE
  5
341
100
AcDbEntity
  8
0
100
AcDbLine
 62
7
  6
CONTINUOUS
 10
5.2843927457
 20
4.7824216411
 11
5.2836812406
 21
4.7820528844
  0
SPLINE
  5
342
100
AcDbEntity
  8
0
100
AcDbSpline
 62
7
  6
CONTINUOUS
 70
0
 71
3
 72
33
 73
29
 74
0
 42
0.0000001
 43
0.0000001
 44
0.0000000001
 40
0.0
 40
0.0
 40
0.0
 40
0.0
 40
0.0203760966
 40
0.0416231976
 40
0.0640319847
 40
0.087830121
 40
0.1131804308
 40
0.1401881326
 40
0.1689217761
 40
0.1994203684
 40
0.2316982376
 40
0.2657433272
 40
0.3388379059
 40
0.4176930688
 40
0.5000000076
 40
0.5823069361
 40
0.6611620949
 40
0.7342566704
 40
0.7683017603
 40
0.8005796301
 40
0.8310782232
 40
0.8598118678
 40
0.88681957
 40
0.9121698796
 40
0.9359680158
 40
0.9583768026
 40
0.9796239035
 40
1.0
 40
1.0
 40
1.0
 40
1.0
 10
4.6120501244
 20
5.7820962733
 30
0.0
 10
4.612908084
 20
5.7820962733
 30
0.0
 10
4.6146634388
 20
5.7822486044
 30
0.0
 10
4.6172891779
 20
5.7829003566
 30
0.0
 10
4.619930831
 20
5.7839664734
 30
0.0
 10
4.6225687538
 20
5.7854364776
 30
0.0
 10
4.6251848104
 20
5.78730107
 30
0.0
 10
4.627757072
 20
5.7895543799
 30
0.0
 10
4.63026157
 20
5.7921902196
 30
0.0
 10
4.6326698331
 20
5.7952036777
 30
0.0
 10
4.6349505574
 20
5.7985882169
 30
0.0
 10
4.6378396494
 20
5.8037042622
 30
0.0
 10
4.6408687873
 20
5.8109635653
 30
0.0
 10
4.6432235903
 20
5.8205831055
 30
0.0
 10
4.6440536777
 20
5.8308462738
 30
0.0
 10
4.6432235901
 20
5.8411094419
 30
0.0
 10
4.6408687873
 20
5.8507289815
 30
0.0
 10
4.6378396494
 20
5.8579882842
 30
0.0
 10
4.6349505576
 20
5.8631043294
 30
0.0
 10
4.6326698332
 20
5.8664888687
 30
0.0
 10
4.63026157
 20
5.8695023269
 30
0.0
 10
4.627757072
 20
5.8721381667
 30
0.0
 10
4.6251848103
 20
5.8743914766
 30
0.0
 10
4.6225687537
 20
5.876256069
 30
0.0
 10
4.6199308309
 20
5.8777260732
 30
0.0
 10
4.6172891779
 20
5.87879219
 30
0.0
 10
4.6146634388
 20
5.8794439422
 30
0.0
 10
4.612908084
 20
5.8795962733
 30
0.0
 10
4.6120501244
 20
5.8795962733
 30
0.0
  0
SPLINE
  5
343
100
AcDbEntity
  8
0
100
AcDbSpline
 62
7
  6
CONTINUOUS
 70
0
 71
3
 72
33
 73
29
 74
0
 42
0.0000001
 43
0.0000001
 44
0.0000000001
 40
0.0
 40
0.0
 40
0.0
 40
0.0
 40
0.0203760966
 40
0.0416231976
 40
0.0640319847
 40
0.087830121
 40
0.1131804308
 40
0.1401881326
 40
0.1689217761
 40
0.1994203684
 40
0.2316982376
 40
0.2657433272
 40
0.3388379059
 40
0.4176930688
 40
0.5000000076
 40
0.5823069361
 40
0.6611620949
 40
0.7342566704
 40
0.7683017603
 40
0.8005796301
 40
0.8310782232
 40
0.8598118678
 40
0.88681957
 40
0.9121698796
 40
0.9359680158
 40
0.9583768026
 40
0.9796239035
 40
1.0
 40
1.0
 40
1.0
 40
1.0
 10
4.6120501244
 20
5.9790962733
 30
0.0
 10
4.612908084
 20
5.9790962733
 30
0.0
 10
4.6146634388
 20
5.9792486044
 30
0.0
 10
4.6172891779
 20
5.9799003566
 30
0.0
 10
4.619930831
 20
5.9809664734
 30
0.0
 10
4.6225687538
 20
5.9824364776
 30
0.0
 10
4.6251848104
 20
5.98430107
 30
0.0
 10
4.627757072
 20
5.9865543799
 30
0.0
 10
4.63026157
 20
5.9891902196
 30
0.0
 10
4.6326698331
 20
5.9922036777
 30
0.0
 10
4.6349505574
 20
5.9955882169
 30
0.0
 10
4.6378396494
 20
6.0007042622
 30
0.0
 10
4.6408687873
 20
6.0079635653
 30
0.0
 10
4.6432235903
 20
6.0175831055
 30
0.0
 10
4.6440536777
 20
6.0278462738
 30
0.0
 10
4.6432235901
 20
6.0381094419
 30
0.0
 10
4.6408687873
 20
6.0477289815
 30
0.0
 10
4.6378396494
 20
6.0549882842
 30
0.0
 10
4.6349505576
 20
6.0601043294
 30
0.0
 10
4.6326698332
 20
6.0634888687
 30
0.0
 10
4.63026157
 20
6.0665023269
 30
0.0
 10
4.627757072
 20
6.0691381667
 30
0.0
 10
4.6251848103
 20
6.0713914766
 30
0.0
 10
4.6225687537
 20
6.073256069
 30
0.0
 10
4.6199308309
 20
6.0747260732
 30
0.0
 10
4.6172891779
 20
6.07579219
 30
0.0
 10
4.6146634388
 20
6.0764439422
 30
0.0
 10
4.612908084
 20
6.0765962733
 30
0.0
 10
4.6120501244
 20
6.0765962733
 30
0.0
  0
SPLINE
  5
344
100
AcDbEntity
  8
0
100
AcDbSpline
 62
7
  6
CONTINUOUS
 70
0
 71
3
 72
33
 73
29
 74
0
 42
0.0000001
 43
0.0000001
 44
0.0000000001
 40
0.0
 40
0.0
 40
0.0
 40
0.0
 40
0.0205845238
 40
0.0422892423
 40
0.065301002
 40
0.0897531953
 40
0.1157330971
 40
0.1432988274
 40
0.1724821179
 40
0.2032983142
 40
0.2357360546
 40
0.2697656565
 40
0.3422467857
 40
0.4196826318
 40
0.4999999478
 40
0.5803172749
 40
0.6577531338
 40
0.7302342756
 40
0.7642638857
 40
0.796701634
 40
0.827517837
 40
0.856701134
 40
0.8842668707
 40
0.9102467794
 40
0.9346989798
 40
0.9577107465
 40
0.9794154711
 40
1.0
 40
1.0
 40
1.0
 40
1.0
 10
4.613067129
 20
5.9794457463
 30
0.0
 10
4.61386409
 20
5.9796168911
 30
0.0
 10
4.615477199
 20
5.9800891762
 30
0.0
 10
4.6178500906
 20
5.9811317408
 30
0.0
 10
4.620219449
 20
5.9825168338
 30
0.0
 10
4.6225700336
 20
5.9842372164
 30
0.0
 10
4.6248849538
 20
5.9862880909
 30
0.0
 10
4.627145781
 20
5.9886639964
 30
0.0
 10
4.6293308756
 20
5.9913608355
 30
0.0
 10
4.6314170058
 20
5.9943726265
 30
0.0
 10
4.6333768735
 20
5.9976931421
 30
0.0
 10
4.635833305
 20
6.002620919
 30
0.0
 10
4.6383771238
 20
6.0094743303
 30
0.0
 10
4.6403303848
 20
6.018410329
 30
0.0
 10
4.6410127138
 20
6.0278462618
 30
0.0
 10
4.6403303881
 20
6.0372821952
 30
0.0
 10
4.6383771298
 20
6.0462181961
 30
0.0
 10
4.6358333127
 20
6.0530716094
 30
0.0
 10
4.6333768824
 20
6.0579993882
 30
0.0
 10
4.6314170153
 20
6.0613199052
 30
0.0
 10
4.6293308857
 20
6.0643316976
 30
0.0
 10
4.6271457916
 20
6.0670285381
 30
0.0
 10
4.6248849648
 20
6.069404445
 30
0.0
 10
4.6225700449
 20
6.0714553211
 30
0.0
 10
4.6202194604
 20
6.0731757052
 30
0.0
 10
4.6178501021
 20
6.0745607999
 30
0.0
 10
4.6154772104
 20
6.0756033662
 30
0.0
 10
4.6138641012
 20
6.0760756525
 30
0.0
 10
4.6130671402
 20
6.0762467979
 30
0.0
  0
SPLINE
  5
345
100
AcDbEntity
  8
0
100
AcDbSpline
 62
7
  6
CONTINUOUS
 70
0
 71
3
 72
33
 73
29
 74
0
 42
0.0000001
 43
0.0000001
 44
0.0000000001
 40
0.0
 40
0.0
 40
0.0
 40
0.0
 40
0.0205845238
 40
0.0422892423
 40
0.065301002
 40
0.0897531953
 40
0.1157330971
 40
0.1432988274
 40
0.1724821179
 40
0.2032983142
 40
0.2357360546
 40
0.2697656565
 40
0.3422467857
 40
0.4196826318
 40
0.4999999478
 40
0.5803172749
 40
0.6577531338
 40
0.7302342756
 40
0.7642638857
 40
0.796701634
 40
0.827517837
 40
0.856701134
 40
0.8842668707
 40
0.9102467794
 40
0.9346989798
 40
0.9577107465
 40
0.9794154711
 40
1.0
 40
1.0
 40
1.0
 40
1.0
 10
4.613067129
 20
5.7824457463
 30
0.0
 10
4.61386409
 20
5.7826168911
 30
0.0
 10
4.615477199
 20
5.7830891762
 30
0.0
 10
4.6178500906
 20
5.7841317408
 30
0.0
 10
4.620219449
 20
5.7855168338
 30
0.0
 10
4.6225700336
 20
5.7872372164
 30
0.0
 10
4.6248849538
 20
5.7892880909
 30
0.0
 10
4.627145781
 20
5.7916639964
 30
0.0
 10
4.6293308756
 20
5.7943608355
 30
0.0
 10
4.6314170058
 20
5.7973726265
 30
0.0
 10
4.6333768735
 20
5.8006931421
 30
0.0
 10
4.635833305
 20
5.805620919
 30
0.0
 10
4.6383771238
 20
5.8124743303
 30
0.0
 10
4.6403303848
 20
5.821410329
 30
0.0
 10
4.6410127138
 20
5.8308462618
 30
0.0
 10
4.6403303881
 20
5.8402821952
 30
0.0
 10
4.6383771298
 20
5.8492181961
 30
0.0
 10
4.6358333127
 20
5.8560716094
 30
0.0
 10
4.6333768824
 20
5.8609993882
 30
0.0
 10
4.6314170153
 20
5.8643199052
 30
0.0
 10
4.6293308857
 20
5.8673316976
 30
0.0
 10
4.6271457916
 20
5.8700285381
 30
0.0
 10
4.6248849648
 20
5.872404445
 30
0.0
 10
4.6225700449
 20
5.8744553211
 30
0.0
 10
4.6202194604
 20
5.8761757052
 30
0.0
 10
4.6178501021
 20
5.8775607999
 30
0.0
 10
4.6154772104
 20
5.8786033662
 30
0.0
 10
4.6138641012
 20
5.8790756525
 30
0.0
 10
4.6130671402
 20
5.8792467979
 30
0.0
  0
LINE
  5
346
100
AcDbEntity
  8
0
100
AcDbLine
 62
7
  6
CONTINUOUS
 10
5.2836812406
 20
4.4489646622
 11
5.2843927457
 21
4.4485959055
  0
LINE
  5
347
100
AcDbEntity
  8
0
100
AcDbLine
 62
7
  6
CONTINUOUS
 10
5.2836812406
 20
4.7934646622
 11
5.2843927457
 21
4.7930959055
  0
LINE
  5
348
100
AcDbEntity
  8
0
100
AcDbLine
 62
7
  6
CONTINUOUS
 10
4.6556044737
 20
4.7762396622
 11
4.6548929686
 21
4.7758709055
  0
LINE
  5
349
100
AcDbEntity
  8
0
100
AcDbLine
 62
7
  6
CONTINUOUS
 10
5.2836812406
 20
4.8279146622
 11
5.2843927457
 21
4.8275459055
  0
LINE
  5
34A
100
AcDbEntity
  8
0
100
AcDbLine
 62
7
  6
CONTINUOUS
 10
5.2836812406
 20
4.8623646622
 11
5.2843927457
 21
4.8619959055
  0
LINE
  5
34B
100
AcDbEntity
  8
0
100
AcDbLine
 62
7
  6
CONTINUOUS
 10
5.2836812406
 20
4.8968146622
 11
5.2843927457
 21
4.8964459055
  0
LINE
  5
34C
100
AcDbEntity
  8
0
100
AcDbLine
 62
7
  6
CONTINUOUS
 10
5.2836812341
 20
4.9312646622
 11
5.2843928568
 21
4.9308959053
  0
LINE
  5
34D
100
AcDbEntity
  8
0
100
AcDbLine
 62
7
  6
CONTINUOUS
 10
4.6556044918
 20
4.8106896622
 11
4.6548929676
 21
4.8103209054
  0
LINE
  5
34E
100
AcDbEntity
  8
0
100
AcDbLine
 62
7
  6
CONTINUOUS
 10
4.6556044737
 20
4.8451396622
 11
4.6548929686
 21
4.8447709055
  0
LINE
  5
34F
100
AcDbEntity
  8
0
100
AcDbLine
 62
7
  6
CONTINUOUS
 10
4.6556044737
 20
4.8795896622
 11
4.6548929686
 21
4.8792209055
  0
LINE
  5
350
100
AcDbEntity
  8
0
100
AcDbLine
 62
7
  6
CONTINUOUS
 10
4.6556044737
 20
4.9140396622
 11
4.6548929686
 21
4.9136709055
  0
LINE
  5
351
100
AcDbEntity
  8
0
100
AcDbLine
 62
7
  6
CONTINUOUS
 10
5.2836812406
 20
4.9657146622
 11
5.2843927457
 21
4.9653459054
  0
LINE
  5
352
100
AcDbEntity
  8
0
100
AcDbLine
 62
7
  6
CONTINUOUS
 10
5.2836812406
 20
5.0001646622
 11
5.2843927457
 21
4.9997959054
  0
LINE
  5
353
100
AcDbEntity
  8
0
100
AcDbLine
 62
7
  6
CONTINUOUS
 10
5.2836812406
 20
5.0346146622
 11
5.2843927457
 21
5.0342459055
  0
LINE
  5
354
100
AcDbEntity
  8
0
100
AcDbLine
 62
7
  6
CONTINUOUS
 10
4.6556044737
 20
4.9484896622
 11
4.6548929686
 21
4.9481209054
  0
LINE
  5
355
100
AcDbEntity
  8
0
100
AcDbLine
 62
7
  6
CONTINUOUS
 10
4.6556044737
 20
4.9829396622
 11
4.6548929686
 21
4.9825709054
  0
LINE
  5
356
100
AcDbEntity
  8
0
100
AcDbLine
 62
7
  6
CONTINUOUS
 10
4.6556044737
 20
5.0173896622
 11
4.6548929686
 21
5.0170209055
  0
LINE
  5
357
100
AcDbEntity
  8
0
100
AcDbLine
 62
7
  6
CONTINUOUS
 10
4.6556044737
 20
5.0518396622
 11
4.6548929686
 21
5.0514709055
  0
SPLINE
  5
358
100
AcDbEntity
  8
0
100
AcDbSpline
 62
7
  6
CONTINUOUS
 70
0
 71
3
 72
30
 73
26
 74
0
 42
0.0000001
 43
0.0000001
 44
0.0000000001
 40
0.0
 40
0.0
 40
0.0
 40
0.0
 40
0.059405325
 40
0.1177172979
 40
0.1466165858
 40
0.1754103886
 40
0.2041263732
 40
0.2327927538
 40
0.2614407745
 40
0.2900848661
 40
0.3187381792
 40
0.3474273832
 40
0.3761808489
 40
0.4050205246
 40
0.4339983067
 40
0.4631687648
 40
0.5222576219
 40
0.5828381888
 40
0.6138485527
 40
0.645414506
 40
0.7103998608
 40
0.7781560981
 40
0.8489320264
 40
0.922863967
 40
1.0
 40
1.0
 40
1.0
 40
1.0
 10
5.1831477928
 20
2.430117798
 30
0.0
 10
5.1851160046
 20
2.4275993247
 30
0.0
 10
5.1887388245
 20
2.4223826412
 30
0.0
 10
5.1923800126
 20
2.415355117
 30
0.0
 10
5.1946442569
 20
2.4095332678
 30
0.0
 10
5.1960030378
 20
2.4050821952
 30
0.0
 10
5.1970147358
 20
2.4005524168
 30
0.0
 10
5.197664984
 20
2.3959643759
 30
0.0
 10
5.1979425274
 20
2.3913426482
 30
0.0
 10
5.1978485638
 20
2.3867142576
 30
0.0
 10
5.1973804033
 20
2.3821063756
 30
0.0
 10
5.1965445364
 20
2.3775451059
 30
0.0
 10
5.1953555085
 20
2.373052766
 30
0.0
 10
5.1938241451
 20
2.3686491384
 30
0.0
 10
5.1919672087
 20
2.3643484239
 30
0.0
 10
5.1890696062
 20
2.3587405031
 30
0.0
 10
5.1846910463
 20
2.3520076323
 30
0.0
 10
5.179491586
 20
2.3457651666
 30
0.0
 10
5.1748702849
 20
2.3410129675
 30
0.0
 10
5.1698495898
 20
2.3363296142
 30
0.0
 10
5.1629773039
 20
2.330749409
 30
0.0
 10
5.1539452384
 20
2.3245408873
 30
0.0
 10
5.1440859769
 20
2.3187379516
 30
0.0
 10
5.1334350026
 20
2.3133348318
 30
0.0
 10
5.1259877286
 20
2.3100667857
 30
0.0
 10
5.1221470015
 20
2.3084938287
 30
0.0
  0
SPLINE
  5
359
100
AcDbEntity
  8
0
100
AcDbSpline
 62
7
  6
CONTINUOUS
 70
0
 71
3
 72
30
 73
26
 74
0
 42
0.0000001
 43
0.0000001
 44
0.0000000001
 40
0.0
 40
0.0
 40
0.0
 40
0.0
 40
0.059405325
 40
0.1177172979
 40
0.1466165858
 40
0.1754103886
 40
0.2041263732
 40
0.2327927538
 40
0.2614407745
 40
0.2900848661
 40
0.3187381792
 40
0.3474273832
 40
0.3761808489
 40
0.4050205246
 40
0.4339983067
 40
0.4631687648
 40
0.5222576219
 40
0.5828381888
 40
0.6138485527
 40
0.645414506
 40
0.7103998608
 40
0.7781560981
 40
0.8489320264
 40
0.922863967
 40
1.0
 40
1.0
 40
1.0
 40
1.0
 10
5.1831477928
 20
2.5547351188
 30
0.0
 10
5.1851160046
 20
2.5522166455
 30
0.0
 10
5.1887388245
 20
2.5469999619
 30
0.0
 10
5.1923800126
 20
2.5399724377
 30
0.0
 10
5.1946442569
 20
2.5341505885
 30
0.0
 10
5.1960030378
 20
2.5296995159
 30
0.0
 10
5.1970147358
 20
2.5251697375
 30
0.0
 10
5.197664984
 20
2.5205816966
 30
0.0
 10
5.1979425274
 20
2.5159599689
 30
0.0
 10
5.1978485638
 20
2.5113315783
 30
0.0
 10
5.1973804033
 20
2.5067236963
 30
0.0
 10
5.1965445364
 20
2.5021624266
 30
0.0
 10
5.1953555085
 20
2.4976700867
 30
0.0
 10
5.1938241451
 20
2.4932664591
 30
0.0
 10
5.1919672087
 20
2.4889657446
 30
0.0
 10
5.1890696062
 20
2.4833578238
 30
0.0
 10
5.1846910463
 20
2.476624953
 30
0.0
 10
5.179491586
 20
2.4703824873
 30
0.0
 10
5.1748702849
 20
2.4656302882
 30
0.0
 10
5.1698495898
 20
2.4609469349
 30
0.0
 10
5.1629773039
 20
2.4553667297
 30
0.0
 10
5.1539452384
 20
2.449158208
 30
0.0
 10
5.1440859769
 20
2.4433552723
 30
0.0
 10
5.1334350026
 20
2.4379521526
 30
0.0
 10
5.1259877286
 20
2.4346841064
 30
0.0
 10
5.1221470015
 20
2.4331111494
 30
0.0
  0
SPLINE
  5
35A
100
AcDbEntity
  8
0
100
AcDbSpline
 62
7
  6
CONTINUOUS
 70
0
 71
3
 72
30
 73
26
 74
0
 42
0.0000001
 43
0.0000001
 44
0.0000000001
 40
0.0
 40
0.0
 40
0.0
 40
0.0
 40
0.059405325
 40
0.1177172979
 40
0.1466165858
 40
0.1754103886
 40
0.2041263732
 40
0.2327927538
 40
0.2614407745
 40
0.2900848661
 40
0.3187381792
 40
0.3474273832
 40
0.3761808489
 40
0.4050205246
 40
0.4339983067
 40
0.4631687648
 40
0.5222576219
 40
0.5828381888
 40
0.6138485527
 40
0.645414506
 40
0.7103998608
 40
0.7781560981
 40
0.8489320264
 40
0.922863967
 40
1.0
 40
1.0
 40
1.0
 40
1.0
 10
5.1831477928
 20
2.6793524395
 30
0.0
 10
5.1851160046
 20
2.6768339662
 30
0.0
 10
5.1887388245
 20
2.6716172826
 30
0.0
 10
5.1923800126
 20
2.6645897584
 30
0.0
 10
5.1946442569
 20
2.6587679092
 30
0.0
 10
5.1960030378
 20
2.6543168366
 30
0.0
 10
5.1970147358
 20
2.6497870582
 30
0.0
 10
5.197664984
 20
2.6451990173
 30
0.0
 10
5.1979425274
 20
2.6405772897
 30
0.0
 10
5.1978485638
 20
2.635948899
 30
0.0
 10
5.1973804033
 20
2.631341017
 30
0.0
 10
5.1965445364
 20
2.6267797473
 30
0.0
 10
5.1953555085
 20
2.6222874074
 30
0.0
 10
5.1938241451
 20
2.6178837798
 30
0.0
 10
5.1919672087
 20
2.6135830653
 30
0.0
 10
5.1890696062
 20
2.6079751445
 30
0.0
 10
5.1846910463
 20
2.6012422738
 30
0.0
 10
5.179491586
 20
2.594999808
 30
0.0
 10
5.1748702849
 20
2.5902476089
 30
0.0
 10
5.1698495898
 20
2.5855642557
 30
0.0
 10
5.1629773039
 20
2.5799840504
 30
0.0
 10
5.1539452384
 20
2.5737755287
 30
0.0
 10
5.1440859769
 20
2.567972593
 30
0.0
 10
5.1334350026
 20
2.5625694733
 30
0.0
 10
5.1259877286
 20
2.5593014271
 30
0.0
 10
5.1221470015
 20
2.5577284701
 30
0.0
  0
SPLINE
  5
35B
100
AcDbEntity
  8
0
100
AcDbSpline
 62
7
  6
CONTINUOUS
 70
0
 71
3
 72
30
 73
26
 74
0
 42
0.0000001
 43
0.0000001
 44
0.0000000001
 40
0.0
 40
0.0
 40
0.0
 40
0.0
 40
0.059405325
 40
0.1177172979
 40
0.1466165858
 40
0.1754103886
 40
0.2041263732
 40
0.2327927538
 40
0.2614407745
 40
0.2900848661
 40
0.3187381792
 40
0.3474273832
 40
0.3761808489
 40
0.4050205246
 40
0.4339983067
 40
0.4631687648
 40
0.5222576219
 40
0.5828381888
 40
0.6138485527
 40
0.645414506
 40
0.7103998608
 40
0.7781560981
 40
0.8489320264
 40
0.922863967
 40
1.0
 40
1.0
 40
1.0
 40
1.0
 10
5.1831477928
 20
2.8039697602
 30
0.0
 10
5.1851160046
 20
2.8014512869
 30
0.0
 10
5.1887388245
 20
2.7962346033
 30
0.0
 10
5.1923800126
 20
2.7892070791
 30
0.0
 10
5.1946442569
 20
2.7833852299
 30
0.0
 10
5.1960030378
 20
2.7789341573
 30
0.0
 10
5.1970147358
 20
2.7744043789
 30
0.0
 10
5.197664984
 20
2.769816338
 30
0.0
 10
5.1979425274
 20
2.7651946104
 30
0.0
 10
5.1978485638
 20
2.7605662197
 30
0.0
 10
5.1973804033
 20
2.7559583378
 30
0.0
 10
5.1965445364
 20
2.751397068
 30
0.0
 10
5.1953555085
 20
2.7469047281
 30
0.0
 10
5.1938241451
 20
2.7425011005
 30
0.0
 10
5.1919672087
 20
2.738200386
 30
0.0
 10
5.1890696062
 20
2.7325924652
 30
0.0
 10
5.1846910463
 20
2.7258595945
 30
0.0
 10
5.179491586
 20
2.7196171287
 30
0.0
 10
5.1748702849
 20
2.7148649297
 30
0.0
 10
5.1698495898
 20
2.7101815764
 30
0.0
 10
5.1629773039
 20
2.7046013712
 30
0.0
 10
5.1539452384
 20
2.6983928495
 30
0.0
 10
5.1440859769
 20
2.6925899137
 30
0.0
 10
5.1334350026
 20
2.687186794
 30
0.0
 10
5.1259877286
 20
2.6839187478
 30
0.0
 10
5.1221470015
 20
2.6823457909
 30
0.0
  0
SPLINE
  5
35C
100
AcDbEntity
  8
0
100
AcDbSpline
 62
7
  6
CONTINUOUS
 70
0
 71
3
 72
30
 73
26
 74
0
 42
0.0000001
 43
0.0000001
 44
0.0000000001
 40
0.0
 40
0.0
 40
0.0
 40
0.0
 40
0.059405325
 40
0.1177172979
 40
0.1466165858
 40
0.1754103886
 40
0.2041263732
 40
0.2327927538
 40
0.2614407745
 40
0.2900848661
 40
0.3187381792
 40
0.3474273832
 40
0.3761808489
 40
0.4050205246
 40
0.4339983067
 40
0.4631687648
 40
0.5222576219
 40
0.5828381888
 40
0.6138485527
 40
0.645414506
 40
0.7103998608
 40
0.7781560981
 40
0.8489320264
 40
0.922863967
 40
1.0
 40
1.0
 40
1.0
 40
1.0
 10
5.1831477928
 20
2.9285870809
 30
0.0
 10
5.1851160046
 20
2.9260686076
 30
0.0
 10
5.1887388245
 20
2.920851924
 30
0.0
 10
5.1923800126
 20
2.9138243999
 30
0.0
 10
5.1946442569
 20
2.9080025506
 30
0.0
 10
5.1960030378
 20
2.903551478
 30
0.0
 10
5.1970147358
 20
2.8990216997
 30
0.0
 10
5.197664984
 20
2.8944336587
 30
0.0
 10
5.1979425274
 20
2.8898119311
 30
0.0
 10
5.1978485638
 20
2.8851835404
 30
0.0
 10
5.1973804033
 20
2.8805756585
 30
0.0
 10
5.1965445364
 20
2.8760143887
 30
0.0
 10
5.1953555085
 20
2.8715220488
 30
0.0
 10
5.1938241451
 20
2.8671184212
 30
0.0
 10
5.1919672087
 20
2.8628177067
 30
0.0
 10
5.1890696062
 20
2.8572097859
 30
0.0
 10
5.1846910463
 20
2.8504769152
 30
0.0
 10
5.179491586
 20
2.8442344495
 30
0.0
 10
5.1748702849
 20
2.8394822504
 30
0.0
 10
5.1698495898
 20
2.8347988971
 30
0.0
 10
5.1629773039
 20
2.8292186919
 30
0.0
 10
5.1539452384
 20
2.8230101702
 30
0.0
 10
5.1440859769
 20
2.8172072344
 30
0.0
 10
5.1334350026
 20
2.8118041147
 30
0.0
 10
5.1259877286
 20
2.8085360685
 30
0.0
 10
5.1221470015
 20
2.8069631116
 30
0.0
  0
SPLINE
  5
35D
100
AcDbEntity
  8
0
100
AcDbSpline
 62
7
  6
CONTINUOUS
 70
0
 71
3
 72
26
 73
22
 74
0
 42
0.0000001
 43
0.0000001
 44
0.0000000001
 40
0.0
 40
0.0
 40
0.0
 40
0.0
 40
0.0771482092
 40
0.1510917526
 40
0.2218789761
 40
0.2896460536
 40
0.354640153
 40
0.3862092675
 40
0.4172239934
 40
0.4778110122
 40
0.5369135648
 40
0.5950302947
 40
0.6525988874
 40
0.6812907862
 40
0.7099528428
 40
0.7672095809
 40
0.8245618411
 40
0.8533598873
 40
0.8822639979
 40
0.9405859871
 40
1.0
 40
1.0
 40
1.0
 40
1.0
 10
4.8171372933
 20
2.9315810136
 30
0.0
 10
4.8132971582
 20
2.9331537595
 30
0.0
 10
4.8058510141
 20
2.9364213107
 30
0.0
 10
4.79520165
 20
2.941823604
 30
0.0
 10
4.7853437024
 20
2.9476253875
 30
0.0
 10
4.7763130112
 20
2.9538328459
 30
0.0
 10
4.769441424
 20
2.9594114951
 30
0.0
 10
4.7644215022
 20
2.9640938885
 30
0.0
 10
4.7598007893
 20
2.9688447053
 30
0.0
 10
4.7546006145
 20
2.9750859221
 30
0.0
 10
4.7493723698
 20
2.9831238736
 30
0.0
 10
4.7453152052
 20
2.9916379936
 30
0.0
 10
4.7430238115
 20
2.9990921953
 30
0.0
 10
4.7419070022
 20
3.0051779126
 30
0.0
 10
4.7412834674
 20
3.0113168292
 30
0.0
 10
4.7414320328
 20
3.0190578563
 30
0.0
 10
4.7428287608
 20
3.0266787057
 30
0.0
 10
4.7446354631
 20
3.0326028541
 30
0.0
 10
4.7468981134
 20
3.038424668
 30
0.0
 10
4.7505363715
 20
3.0454522123
 30
0.0
 10
4.75415752
 20
3.0506689711
 30
0.0
 10
4.7561247792
 20
3.053187528
 30
0.0
  0
SPLINE
  5
35E
100
AcDbEntity
  8
0
100
AcDbSpline
 62
7
  6
CONTINUOUS
 70
0
 71
3
 72
29
 73
25
 74
0
 42
0.0000001
 43
0.0000001
 44
0.0000000001
 40
0.0
 40
0.0
 40
0.0
 40
0.0
 40
0.0771394863
 40
0.1510752571
 40
0.221855407
 40
0.2896161897
 40
0.3546061317
 40
0.3861738707
 40
0.4171864976
 40
0.4777707704
 40
0.5368644974
 40
0.5660355668
 40
0.5950127772
 40
0.6238560369
 40
0.6526103122
 40
0.6812988331
 40
0.7099546407
 40
0.7386003563
 40
0.7672479528
 40
0.8245898492
 40
0.8533824696
 40
0.8822823359
 40
0.9405952898
 40
1.0
 40
1.0
 40
1.0
 40
1.0
 10
4.8171418339
 20
2.3084925517
 30
0.0
 10
4.8133018051
 20
2.3100651645
 30
0.0
 10
4.8058558311
 20
2.3133324536
 30
0.0
 10
4.7952066218
 20
2.318734286
 30
0.0
 10
4.785348722
 20
2.3245356415
 30
0.0
 10
4.7763178116
 20
2.3307426063
 30
0.0
 10
4.7694459818
 20
2.3363210372
 30
0.0
 10
4.7644256087
 20
2.3410030866
 30
0.0
 10
4.7598044715
 20
2.3457538698
 30
0.0
 10
4.7546044743
 20
2.3519941986
 30
0.0
 10
4.7502254976
 20
2.3587251404
 30
0.0
 10
4.7473266395
 20
2.3643310446
 30
0.0
 10
4.7454686937
 20
2.3686303685
 30
0.0
 10
4.7439367186
 20
2.3730328475
 30
0.0
 10
4.7427458423
 20
2.377523757
 30
0.0
 10
4.7419081602
 20
2.3820837993
 30
0.0
 10
4.7414391767
 20
2.3866906127
 30
0.0
 10
4.7413425263
 20
2.3913183278
 30
0.0
 10
4.7417095378
 20
2.3974792855
 30
0.0
 10
4.7428263188
 20
2.4035830689
 30
0.0
 10
4.7446321094
 20
2.4095063164
 30
0.0
 10
4.7468936297
 20
2.4153281359
 30
0.0
 10
4.7505303356
 20
2.4223557396
 30
0.0
 10
4.7541505167
 20
2.4275725905
 30
0.0
 10
4.7561172506
 20
2.4300912358
 30
0.0
  0
SPLINE
  5
35F
100
AcDbEntity
  8
0
100
AcDbSpline
 62
7
  6
CONTINUOUS
 70
0
 71
3
 72
29
 73
25
 74
0
 42
0.0000001
 43
0.0000001
 44
0.0000000001
 40
0.0
 40
0.0
 40
0.0
 40
0.0
 40
0.0771394863
 40
0.1510752571
 40
0.221855407
 40
0.2896161897
 40
0.3546061317
 40
0.3861738707
 40
0.4171864976
 40
0.4777707704
 40
0.5368644974
 40
0.5660355668
 40
0.5950127772
 40
0.6238560369
 40
0.6526103122
 40
0.6812988331
 40
0.7099546407
 40
0.7386003563
 40
0.7672479528
 40
0.8245898492
 40
0.8533824696
 40
0.8822823359
 40
0.9405952898
 40
1.0
 40
1.0
 40
1.0
 40
1.0
 10
4.8171418339
 20
2.4331098724
 30
0.0
 10
4.8133018051
 20
2.4346824852
 30
0.0
 10
4.8058558311
 20
2.4379497743
 30
0.0
 10
4.7952066218
 20
2.4433516067
 30
0.0
 10
4.785348722
 20
2.4491529622
 30
0.0
 10
4.7763178116
 20
2.455359927
 30
0.0
 10
4.7694459818
 20
2.4609383579
 30
0.0
 10
4.7644256087
 20
2.4656204074
 30
0.0
 10
4.7598044715
 20
2.4703711905
 30
0.0
 10
4.7546044743
 20
2.4766115194
 30
0.0
 10
4.7502254976
 20
2.4833424611
 30
0.0
 10
4.7473266395
 20
2.4889483653
 30
0.0
 10
4.7454686937
 20
2.4932476892
 30
0.0
 10
4.7439367186
 20
2.4976501682
 30
0.0
 10
4.7427458423
 20
2.5021410777
 30
0.0
 10
4.7419081602
 20
2.50670112
 30
0.0
 10
4.7414391767
 20
2.5113079334
 30
0.0
 10
4.7413425263
 20
2.5159356485
 30
0.0
 10
4.7417095378
 20
2.5220966063
 30
0.0
 10
4.7428263188
 20
2.5282003896
 30
0.0
 10
4.7446321094
 20
2.5341236371
 30
0.0
 10
4.7468936297
 20
2.5399454566
 30
0.0
 10
4.7505303356
 20
2.5469730603
 30
0.0
 10
4.7541505167
 20
2.5521899112
 30
0.0
 10
4.7561172506
 20
2.5547085565
 30
0.0
  0
SPLINE
  5
360
100
AcDbEntity
  8
0
100
AcDbSpline
 62
7
  6
CONTINUOUS
 70
0
 71
3
 72
29
 73
25
 74
0
 42
0.0000001
 43
0.0000001
 44
0.0000000001
 40
0.0
 40
0.0
 40
0.0
 40
0.0
 40
0.0771394863
 40
0.1510752571
 40
0.221855407
 40
0.2896161897
 40
0.3546061317
 40
0.3861738707
 40
0.4171864976
 40
0.4777707704
 40
0.5368644974
 40
0.5660355668
 40
0.5950127772
 40
0.6238560369
 40
0.6526103122
 40
0.6812988331
 40
0.7099546407
 40
0.7386003563
 40
0.7672479528
 40
0.8245898492
 40
0.8533824696
 40
0.8822823359
 40
0.9405952898
 40
1.0
 40
1.0
 40
1.0
 40
1.0
 10
4.8171418339
 20
2.5577271931
 30
0.0
 10
4.8133018051
 20
2.5592998059
 30
0.0
 10
4.8058558311
 20
2.5625670951
 30
0.0
 10
4.7952066218
 20
2.5679689274
 30
0.0
 10
4.785348722
 20
2.5737702829
 30
0.0
 10
4.7763178116
 20
2.5799772477
 30
0.0
 10
4.7694459818
 20
2.5855556786
 30
0.0
 10
4.7644256087
 20
2.5902377281
 30
0.0
 10
4.7598044715
 20
2.5949885113
 30
0.0
 10
4.7546044743
 20
2.6012288401
 30
0.0
 10
4.7502254976
 20
2.6079597819
 30
0.0
 10
4.7473266395
 20
2.613565686
 30
0.0
 10
4.7454686937
 20
2.6178650099
 30
0.0
 10
4.7439367186
 20
2.6222674889
 30
0.0
 10
4.7427458423
 20
2.6267583984
 30
0.0
 10
4.7419081602
 20
2.6313184408
 30
0.0
 10
4.7414391767
 20
2.6359252541
 30
0.0
 10
4.7413425263
 20
2.6405529693
 30
0.0
 10
4.7417095378
 20
2.646713927
 30
0.0
 10
4.7428263188
 20
2.6528177103
 30
0.0
 10
4.7446321094
 20
2.6587409579
 30
0.0
 10
4.7468936297
 20
2.6645627773
 30
0.0
 10
4.7505303356
 20
2.671590381
 30
0.0
 10
4.7541505167
 20
2.676807232
 30
0.0
 10
4.7561172506
 20
2.6793258773
 30
0.0
  0
SPLINE
  5
361
100
AcDbEntity
  8
0
100
AcDbSpline
 62
7
  6
CONTINUOUS
 70
0
 71
3
 72
29
 73
25
 74
0
 42
0.0000001
 43
0.0000001
 44
0.0000000001
 40
0.0
 40
0.0
 40
0.0
 40
0.0
 40
0.0771394863
 40
0.1510752571
 40
0.221855407
 40
0.2896161897
 40
0.3546061317
 40
0.3861738707
 40
0.4171864976
 40
0.4777707704
 40
0.5368644974
 40
0.5660355668
 40
0.5950127772
 40
0.6238560369
 40
0.6526103122
 40
0.6812988331
 40
0.7099546407
 40
0.7386003563
 40
0.7672479528
 40
0.8245898492
 40
0.8533824696
 40
0.8822823359
 40
0.9405952898
 40
1.0
 40
1.0
 40
1.0
 40
1.0
 10
4.8171418339
 20
2.6823445139
 30
0.0
 10
4.8133018051
 20
2.6839171266
 30
0.0
 10
4.8058558311
 20
2.6871844158
 30
0.0
 10
4.7952066218
 20
2.6925862481
 30
0.0
 10
4.785348722
 20
2.6983876036
 30
0.0
 10
4.7763178116
 20
2.7045945684
 30
0.0
 10
4.7694459818
 20
2.7101729993
 30
0.0
 10
4.7644256087
 20
2.7148550488
 30
0.0
 10
4.7598044715
 20
2.719605832
 30
0.0
 10
4.7546044743
 20
2.7258461608
 30
0.0
 10
4.7502254976
 20
2.7325771026
 30
0.0
 10
4.7473266395
 20
2.7381830068
 30
0.0
 10
4.7454686937
 20
2.7424823307
 30
0.0
 10
4.7439367186
 20
2.7468848096
 30
0.0
 10
4.7427458423
 20
2.7513757191
 30
0.0
 10
4.7419081602
 20
2.7559357615
 30
0.0
 10
4.7414391767
 20
2.7605425748
 30
0.0
 10
4.7413425263
 20
2.76517029
 30
0.0
 10
4.7417095378
 20
2.7713312477
 30
0.0
 10
4.7428263188
 20
2.777435031
 30
0.0
 10
4.7446321094
 20
2.7833582786
 30
0.0
 10
4.7468936297
 20
2.789180098
 30
0.0
 10
4.7505303356
 20
2.7962077017
 30
0.0
 10
4.7541505167
 20
2.8014245527
 30
0.0
 10
4.7561172506
 20
2.803943198
 30
0.0
  0
SPLINE
  5
362
100
AcDbEntity
  8
0
100
AcDbSpline
 62
7
  6
CONTINUOUS
 70
0
 71
3
 72
29
 73
25
 74
0
 42
0.0000001
 43
0.0000001
 44
0.0000000001
 40
0.0
 40
0.0
 40
0.0
 40
0.0
 40
0.0771394863
 40
0.1510752571
 40
0.221855407
 40
0.2896161897
 40
0.3546061317
 40
0.3861738707
 40
0.4171864976
 40
0.4777707704
 40
0.5368644974
 40
0.5660355668
 40
0.5950127772
 40
0.6238560369
 40
0.6526103122
 40
0.6812988331
 40
0.7099546407
 40
0.7386003563
 40
0.7672479528
 40
0.8245898492
 40
0.8533824696
 40
0.8822823359
 40
0.9405952898
 40
1.0
 40
1.0
 40
1.0
 40
1.0
 10
4.8171418339
 20
2.8069618346
 30
0.0
 10
4.8133018051
 20
2.8085344474
 30
0.0
 10
4.8058558311
 20
2.8118017365
 30
0.0
 10
4.7952066218
 20
2.8172035689
 30
0.0
 10
4.785348722
 20
2.8230049243
 30
0.0
 10
4.7763178116
 20
2.8292118892
 30
0.0
 10
4.7694459818
 20
2.83479032
 30
0.0
 10
4.7644256087
 20
2.8394723695
 30
0.0
 10
4.7598044715
 20
2.8442231527
 30
0.0
 10
4.7546044743
 20
2.8504634815
 30
0.0
 10
4.7502254976
 20
2.8571944233
 30
0.0
 10
4.7473266395
 20
2.8628003275
 30
0.0
 10
4.7454686937
 20
2.8670996514
 30
0.0
 10
4.7439367186
 20
2.8715021303
 30
0.0
 10
4.7427458423
 20
2.8759930398
 30
0.0
 10
4.7419081602
 20
2.8805530822
 30
0.0
 10
4.7414391767
 20
2.8851598956
 30
0.0
 10
4.7413425263
 20
2.8897876107
 30
0.0
 10
4.7417095378
 20
2.8959485684
 30
0.0
 10
4.7428263188
 20
2.9020523517
 30
0.0
 10
4.7446321094
 20
2.9079755993
 30
0.0
 10
4.7468936297
 20
2.9137974187
 30
0.0
 10
4.7505303356
 20
2.9208250225
 30
0.0
 10
4.7541505167
 20
2.9260418734
 30
0.0
 10
4.7561172506
 20
2.9285605187
 30
0.0
  0
LINE
  5
363
100
AcDbEntity
  8
0
100
AcDbLine
 62
7
  6
CONTINUOUS
 10
4.6548929061
 20
4.4551466411
 11
4.6556044794
 21
4.4547778845
  0
LINE
  5
364
100
AcDbEntity
  8
0
100
AcDbLine
 62
7
  6
CONTINUOUS
 10
5.2836812615
 20
5.0690646621
 11
5.2843927636
 21
5.0686959055
  0
LINE
  5
365
100
AcDbEntity
  8
0
100
AcDbLine
 62
7
  6
CONTINUOUS
 10
5.2836812406
 20
5.1035146622
 11
5.2843927457
 21
5.1031459055
  0
LINE
  5
366
100
AcDbEntity
  8
0
100
AcDbLine
 62
7
  6
CONTINUOUS
 10
5.2836812406
 20
5.1379646622
 11
5.2843927457
 21
5.1375959054
  0
LINE
  5
367
100
AcDbEntity
  8
0
100
AcDbLine
 62
7
  6
CONTINUOUS
 10
5.2836812406
 20
5.1724146622
 11
5.2843927457
 21
5.1720459055
  0
LINE
  5
368
100
AcDbEntity
  8
0
100
AcDbLine
 62
7
  6
CONTINUOUS
 10
4.6556044737
 20
5.0862896622
 11
4.6548929686
 21
5.0859209055
  0
LINE
  5
369
100
AcDbEntity
  8
0
100
AcDbLine
 62
7
  6
CONTINUOUS
 10
4.6556044737
 20
5.1207396622
 11
4.6548929686
 21
5.1203709055
  0
LINE
  5
36A
100
AcDbEntity
  8
0
100
AcDbLine
 62
7
  6
CONTINUOUS
 10
4.6556044737
 20
5.1551896622
 11
4.6548929686
 21
5.1548209054
  0
LINE
  5
36B
100
AcDbEntity
  8
0
100
AcDbLine
 62
7
  6
CONTINUOUS
 10
4.6556046203
 20
5.1896396622
 11
4.6548928659
 21
5.1892709055
  0
LINE
  5
36C
100
AcDbEntity
  8
0
100
AcDbLine
 62
7
  6
CONTINUOUS
 10
4.6556045555
 20
5.2240896622
 11
4.6548928802
 21
5.2237209054
  0
LINE
  5
36D
100
AcDbEntity
  8
0
100
AcDbLine
 62
7
  6
CONTINUOUS
 10
5.2836812406
 20
5.2068646622
 11
5.2843927457
 21
5.2064959054
  0
SPLINE
  5
36E
100
AcDbEntity
  8
0
100
AcDbSpline
 62
7
  6
CONTINUOUS
 70
0
 71
3
 72
30
 73
26
 74
0
 42
0.0000001
 43
0.0000001
 44
0.0000000001
 40
0.0
 40
0.0
 40
0.0
 40
0.0
 40
0.0594010963
 40
0.1177087397
 40
0.1466087024
 40
0.1754040073
 40
0.2041193129
 40
0.2327863203
 40
0.2614360416
 40
0.2900814791
 40
0.3187354739
 40
0.3474253442
 40
0.3761807565
 40
0.4050225094
 40
0.4339994851
 40
0.4631701965
 40
0.5222606067
 40
0.5828393767
 40
0.6138489744
 40
0.6454139481
 40
0.7103982985
 40
0.7781552832
 40
0.8489318365
 40
0.9228640334
 40
1.0
 40
1.0
 40
1.0
 40
1.0
 10
5.1831642792
 20
3.0531834256
 30
0.0
 10
5.1851312075
 20
3.0506649292
 30
0.0
 10
5.1887511242
 20
3.0454481421
 30
0.0
 10
5.1923897865
 20
3.0384212835
 30
0.0
 10
5.1946510638
 20
3.0325995327
 30
0.0
 10
5.1960081415
 20
3.0281487072
 30
0.0
 10
5.1970185425
 20
3.023619357
 30
0.0
 10
5.1976667032
 20
3.0190317185
 30
0.0
 10
5.197942618
 20
3.0144105017
 30
0.0
 10
5.1978473954
 20
3.0097827268
 30
0.0
 10
5.1973779573
 20
3.005175616
 30
0.0
 10
5.1965406597
 20
3.0006152293
 30
0.0
 10
5.1953504808
 20
2.9961237671
 30
0.0
 10
5.1938185759
 20
2.9917209869
 30
0.0
 10
5.1919608302
 20
2.9874213913
 30
0.0
 10
5.1890622792
 20
2.9818151234
 30
0.0
 10
5.1846835546
 20
2.9750840162
 30
0.0
 10
5.179484011
 20
2.9688434895
 30
0.0
 10
5.1748631331
 20
2.9640927285
 30
0.0
 10
5.1698430458
 20
2.9594106574
 30
0.0
 10
5.1629716713
 20
2.9538318342
 30
0.0
 10
5.1539408388
 20
2.9476247871
 30
0.0
 10
5.1440830703
 20
2.9418229929
 30
0.0
 10
5.1334337977
 20
2.9364209208
 30
0.0
 10
5.1259877865
 20
2.9331534239
 30
0.0
 10
5.1221477217
 20
2.9315807246
 30
0.0
  0
SPLINE
  5
36F
100
AcDbEntity
  8
0
100
AcDbSpline
 62
7
  6
CONTINUOUS
 70
0
 71
3
 72
21
 73
17
 74
0
 42
0.0000001
 43
0.0000001
 44
0.0000000001
 40
0.0
 40
0.0
 40
0.0
 40
0.0
 40
0.160837249
 40
0.2369300012
 40
0.3101181187
 40
0.4478295181
 40
0.5125165682
 40
0.574536905
 40
0.6340297053
 40
0.691175151
 40
0.7461914747
 40
0.7993425223
 40
0.8509356358
 40
0.9013168901
 40
0.9508691467
 40
1.0
 40
1.0
 40
1.0
 40
1.0
 10
4.8054978784
 20
2.5992319969
 30
0.0
 10
4.8016878876
 20
2.6011679931
 30
0.0
 10
4.7961687032
 20
2.6042134433
 30
0.0
 10
4.789214853
 20
2.6086387826
 30
0.0
 10
4.7829677472
 20
2.6130148059
 30
0.0
 10
4.7772670352
 20
2.6176362342
 30
0.0
 10
4.7722080493
 20
2.6225168708
 30
0.0
 10
4.7688630573
 20
2.6261670925
 30
0.0
 10
4.7658948018
 20
2.6298767452
 30
0.0
 10
4.7633086022
 20
2.6336390223
 30
0.0
 10
4.7611101719
 20
2.6374475055
 30
0.0
 10
4.7593042188
 20
2.6412952272
 30
0.0
 10
4.7578944449
 20
2.645174823
 30
0.0
 10
4.7568850117
 20
2.6490791942
 30
0.0
 10
4.7562781892
 20
2.6529997287
 30
0.0
 10
4.7561428571
 20
2.6556238216
 30
0.0
 10
4.7561428571
 20
2.6569292918
 30
0.0
  0
SPLINE
  5
370
100
AcDbEntity
  8
0
100
AcDbSpline
 62
7
  6
CONTINUOUS
 70
0
 71
3
 72
22
 73
18
 74
0
 42
0.0000001
 43
0.0000001
 44
0.0000000001
 40
0.0
 40
0.0
 40
0.0
 40
0.0
 40
0.1643410082
 40
0.2419615004
 40
0.3164745658
 40
0.3878636073
 40
0.4561423181
 40
0.5213536247
 40
0.5835829204
 40
0.6429543764
 40
0.6996413794
 40
0.7538708999
 40
0.8059236916
 40
0.8561423062
 40
0.9049232932
 40
0.9527141853
 40
1.0
 40
1.0
 40
1.0
 40
1.0
 10
4.8171201264
 20
2.4691747017
 30
0.0
 10
4.8124651634
 20
2.4711831289
 30
0.0
 10
4.8057064995
 20
2.4743736717
 30
0.0
 10
4.7971510188
 20
2.479081482
 30
0.0
 10
4.7912600495
 20
2.4826701832
 30
0.0
 10
4.7857862931
 20
2.4863755752
 30
0.0
 10
4.7807420577
 20
2.4901889741
 30
0.0
 10
4.7761394956
 20
2.4941023447
 30
0.0
 10
4.771988949
 20
2.4981064276
 30
0.0
 10
4.7683004301
 20
2.5021927114
 30
0.0
 10
4.7650829521
 20
2.5063522854
 30
0.0
 10
4.7623441178
 20
2.5105757387
 30
0.0
 10
4.7600919421
 20
2.5148542497
 30
0.0
 10
4.7583321582
 20
2.5191775935
 30
0.0
 10
4.7570707501
 20
2.5235359611
 30
0.0
 10
4.7563121695
 20
2.5279175118
 30
0.0
 10
4.7561428571
 20
2.5308532499
 30
0.0
 10
4.7561428571
 20
2.532311971
 30
0.0
  0
SPLINE
  5
371
100
AcDbEntity
  8
0
100
AcDbSpline
 62
7
  6
CONTINUOUS
 70
0
 71
3
 72
16
 73
12
 74
0
 42
0.0000001
 43
0.0000001
 44
0.0000000001
 40
0.0
 40
0.0
 40
0.0
 40
0.0
 40
0.136394194
 40
0.2698324599
 40
0.3996852624
 40
0.5258689471
 40
0.6485842988
 40
0.7682087286
 40
0.827036394
 40
0.8852564784
 40
1.0
 40
1.0
 40
1.0
 40
1.0
 10
5.3736108517
 20
5.3128420964
 30
0.0
 10
5.3739556454
 20
5.3106457083
 30
0.0
 10
5.3749580165
 20
5.306344329
 30
0.0
 10
5.377321121
 20
5.3002519514
 30
0.0
 10
5.3803986524
 20
5.2946781739
 30
0.0
 10
5.3840505945
 20
5.2896810517
 30
0.0
 10
5.3881558255
 20
5.285277524
 30
0.0
 10
5.3918940562
 20
5.2820791096
 30
0.0
 10
5.395019597
 20
5.2798149898
 30
0.0
 10
5.3981919472
 20
5.2777604298
 30
0.0
 10
5.400674247
 20
5.2764104526
 30
0.0
 10
5.4023597915
 20
5.2755997572
 30
0.0
  0
SPLINE
  5
372
100
AcDbEntity
  8
0
100
AcDbSpline
 62
7
  6
CONTINUOUS
 70
0
 71
3
 72
44
 73
40
 74
0
 42
0.0000001
 43
0.0000001
 44
0.0000000001
 40
0.0
 40
0.0
 40
0.0
 40
0.0
 40
0.0929363953
 40
0.1863242347
 40
0.279082043
 40
0.3701344167
 40
0.4584264612
 40
0.5429350265
 40
0.6226809769
 40
0.6967404362
 40
0.7313666752
 40
0.7642556028
 40
0.795311413
 40
0.8244447316
 40
0.8515706925
 40
0.8766113835
 40
0.8994939204
 40
0.9201528156
 40
0.9385281371
 40
0.9545677611
 40
0.9682257577
 40
0.9741498487
 40
0.9794647265
 40
0.9841671939
 40
0.9882547957
 40
0.9917254211
 40
0.9932289136
 40
0.9945778415
 40
0.99577246
 40
0.9968132138
 40
0.9977008644
 40
0.9984367519
 40
0.9990233873
 40
0.9992623191
 40
0.9994663727
 40
0.9996374621
 40
0.9997788718
 40
0.9998964159
 40
1.0
 40
1.0
 40
1.0
 40
1.0
 10
5.0175126727
 20
4.4645962733
 30
0.0
 10
5.0062719104
 20
4.4643981565
 30
0.0
 10
4.9837357254
 20
4.464004248
 30
0.0
 10
4.9499803009
 20
4.4634170576
 30
0.0
 10
4.9164528198
 20
4.4628299142
 30
0.0
 10
4.8835418699
 20
4.4622428994
 30
0.0
 10
4.8516289885
 20
4.4616561065
 30
0.0
 10
4.8210840764
 20
4.4610696645
 30
0.0
 10
4.7922612033
 20
4.4604836935
 30
0.0
 10
4.7694720729
 20
4.4599855009
 30
0.0
 10
4.7523505119
 20
4.4595837378
 30
0.0
 10
4.7404300214
 20
4.4592892944
 30
0.0
 10
4.7291742199
 20
4.4589949531
 30
0.0
 10
4.7186158128
 20
4.4587007489
 30
0.0
 10
4.7087853508
 20
4.4584067011
 30
0.0
 10
4.6997114015
 20
4.4581128779
 30
0.0
 10
4.6914202068
 20
4.4578193325
 30
0.0
 10
4.6839358603
 20
4.4575261799
 30
0.0
 10
4.6772799747
 20
4.4572335976
 30
0.0
 10
4.6714718816
 20
4.4569417489
 30
0.0
 10
4.667170046
 20
4.4566891291
 30
0.0
 10
4.6641652687
 20
4.4564834615
 30
0.0
 10
4.6622423965
 20
4.4563367981
 30
0.0
 10
4.6605423742
 20
4.4561904305
 30
0.0
 10
4.6590663612
 20
4.4560444107
 30
0.0
 10
4.657977389
 20
4.4559179667
 30
0.0
 10
4.6572194217
 20
4.4558150511
 30
0.0
 10
4.6567353561
 20
4.4557416887
 30
0.0
 10
4.6563079564
 20
4.4556684556
 30
0.0
 10
4.6559372538
 20
4.4555953818
 30
0.0
 10
4.6556231866
 20
4.4555225739
 30
0.0
 10
4.6553657506
 20
4.4554500653
 30
0.0
 10
4.6551875264
 20
4.4553865344
 30
0.0
 10
4.6550744466
 20
4.4553340941
 30
0.0
 10
4.6550096735
 20
4.4552975126
 30
0.0
 10
4.6549588277
 20
4.4552608892
 30
0.0
 10
4.6549217595
 20
4.4552239444
 30
0.0
 10
4.6548984801
 20
4.4551860957
 30
0.0
 10
4.6548928991
 20
4.4551591716
 30
0.0
 10
4.6548929061
 20
4.4551466411
 30
0.0
  0
SPLINE
  5
373
100
AcDbEntity
  8
0
100
AcDbSpline
 62
7
  6
CONTINUOUS
 70
0
 71
3
 72
15
 73
11
 74
0
 42
0.0000001
 43
0.0000001
 44
0.0000000001
 40
0.0
 40
0.0
 40
0.0
 40
0.0
 40
0.1475814854
 40
0.2895379902
 40
0.424564592
 40
0.552325836
 40
0.6730678785
 40
0.7873961578
 40
0.8961211434
 40
1.0
 40
1.0
 40
1.0
 40
1.0
 10
5.3859600957
 20
5.3128414125
 30
0.0
 10
5.3862234152
 20
5.3106575696
 30
0.0
 10
5.3869810245
 20
5.3063980445
 30
0.0
 10
5.388782171
 20
5.3003187222
 30
0.0
 10
5.3911317092
 20
5.2947488916
 30
0.0
 10
5.3939257047
 20
5.2897485925
 30
0.0
 10
5.3970728738
 20
5.2853373617
 30
0.0
 10
5.4004976179
 20
5.281511506
 30
0.0
 10
5.404137878
 20
5.27825771
 30
0.0
 10
5.4067295016
 20
5.2764203952
 30
0.0
 10
5.4080425224
 20
5.2755999298
 30
0.0
  0
SPLINE
  5
374
100
AcDbEntity
  8
0
100
AcDbSpline
 62
7
  6
CONTINUOUS
 70
0
 71
3
 72
9
 73
5
 74
0
 42
0.0000001
 43
0.0000001
 44
0.0000000001
 40
0.0
 40
0.0
 40
0.0
 40
0.0
 40
0.2549374384
 40
1.0
 40
1.0
 40
1.0
 40
1.0
 10
5.3859600957
 20
5.3128414125
 30
0.0
 10
5.3864574564
 20
5.3134702636
 30
0.0
 10
5.3884401784
 20
5.3159117677
 30
0.0
 10
5.3905407101
 20
5.3182564807
 30
0.0
 10
5.3921538695
 20
5.3199559437
 30
0.0
  0
SPLINE
  5
375
100
AcDbEntity
  8
0
100
AcDbSpline
 62
7
  6
CONTINUOUS
 70
0
 71
3
 72
22
 73
18
 74
0
 42
0.0000001
 43
0.0000001
 44
0.0000000001
 40
0.0
 40
0.0
 40
0.0
 40
0.0
 40
0.0472865833
 40
0.095078193
 40
0.1438599507
 40
0.1940791594
 40
0.246132447
 40
0.3003622165
 40
0.3570492362
 40
0.4164209042
 40
0.4786501147
 40
0.5438612736
 40
0.6121394967
 40
0.6835278199
 40
0.7580405496
 40
0.8356604724
 40
1.0
 40
1.0
 40
1.0
 40
1.0
 10
4.7561428583
 20
3.0307812539
 30
0.0
 10
4.7561428702
 20
3.0293226021
 30
0.0
 10
4.7563121581
 20
3.0263870073
 30
0.0
 10
4.7570706389
 20
3.0220056546
 30
0.0
 10
4.7583319752
 20
3.0176475019
 30
0.0
 10
4.7600915587
 20
3.0133243377
 30
0.0
 10
4.7623435423
 20
3.0090460259
 30
0.0
 10
4.765082118
 20
3.0048227621
 30
0.0
 10
4.7682992763
 20
3.0006633448
 30
0.0
 10
4.7719874943
 20
2.9965772568
 30
0.0
 10
4.7761376433
 20
2.9925732939
 30
0.0
 10
4.7807398027
 20
2.9886600774
 30
0.0
 10
4.7857835775
 20
2.9848468091
 30
0.0
 10
4.7912568324
 20
2.9811415118
 30
0.0
 10
4.7971473089
 20
2.977552944
 30
0.0
 10
4.8057020318
 20
2.9728452021
 30
0.0
 10
4.8124601359
 20
2.9696547364
 30
0.0
 10
4.8171147027
 20
2.9676463225
 30
0.0
  0
SPLINE
  5
376
100
AcDbEntity
  8
0
100
AcDbSpline
 62
7
  6
CONTINUOUS
 70
0
 71
3
 72
39
 73
35
 74
0
 42
0.0000001
 43
0.0000001
 44
0.0000000001
 40
0.0
 40
0.0
 40
0.0
 40
0.0
 40
0.000522443
 40
0.0007225193
 40
0.0009552567
 40
0.0015233136
 40
0.0022329777
 40
0.0030871452
 40
0.0040873247
 40
0.0052343691
 40
0.0079707117
 40
0.0112981435
 40
0.0152168847
 40
0.0197258015
 40
0.0305042131
 40
0.0436114798
 40
0.0590180463
 40
0.0766875226
 40
0.0965788924
 40
0.1186437664
 40
0.1428305587
 40
0.1690801068
 40
0.1973305283
 40
0.2275130044
 40
0.2595556403
 40
0.2933809986
 40
0.3660507836
 40
0.4448230863
 40
0.5289400226
 40
0.6175916474
 40
0.7099254491
 40
0.8050502783
 40
0.9020555645
 40
1.0
 40
1.0
 40
1.0
 40
1.0
 10
5.2843927457
 20
5.1720459055
 30
0.0
 10
5.2843927457
 20
5.1719910443
 30
0.0
 10
5.2843258068
 20
5.1719266483
 30
0.0
 10
5.2842424883
 20
5.1718754401
 30
0.0
 10
5.2841481926
 20
5.171827216
 30
0.0
 10
5.2840005655
 20
5.1717695721
 30
0.0
 10
5.2837864475
 20
5.1717033115
 30
0.0
 10
5.2835254705
 20
5.1716369724
 30
0.0
 10
5.283217356
 20
5.1715703355
 30
0.0
 10
5.2827133083
 20
5.1714756762
 30
0.0
 10
5.2819647851
 20
5.171360219
 30
0.0
 10
5.2809248897
 20
5.1712276307
 30
0.0
 10
5.2796976324
 20
5.1710945709
 30
0.0
 10
5.2776896864
 20
5.1709052268
 30
0.0
 10
5.2747167595
 20
5.1706745724
 30
0.0
 10
5.2705991795
 20
5.1704096199
 30
0.0
 10
5.265756757
 20
5.170143711
 30
0.0
 10
5.2602010753
 20
5.1698769816
 30
0.0
 10
5.253945523
 20
5.169609791
 30
0.0
 10
5.2470050548
 20
5.169342215
 30
0.0
 10
5.2393964808
 20
5.1690744032
 30
0.0
 10
5.2311380088
 20
5.1688063734
 30
0.0
 10
5.2222496346
 20
5.1685382094
 30
0.0
 10
5.2127526806
 20
5.1682699149
 30
0.0
 10
5.2026700921
 20
5.1680015273
 30
0.0
 10
5.1881270101
 20
5.1676347499
 30
0.0
 10
5.1686775781
 20
5.167179873
 30
0.0
 10
5.1439475424
 20
5.166645548
 30
0.0
 10
5.1175389158
 20
5.1661107712
 30
0.0
 10
5.0897059434
 20
5.165575641
 30
0.0
 10
5.0607168449
 20
5.1650402735
 30
0.0
 10
5.0308503964
 20
5.1645047336
 30
0.0
 10
5.0003946908
 20
5.1639690941
 30
0.0
 10
4.9799263364
 20
5.1636125418
 30
0.0
 10
4.9696428571
 20
5.1634334054
 30
0.0
  0
SPLINE
  5
377
100
AcDbEntity
  8
0
100
AcDbSpline
 62
7
  6
CONTINUOUS
 70
0
 71
3
 72
22
 73
18
 74
0
 42
0.0000001
 43
0.0000001
 44
0.0000000001
 40
0.0
 40
0.0
 40
0.0
 40
0.0
 40
0.0472858147
 40
0.0950767068
 40
0.1438576938
 40
0.1940763084
 40
0.2461291001
 40
0.3003586206
 40
0.3570456236
 40
0.4164170796
 40
0.4786463753
 40
0.5438576819
 40
0.6121363927
 40
0.6835254342
 40
0.7580384996
 40
0.8356589918
 40
1.0
 40
1.0
 40
1.0
 40
1.0
 10
4.7561428571
 20
2.4076946503
 30
0.0
 10
4.7561428571
 20
2.4062359292
 30
0.0
 10
4.7563121695
 20
2.4033001911
 30
0.0
 10
4.7570707501
 20
2.3989186404
 30
0.0
 10
4.7583321582
 20
2.3945602728
 30
0.0
 10
4.7600919421
 20
2.3902369289
 30
0.0
 10
4.7623441178
 20
2.385958418
 30
0.0
 10
4.7650829521
 20
2.3817349646
 30
0.0
 10
4.7683004301
 20
2.3775753906
 30
0.0
 10
4.771988949
 20
2.3734891069
 30
0.0
 10
4.7761394956
 20
2.369485024
 30
0.0
 10
4.7807420577
 20
2.3655716534
 30
0.0
 10
4.7857862931
 20
2.3617582545
 30
0.0
 10
4.7912600495
 20
2.3580528625
 30
0.0
 10
4.7971510188
 20
2.3544641612
 30
0.0
 10
4.8057064995
 20
2.349756351
 30
0.0
 10
4.8124651634
 20
2.3465658081
 30
0.0
 10
4.8171201264
 20
2.344557381
 30
0.0
  0
SPLINE
  5
378
100
AcDbEntity
  8
0
100
AcDbSpline
 62
7
  6
CONTINUOUS
 70
0
 71
3
 72
39
 73
35
 74
0
 42
0.0000001
 43
0.0000001
 44
0.0000000001
 40
0.0
 40
0.0
 40
0.0
 40
0.0
 40
0.000522443
 40
0.0007225193
 40
0.0009552567
 40
0.0015233136
 40
0.0022329777
 40
0.0030871452
 40
0.0040873247
 40
0.0052343691
 40
0.0079707117
 40
0.0112981435
 40
0.0152168847
 40
0.0197258015
 40
0.0305042131
 40
0.0436114798
 40
0.0590180463
 40
0.0766875226
 40
0.0965788924
 40
0.1186437664
 40
0.1428305587
 40
0.1690801068
 40
0.1973305283
 40
0.2275130044
 40
0.2595556403
 40
0.2933809986
 40
0.3660507836
 40
0.4448230863
 40
0.5289400226
 40
0.6175916474
 40
0.7099254491
 40
0.8050502783
 40
0.9020555645
 40
1.0
 40
1.0
 40
1.0
 40
1.0
 10
5.2843927457
 20
5.1375959054
 30
0.0
 10
5.2843927457
 20
5.1375410443
 30
0.0
 10
5.2843258068
 20
5.1374766483
 30
0.0
 10
5.2842424883
 20
5.1374254401
 30
0.0
 10
5.2841481926
 20
5.137377216
 30
0.0
 10
5.2840005655
 20
5.1373195721
 30
0.0
 10
5.2837864475
 20
5.1372533115
 30
0.0
 10
5.2835254705
 20
5.1371869724
 30
0.0
 10
5.283217356
 20
5.1371203355
 30
0.0
 10
5.2827133083
 20
5.1370256762
 30
0.0
 10
5.2819647851
 20
5.136910219
 30
0.0
 10
5.2809248897
 20
5.1367776307
 30
0.0
 10
5.2796976324
 20
5.1366445709
 30
0.0
 10
5.2776896864
 20
5.1364552268
 30
0.0
 10
5.2747167595
 20
5.1362245724
 30
0.0
 10
5.2705991795
 20
5.1359596199
 30
0.0
 10
5.265756757
 20
5.135693711
 30
0.0
 10
5.2602010753
 20
5.1354269816
 30
0.0
 10
5.253945523
 20
5.135159791
 30
0.0
 10
5.2470050548
 20
5.134892215
 30
0.0
 10
5.2393964808
 20
5.1346244032
 30
0.0
 10
5.2311380088
 20
5.1343563734
 30
0.0
 10
5.2222496346
 20
5.1340882094
 30
0.0
 10
5.2127526806
 20
5.1338199149
 30
0.0
 10
5.2026700921
 20
5.1335515273
 30
0.0
 10
5.1881270101
 20
5.1331847499
 30
0.0
 10
5.1686775781
 20
5.132729873
 30
0.0
 10
5.1439475424
 20
5.132195548
 30
0.0
 10
5.1175389158
 20
5.1316607712
 30
0.0
 10
5.0897059434
 20
5.131125641
 30
0.0
 10
5.0607168449
 20
5.1305902735
 30
0.0
 10
5.0308503964
 20
5.1300547336
 30
0.0
 10
5.0003946908
 20
5.1295190941
 30
0.0
 10
4.9799263364
 20
5.1291625418
 30
0.0
 10
4.9696428571
 20
5.1289834055
 30
0.0
  0
SPLINE
  5
379
100
AcDbEntity
  8
0
100
AcDbSpline
 62
7
  6
CONTINUOUS
 70
0
 71
3
 72
11
 73
7
 74
0
 42
0.0000001
 43
0.0000001
 44
0.0000000001
 40
0.0
 40
0.0
 40
0.0
 40
0.0
 40
0.2491385199
 40
0.4989291063
 40
0.7492569605
 40
1.0
 40
1.0
 40
1.0
 40
1.0
 10
4.609557727
 20
5.3341209839
 30
0.0
 10
4.6292535268
 20
5.3379046326
 30
0.0
 10
4.6687942114
 20
5.344985476
 30
0.0
 10
4.7284417029
 20
5.3539945398
 30
0.0
 10
4.7884596401
 20
5.3612453399
 30
0.0
 10
4.8286487733
 20
5.3647954886
 30
0.0
 10
4.8487830551
 20
5.3662269161
 30
0.0
  0
SPLINE
  5
37A
100
AcDbEntity
  8
0
100
AcDbSpline
 62
7
  6
CONTINUOUS
 70
0
 71
3
 72
9
 73
5
 74
0
 42
0.0000001
 43
0.0000001
 44
0.0000000001
 40
0.0
 40
0.0
 40
0.0
 40
0.0
 40
0.4927901943
 40
1.0
 40
1.0
 40
1.0
 40
1.0
 10
4.5582744708
 20
5.3341209839
 30
0.0
 10
4.5593645107
 20
5.3326505452
 30
0.0
 10
4.5615063697
 20
5.329613918
 30
0.0
 10
4.5634817747
 20
5.3264654447
 30
0.0
 10
4.5644324747
 20
5.3248389494
 30
0.0
  0
SPLINE
  5
37B
100
AcDbEntity
  8
0
100
AcDbSpline
 62
7
  6
CONTINUOUS
 70
0
 71
3
 72
22
 73
18
 74
0
 42
0.0000001
 43
0.0000001
 44
0.0000000001
 40
0.0
 40
0.0
 40
0.0
 40
0.0
 40
0.0472858147
 40
0.0950767068
 40
0.1438576938
 40
0.1940763084
 40
0.2461291001
 40
0.3003586206
 40
0.3570456236
 40
0.4164170796
 40
0.4786463753
 40
0.5438576819
 40
0.6121363927
 40
0.6835254342
 40
0.7580384996
 40
0.8356589918
 40
1.0
 40
1.0
 40
1.0
 40
1.0
 10
5.1831428571
 20
2.532311971
 30
0.0
 10
5.1831428571
 20
2.5308532499
 30
0.0
 10
5.1829735448
 20
2.5279175118
 30
0.0
 10
5.1822149642
 20
2.5235359611
 30
0.0
 10
5.1809535561
 20
2.5191775935
 30
0.0
 10
5.1791937722
 20
2.5148542497
 30
0.0
 10
5.1769415965
 20
2.5105757387
 30
0.0
 10
5.1742027622
 20
2.5063522854
 30
0.0
 10
5.1709852842
 20
2.5021927114
 30
0.0
 10
5.1672967653
 20
2.4981064276
 30
0.0
 10
5.1631462186
 20
2.4941023447
 30
0.0
 10
5.1585436566
 20
2.4901889741
 30
0.0
 10
5.1534994212
 20
2.4863755752
 30
0.0
 10
5.1480256648
 20
2.4826701832
 30
0.0
 10
5.1421346955
 20
2.479081482
 30
0.0
 10
5.1335792148
 20
2.4743736717
 30
0.0
 10
5.1268205509
 20
2.4711831289
 30
0.0
 10
5.1221655879
 20
2.4691747017
 30
0.0
  0
SPLINE
  5
37C
100
AcDbEntity
  8
0
100
AcDbSpline
 62
7
  6
CONTINUOUS
 70
0
 71
3
 72
39
 73
35
 74
0
 42
0.0000001
 43
0.0000001
 44
0.0000000001
 40
0.0
 40
0.0
 40
0.0
 40
0.0
 40
0.000522443
 40
0.0007225193
 40
0.0009552567
 40
0.0015233136
 40
0.0022329777
 40
0.0030871452
 40
0.0040873247
 40
0.0052343691
 40
0.0079707117
 40
0.0112981435
 40
0.0152168847
 40
0.0197258015
 40
0.0305042131
 40
0.0436114798
 40
0.0590180463
 40
0.0766875226
 40
0.0965788924
 40
0.1186437664
 40
0.1428305587
 40
0.1690801068
 40
0.1973305283
 40
0.2275130044
 40
0.2595556403
 40
0.2933809986
 40
0.3660507836
 40
0.4448230863
 40
0.5289400226
 40
0.6175916474
 40
0.7099254491
 40
0.8050502783
 40
0.9020555645
 40
1.0
 40
1.0
 40
1.0
 40
1.0
 10
5.2843927457
 20
5.1031459055
 30
0.0
 10
5.2843927457
 20
5.1030910443
 30
0.0
 10
5.2843258068
 20
5.1030266483
 30
0.0
 10
5.2842424883
 20
5.1029754401
 30
0.0
 10
5.2841481926
 20
5.102927216
 30
0.0
 10
5.2840005655
 20
5.1028695721
 30
0.0
 10
5.2837864475
 20
5.1028033115
 30
0.0
 10
5.2835254705
 20
5.1027369724
 30
0.0
 10
5.283217356
 20
5.1026703355
 30
0.0
 10
5.2827133083
 20
5.1025756762
 30
0.0
 10
5.2819647851
 20
5.102460219
 30
0.0
 10
5.2809248897
 20
5.1023276307
 30
0.0
 10
5.2796976324
 20
5.1021945709
 30
0.0
 10
5.2776896864
 20
5.1020052268
 30
0.0
 10
5.2747167595
 20
5.1017745724
 30
0.0
 10
5.2705991795
 20
5.1015096199
 30
0.0
 10
5.265756757
 20
5.101243711
 30
0.0
 10
5.2602010753
 20
5.1009769816
 30
0.0
 10
5.253945523
 20
5.100709791
 30
0.0
 10
5.2470050548
 20
5.100442215
 30
0.0
 10
5.2393964808
 20
5.1001744032
 30
0.0
 10
5.2311380088
 20
5.0999063734
 30
0.0
 10
5.2222496346
 20
5.0996382094
 30
0.0
 10
5.2127526806
 20
5.0993699149
 30
0.0
 10
5.2026700921
 20
5.0991015273
 30
0.0
 10
5.1881270101
 20
5.0987347499
 30
0.0
 10
5.1686775781
 20
5.098279873
 30
0.0
 10
5.1439475424
 20
5.097745548
 30
0.0
 10
5.1175389158
 20
5.0972107712
 30
0.0
 10
5.0897059434
 20
5.096675641
 30
0.0
 10
5.0607168449
 20
5.0961402735
 30
0.0
 10
5.0308503964
 20
5.0956047336
 30
0.0
 10
5.0003946908
 20
5.0950690941
 30
0.0
 10
4.9799263364
 20
5.0947125418
 30
0.0
 10
4.9696428571
 20
5.0945334055
 30
0.0
  0
SPLINE
  5
37D
100
AcDbEntity
  8
0
100
AcDbSpline
 62
7
  6
CONTINUOUS
 70
0
 71
3
 72
21
 73
17
 74
0
 42
0.0000001
 43
0.0000001
 44
0.0000000001
 40
0.0
 40
0.0
 40
0.0
 40
0.0
 40
0.0491308533
 40
0.0986831099
 40
0.1490643642
 40
0.2006574777
 40
0.2538085253
 40
0.308824849
 40
0.3659702947
 40
0.425463095
 40
0.4874834318
 40
0.5521704819
 40
0.6898818813
 40
0.7630699988
 40
0.839162751
 40
1.0
 40
1.0
 40
1.0
 40
1.0
 10
5.1831428571
 20
2.6569292918
 30
0.0
 10
5.1831428571
 20
2.6556238216
 30
0.0
 10
5.183007525
 20
2.6529997287
 30
0.0
 10
5.1824007026
 20
2.6490791942
 30
0.0
 10
5.1813912694
 20
2.645174823
 30
0.0
 10
5.1799814955
 20
2.6412952272
 30
0.0
 10
5.1781755424
 20
2.6374475055
 30
0.0
 10
5.1759771121
 20
2.6336390223
 30
0.0
 10
5.1733909125
 20
2.6298767452
 30
0.0
 10
5.170422657
 20
2.6261670925
 30
0.0
 10
5.167077665
 20
2.6225168708
 30
0.0
 10
5.1620186791
 20
2.6176362342
 30
0.0
 10
5.1563179671
 20
2.6130148059
 30
0.0
 10
5.1500708613
 20
2.6086387826
 30
0.0
 10
5.1431170111
 20
2.6042134433
 30
0.0
 10
5.1375978267
 20
2.6011679931
 30
0.0
 10
5.1337878359
 20
2.5992319969
 30
0.0
  0
SPLINE
  5
37E
100
AcDbEntity
  8
0
100
AcDbSpline
 62
7
  6
CONTINUOUS
 70
0
 71
3
 72
11
 73
7
 74
0
 42
0.0000001
 43
0.0000001
 44
0.0000000001
 40
0.0
 40
0.0
 40
0.0
 40
0.0
 40
0.2510197369
 40
0.501528446
 40
0.7512141048
 40
1.0
 40
1.0
 40
1.0
 40
1.0
 10
4.523277516
 20
5.2622929568
 30
0.0
 10
4.523277516
 20
5.2636523043
 30
0.0
 10
4.5236455854
 20
5.2663823396
 30
0.0
 10
4.5252643116
 20
5.2701667654
 30
0.0
 10
4.5278265006
 20
5.2733732703
 30
0.0
 10
4.5300516412
 20
5.2749711484
 30
0.0
 10
4.5312432515
 20
5.2755997571
 30
0.0
  0
SPLINE
  5
37F
100
AcDbEntity
  8
0
100
AcDbSpline
 62
7
  6
CONTINUOUS
 70
0
 71
3
 72
14
 73
10
 74
0
 42
0.0000001
 43
0.0000001
 44
0.0000000001
 40
0.0
 40
0.0
 40
0.0
 40
0.0
 40
0.3014041499
 40
0.4452844707
 40
0.5811511927
 40
0.7066028091
 40
0.8194237168
 40
0.9177664455
 40
1.0
 40
1.0
 40
1.0
 40
1.0
 10
5.4036949799
 20
5.2622929568
 30
0.0
 10
5.4036949821
 20
5.2636403679
 30
0.0
 10
5.4036517543
 20
5.2656314634
 30
0.0
 10
5.403501169
 20
5.2682253012
 30
0.0
 10
5.4033484221
 20
5.2700305229
 30
0.0
 10
5.403157421
 20
5.2716924288
 30
0.0
 10
5.4029317813
 20
5.2731806941
 30
0.0
 10
5.4026762912
 20
5.2744676238
 30
0.0
 10
5.4024711407
 20
5.2752494053
 30
0.0
 10
5.4023597919
 20
5.2755997572
 30
0.0
  0
SPLINE
  5
380
100
AcDbEntity
  8
0
100
AcDbSpline
 62
7
  6
CONTINUOUS
 70
0
 71
3
 72
22
 73
18
 74
0
 42
0.0000001
 43
0.0000001
 44
0.0000000001
 40
0.0
 40
0.0
 40
0.0
 40
0.0
 40
0.0476181918
 40
0.0957256416
 40
0.1447928404
 40
0.1952554077
 40
0.2475007456
 40
0.3018655397
 40
0.3586278714
 40
0.4180136815
 40
0.4801987946
 40
0.5453100702
 40
0.6134375093
 40
0.6846303577
 40
0.7589073989
 40
0.8362604734
 40
1.0
 40
1.0
 40
1.0
 40
1.0
 10
5.1831428571
 20
2.7815466125
 30
0.0
 10
5.1831428571
 20
2.7801162922
 30
0.0
 10
5.1829801368
 20
2.777238394
 30
0.0
 10
5.18225098
 20
2.7729422875
 30
0.0
 10
5.1810383992
 20
2.7686679235
 30
0.0
 10
5.1793463694
 20
2.7644265055
 30
0.0
 10
5.1771805347
 20
2.7602272764
 30
0.0
 10
5.1745461192
 20
2.7560799358
 30
0.0
 10
5.1714505303
 20
2.7519929137
 30
0.0
 10
5.1679009648
 20
2.7479749831
 30
0.0
 10
5.1639055875
 20
2.7440347836
 30
0.0
 10
5.159473861
 20
2.740180216
 30
0.0
 10
5.1546153038
 20
2.736420086
 30
0.0
 10
5.1493411375
 20
2.7327621408
 30
0.0
 10
5.1436629082
 20
2.7292143367
 30
0.0
 10
5.1354134686
 20
2.724553447
 30
0.0
 10
5.1288911926
 20
2.7213850483
 30
0.0
 10
5.1243971469
 20
2.7193867722
 30
0.0
  0
SPLINE
  5
381
100
AcDbEntity
  8
0
100
AcDbSpline
 62
7
  6
CONTINUOUS
 70
0
 71
3
 72
11
 73
7
 74
0
 42
0.0000001
 43
0.0000001
 44
0.0000000001
 40
0.0
 40
0.0
 40
0.0
 40
0.0
 40
0.250743059
 40
0.5010709266
 40
0.7508615135
 40
1.0
 40
1.0
 40
1.0
 40
1.0
 10
5.0905026592
 20
5.3662269161
 30
0.0
 10
5.1106369426
 20
5.3647954895
 30
0.0
 10
5.1508260783
 20
5.3612453392
 30
0.0
 10
5.2108440183
 20
5.3539945394
 30
0.0
 10
5.2704915082
 20
5.3449854751
 30
0.0
 10
5.3100321899
 20
5.3379046308
 30
0.0
 10
5.3297279873
 20
5.3341209839
 30
0.0
  0
SPLINE
  5
382
100
AcDbEntity
  8
0
100
AcDbSpline
 62
7
  6
CONTINUOUS
 70
0
 71
3
 72
9
 73
5
 74
0
 42
0.0000001
 43
0.0000001
 44
0.0000000001
 40
0.0
 40
0.0
 40
0.0
 40
0.0
 40
0.255357519
 40
1.0
 40
1.0
 40
1.0
 40
1.0
 10
5.3748536245
 20
5.3248389435
 30
0.0
 10
5.3753321984
 20
5.3256577658
 30
0.0
 10
5.3772567822
 20
5.328834781
 30
0.0
 10
5.3793643461
 20
5.3318993942
 30
0.0
 10
5.3810113729
 20
5.3341211585
 30
0.0
  0
SPLINE
  5
383
100
AcDbEntity
  8
0
100
AcDbSpline
 62
7
  6
CONTINUOUS
 70
0
 71
3
 72
39
 73
35
 74
0
 42
0.0000001
 43
0.0000001
 44
0.0000000001
 40
0.0
 40
0.0
 40
0.0
 40
0.0
 40
0.0002370941
 40
0.0003818743
 40
0.000551755
 40
0.0009790612
 40
0.0015349645
 40
0.0022260091
 40
0.0030554346
 40
0.0040250252
 40
0.0051358315
 40
0.0077833055
 40
0.0110007521
 40
0.0147890556
 40
0.0191476293
 40
0.0295683055
 40
0.0422463059
 40
0.0571589784
 40
0.0742766607
 40
0.0935672274
 40
0.1149913333
 40
0.138507154
 40
0.1640676769
 40
0.1916213738
 40
0.2211141119
 40
0.2856742595
 40
0.3572309961
 40
0.4352108423
 40
0.5189885967
 40
0.6078916293
 40
0.7012080827
 40
0.7981848251
 40
0.8980543519
 40
1.0
 40
1.0
 40
1.0
 40
1.0
 10
5.2843927636
 20
5.0686959055
 30
0.0
 10
5.2843927717
 20
5.0686744007
 30
0.0
 10
5.2843797417
 20
5.0686397275
 30
0.0
 10
5.2843476046
 20
5.0686013767
 30
0.0
 10
5.2842966128
 20
5.0685569939
 30
0.0
 10
5.2842058392
 20
5.0685038009
 30
0.0
 10
5.2840662522
 20
5.0684436504
 30
0.0
 10
5.2838876855
 20
5.0683832695
 30
0.0
 10
5.2836700643
 20
5.0683226165
 30
0.0
 10
5.2834131883
 20
5.068261785
 30
0.0
 10
5.2829931132
 20
5.0681753747
 30
0.0
 10
5.2823690715
 20
5.0680699634
 30
0.0
 10
5.2815018554
 20
5.0679489016
 30
0.0
 10
5.2804782156
 20
5.0678274193
 30
0.0
 10
5.2788029584
 20
5.0676545421
 30
0.0
 10
5.2763212842
 20
5.0674439349
 30
0.0
 10
5.272882028
 20
5.0672020224
 30
0.0
 10
5.2688341189
 20
5.066959256
 30
0.0
 10
5.2641855687
 20
5.0667157271
 30
0.0
 10
5.2589457277
 20
5.0664717879
 30
0.0
 10
5.2531250216
 20
5.0662274967
 30
0.0
 10
5.2467351764
 20
5.0659829794
 30
0.0
 10
5.239789002
 20
5.0657382847
 30
0.0
 10
5.2323004063
 20
5.0654934337
 30
0.0
 10
5.2212756212
 20
5.0651565955
 30
0.0
 10
5.2062603077
 20
5.0647396525
 30
0.0
 10
5.1868474735
 20
5.0642522944
 30
0.0
 10
5.1656910829
 20
5.0637643466
 30
0.0
 10
5.1429609793
 20
5.0632759339
 30
0.0
 10
5.1188395259
 20
5.0627871916
 30
0.0
 10
5.0935206743
 20
5.0622982112
 30
0.0
 10
5.0672069693
 20
5.0618090422
 30
0.0
 10
5.0401104533
 20
5.0613197563
 30
0.0
 10
5.0218083391
 20
5.060995974
 30
0.0
 10
5.0125631256
 20
5.0608334055
 30
0.0
  0
SPLINE
  5
384
100
AcDbEntity
  8
0
100
AcDbSpline
 62
7
  6
CONTINUOUS
 70
0
 71
3
 72
33
 73
29
 74
0
 42
0.0000001
 43
0.0000001
 44
0.0000000001
 40
0.0
 40
0.0
 40
0.0
 40
0.0
 40
0.0000679374
 40
0.0002746185
 40
0.0006200712
 40
0.0011043094
 40
0.0024891926
 40
0.0044293647
 40
0.006924921
 40
0.009975956
 40
0.0135825643
 40
0.0177448404
 40
0.0277367736
 40
0.0399523462
 40
0.0543740157
 40
0.0709502227
 40
0.0896264119
 40
0.1103492078
 40
0.1577274757
 40
0.2126892261
 40
0.2748672049
 40
0.3439265763
 40
0.4195690741
 40
0.5015391817
 40
0.5896193275
 40
0.6836292853
 40
0.7834286687
 40
1.0
 40
1.0
 40
1.0
 40
1.0
 10
4.5257883104
 20
5.370699288
 30
0.0
 10
4.5257883119
 20
5.3706995323
 30
0.0
 10
4.5257896154
 20
5.3706980309
 30
0.0
 10
4.5257909342
 20
5.3706976237
 30
0.0
 10
4.5257942218
 20
5.3706949127
 30
0.0
 10
4.5258004799
 20
5.3706905195
 30
0.0
 10
4.5258116489
 20
5.3706821758
 30
0.0
 10
4.525828453
 20
5.3706698823
 30
0.0
 10
4.5258501603
 20
5.3706538694
 30
0.0
 10
4.5258766544
 20
5.3706343516
 30
0.0
 10
4.5259079788
 20
5.3706112462
 30
0.0
 10
4.5259593817
 20
5.3705733166
 30
0.0
 10
4.5260356871
 20
5.3705169756
 30
0.0
 10
4.5261416304
 20
5.3704386521
 30
0.0
 10
4.5262666969
 20
5.3703463551
 30
0.0
 10
4.5264110119
 20
5.3702410081
 30
0.0
 10
4.5265745193
 20
5.3701235191
 30
0.0
 10
4.5268296939
 20
5.3699437565
 30
0.0
 10
4.5271958567
 20
5.3696949562
 30
0.0
 10
4.5276937648
 20
5.3693750294
 30
0.0
 10
4.5282675009
 20
5.3690293109
 30
0.0
 10
4.5289167322
 20
5.3686654028
 30
0.0
 10
4.5296411667
 20
5.3682909542
 30
0.0
 10
4.5304402236
 20
5.3679130108
 30
0.0
 10
4.5313133103
 20
5.3675385011
 30
0.0
 10
4.5322599013
 20
5.3671743682
 30
0.0
 10
4.5336576129
 20
5.3666988979
 30
0.0
 10
4.5347575066
 20
5.3664001411
 30
0.0
 10
4.5355169937
 20
5.3662269161
 30
0.0
  0
SPLINE
  5
385
100
AcDbEntity
  8
0
100
AcDbSpline
 62
7
  6
CONTINUOUS
 70
0
 71
3
 72
15
 73
11
 74
0
 42
0.0000001
 43
0.0000001
 44
0.0000000001
 40
0.0
 40
0.0
 40
0.0
 40
0.0
 40
0.0278098511
 40
0.0617190522
 40
0.1469292286
 40
0.2535166406
 40
0.3788777502
 40
0.5198826497
 40
0.6729707942
 40
1.0
 40
1.0
 40
1.0
 40
1.0
 10
5.0905026592
 20
5.3662269161
 30
0.0
 10
5.0905130012
 20
5.3660947418
 30
0.0
 10
5.0905294812
 20
5.3658009042
 30
0.0
 10
5.0905510257
 20
5.3651007413
 30
0.0
 10
5.0905538792
 20
5.3640245537
 30
0.0
 10
5.0905276064
 20
5.3625127485
 30
0.0
 10
5.090470897
 20
5.3607356108
 30
0.0
 10
5.0903850618
 20
5.3587377539
 30
0.0
 10
5.0902307875
 20
5.3557806627
 30
0.0
 10
5.0900838053
 20
5.3534963995
 30
0.0
 10
5.0899728155
 20
5.3519413047
 30
0.0
  0
SPLINE
  5
386
100
AcDbEntity
  8
0
100
AcDbSpline
 62
7
  6
CONTINUOUS
 70
0
 71
3
 72
16
 73
12
 74
0
 42
0.0000001
 43
0.0000001
 44
0.0000000001
 40
0.0
 40
0.0
 40
0.0
 40
0.0
 40
0.0268492825
 40
0.0596278371
 40
0.0982826263
 40
0.1426651755
 40
0.2476723345
 40
0.3723350885
 40
0.513617255
 40
0.6679480881
 40
1.0
 40
1.0
 40
1.0
 40
1.0
 10
4.609557727
 20
5.3341209839
 30
0.0
 10
4.6095205719
 20
5.3339987159
 30
0.0
 10
4.6094580432
 20
5.333721175
 30
0.0
 10
4.6093938595
 20
5.3332575579
 30
0.0
 10
4.6093511042
 20
5.3327077138
 30
0.0
 10
4.6093219743
 20
5.331812986
 30
0.0
 10
4.6093496873
 20
5.3305080947
 30
0.0
 10
4.6094666094
 20
5.328746084
 30
0.0
 10
4.6096681096
 20
5.3267555967
 30
0.0
 10
4.6100526117
 20
5.3237928331
 30
0.0
 10
4.6104354203
 20
5.3215086596
 30
0.0
 10
4.6107289983
 20
5.3199557698
 30
0.0
  0
SPLINE
  5
387
100
AcDbEntity
  8
0
100
AcDbSpline
 62
7
  6
CONTINUOUS
 70
0
 71
3
 72
15
 73
11
 74
0
 42
0.0000001
 43
0.0000001
 44
0.0000000001
 40
0.0
 40
0.0
 40
0.0
 40
0.0
 40
0.125339538
 40
0.2509571948
 40
0.3765613748
 40
0.5020549706
 40
0.6272563562
 40
0.752013723
 40
0.8763138626
 40
1.0
 40
1.0
 40
1.0
 40
1.0
 10
5.3810113729
 20
5.3341211585
 30
0.0
 10
5.3817860181
 20
5.3339029032
 30
0.0
 10
5.3833049816
 20
5.3333417706
 30
0.0
 10
5.3854222208
 20
5.3321545235
 30
0.0
 10
5.3873287118
 20
5.3306494646
 30
0.0
 10
5.388974566
 20
5.3288668974
 30
0.0
 10
5.3903167592
 20
5.3268522302
 30
0.0
 10
5.3913211297
 20
5.3246577312
 30
0.0
 10
5.3919602431
 20
5.3223410785
 30
0.0
 10
5.3921328678
 20
5.3207498541
 30
0.0
 10
5.3921538695
 20
5.3199559437
 30
0.0
  0
SPLINE
  5
388
100
AcDbEntity
  8
0
100
AcDbSpline
 62
7
  6
CONTINUOUS
 70
0
 71
3
 72
11
 73
7
 74
0
 42
0.0000001
 43
0.0000001
 44
0.0000000001
 40
0.0
 40
0.0
 40
0.0
 40
0.0
 40
0.2704109865
 40
0.5254081646
 40
0.7673281887
 40
1.0
 40
1.0
 40
1.0
 40
1.0
 10
4.5369264537
 20
5.2755997011
 30
0.0
 10
4.5364299499
 20
5.2757618896
 30
0.0
 10
4.5354419819
 20
5.2760121008
 30
0.0
 10
4.5339591822
 20
5.2761472729
 30
0.0
 10
4.5325474117
 20
5.2760252534
 30
0.0
 10
4.5316596355
 20
5.2757688633
 30
0.0
 10
4.5312432413
 20
5.2755997484
 30
0.0
  0
SPLINE
  5
389
100
AcDbEntity
  8
0
100
AcDbSpline
 62
7
  6
CONTINUOUS
 70
0
 71
3
 72
63
 73
59
 74
0
 42
0.0000001
 43
0.0000001
 44
0.0000000001
 40
0.0
 40
0.0
 40
0.0
 40
0.0
 40
0.0001173584
 40
0.0001890694
 40
0.0002732359
 40
0.0004849649
 40
0.0007603709
 40
0.0011026622
 40
0.0015134544
 40
0.0019936474
 40
0.0025437792
 40
0.0038550305
 40
0.0054486627
 40
0.0073246413
 40
0.0094823952
 40
0.0146398622
 40
0.0209118998
 40
0.028284507
 40
0.0367420956
 40
0.046265088
 40
0.0568322008
 40
0.0684193217
 40
0.0809997473
 40
0.0945451396
 40
0.1090238522
 40
0.14064754
 40
0.1755806043
 40
0.2135021178
 40
0.2540637457
 40
0.2968927954
 40
0.3415956354
 40
0.3877615194
 40
0.4349659938
 40
0.4827752242
 40
0.5307497
 40
0.5784484606
 40
0.6254331117
 40
0.6712717582
 40
0.715543071
 40
0.7578401446
 40
0.7977742333
 40
0.8349784901
 40
0.8691111454
 40
0.8998587856
 40
0.9269392978
 40
0.9390252649
 40
0.9501044618
 40
0.9601509913
 40
0.9691426752
 40
0.9770586049
 40
0.9838815008
 40
0.9895964326
 40
0.992034508
 40
0.9941916136
 40
0.996066934
 40
0.9976598774
 40
0.998970445
 40
1.0
 40
1.0
 40
1.0
 40
1.0
 10
5.2640428485
 20
4.7983587733
 30
0.0
 10
5.2640428568
 20
4.7983357513
 30
0.0
 10
5.2640288666
 20
4.7982986272
 30
0.0
 10
5.2639943999
 20
4.7982575933
 30
0.0
 10
5.2639397114
 20
4.7982100902
 30
0.0
 10
5.2638424012
 20
4.798153166
 30
0.0
 10
5.2636928132
 20
4.7980887847
 30
0.0
 10
5.2635014973
 20
4.7980241547
 30
0.0
 10
5.2632683704
 20
4.7979592344
 30
0.0
 10
5.2629932082
 20
4.7978941237
 30
0.0
 10
5.2625432231
 20
4.7978016333
 30
0.0
 10
5.2618747271
 20
4.7976888085
 30
0.0
 10
5.2609457959
 20
4.7975592536
 30
0.0
 10
5.2598495022
 20
4.797429231
 30
0.0
 10
5.2580559458
 20
4.7972442044
 30
0.0
 10
5.2553999077
 20
4.7970188133
 30
0.0
 10
5.2517205521
 20
4.7967599285
 30
0.0
 10
5.2473925141
 20
4.7965000692
 30
0.0
 10
5.2424258087
 20
4.7962394599
 30
0.0
 10
5.2368317058
 20
4.7959783566
 30
0.0
 10
5.2306231066
 20
4.7957169109
 30
0.0
 10
5.2238142635
 20
4.7954552132
 30
0.0
 10
5.216420788
 20
4.7951933152
 30
0.0
 10
5.2084597486
 20
4.7949312749
 30
0.0
 10
5.1967642498
 20
4.7945710376
 30
0.0
 10
5.1808738411
 20
4.7941251855
 30
0.0
 10
5.1603850812
 20
4.7936036856
 30
0.0
 10
5.1381424712
 20
4.7930815657
 30
0.0
 10
5.1143505315
 20
4.7925589566
 30
0.0
 10
5.0892280125
 20
4.7920360108
 30
0.0
 10
5.0630058915
 20
4.7915128197
 30
0.0
 10
5.0359252876
 20
4.7909894585
 30
0.0
 10
5.0082351982
 20
4.7904659853
 30
0.0
 10
4.9801902585
 20
4.7899424503
 30
0.0
 10
4.9520483387
 20
4.7894188986
 30
0.0
 10
4.9240682032
 20
4.7888953745
 30
0.0
 10
4.8965071234
 20
4.7883719243
 30
0.0
 10
4.8696185231
 20
4.7878485997
 30
0.0
 10
4.8436496547
 20
4.787325463
 30
0.0
 10
4.818839315
 20
4.786802591
 30
0.0
 10
4.7954156261
 20
4.7862800919
 30
0.0
 10
4.7735939533
 20
4.7857580993
 30
0.0
 10
4.7535749083
 20
4.785236869
 30
0.0
 10
4.7355425405
 20
4.7847166004
 30
0.0
 10
4.7218348129
 20
4.784269157
 30
0.0
 10
4.7119848491
 20
4.7839061538
 30
0.0
 10
4.7054749887
 20
4.7836445683
 30
0.0
 10
4.6995726513
 20
4.7833832739
 30
0.0
 10
4.6942915003
 20
4.7831223998
 30
0.0
 10
4.689643546
 20
4.7828621396
 30
0.0
 10
4.6856395021
 20
4.7826026539
 30
0.0
 10
4.6827102085
 20
4.7823774251
 30
0.0
 10
4.6806960427
 20
4.7821933781
 30
0.0
 10
4.6794334057
 20
4.7820629969
 30
0.0
 10
4.6783375249
 20
4.781932966
 30
0.0
 10
4.6774089342
 20
4.781803499
 30
0.0
 10
4.6766481258
 20
4.7816747426
 30
0.0
 10
4.6761988839
 20
4.7815786266
 30
0.0
 10
4.6760033827
 20
4.7815279338
 30
0.0
  0
SPLINE
  5
38A
100
AcDbEntity
  8
0
100
AcDbSpline
 62
7
  6
CONTINUOUS
 70
0
 71
3
 72
18
 73
14
 74
0
 42
0.0000001
 43
0.0000001
 44
0.0000000001
 40
0.0
 40
0.0
 40
0.0
 40
0.0
 40
0.021410154
 40
0.0490137897
 40
0.0829879051
 40
0.1233125457
 40
0.1698433403
 40
0.2223879678
 40
0.3443808845
 40
0.4866282182
 40
0.6458226828
 40
0.818359774
 40
1.0
 40
1.0
 40
1.0
 40
1.0
 10
4.5533255246
 20
5.3128416554
 30
0.0
 10
4.5534015894
 20
5.3128872075
 30
0.0
 10
4.5535892175
 20
5.3129682936
 30
0.0
 10
4.5539199286
 20
5.3130628243
 30
0.0
 10
4.5543344363
 20
5.3131442292
 30
0.0
 10
4.5548304076
 20
5.3132116543
 30
0.0
 10
4.5554053912
 20
5.3132646231
 30
0.0
 10
4.5563194448
 20
5.313317685
 30
0.0
 10
4.5576316147
 20
5.3133393115
 30
0.0
 10
4.5593850014
 20
5.313304355
 30
0.0
 10
4.5613456446
 20
5.3132075595
 30
0.0
 10
4.5634661512
 20
5.3130540743
 30
0.0
 10
4.5649267347
 20
5.3129190666
 30
0.0
 10
4.5656749158
 20
5.3128415219
 30
0.0
  0
SPLINE
  5
38B
100
AcDbEntity
  8
0
100
AcDbSpline
 62
7
  6
CONTINUOUS
 70
0
 71
3
 72
11
 73
7
 74
0
 42
0.0000001
 43
0.0000001
 44
0.0000000001
 40
0.0
 40
0.0
 40
0.0
 40
0.0
 40
0.2326704235
 40
0.4745913907
 40
0.7295897189
 40
1.0
 40
1.0
 40
1.0
 40
1.0
 10
5.4080427465
 20
5.2755997738
 30
0.0
 10
5.4076263668
 20
5.27576889
 30
0.0
 10
5.4067386213
 20
5.2760253034
 30
0.0
 10
5.4053268844
 20
5.2761473599
 30
0.0
 10
5.4038441117
 20
5.2760122317
 30
0.0
 10
5.4028561626
 20
5.2757620327
 30
0.0
 10
5.402359671
 20
5.2755998496
 30
0.0
  0
SPLINE
  5
38C
100
AcDbEntity
  8
0
100
AcDbSpline
 62
7
  6
CONTINUOUS
 70
0
 71
3
 72
17
 73
13
 74
0
 42
0.0000001
 43
0.0000001
 44
0.0000000001
 40
0.0
 40
0.0
 40
0.0
 40
0.0
 40
0.1816357534
 40
0.3541724151
 40
0.5133763466
 40
0.6556342469
 40
0.7776416001
 40
0.876727337
 40
0.9170603885
 40
0.9510257023
 40
0.9786049466
 40
1.0
 40
1.0
 40
1.0
 40
1.0
 10
5.3736109587
 20
5.3128416509
 30
0.0
 10
5.3743591415
 20
5.3129191452
 30
0.0
 10
5.3758195603
 20
5.3130559001
 30
0.0
 10
5.3779401402
 20
5.3132097409
 30
0.0
 10
5.3799009489
 20
5.3133049288
 30
0.0
 10
5.3816546165
 20
5.3133395081
 30
0.0
 10
5.3831594031
 20
5.3133136295
 30
0.0
 10
5.3842404878
 20
5.313239157
 30
0.0
 10
5.3849521477
 20
5.3131421349
 30
0.0
 10
5.3853666424
 20
5.3130612401
 30
0.0
 10
5.3856974194
 20
5.3129677268
 30
0.0
 10
5.3858851134
 20
5.3128870918
 30
0.0
 10
5.385961118
 20
5.3128415575
 30
0.0
  0
SPLINE
  5
38D
100
AcDbEntity
  8
0
100
AcDbSpline
 62
7
  6
CONTINUOUS
 70
0
 71
3
 72
39
 73
35
 74
0
 42
0.0000001
 43
0.0000001
 44
0.0000000001
 40
0.0
 40
0.0
 40
0.0
 40
0.0
 40
0.000522443
 40
0.0007225193
 40
0.0009552567
 40
0.0015233136
 40
0.0022329777
 40
0.0030871452
 40
0.0040873247
 40
0.0052343691
 40
0.0079707117
 40
0.0112981435
 40
0.0152168847
 40
0.0197258015
 40
0.0305042131
 40
0.0436114798
 40
0.0590180463
 40
0.0766875226
 40
0.0965788924
 40
0.1186437664
 40
0.1428305587
 40
0.1690801068
 40
0.1973305283
 40
0.2275130044
 40
0.2595556403
 40
0.2933809986
 40
0.3660507836
 40
0.4448230863
 40
0.5289400226
 40
0.6175916474
 40
0.7099254491
 40
0.8050502783
 40
0.9020555645
 40
1.0
 40
1.0
 40
1.0
 40
1.0
 10
5.2843927457
 20
5.0342459055
 30
0.0
 10
5.2843927457
 20
5.0341910443
 30
0.0
 10
5.2843258068
 20
5.0341266483
 30
0.0
 10
5.2842424883
 20
5.0340754401
 30
0.0
 10
5.2841481926
 20
5.034027216
 30
0.0
 10
5.2840005655
 20
5.0339695721
 30
0.0
 10
5.2837864475
 20
5.0339033115
 30
0.0
 10
5.2835254705
 20
5.0338369724
 30
0.0
 10
5.283217356
 20
5.0337703355
 30
0.0
 10
5.2827133083
 20
5.0336756762
 30
0.0
 10
5.2819647851
 20
5.033560219
 30
0.0
 10
5.2809248897
 20
5.0334276307
 30
0.0
 10
5.2796976324
 20
5.0332945709
 30
0.0
 10
5.2776896864
 20
5.0331052268
 30
0.0
 10
5.2747167595
 20
5.0328745724
 30
0.0
 10
5.2705991795
 20
5.0326096199
 30
0.0
 10
5.265756757
 20
5.032343711
 30
0.0
 10
5.2602010753
 20
5.0320769816
 30
0.0
 10
5.253945523
 20
5.031809791
 30
0.0
 10
5.2470050548
 20
5.031542215
 30
0.0
 10
5.2393964808
 20
5.0312744032
 30
0.0
 10
5.2311380088
 20
5.0310063734
 30
0.0
 10
5.2222496346
 20
5.0307382094
 30
0.0
 10
5.2127526806
 20
5.0304699149
 30
0.0
 10
5.2026700921
 20
5.0302015273
 30
0.0
 10
5.1881270101
 20
5.0298347499
 30
0.0
 10
5.1686775781
 20
5.029379873
 30
0.0
 10
5.1439475424
 20
5.028845548
 30
0.0
 10
5.1175389158
 20
5.0283107712
 30
0.0
 10
5.0897059434
 20
5.027775641
 30
0.0
 10
5.0607168449
 20
5.0272402735
 30
0.0
 10
5.0308503964
 20
5.0267047336
 30
0.0
 10
5.0003946908
 20
5.0261690941
 30
0.0
 10
4.9799263364
 20
5.0258125418
 30
0.0
 10
4.9696428571
 20
5.0256334055
 30
0.0
  0
SPLINE
  5
38E
100
AcDbEntity
  8
0
100
AcDbSpline
 62
7
  6
CONTINUOUS
 70
0
 71
3
 72
30
 73
26
 74
0
 42
0.0000001
 43
0.0000001
 44
0.0000000001
 40
0.0
 40
0.0
 40
0.0
 40
0.0
 40
0.0019021903
 40
0.0043447475
 40
0.0073299531
 40
0.0108583803
 40
0.014929612
 40
0.0195418927
 40
0.0303802902
 40
0.0433534612
 40
0.0584337768
 40
0.0755889484
 40
0.0947822445
 40
0.1159709009
 40
0.1391096291
 40
0.191027313
 40
0.2500787814
 40
0.3157440536
 40
0.3874445852
 40
0.4645480689
 40
0.5463747527
 40
0.6322024829
 40
0.7212754576
 40
0.8128047113
 40
1.0
 40
1.0
 40
1.0
 40
1.0
 10
5.2836812406
 20
4.7820528844
 30
0.0
 10
5.2834883896
 20
4.7820029032
 30
0.0
 10
5.2830428542
 20
4.7819085756
 30
0.0
 10
5.282285494
 20
4.7817826055
 30
0.0
 10
5.281355965
 20
4.7816558694
 30
0.0
 10
5.2802546697
 20
4.7815285411
 30
0.0
 10
5.2789820219
 20
4.7814008688
 30
0.0
 10
5.2769453706
 20
4.7812204631
 30
0.0
 10
5.2739765098
 20
4.7809997705
 30
0.0
 10
5.2699111202
 20
4.7807456593
 30
0.0
 10
5.265183091
 20
4.7804907609
 30
0.0
 10
5.2598028279
 20
4.7802352209
 30
0.0
 10
5.2537821967
 20
4.7799792993
 30
0.0
 10
5.2471343948
 20
4.7797230407
 30
0.0
 10
5.2370606046
 20
4.7793672978
 30
0.0
 10
5.2230218464
 20
4.7789288228
 30
0.0
 10
5.2045293507
 20
4.7784191752
 30
0.0
 10
5.1839642554
 20
4.7779085657
 30
0.0
 10
5.1615080069
 20
4.7773971995
 30
0.0
 10
5.1373587282
 20
4.7768853273
 30
0.0
 10
5.1117295599
 20
4.7763730818
 30
0.0
 10
5.0848465565
 20
4.7758605675
 30
0.0
 10
5.0569471986
 20
4.7753478617
 30
0.0
 10
5.0184327411
 20
4.7746589412
 30
0.0
 10
4.9892454481
 20
4.7741506147
 30
0.0
 10
4.9696428571
 20
4.7738091411
 30
0.0
  0
SPLINE
  5
38F
100
AcDbEntity
  8
0
100
AcDbSpline
 62
7
  6
CONTINUOUS
 70
0
 71
3
 72
27
 73
23
 74
0
 42
0.0000001
 43
0.0000001
 44
0.0000000001
 40
0.0
 40
0.0
 40
0.0
 40
0.0
 40
0.0023312187
 40
0.0051615168
 40
0.0084920714
 40
0.0123230404
 40
0.0214841764
 40
0.0326359597
 40
0.0457613314
 40
0.0608413499
 40
0.0778522834
 40
0.0967658892
 40
0.140178733
 40
0.1907963103
 40
0.2482873451
 40
0.3122754122
 40
0.3823398147
 40
0.4580195964
 40
0.5388174796
 40
0.6242024118
 40
0.8064586026
 40
1.0
 40
1.0
 40
1.0
 40
1.0
 10
5.26308231
 20
4.7767157435
 30
0.0
 10
5.2629024364
 20
4.7766742395
 30
0.0
 10
5.2625015161
 20
4.7765939508
 30
0.0
 10
5.2618379929
 20
4.776484338
 30
0.0
 10
5.2610544036
 20
4.7763743091
 30
0.0
 10
5.2597713479
 20
4.7762177367
 30
0.0
 10
5.2578688399
 20
4.7760269906
 30
0.0
 10
5.2552300081
 20
4.775807941
 30
0.0
 10
5.2521211743
 20
4.7755880711
 30
0.0
 10
5.2485474396
 20
4.7753675613
 30
0.0
 10
5.2445146154
 20
4.7751466382
 30
0.0
 10
5.2382398066
 20
4.7748372644
 30
0.0
 10
5.2293042032
 20
4.7744573957
 30
0.0
 10
5.2173138415
 20
4.7740179376
 30
0.0
 10
5.203693289
 20
4.7735773954
 30
0.0
 10
5.1885321376
 20
4.7731359824
 30
0.0
 10
5.1719301559
 20
4.7726940026
 30
0.0
 10
5.1539966512
 20
4.7722515996
 30
0.0
 10
5.1348496401
 20
4.7718088726
 30
0.0
 10
5.1072647633
 20
4.7712050912
 30
0.0
 10
5.0707531675
 20
4.7704599111
 30
0.0
 10
5.0410007871
 20
4.7698869601
 30
0.0
 10
5.0256777821
 20
4.7695962709
 30
0.0
  0
SPLINE
  5
390
100
AcDbEntity
  8
0
100
AcDbSpline
 62
7
  6
CONTINUOUS
 70
0
 71
3
 72
30
 73
26
 74
0
 42
0.0000001
 43
0.0000001
 44
0.0000000001
 40
0.0
 40
0.0
 40
0.0
 40
0.0
 40
0.0019021899
 40
0.0043447467
 40
0.0073299521
 40
0.0108583794
 40
0.0149296114
 40
0.0195418923
 40
0.0303802898
 40
0.0433534605
 40
0.0584337753
 40
0.0755889474
 40
0.0947822445
 40
0.1159709014
 40
0.1391096287
 40
0.1910273111
 40
0.250078777
 40
0.3157440435
 40
0.3874445749
 40
0.4645480569
 40
0.5463747435
 40
0.6322024771
 40
0.7212754563
 40
0.8128047136
 40
1.0
 40
1.0
 40
1.0
 40
1.0
 10
5.2836812406
 20
4.8165028844
 30
0.0
 10
5.2834883897
 20
4.8164529032
 30
0.0
 10
5.2830428543
 20
4.8163585756
 30
0.0
 10
5.2822854942
 20
4.8162326055
 30
0.0
 10
5.2813559653
 20
4.8161058694
 30
0.0
 10
5.28025467
 20
4.8159785412
 30
0.0
 10
5.2789820221
 20
4.8158508688
 30
0.0
 10
5.2769453707
 20
4.8156704632
 30
0.0
 10
5.27397651
 20
4.8154497705
 30
0.0
 10
5.2699111205
 20
4.8151956593
 30
0.0
 10
5.2651830914
 20
4.8149407609
 30
0.0
 10
5.2598028282
 20
4.814685221
 30
0.0
 10
5.2537821967
 20
4.8144292993
 30
0.0
 10
5.2471343948
 20
4.8141730407
 30
0.0
 10
5.2370606048
 20
4.8138172978
 30
0.0
 10
5.2230218471
 20
4.8133788229
 30
0.0
 10
5.2045293524
 20
4.8128691753
 30
0.0
 10
5.183964258
 20
4.8123585657
 30
0.0
 10
5.1615080103
 20
4.8118471996
 30
0.0
 10
5.1373587315
 20
4.8113353273
 30
0.0
 10
5.1117295627
 20
4.8108230818
 30
0.0
 10
5.0848465582
 20
4.8103105675
 30
0.0
 10
5.0569471991
 20
4.8097978617
 30
0.0
 10
5.018432741
 20
4.8091089412
 30
0.0
 10
4.9892454479
 20
4.8086006147
 30
0.0
 10
4.9696428571
 20
4.8082591411
 30
0.0
  0
LINE
  5
391
100
AcDbEntity
  8
0
100
AcDbLine
 62
7
  6
CONTINUOUS
 10
5.2632823327
 20
4.8112146128
 11
5.2630428249
 21
4.8111567455
  0
SPLINE
  5
392
100
AcDbEntity
  8
0
100
AcDbSpline
 62
7
  6
CONTINUOUS
 70
0
 71
3
 72
62
 73
58
 74
0
 42
0.0000001
 43
0.0000001
 44
0.0000000001
 40
0.0
 40
0.0
 40
0.0
 40
0.0
 40
0.0011489886
 40
0.0025779869
 40
0.0042876482
 40
0.0062776288
 40
0.0110956052
 40
0.0170242372
 40
0.0240506611
 40
0.0321599794
 40
0.0413340686
 40
0.0515520954
 40
0.0627914266
 40
0.0750259764
 40
0.1023686375
 40
0.133331098
 40
0.1676312052
 40
0.2049560929
 40
0.2449652527
 40
0.2872936623
 40
0.3315549261
 40
0.3773451358
 40
0.4242461648
 40
0.4718299228
 40
0.5196620304
 40
0.5673058218
 40
0.614326417
 40
0.6602945223
 40
0.7047904926
 40
0.7474082165
 40
0.7877587076
 40
0.8254737914
 40
0.8602093762
 40
0.8916485887
 40
0.9060411058
 40
0.9195048865
 40
0.9320086537
 40
0.943524552
 40
0.9540260726
 40
0.9634895925
 40
0.9718939496
 40
0.9792199416
 40
0.9854521498
 40
0.9905767415
 40
0.9927207624
 40
0.9945847997
 40
0.9961682731
 40
0.9974712002
 40
0.9980178714
 40
0.9984950687
 40
0.9989033277
 40
0.9992435459
 40
0.9995173355
 40
0.9997278989
 40
0.9998116461
 40
0.9998830389
 40
1.0
 40
1.0
 40
1.0
 40
1.0
 10
5.2630428249
 20
4.8111567455
 30
0.0
 10
5.2628230743
 20
4.8111070425
 30
0.0
 10
5.2623263692
 20
4.8110118205
 30
0.0
 10
5.2614954516
 20
4.8108831192
 30
0.0
 10
5.2604980552
 20
4.8107538002
 30
0.0
 10
5.2588380839
 20
4.8105687884
 30
0.0
 10
5.2563505019
 20
4.8103441303
 30
0.0
 10
5.2528749115
 20
4.8100865165
 30
0.0
 10
5.2487525033
 20
4.809827827
 30
0.0
 10
5.2439927046
 20
4.8095682676
 30
0.0
 10
5.2386062858
 20
4.8093081912
 30
0.0
 10
5.232605498
 20
4.8090477198
 30
0.0
 10
5.2260040961
 20
4.8087869784
 30
0.0
 10
5.2160461929
 20
4.808425494
 30
0.0
 10
5.2022214325
 20
4.807979716
 30
0.0
 10
5.1840701596
 20
4.8074610926
 30
0.0
 10
5.1639608127
 20
4.8069415497
 30
0.0
 10
5.1420770104
 20
4.8064212773
 30
0.0
 10
5.1186185642
 20
4.8059005181
 30
0.0
 10
5.0937996805
 20
4.8053794001
 30
0.0
 10
5.0678469778
 20
4.8048580272
 30
0.0
 10
5.0409974751
 20
4.804336474
 30
0.0
 10
5.0134963584
 20
4.8038148003
 30
0.0
 10
4.9855947834
 20
4.8032930566
 30
0.0
 10
4.9575475379
 20
4.8027712883
 30
0.0
 10
4.9296107398
 20
4.8022495387
 30
0.0
 10
4.9020395108
 20
4.8017278526
 30
0.0
 10
4.8750856378
 20
4.8012062796
 30
0.0
 10
4.8489952718
 20
4.8006848773
 30
0.0
 10
4.824006668
 20
4.8001637203
 30
0.0
 10
4.8003480016
 20
4.7996428996
 30
0.0
 10
4.7782353021
 20
4.7991225669
 30
0.0
 10
4.7578704917
 20
4.7986028526
 30
0.0
 10
4.7420785325
 20
4.7981585118
 30
0.0
 10
4.7304570076
 20
4.7977994965
 30
0.0
 10
4.7225472375
 20
4.7975383572
 30
0.0
 10
4.715201858
 20
4.7972773568
 30
0.0
 10
4.7084377252
 20
4.7970165612
 30
0.0
 10
4.7022702157
 20
4.7967560099
 30
0.0
 10
4.6967134174
 20
4.7964958069
 30
0.0
 10
4.6917800336
 20
4.7962360902
 30
0.0
 10
4.6874811985
 20
4.7959771243
 30
0.0
 10
4.6838267831
 20
4.7957191304
 30
0.0
 10
4.6811888099
 20
4.7954945087
 30
0.0
 10
4.6794074884
 20
4.7953101194
 30
0.0
 10
4.6783186827
 20
4.7951805446
 30
0.0
 10
4.6773961097
 20
4.7950514331
 30
0.0
 10
4.6767322002
 20
4.7949389943
 30
0.0
 10
4.6762853048
 20
4.7948468235
 30
0.0
 10
4.6760120229
 20
4.794781936
 30
0.0
 10
4.6757804867
 20
4.794717238
 30
0.0
 10
4.6755904742
 20
4.7946528276
 30
0.0
 10
4.675441903
 20
4.7945886642
 30
0.0
 10
4.6753452647
 20
4.7945319304
 30
0.0
 10
4.6752909657
 20
4.7944845976
 30
0.0
 10
4.6752567314
 20
4.7944436847
 30
0.0
 10
4.675242863
 20
4.7944067078
 30
0.0
 10
4.6752428736
 20
4.7943837732
 30
0.0
  0
SPLINE
  5
393
100
AcDbEntity
  8
0
100
AcDbSpline
 62
7
  6
CONTINUOUS
 70
0
 71
3
 72
14
 73
10
 74
0
 42
0.0000001
 43
0.0000001
 44
0.0000000001
 40
0.0
 40
0.0
 40
0.0
 40
0.0
 40
0.301401115
 40
0.4452799492
 40
0.5811455072
 40
0.7065959214
 40
0.8194156814
 40
0.9177616978
 40
1.0
 40
1.0
 40
1.0
 40
1.0
 10
4.5355907344
 20
5.2622929546
 30
0.0
 10
4.5355907344
 20
5.2636403571
 30
0.0
 10
4.5356341262
 20
5.2656314356
 30
0.0
 10
4.5357846486
 20
5.26822526
 30
0.0
 10
4.5359374181
 20
5.2700304703
 30
0.0
 10
4.536128415
 20
5.2716923651
 30
0.0
 10
4.5363539215
 20
5.2731806612
 30
0.0
 10
4.5366096605
 20
5.2744675886
 30
0.0
 10
4.5368150955
 20
5.2752493285
 30
0.0
 10
4.5369264537
 20
5.2755997011
 30
0.0
  0
SPLINE
  5
394
100
AcDbEntity
  8
0
100
AcDbSpline
 62
7
  6
CONTINUOUS
 70
0
 71
3
 72
11
 73
7
 74
0
 42
0.0000001
 43
0.0000001
 44
0.0000000001
 40
0.0
 40
0.0
 40
0.0
 40
0.0
 40
0.2510202563
 40
0.501529707
 40
0.7512163532
 40
1.0
 40
1.0
 40
1.0
 40
1.0
 10
5.4160082807
 20
5.2622930416
 30
0.0
 10
5.4160082811
 20
5.2636523759
 30
0.0
 10
5.4156402478
 20
5.2663823885
 30
0.0
 10
5.4140215423
 20
5.2701667914
 30
0.0
 10
5.4114593867
 20
5.2733732452
 30
0.0
 10
5.4092343289
 20
5.2749711722
 30
0.0
 10
5.4080427465
 20
5.2755997738
 30
0.0
  0
SPLINE
  5
395
100
AcDbEntity
  8
0
100
AcDbSpline
 62
7
  6
CONTINUOUS
 70
0
 71
3
 72
23
 73
19
 74
0
 42
0.0000001
 43
0.0000001
 44
0.0000000001
 40
0.0
 40
0.0
 40
0.0
 40
0.0
 40
0.1242997081
 40
0.1866887711
 40
0.2492028555
 40
0.3118142621
 40
0.3744974294
 40
0.4058598633
 40
0.4372334605
 40
0.4999994971
 40
0.5627652694
 40
0.5941385783
 40
0.625500819
 40
0.6881840789
 40
0.7507959029
 40
0.8133104115
 40
0.8756998626
 40
1.0
 40
1.0
 40
1.0
 40
1.0
 10
4.8487830551
 20
5.3662269161
 30
0.0
 10
4.8587994432
 20
5.3665925632
 30
0.0
 10
4.8738375683
 20
5.3672933974
 30
0.0
 10
4.8939065877
 20
5.3683084252
 30
0.0
 10
4.909008513
 20
5.3690577763
 30
0.0
 10
4.9241376417
 20
5.3697349361
 30
0.0
 10
4.9367620451
 20
5.370187627
 30
0.0
 10
4.9468719914
 20
5.3704524568
 30
0.0
 10
4.956990311
 20
5.3706420469
 30
0.0
 10
4.9696427145
 20
5.3707371926
 30
0.0
 10
4.9822951069
 20
5.3706428365
 30
0.0
 10
4.9924133606
 20
5.3704528653
 30
0.0
 10
5.0025232604
 20
5.370187475
 30
0.0
 10
5.0151476806
 20
5.3697345999
 30
0.0
 10
5.0302768888
 20
5.3690575371
 30
0.0
 10
5.0453789289
 20
5.3683085009
 30
0.0
 10
5.065448051
 20
5.3672935251
 30
0.0
 10
5.0804862364
 20
5.3665925611
 30
0.0
 10
5.0905026592
 20
5.3662269161
 30
0.0
  0
SPLINE
  5
396
100
AcDbEntity
  8
0
100
AcDbSpline
 62
7
  6
CONTINUOUS
 70
0
 71
3
 72
39
 73
35
 74
0
 42
0.0000001
 43
0.0000001
 44
0.0000000001
 40
0.0
 40
0.0
 40
0.0
 40
0.0
 40
0.000522443
 40
0.0007225193
 40
0.0009552567
 40
0.0015233136
 40
0.0022329777
 40
0.0030871452
 40
0.0040873247
 40
0.0052343691
 40
0.0079707117
 40
0.0112981435
 40
0.0152168847
 40
0.0197258015
 40
0.0305042131
 40
0.0436114798
 40
0.0590180463
 40
0.0766875226
 40
0.0965788924
 40
0.1186437664
 40
0.1428305587
 40
0.1690801068
 40
0.1973305283
 40
0.2275130044
 40
0.2595556403
 40
0.2933809986
 40
0.3660507836
 40
0.4448230863
 40
0.5289400226
 40
0.6175916474
 40
0.7099254491
 40
0.8050502783
 40
0.9020555645
 40
1.0
 40
1.0
 40
1.0
 40
1.0
 10
5.2843927457
 20
4.9997959054
 30
0.0
 10
5.2843927457
 20
4.9997410443
 30
0.0
 10
5.2843258068
 20
4.9996766483
 30
0.0
 10
5.2842424883
 20
4.9996254401
 30
0.0
 10
5.2841481926
 20
4.999577216
 30
0.0
 10
5.2840005655
 20
4.9995195721
 30
0.0
 10
5.2837864475
 20
4.9994533115
 30
0.0
 10
5.2835254705
 20
4.9993869724
 30
0.0
 10
5.283217356
 20
4.9993203355
 30
0.0
 10
5.2827133083
 20
4.9992256762
 30
0.0
 10
5.2819647851
 20
4.999110219
 30
0.0
 10
5.2809248897
 20
4.9989776307
 30
0.0
 10
5.2796976324
 20
4.9988445709
 30
0.0
 10
5.2776896864
 20
4.9986552268
 30
0.0
 10
5.2747167595
 20
4.9984245724
 30
0.0
 10
5.2705991795
 20
4.9981596199
 30
0.0
 10
5.265756757
 20
4.997893711
 30
0.0
 10
5.2602010753
 20
4.9976269816
 30
0.0
 10
5.253945523
 20
4.997359791
 30
0.0
 10
5.2470050548
 20
4.997092215
 30
0.0
 10
5.2393964808
 20
4.9968244032
 30
0.0
 10
5.2311380088
 20
4.9965563734
 30
0.0
 10
5.2222496346
 20
4.9962882094
 30
0.0
 10
5.2127526806
 20
4.9960199149
 30
0.0
 10
5.2026700921
 20
4.9957515273
 30
0.0
 10
5.1881270101
 20
4.9953847499
 30
0.0
 10
5.1686775781
 20
4.994929873
 30
0.0
 10
5.1439475424
 20
4.994395548
 30
0.0
 10
5.1175389158
 20
4.9938607712
 30
0.0
 10
5.0897059434
 20
4.993325641
 30
0.0
 10
5.0607168449
 20
4.9927902735
 30
0.0
 10
5.0308503964
 20
4.9922547336
 30
0.0
 10
5.0003946908
 20
4.9917190941
 30
0.0
 10
4.9799263364
 20
4.9913625418
 30
0.0
 10
4.9696428571
 20
4.9911834054
 30
0.0
  0
SPLINE
  5
397
100
AcDbEntity
  8
0
100
AcDbSpline
 62
7
  6
CONTINUOUS
 70
0
 71
3
 72
39
 73
35
 74
0
 42
0.0000001
 43
0.0000001
 44
0.0000000001
 40
0.0
 40
0.0
 40
0.0
 40
0.0
 40
0.000522443
 40
0.0007225193
 40
0.0009552567
 40
0.0015233136
 40
0.0022329777
 40
0.0030871452
 40
0.0040873247
 40
0.0052343691
 40
0.0079707117
 40
0.0112981435
 40
0.0152168847
 40
0.0197258015
 40
0.0305042131
 40
0.0436114798
 40
0.0590180463
 40
0.0766875226
 40
0.0965788924
 40
0.1186437664
 40
0.1428305587
 40
0.1690801068
 40
0.1973305283
 40
0.2275130044
 40
0.2595556403
 40
0.2933809986
 40
0.3660507836
 40
0.4448230863
 40
0.5289400226
 40
0.6175916474
 40
0.7099254491
 40
0.8050502783
 40
0.9020555645
 40
1.0
 40
1.0
 40
1.0
 40
1.0
 10
5.2843927457
 20
4.9653459054
 30
0.0
 10
5.2843927457
 20
4.9652910443
 30
0.0
 10
5.2843258068
 20
4.9652266483
 30
0.0
 10
5.2842424883
 20
4.9651754401
 30
0.0
 10
5.2841481926
 20
4.965127216
 30
0.0
 10
5.2840005655
 20
4.9650695721
 30
0.0
 10
5.2837864475
 20
4.9650033115
 30
0.0
 10
5.2835254705
 20
4.9649369724
 30
0.0
 10
5.283217356
 20
4.9648703355
 30
0.0
 10
5.2827133083
 20
4.9647756762
 30
0.0
 10
5.2819647851
 20
4.964660219
 30
0.0
 10
5.2809248897
 20
4.9645276307
 30
0.0
 10
5.2796976324
 20
4.9643945709
 30
0.0
 10
5.2776896864
 20
4.9642052268
 30
0.0
 10
5.2747167595
 20
4.9639745724
 30
0.0
 10
5.2705991795
 20
4.9637096199
 30
0.0
 10
5.265756757
 20
4.963443711
 30
0.0
 10
5.2602010753
 20
4.9631769816
 30
0.0
 10
5.253945523
 20
4.962909791
 30
0.0
 10
5.2470050548
 20
4.962642215
 30
0.0
 10
5.2393964808
 20
4.9623744032
 30
0.0
 10
5.2311380088
 20
4.9621063734
 30
0.0
 10
5.2222496346
 20
4.9618382094
 30
0.0
 10
5.2127526806
 20
4.9615699149
 30
0.0
 10
5.2026700921
 20
4.9613015273
 30
0.0
 10
5.1881270101
 20
4.9609347499
 30
0.0
 10
5.1686775781
 20
4.960479873
 30
0.0
 10
5.1439475424
 20
4.959945548
 30
0.0
 10
5.1175389158
 20
4.9594107712
 30
0.0
 10
5.0897059434
 20
4.958875641
 30
0.0
 10
5.0607168449
 20
4.9583402735
 30
0.0
 10
5.0308503964
 20
4.9578047336
 30
0.0
 10
5.0003946908
 20
4.9572690941
 30
0.0
 10
4.9799263364
 20
4.9569125418
 30
0.0
 10
4.9696428571
 20
4.9567334054
 30
0.0
  0
SPLINE
  5
398
100
AcDbEntity
  8
0
100
AcDbSpline
 62
7
  6
CONTINUOUS
 70
0
 71
3
 72
35
 73
31
 74
0
 42
0.0000001
 43
0.0000001
 44
0.0000000001
 40
0.0
 40
0.0
 40
0.0
 40
0.0
 40
0.2164406029
 40
0.3161787722
 40
0.4101300636
 40
0.4981548647
 40
0.5800743162
 40
0.6556674102
 40
0.7246678679
 40
0.7867709006
 40
0.8416368412
 40
0.8662414614
 40
0.8888952093
 40
0.9095501084
 40
0.9281709855
 40
0.9447263524
 40
0.9591840577
 40
0.9715113043
 40
0.9816746687
 40
0.9859342942
 40
0.9896401394
 40
0.9927878583
 40
0.9953730696
 40
0.9973913565
 40
0.998186514
 40
0.9988382685
 40
0.9993460584
 40
0.99970932
 40
0.9999274881
 40
1.0
 40
1.0
 40
1.0
 40
1.0
 10
5.4037687206
 20
5.3662269161
 30
0.0
 10
5.4045282688
 20
5.3664001563
 30
0.0
 10
5.4056282722
 20
5.3666988348
 30
0.0
 10
5.4070261218
 20
5.367174243
 30
0.0
 10
5.4079727642
 20
5.3675384233
 30
0.0
 10
5.4088458382
 20
5.3679131173
 30
0.0
 10
5.4096447403
 20
5.3682915044
 30
0.0
 10
5.4103689149
 20
5.3686664178
 30
0.0
 10
5.4110180366
 20
5.3690302022
 30
0.0
 10
5.4115917211
 20
5.3693752801
 30
0.0
 10
5.4120209139
 20
5.3696501063
 30
0.0
 10
5.4123266096
 20
5.369854249
 30
0.0
 10
5.4125283429
 20
5.3699923075
 30
0.0
 10
5.4127110218
 20
5.3701200502
 30
0.0
 10
5.4128745723
 20
5.3702368264
 30
0.0
 10
5.4130189562
 20
5.3703420444
 30
0.0
 10
5.413144152
 20
5.3704351159
 30
0.0
 10
5.4132501374
 20
5.3705154549
 30
0.0
 10
5.4133263349
 20
5.3705743181
 30
0.0
 10
5.4133776887
 20
5.3706145774
 30
0.0
 10
5.4134090583
 20
5.3706393948
 30
0.0
 10
5.4134356109
 20
5.3706605953
 30
0.0
 10
5.4134573361
 20
5.3706780821
 30
0.0
 10
5.4134724292
 20
5.3706903624
 30
0.0
 10
5.4134820712
 20
5.3706982116
 30
0.0
 10
5.4134875405
 20
5.3707027694
 30
0.0
 10
5.4134916927
 20
5.3707060092
 30
0.0
 10
5.413494895
 20
5.3707090595
 30
0.0
 10
5.4134963948
 20
5.3707095865
 30
0.0
 10
5.4134975278
 20
5.370711257
 30
0.0
 10
5.4134975997
 20
5.3707110061
 30
0.0
  0
SPLINE
  5
399
100
AcDbEntity
  8
0
100
AcDbSpline
 62
7
  6
CONTINUOUS
 70
0
 71
3
 72
39
 73
35
 74
0
 42
0.0000001
 43
0.0000001
 44
0.0000000001
 40
0.0
 40
0.0
 40
0.0
 40
0.0
 40
0.0005224677
 40
0.0007225728
 40
0.0009553479
 40
0.0015235054
 40
0.0022332601
 40
0.0030874541
 40
0.0040876087
 40
0.0052345927
 40
0.0079707756
 40
0.0112981099
 40
0.0152168904
 40
0.0197257609
 40
0.0305040073
 40
0.0436113434
 40
0.0590177284
 40
0.0766872442
 40
0.0965785095
 40
0.1186433939
 40
0.1428301351
 40
0.169079624
 40
0.197330054
 40
0.2275124605
 40
0.2595551692
 40
0.293380491
 40
0.3660502426
 40
0.4448226252
 40
0.5289396223
 40
0.6175912644
 40
0.7099252065
 40
0.8050500242
 40
0.9020555653
 40
1.0
 40
1.0
 40
1.0
 40
1.0
 10
5.2843928568
 20
4.9308959053
 30
0.0
 10
5.2843928564
 20
4.9308410415
 30
0.0
 10
5.2843258965
 20
4.9307766498
 30
0.0
 10
5.2842425652
 20
4.9307254471
 30
0.0
 10
5.2841482483
 20
4.9306772248
 30
0.0
 10
5.2840005939
 20
4.9306195856
 30
0.0
 10
5.2837864511
 20
4.9305533279
 30
0.0
 10
5.2835254644
 20
4.9304869879
 30
0.0
 10
5.2832173562
 20
4.9304203505
 30
0.0
 10
5.2827133348
 20
4.9303256901
 30
0.0
 10
5.2819648457
 20
4.9302102291
 30
0.0
 10
5.2809249734
 20
4.930077638
 30
0.0
 10
5.2796977263
 20
4.9299445821
 30
0.0
 10
5.2776897983
 20
4.9297552351
 30
0.0
 10
5.2747168856
 20
4.9295245779
 30
0.0
 10
5.2705993331
 20
4.9292596329
 30
0.0
 10
5.2657569173
 20
4.9289937167
 30
0.0
 10
5.2602012597
 20
4.928726992
 30
0.0
 10
5.2539457116
 20
4.9284597975
 30
0.0
 10
5.2470052566
 20
4.9281922231
 30
0.0
 10
5.239396691
 20
4.9279244102
 30
0.0
 10
5.2311382274
 20
4.9276563798
 30
0.0
 10
5.2222498633
 20
4.9273882167
 30
0.0
 10
5.2127529055
 20
4.9271199204
 30
0.0
 10
5.2026703176
 20
4.9268515338
 30
0.0
 10
5.1881272312
 20
4.9264847545
 30
0.0
 10
5.1686777926
 20
4.9260298778
 30
0.0
 10
5.1439477387
 20
4.9254955521
 30
0.0
 10
5.1175390881
 20
4.9249607746
 30
0.0
 10
5.089706085
 20
4.9244256438
 30
0.0
 10
5.0607169629
 20
4.9238902757
 30
0.0
 10
5.0308504657
 20
4.9233547348
 30
0.0
 10
5.000394726
 20
4.9228190947
 30
0.0
 10
4.9799263392
 20
4.9224625418
 30
0.0
 10
4.9696428571
 20
4.9222834055
 30
0.0
  0
SPLINE
  5
39A
100
AcDbEntity
  8
0
100
AcDbSpline
 62
7
  6
CONTINUOUS
 70
0
 71
3
 72
15
 73
11
 74
0
 42
0.0000001
 43
0.0000001
 44
0.0000000001
 40
0.0
 40
0.0
 40
0.0
 40
0.0
 40
0.1254869929
 40
0.2512307336
 40
0.3768636686
 40
0.5023226895
 40
0.6274594408
 40
0.7521506697
 40
0.8764134056
 40
1.0
 40
1.0
 40
1.0
 40
1.0
 10
5.3748544769
 20
5.3248385017
 30
0.0
 10
5.3755508187
 20
5.3246514189
 30
0.0
 10
5.376920336
 20
5.3241776809
 30
0.0
 10
5.3788542778
 20
5.3231886681
 30
0.0
 10
5.3806310433
 20
5.3219385341
 30
0.0
 10
5.38221263
 20
5.3204544435
 30
0.0
 10
5.3835675748
 20
5.3187677738
 30
0.0
 10
5.3846669699
 20
5.3169120994
 30
0.0
 10
5.3854866145
 20
5.3149270978
 30
0.0
 10
5.3858375499
 20
5.3135408394
 30
0.0
 10
5.385961118
 20
5.3128415575
 30
0.0
  0
SPLINE
  5
39B
100
AcDbEntity
  8
0
100
AcDbSpline
 62
7
  6
CONTINUOUS
 70
0
 71
3
 72
16
 73
12
 74
0
 42
0.0000001
 43
0.0000001
 44
0.0000000001
 40
0.0
 40
0.0
 40
0.0
 40
0.0
 40
0.0266623564
 40
0.0590255507
 40
0.097044781
 40
0.1406120264
 40
0.2436355691
 40
0.366318637
 40
0.5062360231
 40
0.660612948
 40
1.0
 40
1.0
 40
1.0
 40
1.0
 10
5.3748544769
 20
5.3248385017
 30
0.0
 10
5.3748803925
 20
5.3247340679
 30
0.0
 10
5.3749224496
 20
5.3244991102
 30
0.0
 10
5.374961651
 20
5.3241092427
 30
0.0
 10
5.3749824056
 20
5.3236496477
 30
0.0
 10
5.3749848787
 20
5.3229044717
 30
0.0
 10
5.3749341589
 20
5.3218183463
 30
0.0
 10
5.374803708
 20
5.3203483306
 30
0.0
 10
5.374601907
 20
5.3186774255
 30
0.0
 10
5.3742304535
 20
5.316147023
 30
0.0
 10
5.3738769104
 20
5.3141852462
 30
0.0
 10
5.3736109587
 20
5.3128416509
 30
0.0
  0
SPLINE
  5
39C
100
AcDbEntity
  8
0
100
AcDbSpline
 62
7
  6
CONTINUOUS
 70
0
 71
3
 72
16
 73
12
 74
0
 42
0.0000001
 43
0.0000001
 44
0.0000000001
 40
0.0
 40
0.0
 40
0.0
 40
0.0
 40
0.0268492824
 40
0.0596278372
 40
0.0982826266
 40
0.1426651761
 40
0.2476723355
 40
0.3723350897
 40
0.5136172561
 40
0.6679480889
 40
1.0
 40
1.0
 40
1.0
 40
1.0
 10
5.3297279873
 20
5.3341209839
 30
0.0
 10
5.3297651424
 20
5.3339987159
 30
0.0
 10
5.3298276711
 20
5.333721175
 30
0.0
 10
5.3298918548
 20
5.3332575579
 30
0.0
 10
5.3299346101
 20
5.3327077138
 30
0.0
 10
5.32996374
 20
5.3318129859
 30
0.0
 10
5.3299360271
 20
5.3305080946
 30
0.0
 10
5.329819105
 20
5.3287460839
 30
0.0
 10
5.3296176049
 20
5.3267555966
 30
0.0
 10
5.3292331027
 20
5.3237928331
 30
0.0
 10
5.3288502941
 20
5.3215086596
 30
0.0
 10
5.3285567159
 20
5.3199557698
 30
0.0
  0
SPLINE
  5
39D
100
AcDbEntity
  8
0
100
AcDbSpline
 62
7
  6
CONTINUOUS
 70
0
 71
3
 72
15
 73
11
 74
0
 42
0.0000001
 43
0.0000001
 44
0.0000000001
 40
0.0
 40
0.0
 40
0.0
 40
0.0
 40
0.0278098515
 40
0.0617190528
 40
0.1469292293
 40
0.2535166412
 40
0.3788777507
 40
0.51988265
 40
0.6729707943
 40
1.0
 40
1.0
 40
1.0
 40
1.0
 10
4.8487830551
 20
5.3662269161
 30
0.0
 10
4.848772713
 20
5.3660947418
 30
0.0
 10
4.8487562331
 20
5.3658009042
 30
0.0
 10
4.8487346885
 20
5.3651007413
 30
0.0
 10
4.848731835
 20
5.3640245537
 30
0.0
 10
4.8487581078
 20
5.3625127485
 30
0.0
 10
4.8488148173
 20
5.3607356108
 30
0.0
 10
4.8489006525
 20
5.3587377539
 30
0.0
 10
4.8490549268
 20
5.3557806627
 30
0.0
 10
4.849201909
 20
5.3534963995
 30
0.0
 10
4.8493128988
 20
5.3519413047
 30
0.0
  0
SPLINE
  5
39E
100
AcDbEntity
  8
0
100
AcDbSpline
 62
7
  6
CONTINUOUS
 70
0
 71
3
 72
17
 73
13
 74
0
 42
0.0000001
 43
0.0000001
 44
0.0000000001
 40
0.0
 40
0.0
 40
0.0
 40
0.0
 40
0.0266564246
 40
0.0590098588
 40
0.0970206254
 40
0.1405834958
 40
0.2436060731
 40
0.3662897114
 40
0.5062074001
 40
0.6605861842
 40
0.8264148501
 40
1.0
 40
1.0
 40
1.0
 40
1.0
 10
4.5644315731
 20
5.3248385076
 30
0.0
 10
4.5644056614
 20
5.3247340965
 30
0.0
 10
4.5643637184
 20
5.324499175
 30
0.0
 10
4.5643247968
 20
5.3241093748
 30
0.0
 10
4.5643043134
 20
5.3236498565
 30
0.0
 10
4.5643019887
 20
5.3229047325
 30
0.0
 10
4.5643525519
 20
5.3218186138
 30
0.0
 10
4.5644829144
 20
5.3203485711
 30
0.0
 10
4.5646848531
 20
5.3186776632
 30
0.0
 10
4.5649546787
 20
5.316840269
 30
0.0
 10
4.5652856287
 20
5.3148749996
 30
0.0
 10
4.5655388964
 20
5.3135287338
 30
0.0
 10
4.5656749158
 20
5.3128415219
 30
0.0
  0
SPLINE
  5
39F
100
AcDbEntity
  8
0
100
AcDbSpline
 62
7
  6
CONTINUOUS
 70
0
 71
3
 72
15
 73
11
 74
0
 42
0.0000001
 43
0.0000001
 44
0.0000000001
 40
0.0
 40
0.0
 40
0.0
 40
0.0
 40
0.1254872103
 40
0.2512321424
 40
0.3768662382
 40
0.5023261943
 40
0.6274647687
 40
0.7521579279
 40
0.8764173841
 40
1.0
 40
1.0
 40
1.0
 40
1.0
 10
4.5644315731
 20
5.3248385076
 30
0.0
 10
4.5637352634
 20
5.3246514166
 30
0.0
 10
4.5623658425
 20
5.3241775369
 30
0.0
 10
4.5604320771
 20
5.3231883665
 30
0.0
 10
4.5586553823
 20
5.3219382646
 30
0.0
 10
4.5570738689
 20
5.3204541908
 30
0.0
 10
4.5557190206
 20
5.318767522
 30
0.0
 10
4.5546197438
 20
5.3169118834
 30
0.0
 10
4.5538000764
 20
5.3149270287
 30
0.0
 10
4.5534490967
 20
5.3135408834
 30
0.0
 10
4.5533255246
 20
5.3128416554
 30
0.0
  0
SPLINE
  5
3A0
100
AcDbEntity
  8
0
100
AcDbSpline
 62
7
  6
CONTINUOUS
 70
0
 71
3
 72
63
 73
59
 74
0
 42
0.0000001
 43
0.0000001
 44
0.0000000001
 40
0.0
 40
0.0
 40
0.0
 40
0.0
 40
0.0001173489
 40
0.0001890299
 40
0.0002731513
 40
0.0004847724
 40
0.0007601022
 40
0.0011023963
 40
0.0015132542
 40
0.0019935446
 40
0.0025437731
 40
0.0038550829
 40
0.005448502
 40
0.0073243589
 40
0.0094822595
 40
0.0146398676
 40
0.0209116593
 40
0.0282845689
 40
0.0367418223
 40
0.0462650753
 40
0.0568320459
 40
0.068419205
 40
0.0809997309
 40
0.0945449067
 40
0.1090238731
 40
0.1406475274
 40
0.1755804664
 40
0.213501926
 40
0.2540635508
 40
0.2968926287
 40
0.3415955733
 40
0.3877614152
 40
0.4349658902
 40
0.4827750887
 40
0.5307495525
 40
0.5784483839
 40
0.6254329987
 40
0.6712716349
 40
0.7155428744
 40
0.7578399187
 40
0.7977740819
 40
0.8349783971
 40
0.869111139
 40
0.8998587575
 40
0.9269391295
 40
0.9390251887
 40
0.9501041837
 40
0.9601510028
 40
0.969142364
 40
0.9770585794
 40
0.9838812846
 40
0.9895962765
 40
0.9920345316
 40
0.9941915334
 40
0.9960666556
 40
0.9976595696
 40
0.9989703605
 40
1.0
 40
1.0
 40
1.0
 40
1.0
 10
5.2640427418
 20
4.8328087733
 30
0.0
 10
5.2640427473
 20
4.8327857531
 30
0.0
 10
5.2640287764
 20
4.8327486364
 30
0.0
 10
5.2639943434
 20
4.8327075946
 30
0.0
 10
5.2639397046
 20
4.8326600891
 30
0.0
 10
5.2638424492
 20
4.8326031573
 30
0.0
 10
5.2636928995
 20
4.8325387752
 30
0.0
 10
5.2635015831
 20
4.8324741501
 30
0.0
 10
5.2632684216
 20
4.8324092331
 30
0.0
 10
5.2629932065
 20
4.8323441246
 30
0.0
 10
5.2625431695
 20
4.8322516408
 30
0.0
 10
5.2618746846
 20
4.832138821
 30
0.0
 10
5.2609458107
 20
4.832009247
 30
0.0
 10
5.2598495542
 20
4.8318792221
 30
0.0
 10
5.2580559631
 20
4.8316942124
 30
0.0
 10
5.2553999168
 20
4.8314688225
 30
0.0
 10
5.2517205237
 20
4.8312099126
 30
0.0
 10
5.2473925383
 20
4.8309500861
 30
0.0
 10
5.2424257896
 20
4.8306894453
 30
0.0
 10
5.2368317278
 20
4.8304283665
 30
0.0
 10
5.2306230982
 20
4.8301669063
 30
0.0
 10
5.2238142553
 20
4.8299052126
 30
0.0
 10
5.2164207945
 20
4.8296433193
 30
0.0
 10
5.208459728
 20
4.829381269
 30
0.0
 10
5.1967642274
 20
4.8290210446
 30
0.0
 10
5.1808737995
 20
4.8285751837
 30
0.0
 10
5.1603850802
 20
4.8280536859
 30
0.0
 10
5.1381425047
 20
4.8275315651
 30
0.0
 10
5.1143505695
 20
4.8270089562
 30
0.0
 10
5.0892280236
 20
4.8264860108
 30
0.0
 10
5.0630058834
 20
4.8259628201
 30
0.0
 10
5.0359252657
 20
4.8254394586
 30
0.0
 10
5.0082351892
 20
4.8249159853
 30
0.0
 10
4.9801902564
 20
4.82439245
 30
0.0
 10
4.9520483299
 20
4.8238688983
 30
0.0
 10
4.9240681884
 20
4.8233453745
 30
0.0
 10
4.8965071024
 20
4.8228219244
 30
0.0
 10
4.8696185242
 20
4.8222985997
 30
0.0
 10
4.8436496765
 20
4.8217754626
 30
0.0
 10
4.8188393411
 20
4.8212525903
 30
0.0
 10
4.7954156306
 20
4.8207300913
 30
0.0
 10
4.7735939135
 20
4.8202080993
 30
0.0
 10
4.7535748433
 20
4.8196868687
 30
0.0
 10
4.7355424891
 20
4.8191666034
 30
0.0
 10
4.7218347748
 20
4.8187191511
 30
0.0
 10
4.711984859
 20
4.8183561597
 30
0.0
 10
4.7054749637
 20
4.8180945571
 30
0.0
 10
4.6995726711
 20
4.8178332876
 30
0.0
 10
4.6942914716
 20
4.8175723851
 30
0.0
 10
4.6896435603
 20
4.8173121513
 30
0.0
 10
4.6856394865
 20
4.8170526499
 30
0.0
 10
4.682710184
 20
4.8168274136
 30
0.0
 10
4.6806959894
 20
4.8166433869
 30
0.0
 10
4.6794333768
 20
4.8165130008
 30
0.0
 10
4.6783375624
 20
4.8163829616
 30
0.0
 10
4.677408974
 20
4.8162534844
 30
0.0
 10
4.6766481078
 20
4.8161247462
 30
0.0
 10
4.6761988023
 20
4.816028635
 30
0.0
 10
4.6760032861
 20
4.8159779337
 30
0.0
  0
SPLINE
  5
3A1
100
AcDbEntity
  8
0
100
AcDbSpline
 62
7
  6
CONTINUOUS
 70
0
 71
3
 72
15
 73
11
 74
0
 42
0.0000001
 43
0.0000001
 44
0.0000000001
 40
0.0
 40
0.0
 40
0.0
 40
0.0
 40
0.1253395384
 40
0.2509571973
 40
0.3765613802
 40
0.5020549787
 40
0.6272563658
 40
0.7520137323
 40
0.8763138689
 40
1.0
 40
1.0
 40
1.0
 40
1.0
 10
4.5582744708
 20
5.3341209839
 30
0.0
 10
4.5574998256
 20
5.3339027287
 30
0.0
 10
4.5559808619
 20
5.3333415962
 30
0.0
 10
4.5538636225
 20
5.3321543492
 30
0.0
 10
4.5519571312
 20
5.3306492904
 30
0.0
 10
4.5503112766
 20
5.3288667233
 30
0.0
 10
4.5489690831
 20
5.3268520562
 30
0.0
 10
4.5479647123
 20
5.3246575572
 30
0.0
 10
4.5473255985
 20
5.3223409046
 30
0.0
 10
4.5471529735
 20
5.3207496802
 30
0.0
 10
4.5471319718
 20
5.3199557698
 30
0.0
  0
SPLINE
  5
3A2
100
AcDbEntity
  8
0
100
AcDbSpline
 62
7
  6
CONTINUOUS
 70
0
 71
3
 72
63
 73
59
 74
0
 42
0.0000001
 43
0.0000001
 44
0.0000000001
 40
0.0
 40
0.0
 40
0.0
 40
0.0
 40
0.0001173802
 40
0.0001890939
 40
0.0002732505
 40
0.0004849245
 40
0.0007602468
 40
0.001102454
 40
0.0015131909
 40
0.0019933871
 40
0.0025436007
 40
0.003855063
 40
0.0054486598
 40
0.0073244618
 40
0.0094821264
 40
0.014639907
 40
0.0209116701
 40
0.0282844909
 40
0.03674198
 40
0.0462649231
 40
0.0568321803
 40
0.0684190753
 40
0.0809997865
 40
0.0945449378
 40
0.1090238215
 40
0.1406473998
 40
0.1755804043
 40
0.2135019338
 40
0.2540636524
 40
0.2968927287
 40
0.341595602
 40
0.3877614411
 40
0.4349658852
 40
0.4827751249
 40
0.5307496159
 40
0.5784483903
 40
0.6254330153
 40
0.6712716163
 40
0.715542919
 40
0.7578400438
 40
0.797774215
 40
0.8349785176
 40
0.8691111111
 40
0.8998586774
 40
0.9269390871
 40
0.9390253111
 40
0.9501042388
 40
0.9601509926
 40
0.9691425592
 40
0.9770584825
 40
0.9838815209
 40
0.9895962143
 40
0.992034456
 40
0.9941916897
 40
0.9960668919
 40
0.9976596396
 40
0.9989702701
 40
1.0
 40
1.0
 40
1.0
 40
1.0
 10
5.2640427976
 20
4.8672587732
 30
0.0
 10
5.2640427839
 20
4.8672357469
 30
0.0
 10
5.2640287731
 20
4.8671986323
 30
0.0
 10
5.263994306
 20
4.8671575955
 30
0.0
 10
5.2639396325
 20
4.8671100941
 30
0.0
 10
5.2638423586
 20
4.8670531664
 30
0.0
 10
5.2636928188
 20
4.8669887826
 30
0.0
 10
5.2635015495
 20
4.8669241508
 30
0.0
 10
5.2632684505
 20
4.8668592297
 30
0.0
 10
5.2629932822
 20
4.8667941188
 30
0.0
 10
5.2625432368
 20
4.8667016335
 30
0.0
 10
5.2618746875
 20
4.8665888225
 30
0.0
 10
5.2609457582
 20
4.8664592567
 30
0.0
 10
5.2598495248
 20
4.866329227
 30
0.0
 10
5.2580559598
 20
4.8661441918
 30
0.0
 10
5.2553999287
 20
4.8659188351
 30
0.0
 10
5.2517205265
 20
4.8656599114
 30
0.0
 10
5.2473925183
 20
4.8654000794
 30
0.0
 10
5.2424258011
 20
4.8651394566
 30
0.0
 10
5.2368316992
 20
4.8648783536
 30
0.0
 10
5.2306231254
 20
4.8646169174
 30
0.0
 10
5.2238142431
 20
4.8643552046
 30
0.0
 10
5.2164208027
 20
4.8640933234
 30
0.0
 10
5.2084597217
 20
4.8638312683
 30
0.0
 10
5.196764258
 20
4.863471044
 30
0.0
 10
5.1808738496
 20
4.8630251829
 30
0.0
 10
5.1603851203
 20
4.8625036854
 30
0.0
 10
5.1381425016
 20
4.8619815652
 30
0.0
 10
5.1143505365
 20
4.8614589567
 30
0.0
 10
5.0892279885
 20
4.8609360109
 30
0.0
 10
5.0630058653
 20
4.8604128199
 30
0.0
 10
5.0359252704
 20
4.8598894584
 30
0.0
 10
5.0082351947
 20
4.859365985
 30
0.0
 10
4.9801902567
 20
4.8588424501
 30
0.0
 10
4.9520483302
 20
4.8583188986
 30
0.0
 10
4.9240681949
 20
4.8577953746
 30
0.0
 10
4.8965071272
 20
4.8572719243
 30
0.0
 10
4.8696185436
 20
4.8567485995
 30
0.0
 10
4.8436496768
 20
4.8562254624
 30
0.0
 10
4.8188393135
 20
4.8557025907
 30
0.0
 10
4.79541559
 20
4.855180092
 30
0.0
 10
4.7735939047
 20
4.8546581002
 30
0.0
 10
4.753574878
 20
4.8541368684
 30
0.0
 10
4.7355425572
 20
4.8536166036
 30
0.0
 10
4.7218348147
 20
4.8531691471
 30
0.0
 10
4.7119848729
 20
4.852806163
 30
0.0
 10
4.7054749718
 20
4.8525445588
 30
0.0
 10
4.6995726658
 20
4.8522832801
 30
0.0
 10
4.6942914955
 20
4.8520223987
 30
0.0
 10
4.689643538
 20
4.8517621331
 30
0.0
 10
4.6856395127
 20
4.8515026687
 30
0.0
 10
4.6827102078
 20
4.8512774107
 30
0.0
 10
4.6806960298
 20
4.8510933779
 30
0.0
 10
4.6794333571
 20
4.850963005
 30
0.0
 10
4.6783375131
 20
4.850832972
 30
0.0
 10
4.6774089746
 20
4.850703487
 30
0.0
 10
4.6766481578
 20
4.8505747337
 30
0.0
 10
4.6761988665
 20
4.8504786265
 30
0.0
 10
4.6760033298
 20
4.8504279339
 30
0.0
  0
SPLINE
  5
3A3
100
AcDbEntity
  8
0
100
AcDbSpline
 62
7
  6
CONTINUOUS
 70
0
 71
3
 72
12
 73
8
 74
0
 42
0.0000001
 43
0.0000001
 44
0.0000000001
 40
0.0
 40
0.0
 40
0.0
 40
0.0
 40
0.2747016155
 40
0.5392983723
 40
0.784064576
 40
0.8961607147
 40
1.0
 40
1.0
 40
1.0
 40
1.0
 10
4.9696428571
 20
4.7738091411
 30
0.0
 10
4.9496128275
 20
4.7734602217
 30
0.0
 10
4.9102895668
 20
4.7727753275
 30
0.0
 10
4.8531196842
 20
4.7717427428
 30
0.0
 10
4.8078072898
 20
4.7708613739
 30
0.0
 10
4.7742175367
 20
4.7701428893
 30
0.0
 10
4.7584742666
 20
4.7697796816
 30
0.0
 10
4.7509038367
 20
4.7695962771
 30
0.0
  0
SPLINE
  5
3A4
100
AcDbEntity
  8
0
100
AcDbSpline
 62
7
  6
CONTINUOUS
 70
0
 71
3
 72
30
 73
26
 74
0
 42
0.0000001
 43
0.0000001
 44
0.0000000001
 40
0.0
 40
0.0
 40
0.0
 40
0.0
 40
0.187195289
 40
0.2787245428
 40
0.3677975177
 40
0.453625248
 40
0.5354519318
 40
0.6125554156
 40
0.6842559473
 40
0.7499212194
 40
0.8089726879
 40
0.8608903717
 40
0.8840290999
 40
0.9052177562
 40
0.9244110523
 40
0.9415662238
 40
0.9566465393
 40
0.9696197103
 40
0.9804581076
 40
0.9850703883
 40
0.9891416199
 40
0.9926700471
 40
0.9956552527
 40
0.9980978098
 40
1.0
 40
1.0
 40
1.0
 40
1.0
 10
4.9696428571
 20
4.7844834055
 30
0.0
 10
4.9500402661
 20
4.7841419319
 30
0.0
 10
4.9208529731
 20
4.7836336054
 30
0.0
 10
4.8823385155
 20
4.7829446849
 30
0.0
 10
4.8544391576
 20
4.7824319791
 30
0.0
 10
4.8275561542
 20
4.7819194648
 30
0.0
 10
4.8019269858
 20
4.7814072193
 30
0.0
 10
4.7777777071
 20
4.780895347
 30
0.0
 10
4.7553214586
 20
4.7803839809
 30
0.0
 10
4.7347563633
 20
4.7798733713
 30
0.0
 10
4.7162638676
 20
4.7793637238
 30
0.0
 10
4.7022251094
 20
4.7789252487
 30
0.0
 10
4.6921513192
 20
4.7785695059
 30
0.0
 10
4.6855035173
 20
4.7783132472
 30
0.0
 10
4.6794828861
 20
4.7780573256
 30
0.0
 10
4.674102623
 20
4.7778017857
 30
0.0
 10
4.6693745939
 20
4.7775468873
 30
0.0
 10
4.6653092043
 20
4.7772927761
 30
0.0
 10
4.6623403435
 20
4.7770720834
 30
0.0
 10
4.6603036923
 20
4.7768916778
 30
0.0
 10
4.6590310444
 20
4.7767640054
 30
0.0
 10
4.6579297492
 20
4.7766366772
 30
0.0
 10
4.6570002202
 20
4.7765099411
 30
0.0
 10
4.65624286
 20
4.776383971
 30
0.0
 10
4.6557973246
 20
4.7762896434
 30
0.0
 10
4.6556044737
 20
4.7762396622
 30
0.0
  0
SPLINE
  5
3A5
100
AcDbEntity
  8
0
100
AcDbSpline
 62
7
  6
CONTINUOUS
 70
0
 71
3
 72
30
 73
26
 74
0
 42
0.0000001
 43
0.0000001
 44
0.0000000001
 40
0.0
 40
0.0
 40
0.0
 40
0.0
 40
0.1871953471
 40
0.2787245374
 40
0.3677975421
 40
0.453625276
 40
0.5354519739
 40
0.6125554615
 40
0.6842559711
 40
0.7499212385
 40
0.8089727027
 40
0.8608904078
 40
0.8840291387
 40
0.9052178266
 40
0.9244110595
 40
0.9415663152
 40
0.9566465469
 40
0.9696198088
 40
0.9804581444
 40
0.9850703886
 40
0.9891416699
 40
0.9926701574
 40
0.9956553264
 40
0.9980978224
 40
1.0
 40
1.0
 40
1.0
 40
1.0
 10
4.9696428571
 20
4.8189334055
 30
0.0
 10
4.9500402612
 20
4.8185919318
 30
0.0
 10
4.9208529704
 20
4.8180836054
 30
0.0
 10
4.8823385124
 20
4.8173946848
 30
0.0
 10
4.8544391592
 20
4.8168819791
 30
0.0
 10
4.8275561523
 20
4.8163694648
 30
0.0
 10
4.8019269832
 20
4.8158572193
 30
0.0
 10
4.7777777063
 20
4.8153453471
 30
0.0
 10
4.7553214614
 20
4.8148339809
 30
0.0
 10
4.7347563706
 20
4.8143233713
 30
0.0
 10
4.7162638747
 20
4.8138137236
 30
0.0
 10
4.7022251152
 20
4.8133752491
 30
0.0
 10
4.6921513197
 20
4.8130195054
 30
0.0
 10
4.6855035212
 20
4.8127632483
 30
0.0
 10
4.6794828849
 20
4.8125073238
 30
0.0
 10
4.6741026286
 20
4.812251788
 30
0.0
 10
4.6693745904
 20
4.8119968849
 30
0.0
 10
4.6653092065
 20
4.811742778
 30
0.0
 10
4.6623403467
 20
4.8115220841
 30
0.0
 10
4.6603037009
 20
4.8113416764
 30
0.0
 10
4.6590310453
 20
4.8112140048
 30
0.0
 10
4.657929742
 20
4.8110866794
 30
0.0
 10
4.6570002172
 20
4.810959942
 30
0.0
 10
4.656242869
 20
4.8108339703
 30
0.0
 10
4.6557973418
 20
4.810739642
 30
0.0
 10
4.6556044918
 20
4.8106896622
 30
0.0
  0
SPLINE
  5
3A6
100
AcDbEntity
  8
0
100
AcDbSpline
 62
7
  6
CONTINUOUS
 70
0
 71
3
 72
39
 73
35
 74
0
 42
0.0000001
 43
0.0000001
 44
0.0000000001
 40
0.0
 40
0.0
 40
0.0
 40
0.0
 40
0.0979444355
 40
0.1949497217
 40
0.2900745509
 40
0.3824083526
 40
0.4710599774
 40
0.5551769137
 40
0.6339492164
 40
0.7066190014
 40
0.7404443597
 40
0.7724869956
 40
0.8026694717
 40
0.8309198932
 40
0.8571694413
 40
0.8813562336
 40
0.9034211076
 40
0.9233124774
 40
0.9409819537
 40
0.9563885202
 40
0.9694957869
 40
0.9802741985
 40
0.9847831153
 40
0.9887018565
 40
0.9920292883
 40
0.9947656309
 40
0.9959126753
 40
0.9969128548
 40
0.9977670223
 40
0.9984766864
 40
0.9990447433
 40
0.9992774807
 40
0.999477557
 40
1.0
 40
1.0
 40
1.0
 40
1.0
 10
4.9696428571
 20
4.8082591411
 30
0.0
 10
4.9593593779
 20
4.8080800048
 30
0.0
 10
4.9388910235
 20
4.8077234525
 30
0.0
 10
4.9084353179
 20
4.807187813
 30
0.0
 10
4.8785688694
 20
4.806652273
 30
0.0
 10
4.8495797709
 20
4.8061169056
 30
0.0
 10
4.8217467985
 20
4.8055817754
 30
0.0
 10
4.7953381719
 20
4.8050469985
 30
0.0
 10
4.7706081362
 20
4.8045126736
 30
0.0
 10
4.7511587042
 20
4.8040577967
 30
0.0
 10
4.7366156222
 20
4.8036910193
 30
0.0
 10
4.7265330337
 20
4.8034226316
 30
0.0
 10
4.7170360797
 20
4.8031543372
 30
0.0
 10
4.7081477055
 20
4.8028861732
 30
0.0
 10
4.6998892335
 20
4.8026181434
 30
0.0
 10
4.6922806595
 20
4.8023503316
 30
0.0
 10
4.6853401912
 20
4.8020827556
 30
0.0
 10
4.679084639
 20
4.8018155649
 30
0.0
 10
4.6735289573
 20
4.8015488356
 30
0.0
 10
4.6686865348
 20
4.8012829267
 30
0.0
 10
4.6645689548
 20
4.8010179742
 30
0.0
 10
4.6615960279
 20
4.8007873198
 30
0.0
 10
4.6595880819
 20
4.8005979756
 30
0.0
 10
4.6583608245
 20
4.8004649159
 30
0.0
 10
4.6573209292
 20
4.8003323276
 30
0.0
 10
4.656572406
 20
4.8002168704
 30
0.0
 10
4.6560683583
 20
4.800122211
 30
0.0
 10
4.6557602438
 20
4.8000555742
 30
0.0
 10
4.6554992668
 20
4.7999892351
 30
0.0
 10
4.6552851488
 20
4.7999229745
 30
0.0
 10
4.6551375217
 20
4.7998653306
 30
0.0
 10
4.6550432259
 20
4.7998171065
 30
0.0
 10
4.6549599075
 20
4.7997658983
 30
0.0
 10
4.6548929686
 20
4.7997015023
 30
0.0
 10
4.6548929686
 20
4.7996466411
 30
0.0
  0
SPLINE
  5
3A7
100
AcDbEntity
  8
0
100
AcDbSpline
 62
7
  6
CONTINUOUS
 70
0
 71
3
 72
15
 73
11
 74
0
 42
0.0000001
 43
0.0000001
 44
0.0000000001
 40
0.0
 40
0.0
 40
0.0
 40
0.0
 40
0.2184797565
 40
0.4090474033
 40
0.571887543
 40
0.7073134491
 40
0.8158949812
 40
0.8604687428
 40
0.8988609118
 40
1.0
 40
1.0
 40
1.0
 40
1.0
 10
4.6767907938
 20
5.2083462733
 30
0.0
 10
4.6766697361
 20
5.2083242586
 30
0.0
 10
4.6764434918
 20
5.2082807519
 30
0.0
 10
4.6761289628
 20
5.2082111345
 30
0.0
 10
4.6758624944
 20
5.2081417989
 30
0.0
 10
4.675643801
 20
5.2080725413
 30
0.0
 10
4.6754929729
 20
5.2080122821
 30
0.0
 10
4.6753966692
 20
5.2079619195
 30
0.0
 10
4.6753109665
 20
5.2079080915
 30
0.0
 10
4.6752429802
 20
5.2078407327
 30
0.0
 10
4.6752429093
 20
5.2077837734
 30
0.0
  0
SPLINE
  5
3A8
100
AcDbEntity
  8
0
100
AcDbSpline
 62
7
  6
CONTINUOUS
 70
0
 71
3
 72
39
 73
35
 74
0
 42
0.0000001
 43
0.0000001
 44
0.0000000001
 40
0.0
 40
0.0
 40
0.0
 40
0.0
 40
0.0979443522
 40
0.194949762
 40
0.290074521
 40
0.382408345
 40
0.4710599582
 40
0.5551769042
 40
0.6339492106
 40
0.706619004
 40
0.7404443214
 40
0.7724870048
 40
0.8026694309
 40
0.8309198828
 40
0.8571694139
 40
0.8813562006
 40
0.9034211042
 40
0.923312415
 40
0.9409819652
 40
0.9563884474
 40
0.9694958169
 40
0.9802741337
 40
0.9847830512
 40
0.9887018805
 40
0.9920293044
 40
0.9947655837
 40
0.9959126016
 40
0.996912772
 40
0.9977669576
 40
0.998476674
 40
0.9990447695
 40
0.9992775127
 40
0.9994775879
 40
1.0
 40
1.0
 40
1.0
 40
1.0
 10
4.9696428571
 20
4.8427091411
 30
0.0
 10
4.9593593865
 20
4.8425300049
 30
0.0
 10
4.9388910274
 20
4.8421734526
 30
0.0
 10
4.9084353243
 20
4.8416378131
 30
0.0
 10
4.8785688672
 20
4.841102273
 30
0.0
 10
4.8495797744
 20
4.8405669056
 30
0.0
 10
4.8217467993
 20
4.8400317753
 30
0.0
 10
4.7953381719
 20
4.8394969986
 30
0.0
 10
4.7706081335
 20
4.8389626734
 30
0.0
 10
4.751158704
 20
4.8385077972
 30
0.0
 10
4.7366156202
 20
4.8381410187
 30
0.0
 10
4.726533036
 20
4.8378726323
 30
0.0
 10
4.717036079
 20
4.8376043367
 30
0.0
 10
4.7081477084
 20
4.8373361736
 30
0.0
 10
4.6998892354
 20
4.8370681434
 30
0.0
 10
4.6922806606
 20
4.8368003311
 30
0.0
 10
4.6853401957
 20
4.8365327567
 30
0.0
 10
4.6790846389
 20
4.8362655633
 30
0.0
 10
4.6735289641
 20
4.835998838
 30
0.0
 10
4.6686865321
 20
4.8357329238
 30
0.0
 10
4.6645689596
 20
4.8354679771
 30
0.0
 10
4.6615960319
 20
4.8352373194
 30
0.0
 10
4.6595880868
 20
4.8350479736
 30
0.0
 10
4.6583608204
 20
4.8349149178
 30
0.0
 10
4.6573209233
 20
4.8347823292
 30
0.0
 10
4.6565724106
 20
4.8346668706
 30
0.0
 10
4.6560683736
 20
4.8345722106
 30
0.0
 10
4.655760261
 20
4.8345055734
 30
0.0
 10
4.6554992777
 20
4.8344392331
 30
0.0
 10
4.6552851473
 20
4.8343729744
 30
0.0
 10
4.6551375087
 20
4.834315332
 30
0.0
 10
4.6550432082
 20
4.8342671068
 30
0.0
 10
4.654959892
 20
4.834215901
 30
0.0
 10
4.6548929582
 20
4.834151499
 30
0.0
 10
4.6548929676
 20
4.8340966411
 30
0.0
  0
SPLINE
  5
3A9
100
AcDbEntity
  8
0
100
AcDbSpline
 62
7
  6
CONTINUOUS
 70
0
 71
3
 72
63
 73
59
 74
0
 42
0.0000001
 43
0.0000001
 44
0.0000000001
 40
0.0
 40
0.0
 40
0.0
 40
0.0
 40
0.0001173508
 40
0.0001890537
 40
0.0002732138
 40
0.0004849379
 40
0.0007603489
 40
0.001102652
 40
0.0015134586
 40
0.0019936646
 40
0.0025438034
 40
0.0038550334
 40
0.0054486337
 40
0.0073246281
 40
0.0094824121
 40
0.0146398503
 40
0.0209118964
 40
0.028284522
 40
0.0367420708
 40
0.0462651082
 40
0.0568321746
 40
0.0684193392
 40
0.080999734
 40
0.0945451272
 40
0.1090238525
 40
0.1406475685
 40
0.1755805942
 40
0.2135021158
 40
0.2540637296
 40
0.2968927567
 40
0.3415956477
 40
0.3877614839
 40
0.4349660128
 40
0.4827752043
 40
0.530749689
 40
0.5784484712
 40
0.625433098
 40
0.6712717837
 40
0.7155430639
 40
0.7578401347
 40
0.7977742279
 40
0.8349784817
 40
0.8691111592
 40
0.8998588125
 40
0.9269393122
 40
0.9390252584
 40
0.9501044712
 40
0.960151005
 40
0.9691426441
 40
0.9770586196
 40
0.9838814754
 40
0.9895964642
 40
0.9920345321
 40
0.9941916055
 40
0.9960669048
 40
0.9976598724
 40
0.9989704636
 40
1.0
 40
1.0
 40
1.0
 40
1.0
 10
5.2640428356
 20
4.9017087733
 30
0.0
 10
5.2640428473
 20
4.9016857528
 30
0.0
 10
5.2640288684
 20
4.9016486284
 30
0.0
 10
5.2639944097
 20
4.9016075925
 30
0.0
 10
5.2639397267
 20
4.9015600888
 30
0.0
 10
5.2638424173
 20
4.9015031648
 30
0.0
 10
5.2636928265
 20
4.9014387843
 30
0.0
 10
5.2635015039
 20
4.9013741548
 30
0.0
 10
5.263268369
 20
4.9013092349
 30
0.0
 10
5.2629931998
 20
4.9012441244
 30
0.0
 10
5.2625432148
 20
4.9011516352
 30
0.0
 10
5.2618747283
 20
4.9010388088
 30
0.0
 10
5.2609458048
 20
4.9009092518
 30
0.0
 10
5.259849508
 20
4.9007792312
 30
0.0
 10
5.2580559479
 20
4.9005942071
 30
0.0
 10
5.2553999083
 20
4.9003688114
 30
0.0
 10
5.2517205529
 20
4.9001099287
 30
0.0
 10
5.2473925174
 20
4.8998500706
 30
0.0
 10
5.2424258075
 20
4.8995894582
 30
0.0
 10
5.2368317124
 20
4.8993283588
 30
0.0
 10
5.2306231051
 20
4.8990669092
 30
0.0
 10
5.2238142684
 20
4.8988052146
 30
0.0
 10
5.2164207902
 20
4.8985433146
 30
0.0
 10
5.2084597542
 20
4.8982812752
 30
0.0
 10
5.1967642471
 20
4.8979210378
 30
0.0
 10
5.1808738378
 20
4.8974751858
 30
0.0
 10
5.1603850783
 20
4.8969536857
 30
0.0
 10
5.1381424769
 20
4.8964315659
 30
0.0
 10
5.1143505428
 20
4.8959089566
 30
0.0
 10
5.0892280208
 20
4.8953860109
 30
0.0
 10
5.0630059036
 20
4.8948628198
 30
0.0
 10
5.0359252882
 20
4.8943394586
 30
0.0
 10
5.008235205
 20
4.8938159855
 30
0.0
 10
4.9801902603
 20
4.8932924503
 30
0.0
 10
4.9520483421
 20
4.8927688986
 30
0.0
 10
4.9240682052
 20
4.8922453745
 30
0.0
 10
4.8965071181
 20
4.8917219242
 30
0.0
 10
4.8696185212
 20
4.8911985998
 30
0.0
 10
4.8436496519
 20
4.8906754629
 30
0.0
 10
4.8188393182
 20
4.8901525909
 30
0.0
 10
4.7954156294
 20
4.8896300917
 30
0.0
 10
4.7735939519
 20
4.8891080992
 30
0.0
 10
4.7535749005
 20
4.8885868689
 30
0.0
 10
4.7355425281
 20
4.8880666003
 30
0.0
 10
4.7218348044
 20
4.8876191577
 30
0.0
 10
4.711984844
 20
4.8872561532
 30
0.0
 10
4.7054749837
 20
4.8869945678
 30
0.0
 10
4.6995726511
 20
4.8867332752
 30
0.0
 10
4.6942914992
 20
4.8864723977
 30
0.0
 10
4.6896435523
 20
4.8862121424
 30
0.0
 10
4.6856394964
 20
4.8859526504
 30
0.0
 10
4.6827102007
 20
4.8857274261
 30
0.0
 10
4.6806960315
 20
4.8855433787
 30
0.0
 10
4.6794334065
 20
4.8854129968
 30
0.0
 10
4.6783375316
 20
4.8852829643
 30
0.0
 10
4.6774089354
 20
4.8851534987
 30
0.0
 10
4.6766481207
 20
4.8850247454
 30
0.0
 10
4.6761988782
 20
4.8849286273
 30
0.0
 10
4.6760033809
 20
4.8848779337
 30
0.0
  0
SPLINE
  5
3AA
100
AcDbEntity
  8
0
100
AcDbSpline
 62
7
  6
CONTINUOUS
 70
0
 71
3
 72
30
 73
26
 74
0
 42
0.0000001
 43
0.0000001
 44
0.0000000001
 40
0.0
 40
0.0
 40
0.0
 40
0.0
 40
0.187195289
 40
0.2787245428
 40
0.3677975177
 40
0.453625248
 40
0.5354519318
 40
0.6125554156
 40
0.6842559473
 40
0.7499212194
 40
0.8089726879
 40
0.8608903717
 40
0.8840290999
 40
0.9052177562
 40
0.9244110523
 40
0.9415662238
 40
0.9566465393
 40
0.9696197103
 40
0.9804581076
 40
0.9850703883
 40
0.9891416199
 40
0.9926700471
 40
0.9956552527
 40
0.9980978098
 40
1.0
 40
1.0
 40
1.0
 40
1.0
 10
4.9696428571
 20
4.8533834055
 30
0.0
 10
4.9500402661
 20
4.8530419319
 30
0.0
 10
4.9208529731
 20
4.8525336054
 30
0.0
 10
4.8823385155
 20
4.8518446849
 30
0.0
 10
4.8544391576
 20
4.8513319791
 30
0.0
 10
4.8275561542
 20
4.8508194648
 30
0.0
 10
4.8019269858
 20
4.8503072193
 30
0.0
 10
4.7777777071
 20
4.849795347
 30
0.0
 10
4.7553214586
 20
4.8492839809
 30
0.0
 10
4.7347563633
 20
4.8487733713
 30
0.0
 10
4.7162638676
 20
4.8482637238
 30
0.0
 10
4.7022251094
 20
4.8478252488
 30
0.0
 10
4.6921513192
 20
4.8474695059
 30
0.0
 10
4.6855035173
 20
4.8472132472
 30
0.0
 10
4.6794828861
 20
4.8469573256
 30
0.0
 10
4.674102623
 20
4.8467017857
 30
0.0
 10
4.6693745939
 20
4.8464468873
 30
0.0
 10
4.6653092043
 20
4.8461927761
 30
0.0
 10
4.6623403435
 20
4.8459720834
 30
0.0
 10
4.6603036923
 20
4.8457916778
 30
0.0
 10
4.6590310444
 20
4.8456640054
 30
0.0
 10
4.6579297492
 20
4.8455366772
 30
0.0
 10
4.6570002202
 20
4.8454099411
 30
0.0
 10
4.65624286
 20
4.845283971
 30
0.0
 10
4.6557973246
 20
4.8451896434
 30
0.0
 10
4.6556044737
 20
4.8451396622
 30
0.0
  0
SPLINE
  5
3AB
100
AcDbEntity
  8
0
100
AcDbSpline
 62
7
  6
CONTINUOUS
 70
0
 71
3
 72
39
 73
35
 74
0
 42
0.0000001
 43
0.0000001
 44
0.0000000001
 40
0.0
 40
0.0
 40
0.0
 40
0.0
 40
0.0979444355
 40
0.1949497217
 40
0.2900745509
 40
0.3824083526
 40
0.4710599774
 40
0.5551769137
 40
0.6339492164
 40
0.7066190014
 40
0.7404443597
 40
0.7724869956
 40
0.8026694717
 40
0.8309198932
 40
0.8571694413
 40
0.8813562336
 40
0.9034211076
 40
0.9233124774
 40
0.9409819537
 40
0.9563885202
 40
0.9694957869
 40
0.9802741985
 40
0.9847831153
 40
0.9887018565
 40
0.9920292883
 40
0.9947656309
 40
0.9959126753
 40
0.9969128548
 40
0.9977670223
 40
0.9984766864
 40
0.9990447433
 40
0.9992774807
 40
0.999477557
 40
1.0
 40
1.0
 40
1.0
 40
1.0
 10
4.9696428571
 20
4.8771591411
 30
0.0
 10
4.9593593779
 20
4.8769800048
 30
0.0
 10
4.9388910235
 20
4.8766234525
 30
0.0
 10
4.9084353179
 20
4.876087813
 30
0.0
 10
4.8785688694
 20
4.875552273
 30
0.0
 10
4.8495797709
 20
4.8750169056
 30
0.0
 10
4.8217467985
 20
4.8744817754
 30
0.0
 10
4.7953381719
 20
4.8739469985
 30
0.0
 10
4.7706081362
 20
4.8734126736
 30
0.0
 10
4.7511587042
 20
4.8729577967
 30
0.0
 10
4.7366156222
 20
4.8725910193
 30
0.0
 10
4.7265330337
 20
4.8723226316
 30
0.0
 10
4.7170360797
 20
4.8720543372
 30
0.0
 10
4.7081477055
 20
4.8717861732
 30
0.0
 10
4.6998892335
 20
4.8715181434
 30
0.0
 10
4.6922806595
 20
4.8712503316
 30
0.0
 10
4.6853401912
 20
4.8709827556
 30
0.0
 10
4.679084639
 20
4.8707155649
 30
0.0
 10
4.6735289573
 20
4.8704488356
 30
0.0
 10
4.6686865348
 20
4.8701829267
 30
0.0
 10
4.6645689548
 20
4.8699179742
 30
0.0
 10
4.6615960279
 20
4.8696873198
 30
0.0
 10
4.6595880819
 20
4.8694979756
 30
0.0
 10
4.6583608245
 20
4.8693649159
 30
0.0
 10
4.6573209292
 20
4.8692323276
 30
0.0
 10
4.656572406
 20
4.8691168704
 30
0.0
 10
4.6560683583
 20
4.869022211
 30
0.0
 10
4.6557602438
 20
4.8689555742
 30
0.0
 10
4.6554992668
 20
4.8688892351
 30
0.0
 10
4.6552851488
 20
4.8688229745
 30
0.0
 10
4.6551375217
 20
4.8687653306
 30
0.0
 10
4.6550432259
 20
4.8687171065
 30
0.0
 10
4.6549599075
 20
4.8686658983
 30
0.0
 10
4.6548929686
 20
4.8686015023
 30
0.0
 10
4.6548929686
 20
4.8685466411
 30
0.0
  0
SPLINE
  5
3AC
100
AcDbEntity
  8
0
100
AcDbSpline
 62
7
  6
CONTINUOUS
 70
0
 71
3
 72
30
 73
26
 74
0
 42
0.0000001
 43
0.0000001
 44
0.0000000001
 40
0.0
 40
0.0
 40
0.0
 40
0.0
 40
0.187195289
 40
0.2787245428
 40
0.3677975177
 40
0.453625248
 40
0.5354519318
 40
0.6125554156
 40
0.6842559473
 40
0.7499212194
 40
0.8089726879
 40
0.8608903717
 40
0.8840290999
 40
0.9052177562
 40
0.9244110523
 40
0.9415662238
 40
0.9566465393
 40
0.9696197103
 40
0.9804581076
 40
0.9850703883
 40
0.9891416199
 40
0.9926700471
 40
0.9956552527
 40
0.9980978098
 40
1.0
 40
1.0
 40
1.0
 40
1.0
 10
4.9696428571
 20
4.8878334055
 30
0.0
 10
4.9500402661
 20
4.8874919319
 30
0.0
 10
4.9208529731
 20
4.8869836054
 30
0.0
 10
4.8823385155
 20
4.8862946849
 30
0.0
 10
4.8544391576
 20
4.8857819791
 30
0.0
 10
4.8275561542
 20
4.8852694648
 30
0.0
 10
4.8019269858
 20
4.8847572193
 30
0.0
 10
4.7777777071
 20
4.884245347
 30
0.0
 10
4.7553214586
 20
4.8837339809
 30
0.0
 10
4.7347563633
 20
4.8832233713
 30
0.0
 10
4.7162638676
 20
4.8827137237
 30
0.0
 10
4.7022251094
 20
4.8822752487
 30
0.0
 10
4.6921513192
 20
4.8819195059
 30
0.0
 10
4.6855035173
 20
4.8816632472
 30
0.0
 10
4.6794828861
 20
4.8814073256
 30
0.0
 10
4.674102623
 20
4.8811517857
 30
0.0
 10
4.6693745939
 20
4.8808968873
 30
0.0
 10
4.6653092043
 20
4.8806427761
 30
0.0
 10
4.6623403435
 20
4.8804220834
 30
0.0
 10
4.6603036923
 20
4.8802416778
 30
0.0
 10
4.6590310444
 20
4.8801140054
 30
0.0
 10
4.6579297492
 20
4.8799866772
 30
0.0
 10
4.6570002202
 20
4.8798599411
 30
0.0
 10
4.65624286
 20
4.879733971
 30
0.0
 10
4.6557973246
 20
4.8796396434
 30
0.0
 10
4.6556044737
 20
4.8795896622
 30
0.0
  0
SPLINE
  5
3AD
100
AcDbEntity
  8
0
100
AcDbSpline
 62
7
  6
CONTINUOUS
 70
0
 71
3
 72
39
 73
35
 74
0
 42
0.0000001
 43
0.0000001
 44
0.0000000001
 40
0.0
 40
0.0
 40
0.0
 40
0.0
 40
0.0979444355
 40
0.1949497217
 40
0.2900745509
 40
0.3824083526
 40
0.4710599774
 40
0.5551769137
 40
0.6339492164
 40
0.7066190014
 40
0.7404443597
 40
0.7724869956
 40
0.8026694717
 40
0.8309198932
 40
0.8571694413
 40
0.8813562336
 40
0.9034211076
 40
0.9233124774
 40
0.9409819537
 40
0.9563885202
 40
0.9694957869
 40
0.9802741985
 40
0.9847831153
 40
0.9887018565
 40
0.9920292883
 40
0.9947656309
 40
0.9959126753
 40
0.9969128548
 40
0.9977670223
 40
0.9984766864
 40
0.9990447433
 40
0.9992774807
 40
0.999477557
 40
1.0
 40
1.0
 40
1.0
 40
1.0
 10
4.9696428571
 20
4.9116091411
 30
0.0
 10
4.9593593779
 20
4.9114300048
 30
0.0
 10
4.9388910235
 20
4.9110734525
 30
0.0
 10
4.9084353179
 20
4.910537813
 30
0.0
 10
4.8785688694
 20
4.910002273
 30
0.0
 10
4.8495797709
 20
4.9094669056
 30
0.0
 10
4.8217467985
 20
4.9089317754
 30
0.0
 10
4.7953381719
 20
4.9083969985
 30
0.0
 10
4.7706081362
 20
4.9078626736
 30
0.0
 10
4.7511587042
 20
4.9074077967
 30
0.0
 10
4.7366156222
 20
4.9070410193
 30
0.0
 10
4.7265330337
 20
4.9067726316
 30
0.0
 10
4.7170360797
 20
4.9065043372
 30
0.0
 10
4.7081477055
 20
4.9062361732
 30
0.0
 10
4.6998892335
 20
4.9059681434
 30
0.0
 10
4.6922806595
 20
4.9057003316
 30
0.0
 10
4.6853401912
 20
4.9054327556
 30
0.0
 10
4.679084639
 20
4.9051655649
 30
0.0
 10
4.6735289573
 20
4.9048988356
 30
0.0
 10
4.6686865348
 20
4.9046329267
 30
0.0
 10
4.6645689548
 20
4.9043679742
 30
0.0
 10
4.6615960279
 20
4.9041373198
 30
0.0
 10
4.6595880819
 20
4.9039479756
 30
0.0
 10
4.6583608245
 20
4.9038149159
 30
0.0
 10
4.6573209292
 20
4.9036823276
 30
0.0
 10
4.656572406
 20
4.9035668704
 30
0.0
 10
4.6560683583
 20
4.903472211
 30
0.0
 10
4.6557602438
 20
4.9034055742
 30
0.0
 10
4.6554992668
 20
4.9033392351
 30
0.0
 10
4.6552851488
 20
4.9032729745
 30
0.0
 10
4.6551375217
 20
4.9032153306
 30
0.0
 10
4.6550432259
 20
4.9031671065
 30
0.0
 10
4.6549599075
 20
4.9031158983
 30
0.0
 10
4.6548929686
 20
4.9030515023
 30
0.0
 10
4.6548929686
 20
4.9029966411
 30
0.0
  0
SPLINE
  5
3AE
100
AcDbEntity
  8
0
100
AcDbSpline
 62
7
  6
CONTINUOUS
 70
0
 71
3
 72
30
 73
26
 74
0
 42
0.0000001
 43
0.0000001
 44
0.0000000001
 40
0.0
 40
0.0
 40
0.0
 40
0.0
 40
0.187195289
 40
0.2787245428
 40
0.3677975177
 40
0.453625248
 40
0.5354519318
 40
0.6125554156
 40
0.6842559473
 40
0.7499212194
 40
0.8089726879
 40
0.8608903717
 40
0.8840290999
 40
0.9052177562
 40
0.9244110523
 40
0.9415662238
 40
0.9566465393
 40
0.9696197103
 40
0.9804581076
 40
0.9850703883
 40
0.9891416199
 40
0.9926700471
 40
0.9956552527
 40
0.9980978098
 40
1.0
 40
1.0
 40
1.0
 40
1.0
 10
4.9696428571
 20
4.9222834055
 30
0.0
 10
4.9500402661
 20
4.9219419319
 30
0.0
 10
4.9208529731
 20
4.9214336054
 30
0.0
 10
4.8823385155
 20
4.9207446849
 30
0.0
 10
4.8544391576
 20
4.9202319791
 30
0.0
 10
4.8275561542
 20
4.9197194648
 30
0.0
 10
4.8019269858
 20
4.9192072193
 30
0.0
 10
4.7777777071
 20
4.918695347
 30
0.0
 10
4.7553214586
 20
4.9181839809
 30
0.0
 10
4.7347563633
 20
4.9176733713
 30
0.0
 10
4.7162638676
 20
4.9171637237
 30
0.0
 10
4.7022251094
 20
4.9167252487
 30
0.0
 10
4.6921513192
 20
4.9163695059
 30
0.0
 10
4.6855035173
 20
4.9161132472
 30
0.0
 10
4.6794828861
 20
4.9158573256
 30
0.0
 10
4.674102623
 20
4.9156017857
 30
0.0
 10
4.6693745939
 20
4.9153468873
 30
0.0
 10
4.6653092043
 20
4.9150927761
 30
0.0
 10
4.6623403435
 20
4.9148720834
 30
0.0
 10
4.6603036923
 20
4.9146916778
 30
0.0
 10
4.6590310444
 20
4.9145640054
 30
0.0
 10
4.6579297492
 20
4.9144366772
 30
0.0
 10
4.6570002202
 20
4.9143099411
 30
0.0
 10
4.65624286
 20
4.914183971
 30
0.0
 10
4.6557973246
 20
4.9140896434
 30
0.0
 10
4.6556044737
 20
4.9140396622
 30
0.0
  0
SPLINE
  5
3AF
100
AcDbEntity
  8
0
100
AcDbSpline
 62
7
  6
CONTINUOUS
 70
0
 71
3
 72
30
 73
26
 74
0
 42
0.0000001
 43
0.0000001
 44
0.0000000001
 40
0.0
 40
0.0
 40
0.0
 40
0.0
 40
0.187195289
 40
0.2787245428
 40
0.3677975177
 40
0.453625248
 40
0.5354519318
 40
0.6125554156
 40
0.6842559473
 40
0.7499212194
 40
0.8089726879
 40
0.8608903717
 40
0.8840290999
 40
0.9052177562
 40
0.9244110523
 40
0.9415662238
 40
0.9566465393
 40
0.9696197103
 40
0.9804581076
 40
0.9850703883
 40
0.9891416199
 40
0.9926700471
 40
0.9956552527
 40
0.9980978098
 40
1.0
 40
1.0
 40
1.0
 40
1.0
 10
4.9696428571
 20
4.9567334054
 30
0.0
 10
4.9500402661
 20
4.9563919319
 30
0.0
 10
4.9208529731
 20
4.9558836054
 30
0.0
 10
4.8823385155
 20
4.9551946849
 30
0.0
 10
4.8544391576
 20
4.9546819791
 30
0.0
 10
4.8275561542
 20
4.9541694648
 30
0.0
 10
4.8019269858
 20
4.9536572193
 30
0.0
 10
4.7777777071
 20
4.953145347
 30
0.0
 10
4.7553214586
 20
4.9526339809
 30
0.0
 10
4.7347563633
 20
4.9521233713
 30
0.0
 10
4.7162638676
 20
4.9516137237
 30
0.0
 10
4.7022251094
 20
4.9511752487
 30
0.0
 10
4.6921513192
 20
4.9508195059
 30
0.0
 10
4.6855035173
 20
4.9505632472
 30
0.0
 10
4.6794828861
 20
4.9503073256
 30
0.0
 10
4.674102623
 20
4.9500517857
 30
0.0
 10
4.6693745939
 20
4.9497968873
 30
0.0
 10
4.6653092043
 20
4.9495427761
 30
0.0
 10
4.6623403435
 20
4.9493220834
 30
0.0
 10
4.6603036923
 20
4.9491416778
 30
0.0
 10
4.6590310444
 20
4.9490140054
 30
0.0
 10
4.6579297492
 20
4.9488866772
 30
0.0
 10
4.6570002202
 20
4.9487599411
 30
0.0
 10
4.65624286
 20
4.948633971
 30
0.0
 10
4.6557973246
 20
4.9485396434
 30
0.0
 10
4.6556044737
 20
4.9484896622
 30
0.0
  0
SPLINE
  5
3B0
100
AcDbEntity
  8
0
100
AcDbSpline
 62
7
  6
CONTINUOUS
 70
0
 71
3
 72
39
 73
35
 74
0
 42
0.0000001
 43
0.0000001
 44
0.0000000001
 40
0.0
 40
0.0
 40
0.0
 40
0.0
 40
0.0979444339
 40
0.1949497171
 40
0.2900745495
 40
0.3824083537
 40
0.4710599801
 40
0.5551769169
 40
0.6339492164
 40
0.706618998
 40
0.7404443556
 40
0.7724869912
 40
0.8026694671
 40
0.8309198888
 40
0.8571694373
 40
0.8813562308
 40
0.9034211067
 40
0.9233124783
 40
0.9409819553
 40
0.9563885208
 40
0.9694957875
 40
0.9802741994
 40
0.9847831167
 40
0.9887018584
 40
0.99202929
 40
0.994765632
 40
0.995912676
 40
0.9969128553
 40
0.9977670226
 40
0.9984766866
 40
0.9990447435
 40
0.9992774809
 40
0.9994775572
 40
1.0
 40
1.0
 40
1.0
 40
1.0
 10
4.9696428571
 20
4.9460591411
 30
0.0
 10
4.9593593781
 20
4.9458800048
 30
0.0
 10
4.9388910242
 20
4.9455234525
 30
0.0
 10
4.9084353187
 20
4.944987813
 30
0.0
 10
4.8785688699
 20
4.944452273
 30
0.0
 10
4.8495797706
 20
4.9439169055
 30
0.0
 10
4.8217467978
 20
4.9433817754
 30
0.0
 10
4.7953381713
 20
4.9428469985
 30
0.0
 10
4.7706081363
 20
4.9423126736
 30
0.0
 10
4.751158705
 20
4.9418577967
 30
0.0
 10
4.7366156235
 20
4.9414910193
 30
0.0
 10
4.7265330351
 20
4.9412226317
 30
0.0
 10
4.7170360812
 20
4.9409543372
 30
0.0
 10
4.7081477069
 20
4.9406861733
 30
0.0
 10
4.6998892347
 20
4.9404181435
 30
0.0
 10
4.6922806604
 20
4.9401503317
 30
0.0
 10
4.6853401916
 20
4.9398827556
 30
0.0
 10
4.6790846389
 20
4.9396155649
 30
0.0
 10
4.673528957
 20
4.9393488356
 30
0.0
 10
4.6686865346
 20
4.9390829267
 30
0.0
 10
4.6645689546
 20
4.9388179742
 30
0.0
 10
4.6615960276
 20
4.9385873197
 30
0.0
 10
4.6595880815
 20
4.9383979756
 30
0.0
 10
4.6583608241
 20
4.9382649158
 30
0.0
 10
4.6573209288
 20
4.9381323276
 30
0.0
 10
4.6565724057
 20
4.9380168704
 30
0.0
 10
4.6560683581
 20
4.937922211
 30
0.0
 10
4.6557602437
 20
4.9378555742
 30
0.0
 10
4.6554992667
 20
4.9377892351
 30
0.0
 10
4.6552851488
 20
4.9377229745
 30
0.0
 10
4.6551375217
 20
4.9376653306
 30
0.0
 10
4.6550432259
 20
4.9376171065
 30
0.0
 10
4.6549599075
 20
4.9375658983
 30
0.0
 10
4.6548929687
 20
4.9375015023
 30
0.0
 10
4.6548929687
 20
4.9374466411
 30
0.0
  0
SPLINE
  5
3B1
100
AcDbEntity
  8
0
100
AcDbSpline
 62
7
  6
CONTINUOUS
 70
0
 71
3
 72
39
 73
35
 74
0
 42
0.0000001
 43
0.0000001
 44
0.0000000001
 40
0.0
 40
0.0
 40
0.0
 40
0.0
 40
0.0979444355
 40
0.1949497217
 40
0.2900745509
 40
0.3824083526
 40
0.4710599774
 40
0.5551769137
 40
0.6339492164
 40
0.7066190014
 40
0.7404443597
 40
0.7724869956
 40
0.8026694717
 40
0.8309198932
 40
0.8571694413
 40
0.8813562336
 40
0.9034211076
 40
0.9233124774
 40
0.9409819537
 40
0.9563885202
 40
0.9694957869
 40
0.9802741985
 40
0.9847831153
 40
0.9887018565
 40
0.9920292883
 40
0.9947656309
 40
0.9959126753
 40
0.9969128548
 40
0.9977670223
 40
0.9984766864
 40
0.9990447433
 40
0.9992774807
 40
0.999477557
 40
1.0
 40
1.0
 40
1.0
 40
1.0
 10
4.9696428571
 20
4.9805091411
 30
0.0
 10
4.9593593779
 20
4.9803300048
 30
0.0
 10
4.9388910235
 20
4.9799734525
 30
0.0
 10
4.9084353179
 20
4.979437813
 30
0.0
 10
4.8785688694
 20
4.978902273
 30
0.0
 10
4.8495797709
 20
4.9783669056
 30
0.0
 10
4.8217467985
 20
4.9778317754
 30
0.0
 10
4.7953381719
 20
4.9772969985
 30
0.0
 10
4.7706081362
 20
4.9767626736
 30
0.0
 10
4.7511587042
 20
4.9763077967
 30
0.0
 10
4.7366156222
 20
4.9759410193
 30
0.0
 10
4.7265330337
 20
4.9756726316
 30
0.0
 10
4.7170360797
 20
4.9754043372
 30
0.0
 10
4.7081477055
 20
4.9751361732
 30
0.0
 10
4.6998892335
 20
4.9748681434
 30
0.0
 10
4.6922806595
 20
4.9746003316
 30
0.0
 10
4.6853401912
 20
4.9743327556
 30
0.0
 10
4.679084639
 20
4.9740655649
 30
0.0
 10
4.6735289573
 20
4.9737988356
 30
0.0
 10
4.6686865348
 20
4.9735329267
 30
0.0
 10
4.6645689548
 20
4.9732679742
 30
0.0
 10
4.6615960279
 20
4.9730373198
 30
0.0
 10
4.6595880819
 20
4.9728479756
 30
0.0
 10
4.6583608245
 20
4.9727149159
 30
0.0
 10
4.6573209292
 20
4.9725823276
 30
0.0
 10
4.656572406
 20
4.9724668704
 30
0.0
 10
4.6560683583
 20
4.972372211
 30
0.0
 10
4.6557602438
 20
4.9723055742
 30
0.0
 10
4.6554992668
 20
4.9722392351
 30
0.0
 10
4.6552851488
 20
4.9721729745
 30
0.0
 10
4.6551375217
 20
4.9721153306
 30
0.0
 10
4.6550432259
 20
4.9720671065
 30
0.0
 10
4.6549599075
 20
4.9720158983
 30
0.0
 10
4.6548929686
 20
4.9719515023
 30
0.0
 10
4.6548929686
 20
4.9718966411
 30
0.0
  0
SPLINE
  5
3B2
100
AcDbEntity
  8
0
100
AcDbSpline
 62
7
  6
CONTINUOUS
 70
0
 71
3
 72
30
 73
26
 74
0
 42
0.0000001
 43
0.0000001
 44
0.0000000001
 40
0.0
 40
0.0
 40
0.0
 40
0.0
 40
0.187195289
 40
0.2787245428
 40
0.3677975177
 40
0.453625248
 40
0.5354519318
 40
0.6125554156
 40
0.6842559473
 40
0.7499212194
 40
0.8089726879
 40
0.8608903717
 40
0.8840290999
 40
0.9052177562
 40
0.9244110523
 40
0.9415662238
 40
0.9566465393
 40
0.9696197103
 40
0.9804581076
 40
0.9850703883
 40
0.9891416199
 40
0.9926700471
 40
0.9956552527
 40
0.9980978098
 40
1.0
 40
1.0
 40
1.0
 40
1.0
 10
4.9696428571
 20
4.9911834054
 30
0.0
 10
4.9500402661
 20
4.9908419319
 30
0.0
 10
4.9208529731
 20
4.9903336054
 30
0.0
 10
4.8823385155
 20
4.9896446849
 30
0.0
 10
4.8544391576
 20
4.9891319791
 30
0.0
 10
4.8275561542
 20
4.9886194648
 30
0.0
 10
4.8019269858
 20
4.9881072193
 30
0.0
 10
4.7777777071
 20
4.987595347
 30
0.0
 10
4.7553214586
 20
4.9870839809
 30
0.0
 10
4.7347563633
 20
4.9865733713
 30
0.0
 10
4.7162638676
 20
4.9860637237
 30
0.0
 10
4.7022251094
 20
4.9856252487
 30
0.0
 10
4.6921513192
 20
4.9852695059
 30
0.0
 10
4.6855035173
 20
4.9850132472
 30
0.0
 10
4.6794828861
 20
4.9847573256
 30
0.0
 10
4.674102623
 20
4.9845017857
 30
0.0
 10
4.6693745939
 20
4.9842468873
 30
0.0
 10
4.6653092043
 20
4.9839927761
 30
0.0
 10
4.6623403435
 20
4.9837720834
 30
0.0
 10
4.6603036923
 20
4.9835916778
 30
0.0
 10
4.6590310444
 20
4.9834640054
 30
0.0
 10
4.6579297492
 20
4.9833366772
 30
0.0
 10
4.6570002202
 20
4.9832099411
 30
0.0
 10
4.65624286
 20
4.983083971
 30
0.0
 10
4.6557973246
 20
4.9829896434
 30
0.0
 10
4.6556044737
 20
4.9829396622
 30
0.0
  0
SPLINE
  5
3B3
100
AcDbEntity
  8
0
100
AcDbSpline
 62
7
  6
CONTINUOUS
 70
0
 71
3
 72
39
 73
35
 74
0
 42
0.0000001
 43
0.0000001
 44
0.0000000001
 40
0.0
 40
0.0
 40
0.0
 40
0.0
 40
0.0979444355
 40
0.1949497217
 40
0.2900745509
 40
0.3824083526
 40
0.4710599774
 40
0.5551769137
 40
0.6339492164
 40
0.7066190014
 40
0.7404443597
 40
0.7724869956
 40
0.8026694717
 40
0.8309198932
 40
0.8571694413
 40
0.8813562336
 40
0.9034211076
 40
0.9233124774
 40
0.9409819537
 40
0.9563885202
 40
0.9694957869
 40
0.9802741985
 40
0.9847831153
 40
0.9887018565
 40
0.9920292883
 40
0.9947656309
 40
0.9959126753
 40
0.9969128548
 40
0.9977670223
 40
0.9984766864
 40
0.9990447433
 40
0.9992774807
 40
0.999477557
 40
1.0
 40
1.0
 40
1.0
 40
1.0
 10
4.9696428571
 20
5.0149591411
 30
0.0
 10
4.9593593779
 20
5.0147800048
 30
0.0
 10
4.9388910235
 20
5.0144234525
 30
0.0
 10
4.9084353179
 20
5.013887813
 30
0.0
 10
4.8785688694
 20
5.013352273
 30
0.0
 10
4.8495797709
 20
5.0128169056
 30
0.0
 10
4.8217467985
 20
5.0122817754
 30
0.0
 10
4.7953381719
 20
5.0117469985
 30
0.0
 10
4.7706081362
 20
5.0112126736
 30
0.0
 10
4.7511587042
 20
5.0107577967
 30
0.0
 10
4.7366156222
 20
5.0103910193
 30
0.0
 10
4.7265330337
 20
5.0101226316
 30
0.0
 10
4.7170360797
 20
5.0098543372
 30
0.0
 10
4.7081477055
 20
5.0095861732
 30
0.0
 10
4.6998892335
 20
5.0093181434
 30
0.0
 10
4.6922806595
 20
5.0090503316
 30
0.0
 10
4.6853401912
 20
5.0087827556
 30
0.0
 10
4.679084639
 20
5.0085155649
 30
0.0
 10
4.6735289573
 20
5.0082488356
 30
0.0
 10
4.6686865348
 20
5.0079829267
 30
0.0
 10
4.6645689548
 20
5.0077179742
 30
0.0
 10
4.6615960279
 20
5.0074873198
 30
0.0
 10
4.6595880819
 20
5.0072979756
 30
0.0
 10
4.6583608245
 20
5.0071649159
 30
0.0
 10
4.6573209292
 20
5.0070323276
 30
0.0
 10
4.656572406
 20
5.0069168704
 30
0.0
 10
4.6560683583
 20
5.006822211
 30
0.0
 10
4.6557602438
 20
5.0067555742
 30
0.0
 10
4.6554992668
 20
5.0066892351
 30
0.0
 10
4.6552851488
 20
5.0066229745
 30
0.0
 10
4.6551375217
 20
5.0065653306
 30
0.0
 10
4.6550432259
 20
5.0065171065
 30
0.0
 10
4.6549599075
 20
5.0064658983
 30
0.0
 10
4.6548929686
 20
5.0064015023
 30
0.0
 10
4.6548929686
 20
5.0063466411
 30
0.0
  0
SPLINE
  5
3B4
100
AcDbEntity
  8
0
100
AcDbSpline
 62
7
  6
CONTINUOUS
 70
0
 71
3
 72
30
 73
26
 74
0
 42
0.0000001
 43
0.0000001
 44
0.0000000001
 40
0.0
 40
0.0
 40
0.0
 40
0.0
 40
0.187195289
 40
0.2787245428
 40
0.3677975177
 40
0.453625248
 40
0.5354519318
 40
0.6125554156
 40
0.6842559473
 40
0.7499212194
 40
0.8089726879
 40
0.8608903717
 40
0.8840290999
 40
0.9052177562
 40
0.9244110523
 40
0.9415662238
 40
0.9566465393
 40
0.9696197103
 40
0.9804581076
 40
0.9850703883
 40
0.9891416199
 40
0.9926700471
 40
0.9956552527
 40
0.9980978098
 40
1.0
 40
1.0
 40
1.0
 40
1.0
 10
4.9696428571
 20
5.0256334055
 30
0.0
 10
4.9500402661
 20
5.0252919319
 30
0.0
 10
4.9208529731
 20
5.0247836054
 30
0.0
 10
4.8823385155
 20
5.0240946849
 30
0.0
 10
4.8544391576
 20
5.0235819791
 30
0.0
 10
4.8275561542
 20
5.0230694648
 30
0.0
 10
4.8019269858
 20
5.0225572193
 30
0.0
 10
4.7777777071
 20
5.022045347
 30
0.0
 10
4.7553214586
 20
5.0215339809
 30
0.0
 10
4.7347563633
 20
5.0210233713
 30
0.0
 10
4.7162638676
 20
5.0205137237
 30
0.0
 10
4.7022251094
 20
5.0200752487
 30
0.0
 10
4.6921513192
 20
5.0197195059
 30
0.0
 10
4.6855035173
 20
5.0194632472
 30
0.0
 10
4.6794828861
 20
5.0192073256
 30
0.0
 10
4.674102623
 20
5.0189517857
 30
0.0
 10
4.6693745939
 20
5.0186968873
 30
0.0
 10
4.6653092043
 20
5.0184427761
 30
0.0
 10
4.6623403435
 20
5.0182220834
 30
0.0
 10
4.6603036923
 20
5.0180416778
 30
0.0
 10
4.6590310444
 20
5.0179140054
 30
0.0
 10
4.6579297492
 20
5.0177866772
 30
0.0
 10
4.6570002202
 20
5.0176599411
 30
0.0
 10
4.65624286
 20
5.017533971
 30
0.0
 10
4.6557973246
 20
5.0174396434
 30
0.0
 10
4.6556044737
 20
5.0173896622
 30
0.0
  0
SPLINE
  5
3B5
100
AcDbEntity
  8
0
100
AcDbSpline
 62
7
  6
CONTINUOUS
 70
0
 71
3
 72
39
 73
35
 74
0
 42
0.0000001
 43
0.0000001
 44
0.0000000001
 40
0.0
 40
0.0
 40
0.0
 40
0.0
 40
0.0979444355
 40
0.1949497217
 40
0.2900745509
 40
0.3824083526
 40
0.4710599774
 40
0.5551769137
 40
0.6339492164
 40
0.7066190014
 40
0.7404443597
 40
0.7724869956
 40
0.8026694717
 40
0.8309198932
 40
0.8571694413
 40
0.8813562336
 40
0.9034211076
 40
0.9233124774
 40
0.9409819537
 40
0.9563885202
 40
0.9694957869
 40
0.9802741985
 40
0.9847831153
 40
0.9887018565
 40
0.9920292883
 40
0.9947656309
 40
0.9959126753
 40
0.9969128548
 40
0.9977670223
 40
0.9984766864
 40
0.9990447433
 40
0.9992774807
 40
0.999477557
 40
1.0
 40
1.0
 40
1.0
 40
1.0
 10
4.9696428571
 20
5.0494091411
 30
0.0
 10
4.9593593779
 20
5.0492300048
 30
0.0
 10
4.9388910235
 20
5.0488734525
 30
0.0
 10
4.9084353179
 20
5.048337813
 30
0.0
 10
4.8785688694
 20
5.047802273
 30
0.0
 10
4.8495797709
 20
5.0472669056
 30
0.0
 10
4.8217467985
 20
5.0467317754
 30
0.0
 10
4.7953381719
 20
5.0461969985
 30
0.0
 10
4.7706081362
 20
5.0456626736
 30
0.0
 10
4.7511587042
 20
5.0452077967
 30
0.0
 10
4.7366156222
 20
5.0448410193
 30
0.0
 10
4.7265330337
 20
5.0445726316
 30
0.0
 10
4.7170360797
 20
5.0443043372
 30
0.0
 10
4.7081477055
 20
5.0440361732
 30
0.0
 10
4.6998892335
 20
5.0437681434
 30
0.0
 10
4.6922806595
 20
5.0435003316
 30
0.0
 10
4.6853401912
 20
5.0432327556
 30
0.0
 10
4.679084639
 20
5.0429655649
 30
0.0
 10
4.6735289573
 20
5.0426988356
 30
0.0
 10
4.6686865348
 20
5.0424329267
 30
0.0
 10
4.6645689548
 20
5.0421679742
 30
0.0
 10
4.6615960279
 20
5.0419373198
 30
0.0
 10
4.6595880819
 20
5.0417479756
 30
0.0
 10
4.6583608245
 20
5.0416149159
 30
0.0
 10
4.6573209292
 20
5.0414823276
 30
0.0
 10
4.656572406
 20
5.0413668704
 30
0.0
 10
4.6560683583
 20
5.041272211
 30
0.0
 10
4.6557602438
 20
5.0412055742
 30
0.0
 10
4.6554992668
 20
5.0411392351
 30
0.0
 10
4.6552851488
 20
5.0410729745
 30
0.0
 10
4.6551375217
 20
5.0410153306
 30
0.0
 10
4.6550432259
 20
5.0409671065
 30
0.0
 10
4.6549599075
 20
5.0409158983
 30
0.0
 10
4.6548929686
 20
5.0408515023
 30
0.0
 10
4.6548929686
 20
5.0407966411
 30
0.0
  0
SPLINE
  5
3B6
100
AcDbEntity
  8
0
100
AcDbSpline
 62
7
  6
CONTINUOUS
 70
0
 71
3
 72
30
 73
26
 74
0
 42
0.0000001
 43
0.0000001
 44
0.0000000001
 40
0.0
 40
0.0
 40
0.0
 40
0.0
 40
0.187195289
 40
0.2787245428
 40
0.3677975177
 40
0.453625248
 40
0.5354519318
 40
0.6125554156
 40
0.6842559473
 40
0.7499212194
 40
0.8089726879
 40
0.8608903717
 40
0.8840290999
 40
0.9052177562
 40
0.9244110523
 40
0.9415662238
 40
0.9566465393
 40
0.9696197103
 40
0.9804581076
 40
0.9850703883
 40
0.9891416199
 40
0.9926700471
 40
0.9956552527
 40
0.9980978098
 40
1.0
 40
1.0
 40
1.0
 40
1.0
 10
4.9696428571
 20
5.0600834055
 30
0.0
 10
4.9500402661
 20
5.0597419319
 30
0.0
 10
4.9208529731
 20
5.0592336054
 30
0.0
 10
4.8823385155
 20
5.0585446849
 30
0.0
 10
4.8544391576
 20
5.0580319791
 30
0.0
 10
4.8275561542
 20
5.0575194648
 30
0.0
 10
4.8019269858
 20
5.0570072193
 30
0.0
 10
4.7777777071
 20
5.056495347
 30
0.0
 10
4.7553214586
 20
5.0559839809
 30
0.0
 10
4.7347563633
 20
5.0554733713
 30
0.0
 10
4.7162638676
 20
5.0549637238
 30
0.0
 10
4.7022251094
 20
5.0545252487
 30
0.0
 10
4.6921513192
 20
5.0541695059
 30
0.0
 10
4.6855035173
 20
5.0539132472
 30
0.0
 10
4.6794828861
 20
5.0536573256
 30
0.0
 10
4.674102623
 20
5.0534017857
 30
0.0
 10
4.6693745939
 20
5.0531468873
 30
0.0
 10
4.6653092043
 20
5.0528927761
 30
0.0
 10
4.6623403435
 20
5.0526720834
 30
0.0
 10
4.6603036923
 20
5.0524916778
 30
0.0
 10
4.6590310444
 20
5.0523640054
 30
0.0
 10
4.6579297492
 20
5.0522366772
 30
0.0
 10
4.6570002202
 20
5.0521099411
 30
0.0
 10
4.65624286
 20
5.051983971
 30
0.0
 10
4.6557973246
 20
5.0518896434
 30
0.0
 10
4.6556044737
 20
5.0518396622
 30
0.0
  0
SPLINE
  5
3B7
100
AcDbEntity
  8
0
100
AcDbSpline
 62
7
  6
CONTINUOUS
 70
0
 71
3
 72
30
 73
26
 74
0
 42
0.0000001
 43
0.0000001
 44
0.0000000001
 40
0.0
 40
0.0
 40
0.0
 40
0.0
 40
0.187195289
 40
0.2787245428
 40
0.3677975177
 40
0.453625248
 40
0.5354519318
 40
0.6125554156
 40
0.6842559473
 40
0.7499212194
 40
0.8089726879
 40
0.8608903717
 40
0.8840290999
 40
0.9052177562
 40
0.9244110523
 40
0.9415662238
 40
0.9566465393
 40
0.9696197103
 40
0.9804581076
 40
0.9850703883
 40
0.9891416199
 40
0.9926700471
 40
0.9956552527
 40
0.9980978098
 40
1.0
 40
1.0
 40
1.0
 40
1.0
 10
4.9696428571
 20
5.0945334055
 30
0.0
 10
4.9500402661
 20
5.0941919319
 30
0.0
 10
4.9208529731
 20
5.0936836054
 30
0.0
 10
4.8823385155
 20
5.0929946849
 30
0.0
 10
4.8544391576
 20
5.0924819791
 30
0.0
 10
4.8275561542
 20
5.0919694648
 30
0.0
 10
4.8019269858
 20
5.0914572193
 30
0.0
 10
4.7777777071
 20
5.090945347
 30
0.0
 10
4.7553214586
 20
5.0904339809
 30
0.0
 10
4.7347563633
 20
5.0899233713
 30
0.0
 10
4.7162638676
 20
5.0894137237
 30
0.0
 10
4.7022251094
 20
5.0889752487
 30
0.0
 10
4.6921513192
 20
5.0886195059
 30
0.0
 10
4.6855035173
 20
5.0883632472
 30
0.0
 10
4.6794828861
 20
5.0881073256
 30
0.0
 10
4.674102623
 20
5.0878517857
 30
0.0
 10
4.6693745939
 20
5.0875968873
 30
0.0
 10
4.6653092043
 20
5.0873427761
 30
0.0
 10
4.6623403435
 20
5.0871220834
 30
0.0
 10
4.6603036923
 20
5.0869416778
 30
0.0
 10
4.6590310444
 20
5.0868140054
 30
0.0
 10
4.6579297492
 20
5.0866866772
 30
0.0
 10
4.6570002202
 20
5.0865599411
 30
0.0
 10
4.65624286
 20
5.086433971
 30
0.0
 10
4.6557973246
 20
5.0863396434
 30
0.0
 10
4.6556044737
 20
5.0862896622
 30
0.0
  0
SPLINE
  5
3B8
100
AcDbEntity
  8
0
100
AcDbSpline
 62
7
  6
CONTINUOUS
 70
0
 71
3
 72
39
 73
35
 74
0
 42
0.0000001
 43
0.0000001
 44
0.0000000001
 40
0.0
 40
0.0
 40
0.0
 40
0.0
 40
0.0979444361
 40
0.1949497217
 40
0.2900745568
 40
0.3824083636
 40
0.4710599932
 40
0.555176932
 40
0.633949234
 40
0.7066190177
 40
0.7404443729
 40
0.7724870063
 40
0.8026694812
 40
0.8309199019
 40
0.8571694484
 40
0.8813562385
 40
0.9034211108
 40
0.9233124793
 40
0.940981955
 40
0.9563885218
 40
0.9694957884
 40
0.9802741996
 40
0.9847831161
 40
0.9887018569
 40
0.9920292886
 40
0.9947656314
 40
0.9959126758
 40
0.9969128553
 40
0.9977670227
 40
0.9984766865
 40
0.9990447432
 40
0.9992774807
 40
0.999477557
 40
1.0
 40
1.0
 40
1.0
 40
1.0
 10
4.9696428571
 20
5.0838591411
 30
0.0
 10
4.9593593779
 20
5.0836800048
 30
0.0
 10
4.9388910235
 20
5.0833234525
 30
0.0
 10
4.9084353172
 20
5.082787813
 30
0.0
 10
4.8785688676
 20
5.082252273
 30
0.0
 10
4.8495797675
 20
5.0817169055
 30
0.0
 10
4.8217467938
 20
5.0811817753
 30
0.0
 10
4.7953381665
 20
5.0806469984
 30
0.0
 10
4.7706081308
 20
5.0801126735
 30
0.0
 10
4.7511586993
 20
5.0796577965
 30
0.0
 10
4.736615618
 20
5.0792910192
 30
0.0
 10
4.7265330302
 20
5.0790226315
 30
0.0
 10
4.7170360767
 20
5.0787543371
 30
0.0
 10
4.7081477029
 20
5.0784861731
 30
0.0
 10
4.6998892314
 20
5.0782181433
 30
0.0
 10
4.692280658
 20
5.0779503316
 30
0.0
 10
4.6853401903
 20
5.0776827555
 30
0.0
 10
4.6790846384
 20
5.0774155649
 30
0.0
 10
4.6735289569
 20
5.0771488356
 30
0.0
 10
4.6686865344
 20
5.0768829267
 30
0.0
 10
4.6645689544
 20
5.0766179742
 30
0.0
 10
4.6615960276
 20
5.0763873197
 30
0.0
 10
4.6595880818
 20
5.0761979756
 30
0.0
 10
4.6583608245
 20
5.0760649159
 30
0.0
 10
4.6573209292
 20
5.0759323276
 30
0.0
 10
4.656572406
 20
5.0758168704
 30
0.0
 10
4.6560683582
 20
5.075722211
 30
0.0
 10
4.6557602437
 20
5.0756555742
 30
0.0
 10
4.6554992667
 20
5.0755892351
 30
0.0
 10
4.6552851488
 20
5.0755229745
 30
0.0
 10
4.6551375218
 20
5.0754653306
 30
0.0
 10
4.655043226
 20
5.0754171065
 30
0.0
 10
4.6549599076
 20
5.0753658983
 30
0.0
 10
4.6548929687
 20
5.0753015023
 30
0.0
 10
4.6548929687
 20
5.0752466411
 30
0.0
  0
SPLINE
  5
3B9
100
AcDbEntity
  8
0
100
AcDbSpline
 62
7
  6
CONTINUOUS
 70
0
 71
3
 72
39
 73
35
 74
0
 42
0.0000001
 43
0.0000001
 44
0.0000000001
 40
0.0
 40
0.0
 40
0.0
 40
0.0
 40
0.0979444355
 40
0.1949497217
 40
0.2900745509
 40
0.3824083526
 40
0.4710599774
 40
0.5551769137
 40
0.6339492164
 40
0.7066190014
 40
0.7404443597
 40
0.7724869956
 40
0.8026694717
 40
0.8309198932
 40
0.8571694413
 40
0.8813562336
 40
0.9034211076
 40
0.9233124774
 40
0.9409819537
 40
0.9563885202
 40
0.9694957869
 40
0.9802741985
 40
0.9847831153
 40
0.9887018565
 40
0.9920292883
 40
0.9947656309
 40
0.9959126753
 40
0.9969128548
 40
0.9977670223
 40
0.9984766864
 40
0.9990447433
 40
0.9992774807
 40
0.999477557
 40
1.0
 40
1.0
 40
1.0
 40
1.0
 10
4.9696428571
 20
5.1183091411
 30
0.0
 10
4.9593593779
 20
5.1181300048
 30
0.0
 10
4.9388910235
 20
5.1177734525
 30
0.0
 10
4.9084353179
 20
5.117237813
 30
0.0
 10
4.8785688694
 20
5.116702273
 30
0.0
 10
4.8495797709
 20
5.1161669056
 30
0.0
 10
4.8217467985
 20
5.1156317754
 30
0.0
 10
4.7953381719
 20
5.1150969985
 30
0.0
 10
4.7706081362
 20
5.1145626736
 30
0.0
 10
4.7511587042
 20
5.1141077967
 30
0.0
 10
4.7366156222
 20
5.1137410193
 30
0.0
 10
4.7265330337
 20
5.1134726316
 30
0.0
 10
4.7170360797
 20
5.1132043372
 30
0.0
 10
4.7081477055
 20
5.1129361732
 30
0.0
 10
4.6998892335
 20
5.1126681434
 30
0.0
 10
4.6922806595
 20
5.1124003316
 30
0.0
 10
4.6853401912
 20
5.1121327556
 30
0.0
 10
4.679084639
 20
5.1118655649
 30
0.0
 10
4.6735289573
 20
5.1115988356
 30
0.0
 10
4.6686865348
 20
5.1113329267
 30
0.0
 10
4.6645689548
 20
5.1110679742
 30
0.0
 10
4.6615960279
 20
5.1108373198
 30
0.0
 10
4.6595880819
 20
5.1106479756
 30
0.0
 10
4.6583608245
 20
5.1105149159
 30
0.0
 10
4.6573209292
 20
5.1103823276
 30
0.0
 10
4.656572406
 20
5.1102668704
 30
0.0
 10
4.6560683583
 20
5.110172211
 30
0.0
 10
4.6557602438
 20
5.1101055742
 30
0.0
 10
4.6554992668
 20
5.1100392351
 30
0.0
 10
4.6552851488
 20
5.1099729745
 30
0.0
 10
4.6551375217
 20
5.1099153306
 30
0.0
 10
4.6550432259
 20
5.1098671065
 30
0.0
 10
4.6549599075
 20
5.1098158983
 30
0.0
 10
4.6548929686
 20
5.1097515023
 30
0.0
 10
4.6548929686
 20
5.1096966411
 30
0.0
  0
SPLINE
  5
3BA
100
AcDbEntity
  8
0
100
AcDbSpline
 62
7
  6
CONTINUOUS
 70
0
 71
3
 72
30
 73
26
 74
0
 42
0.0000001
 43
0.0000001
 44
0.0000000001
 40
0.0
 40
0.0
 40
0.0
 40
0.0
 40
0.187195289
 40
0.2787245428
 40
0.3677975177
 40
0.453625248
 40
0.5354519318
 40
0.6125554156
 40
0.6842559473
 40
0.7499212194
 40
0.8089726879
 40
0.8608903717
 40
0.8840290999
 40
0.9052177562
 40
0.9244110523
 40
0.9415662238
 40
0.9566465393
 40
0.9696197103
 40
0.9804581076
 40
0.9850703883
 40
0.9891416199
 40
0.9926700471
 40
0.9956552527
 40
0.9980978098
 40
1.0
 40
1.0
 40
1.0
 40
1.0
 10
4.9696428571
 20
5.1289834055
 30
0.0
 10
4.9500402661
 20
5.1286419319
 30
0.0
 10
4.9208529731
 20
5.1281336054
 30
0.0
 10
4.8823385155
 20
5.1274446849
 30
0.0
 10
4.8544391576
 20
5.1269319791
 30
0.0
 10
4.8275561542
 20
5.1264194648
 30
0.0
 10
4.8019269858
 20
5.1259072193
 30
0.0
 10
4.7777777071
 20
5.125395347
 30
0.0
 10
4.7553214586
 20
5.1248839809
 30
0.0
 10
4.7347563633
 20
5.1243733713
 30
0.0
 10
4.7162638676
 20
5.1238637237
 30
0.0
 10
4.7022251094
 20
5.1234252487
 30
0.0
 10
4.6921513192
 20
5.1230695059
 30
0.0
 10
4.6855035173
 20
5.1228132472
 30
0.0
 10
4.6794828861
 20
5.1225573256
 30
0.0
 10
4.674102623
 20
5.1223017857
 30
0.0
 10
4.6693745939
 20
5.1220468873
 30
0.0
 10
4.6653092043
 20
5.1217927761
 30
0.0
 10
4.6623403435
 20
5.1215720834
 30
0.0
 10
4.6603036923
 20
5.1213916778
 30
0.0
 10
4.6590310444
 20
5.1212640054
 30
0.0
 10
4.6579297492
 20
5.1211366772
 30
0.0
 10
4.6570002202
 20
5.1210099411
 30
0.0
 10
4.65624286
 20
5.120883971
 30
0.0
 10
4.6557973246
 20
5.1207896434
 30
0.0
 10
4.6556044737
 20
5.1207396622
 30
0.0
  0
SPLINE
  5
3BB
100
AcDbEntity
  8
0
100
AcDbSpline
 62
7
  6
CONTINUOUS
 70
0
 71
3
 72
39
 73
35
 74
0
 42
0.0000001
 43
0.0000001
 44
0.0000000001
 40
0.0
 40
0.0
 40
0.0
 40
0.0
 40
0.0979444355
 40
0.1949497217
 40
0.2900745509
 40
0.3824083526
 40
0.4710599774
 40
0.5551769137
 40
0.6339492164
 40
0.7066190014
 40
0.7404443597
 40
0.7724869956
 40
0.8026694717
 40
0.8309198932
 40
0.8571694413
 40
0.8813562336
 40
0.9034211076
 40
0.9233124774
 40
0.9409819537
 40
0.9563885202
 40
0.9694957869
 40
0.9802741985
 40
0.9847831153
 40
0.9887018565
 40
0.9920292883
 40
0.9947656309
 40
0.9959126753
 40
0.9969128548
 40
0.9977670223
 40
0.9984766864
 40
0.9990447433
 40
0.9992774807
 40
0.999477557
 40
1.0
 40
1.0
 40
1.0
 40
1.0
 10
4.9696428571
 20
5.1527591411
 30
0.0
 10
4.9593593779
 20
5.1525800048
 30
0.0
 10
4.9388910235
 20
5.1522234525
 30
0.0
 10
4.9084353179
 20
5.151687813
 30
0.0
 10
4.8785688694
 20
5.151152273
 30
0.0
 10
4.8495797709
 20
5.1506169056
 30
0.0
 10
4.8217467985
 20
5.1500817754
 30
0.0
 10
4.7953381719
 20
5.1495469985
 30
0.0
 10
4.7706081362
 20
5.1490126736
 30
0.0
 10
4.7511587042
 20
5.1485577967
 30
0.0
 10
4.7366156222
 20
5.1481910193
 30
0.0
 10
4.7265330337
 20
5.1479226316
 30
0.0
 10
4.7170360797
 20
5.1476543372
 30
0.0
 10
4.7081477055
 20
5.1473861732
 30
0.0
 10
4.6998892335
 20
5.1471181434
 30
0.0
 10
4.6922806595
 20
5.1468503316
 30
0.0
 10
4.6853401912
 20
5.1465827556
 30
0.0
 10
4.679084639
 20
5.1463155649
 30
0.0
 10
4.6735289573
 20
5.1460488356
 30
0.0
 10
4.6686865348
 20
5.1457829267
 30
0.0
 10
4.6645689548
 20
5.1455179742
 30
0.0
 10
4.6615960279
 20
5.1452873198
 30
0.0
 10
4.6595880819
 20
5.1450979756
 30
0.0
 10
4.6583608245
 20
5.1449649159
 30
0.0
 10
4.6573209292
 20
5.1448323276
 30
0.0
 10
4.656572406
 20
5.1447168704
 30
0.0
 10
4.6560683583
 20
5.144622211
 30
0.0
 10
4.6557602438
 20
5.1445555742
 30
0.0
 10
4.6554992668
 20
5.1444892351
 30
0.0
 10
4.6552851488
 20
5.1444229745
 30
0.0
 10
4.6551375217
 20
5.1443653306
 30
0.0
 10
4.6550432259
 20
5.1443171065
 30
0.0
 10
4.6549599075
 20
5.1442658983
 30
0.0
 10
4.6548929686
 20
5.1442015023
 30
0.0
 10
4.6548929686
 20
5.1441466411
 30
0.0
  0
SPLINE
  5
3BC
100
AcDbEntity
  8
0
100
AcDbSpline
 62
7
  6
CONTINUOUS
 70
0
 71
3
 72
30
 73
26
 74
0
 42
0.0000001
 43
0.0000001
 44
0.0000000001
 40
0.0
 40
0.0
 40
0.0
 40
0.0
 40
0.187195289
 40
0.2787245428
 40
0.3677975177
 40
0.453625248
 40
0.5354519318
 40
0.6125554156
 40
0.6842559473
 40
0.7499212194
 40
0.8089726879
 40
0.8608903717
 40
0.8840290999
 40
0.9052177562
 40
0.9244110523
 40
0.9415662238
 40
0.9566465393
 40
0.9696197103
 40
0.9804581076
 40
0.9850703883
 40
0.9891416199
 40
0.9926700471
 40
0.9956552527
 40
0.9980978098
 40
1.0
 40
1.0
 40
1.0
 40
1.0
 10
4.9696428571
 20
5.1634334054
 30
0.0
 10
4.9500402661
 20
5.1630919319
 30
0.0
 10
4.9208529731
 20
5.1625836054
 30
0.0
 10
4.8823385155
 20
5.1618946849
 30
0.0
 10
4.8544391576
 20
5.1613819791
 30
0.0
 10
4.8275561542
 20
5.1608694648
 30
0.0
 10
4.8019269858
 20
5.1603572193
 30
0.0
 10
4.7777777071
 20
5.159845347
 30
0.0
 10
4.7553214586
 20
5.1593339809
 30
0.0
 10
4.7347563633
 20
5.1588233713
 30
0.0
 10
4.7162638676
 20
5.1583137237
 30
0.0
 10
4.7022251094
 20
5.1578752487
 30
0.0
 10
4.6921513192
 20
5.1575195059
 30
0.0
 10
4.6855035173
 20
5.1572632472
 30
0.0
 10
4.6794828861
 20
5.1570073256
 30
0.0
 10
4.674102623
 20
5.1567517857
 30
0.0
 10
4.6693745939
 20
5.1564968873
 30
0.0
 10
4.6653092043
 20
5.1562427761
 30
0.0
 10
4.6623403435
 20
5.1560220834
 30
0.0
 10
4.6603036923
 20
5.1558416778
 30
0.0
 10
4.6590310444
 20
5.1557140054
 30
0.0
 10
4.6579297492
 20
5.1555866772
 30
0.0
 10
4.6570002202
 20
5.1554599411
 30
0.0
 10
4.65624286
 20
5.155333971
 30
0.0
 10
4.6557973246
 20
5.1552396434
 30
0.0
 10
4.6556044737
 20
5.1551896622
 30
0.0
  0
SPLINE
  5
3BD
100
AcDbEntity
  8
0
100
AcDbSpline
 62
7
  6
CONTINUOUS
 70
0
 71
3
 72
39
 73
35
 74
0
 42
0.0000001
 43
0.0000001
 44
0.0000000001
 40
0.0
 40
0.0
 40
0.0
 40
0.0
 40
0.0979444355
 40
0.1949497217
 40
0.2900745509
 40
0.3824083526
 40
0.4710599774
 40
0.5551769137
 40
0.6339492164
 40
0.7066190014
 40
0.7404443597
 40
0.7724869956
 40
0.8026694717
 40
0.8309198932
 40
0.8571694413
 40
0.8813562336
 40
0.9034211076
 40
0.9233124774
 40
0.9409819537
 40
0.9563885202
 40
0.9694957869
 40
0.9802741985
 40
0.9847831153
 40
0.9887018565
 40
0.9920292883
 40
0.9947656309
 40
0.9959126753
 40
0.9969128548
 40
0.9977670223
 40
0.9984766864
 40
0.9990447433
 40
0.9992774807
 40
0.999477557
 40
1.0
 40
1.0
 40
1.0
 40
1.0
 10
4.9696428571
 20
5.1872091411
 30
0.0
 10
4.9593593779
 20
5.1870300048
 30
0.0
 10
4.9388910235
 20
5.1866734525
 30
0.0
 10
4.9084353179
 20
5.186137813
 30
0.0
 10
4.8785688694
 20
5.185602273
 30
0.0
 10
4.8495797709
 20
5.1850669056
 30
0.0
 10
4.8217467985
 20
5.1845317754
 30
0.0
 10
4.7953381719
 20
5.1839969985
 30
0.0
 10
4.7706081362
 20
5.1834626736
 30
0.0
 10
4.7511587042
 20
5.1830077967
 30
0.0
 10
4.7366156222
 20
5.1826410193
 30
0.0
 10
4.7265330337
 20
5.1823726316
 30
0.0
 10
4.7170360797
 20
5.1821043372
 30
0.0
 10
4.7081477055
 20
5.1818361732
 30
0.0
 10
4.6998892335
 20
5.1815681434
 30
0.0
 10
4.6922806595
 20
5.1813003316
 30
0.0
 10
4.6853401912
 20
5.1810327556
 30
0.0
 10
4.679084639
 20
5.1807655649
 30
0.0
 10
4.6735289573
 20
5.1804988356
 30
0.0
 10
4.6686865348
 20
5.1802329267
 30
0.0
 10
4.6645689548
 20
5.1799679742
 30
0.0
 10
4.6615960279
 20
5.1797373198
 30
0.0
 10
4.6595880819
 20
5.1795479756
 30
0.0
 10
4.6583608245
 20
5.1794149159
 30
0.0
 10
4.6573209292
 20
5.1792823276
 30
0.0
 10
4.656572406
 20
5.1791668704
 30
0.0
 10
4.6560683583
 20
5.179072211
 30
0.0
 10
4.6557602438
 20
5.1790055742
 30
0.0
 10
4.6554992668
 20
5.1789392351
 30
0.0
 10
4.6552851488
 20
5.1788729745
 30
0.0
 10
4.6551375217
 20
5.1788153306
 30
0.0
 10
4.6550432259
 20
5.1787671065
 30
0.0
 10
4.6549599075
 20
5.1787158983
 30
0.0
 10
4.6548929686
 20
5.1786515023
 30
0.0
 10
4.6548929686
 20
5.1785966411
 30
0.0
  0
SPLINE
  5
3BE
100
AcDbEntity
  8
0
100
AcDbSpline
 62
7
  6
CONTINUOUS
 70
0
 71
3
 72
27
 73
23
 74
0
 42
0.0000001
 43
0.0000001
 44
0.0000000001
 40
0.0
 40
0.0
 40
0.0
 40
0.0
 40
0.183408033
 40
0.360655796
 40
0.4450972747
 40
0.5257951246
 40
0.6020702557
 40
0.6732813888
 40
0.7388297154
 40
0.7981643436
 40
0.8507870156
 40
0.8962562021
 40
0.916187155
 40
0.9341915414
 40
0.9502327911
 40
0.9642771059
 40
0.9762964324
 40
0.9862678688
 40
0.990479464
 40
0.9941727309
 40
0.9973464656
 40
1.0
 40
1.0
 40
1.0
 40
1.0
 10
4.9696428571
 20
5.1978834055
 30
0.0
 10
4.9504957331
 20
5.197549866
 30
0.0
 10
4.9128445947
 20
5.1968940104
 30
0.0
 10
4.8663785458
 20
5.1960575952
 30
0.0
 10
4.8306356051
 20
5.1953791359
 30
0.0
 10
4.8054339629
 20
5.1948787474
 30
0.0
 10
4.7816140084
 20
5.1943786931
 30
0.0
 10
4.7593762076
 20
5.1938790838
 30
0.0
 10
4.7389076668
 20
5.1933800801
 30
0.0
 10
4.7203805869
 20
5.1928820087
 30
0.0
 10
4.7039508261
 20
5.1923851107
 30
0.0
 10
4.6916352003
 20
5.1919561398
 30
0.0
 10
4.6829337329
 20
5.1916070572
 30
0.0
 10
4.6773034414
 20
5.191357172
 30
0.0
 10
4.6722884369
 20
5.1911077418
 30
0.0
 10
4.6678991655
 20
5.1908589864
 30
0.0
 10
4.6641447888
 20
5.1906110384
 30
0.0
 10
4.6614172995
 20
5.1903954764
 30
0.0
 10
4.6595591288
 20
5.1902189057
 30
0.0
 10
4.6584090676
 20
5.1900943328
 30
0.0
 10
4.6574227409
 20
5.1899701827
 30
0.0
 10
4.656820931
 20
5.189879865
 30
0.0
 10
4.6565477929
 20
5.1898334055
 30
0.0
  0
SPLINE
  5
3BF
100
AcDbEntity
  8
0
100
AcDbSpline
 62
7
  6
CONTINUOUS
 70
0
 71
3
 72
39
 73
35
 74
0
 42
0.0000001
 43
0.0000001
 44
0.0000000001
 40
0.0
 40
0.0
 40
0.0
 40
0.0
 40
0.000522443
 40
0.0007225193
 40
0.0009552567
 40
0.0015233136
 40
0.0022329777
 40
0.0030871452
 40
0.0040873247
 40
0.0052343691
 40
0.0079707117
 40
0.0112981435
 40
0.0152168847
 40
0.0197258015
 40
0.0305042131
 40
0.0436114798
 40
0.0590180463
 40
0.0766875226
 40
0.0965788924
 40
0.1186437664
 40
0.1428305587
 40
0.1690801068
 40
0.1973305283
 40
0.2275130044
 40
0.2595556403
 40
0.2933809986
 40
0.3660507836
 40
0.4448230863
 40
0.5289400226
 40
0.6175916474
 40
0.7099254491
 40
0.8050502783
 40
0.9020555645
 40
1.0
 40
1.0
 40
1.0
 40
1.0
 10
5.2843927457
 20
4.8964459055
 30
0.0
 10
5.2843927457
 20
4.8963910443
 30
0.0
 10
5.2843258068
 20
4.8963266483
 30
0.0
 10
5.2842424883
 20
4.8962754401
 30
0.0
 10
5.2841481926
 20
4.896227216
 30
0.0
 10
5.2840005655
 20
4.8961695721
 30
0.0
 10
5.2837864475
 20
4.8961033115
 30
0.0
 10
5.2835254705
 20
4.8960369724
 30
0.0
 10
5.283217356
 20
4.8959703355
 30
0.0
 10
5.2827133083
 20
4.8958756762
 30
0.0
 10
5.2819647851
 20
4.895760219
 30
0.0
 10
5.2809248897
 20
4.8956276307
 30
0.0
 10
5.2796976324
 20
4.8954945709
 30
0.0
 10
5.2776896864
 20
4.8953052268
 30
0.0
 10
5.2747167595
 20
4.8950745724
 30
0.0
 10
5.2705991795
 20
4.8948096199
 30
0.0
 10
5.265756757
 20
4.894543711
 30
0.0
 10
5.2602010753
 20
4.8942769816
 30
0.0
 10
5.253945523
 20
4.894009791
 30
0.0
 10
5.2470050548
 20
4.893742215
 30
0.0
 10
5.2393964808
 20
4.8934744032
 30
0.0
 10
5.2311380088
 20
4.8932063734
 30
0.0
 10
5.2222496346
 20
4.8929382094
 30
0.0
 10
5.2127526806
 20
4.8926699149
 30
0.0
 10
5.2026700921
 20
4.8924015273
 30
0.0
 10
5.1881270101
 20
4.8920347499
 30
0.0
 10
5.1686775781
 20
4.891579873
 30
0.0
 10
5.1439475424
 20
4.891045548
 30
0.0
 10
5.1175389158
 20
4.8905107712
 30
0.0
 10
5.0897059434
 20
4.889975641
 30
0.0
 10
5.0607168449
 20
4.8894402735
 30
0.0
 10
5.0308503964
 20
4.8889047336
 30
0.0
 10
5.0003946908
 20
4.8883690941
 30
0.0
 10
4.9799263364
 20
4.8880125418
 30
0.0
 10
4.9696428571
 20
4.8878334055
 30
0.0
  0
SPLINE
  5
3C0
100
AcDbEntity
  8
0
100
AcDbSpline
 62
7
  6
CONTINUOUS
 70
0
 71
3
 72
45
 73
41
 74
0
 42
0.0000001
 43
0.0000001
 44
0.0000000001
 40
0.0
 40
0.0
 40
0.0
 40
0.0
 40
0.0015497755
 40
0.0033563248
 40
0.0077366522
 40
0.0131336534
 40
0.0195368122
 40
0.0269336973
 40
0.0353099339
 40
0.0549287518
 40
0.078231884
 40
0.105027012
 40
0.1350924472
 40
0.1681791235
 40
0.204012765
 40
0.2422962827
 40
0.2827122522
 40
0.3249255422
 40
0.4133317449
 40
0.504587873
 40
0.5956725641
 40
0.6835701315
 40
0.7254074995
 40
0.7653704209
 40
0.8031275297
 40
0.8383657775
 40
0.870793027
 40
0.9001404919
 40
0.9261650944
 40
0.9486515981
 40
0.9585090719
 40
0.9674145961
 40
0.9753504741
 40
0.9823000014
 40
0.9882497973
 40
0.993188497
 40
0.9952756907
 40
0.9971070257
 40
0.9986819064
 40
1.0
 40
1.0
 40
1.0
 40
1.0
 10
5.2820080756
 20
5.2295962733
 30
0.0
 10
5.281688027
 20
5.2295508972
 30
0.0
 10
5.2809935762
 20
5.2294619659
 30
0.0
 10
5.2793894987
 20
5.229285564
 30
0.0
 10
5.2769826438
 20
5.2290713923
 30
0.0
 10
5.2736166287
 20
5.2288258332
 30
0.0
 10
5.2696200717
 20
5.2285793016
 30
0.0
 10
5.265001173
 20
5.2283318769
 30
0.0
 10
5.2576274152
 20
5.2279826788
 30
0.0
 10
5.2469361231
 20
5.2275559158
 30
0.0
 10
5.2324029445
 20
5.227063884
 30
0.0
 10
5.2156897968
 20
5.2265702698
 30
0.0
 10
5.1969352764
 20
5.2260753877
 30
0.0
 10
5.1762949483
 20
5.2255797234
 30
0.0
 10
5.1539400702
 20
5.2250834813
 30
0.0
 10
5.130056121
 20
5.2245868349
 30
0.0
 10
5.1048412525
 20
5.2240898765
 30
0.0
 10
5.0691733453
 20
5.2234166136
 30
0.0
 10
5.0229023832
 20
5.2225863504
 30
0.0
 10
4.9664390261
 20
5.2216036323
 30
0.0
 10
4.9100817741
 20
5.2206209687
 30
0.0
 10
4.8640311155
 20
5.219790052
 30
0.0
 10
4.8286422661
 20
5.2191161156
 30
0.0
 10
4.8037101539
 20
5.2186192164
 30
0.0
 10
4.7801547538
 20
5.2181226501
 30
0.0
 10
4.7581714903
 20
5.2176265254
 30
0.0
 10
4.7379427606
 20
5.2171310022
 30
0.0
 10
4.7196363954
 20
5.2166364023
 30
0.0
 10
4.7034042646
 20
5.2161429642
 30
0.0
 10
4.6912372324
 20
5.2157169796
 30
0.0
 10
4.6826404538
 20
5.2153703466
 30
0.0
 10
4.6770771618
 20
5.2151222021
 30
0.0
 10
4.6721210514
 20
5.2148745188
 30
0.0
 10
4.667782259
 20
5.2146274878
 30
0.0
 10
4.6640697389
 20
5.2143812632
 30
0.0
 10
4.6613716237
 20
5.2141672066
 30
0.0
 10
4.6595324982
 20
5.2139918996
 30
0.0
 10
4.6583933433
 20
5.2138681898
 30
0.0
 10
4.65741565
 20
5.2137448961
 30
0.0
 10
4.6568188255
 20
5.2136552425
 30
0.0
 10
4.6565477929
 20
5.2136091411
 30
0.0
  0
SPLINE
  5
3C1
100
AcDbEntity
  8
0
100
AcDbSpline
 62
7
  6
CONTINUOUS
 70
0
 71
3
 72
15
 73
11
 74
0
 42
0.0000001
 43
0.0000001
 44
0.0000000001
 40
0.0
 40
0.0
 40
0.0
 40
0.0
 40
0.2200229032
 40
0.4118002867
 40
0.5754925315
 40
0.7113757823
 40
0.8199589793
 40
0.8643296214
 40
0.9023585972
 40
1.0
 40
1.0
 40
1.0
 40
1.0
 10
4.6565477929
 20
5.2136091411
 30
0.0
 10
4.6564183944
 20
5.213587131
 30
0.0
 10
4.6561765906
 20
5.2135436411
 30
0.0
 10
4.6558403351
 20
5.213474032
 30
0.0
 10
4.655555503
 20
5.2134047246
 30
0.0
 10
4.6553217434
 20
5.213335495
 30
0.0
 10
4.6551605175
 20
5.2132752905
 30
0.0
 10
4.6550573087
 20
5.213224843
 30
0.0
 10
4.6549672708
 20
5.2131718798
 30
0.0
 10
4.6548929153
 20
5.2131048902
 30
0.0
 10
4.6548928659
 20
5.2130466412
 30
0.0
  0
SPLINE
  5
3C2
100
AcDbEntity
  8
0
100
AcDbSpline
 62
7
  6
CONTINUOUS
 70
0
 71
3
 72
25
 73
21
 74
0
 42
0.0000001
 43
0.0000001
 44
0.0000000001
 40
0.0
 40
0.0
 40
0.0
 40
0.0
 40
0.2044268063
 40
0.3911274139
 40
0.4769066561
 40
0.5571779492
 40
0.6316273516
 40
0.6999618986
 40
0.7619133621
 40
0.8172393373
 40
0.8657219605
 40
0.907174528
 40
0.9414357049
 40
0.9558290514
 40
0.9683784966
 40
0.9790749413
 40
0.9879114279
 40
0.9948840315
 40
0.9976730661
 40
1.0
 40
1.0
 40
1.0
 40
1.0
 10
4.8189609339
 20
5.2295962733
 30
0.0
 10
4.8078223593
 20
5.2293752699
 30
0.0
 10
4.7865113228
 20
5.2289387256
 30
0.0
 10
4.7605275399
 20
5.2283573268
 30
0.0
 10
4.7413092063
 20
5.2278868361
 30
0.0
 10
4.7282070136
 20
5.2275441788
 30
0.0
 10
4.7160558547
 20
5.2272017894
 30
0.0
 10
4.7049035005
 20
5.2268597158
 30
0.0
 10
4.6947938451
 20
5.2265180911
 30
0.0
 10
4.685766733
 20
5.2261770814
 30
0.0
 10
4.6778576026
 20
5.2258370512
 30
0.0
 10
4.6710976272
 20
5.2254982555
 30
0.0
 10
4.6661957006
 20
5.2252035248
 30
0.0
 10
4.6628689566
 20
5.2249617602
 30
0.0
 10
4.6608247455
 20
5.2247915104
 30
0.0
 10
4.6590844645
 20
5.2246220537
 30
0.0
 10
4.6576497789
 20
5.2244534438
 30
0.0
 10
4.656646669
 20
5.2243059094
 30
0.0
 10
4.6559992875
 20
5.2241833668
 30
0.0
 10
4.655727311
 20
5.2241214807
 30
0.0
 10
4.6556045555
 20
5.2240896622
 30
0.0
  0
SPLINE
  5
3C3
100
AcDbEntity
  8
0
100
AcDbSpline
 62
7
  6
CONTINUOUS
 70
0
 71
3
 72
15
 73
11
 74
0
 42
0.0000001
 43
0.0000001
 44
0.0000000001
 40
0.0
 40
0.0
 40
0.0
 40
0.0
 40
0.296838458
 40
0.4391305135
 40
0.5741813565
 40
0.6997651204
 40
0.8138123003
 40
0.9144415841
 40
0.9592029295
 40
1.0
 40
1.0
 40
1.0
 40
1.0
 10
4.9696428571
 20
4.4399834055
 30
0.0
 10
4.9429717389
 20
4.4395187994
 30
0.0
 10
4.9035155786
 20
4.4388320059
 30
0.0
 10
4.8519258391
 20
4.4378877166
 30
0.0
 10
4.8157238504
 20
4.4371901476
 30
0.0
 10
4.7820605388
 20
4.4364937269
 30
0.0
 10
4.7514911839
 20
4.4357988035
 30
0.0
 10
4.7281846013
 20
4.4352010921
 30
0.0
 10
4.7114600376
 20
4.4347147863
 30
0.0
 10
4.703775281
 20
4.4344698709
 30
0.0
 10
4.700111167
 20
4.4343462733
 30
0.0
  0
SPLINE
  5
3C4
100
AcDbEntity
  8
0
100
AcDbSpline
 62
7
  6
CONTINUOUS
 70
0
 71
3
 72
63
 73
59
 74
0
 42
0.0000001
 43
0.0000001
 44
0.0000000001
 40
0.0
 40
0.0
 40
0.0
 40
0.0
 40
0.0001173566
 40
0.0001890491
 40
0.0002731843
 40
0.0004848319
 40
0.0007601737
 40
0.001102467
 40
0.0015133276
 40
0.0019936223
 40
0.002543854
 40
0.0038551566
 40
0.0054485333
 40
0.0073242991
 40
0.0094821481
 40
0.0146397555
 40
0.0209114718
 40
0.0282843854
 40
0.0367415913
 40
0.0462647789
 40
0.0568317354
 40
0.0684188255
 40
0.0809993823
 40
0.0945444887
 40
0.1090234385
 40
0.1406470355
 40
0.1755799465
 40
0.2135013608
 40
0.2540630074
 40
0.2968920796
 40
0.3415950209
 40
0.3877608798
 40
0.4349653507
 40
0.4827745792
 40
0.5307490853
 40
0.5784479171
 40
0.6254326062
 40
0.67127123
 40
0.7155425404
 40
0.7578396293
 40
0.7977738265
 40
0.8349782269
 40
0.8691109593
 40
0.8998586227
 40
0.9269389983
 40
0.9390251129
 40
0.9501040882
 40
0.9601509642
 40
0.9691423163
 40
0.9770585206
 40
0.9838812626
 40
0.9895962198
 40
0.9920345098
 40
0.9941915394
 40
0.9960666441
 40
0.9976595304
 40
0.9989703181
 40
1.0
 40
1.0
 40
1.0
 40
1.0
 10
5.2640428574
 20
4.9361587731
 30
0.0
 10
5.2640428562
 20
4.9361357514
 30
0.0
 10
5.2640288697
 20
4.9360986362
 30
0.0
 10
5.2639944225
 20
4.9360575986
 30
0.0
 10
5.2639397673
 20
4.9360100966
 30
0.0
 10
5.2638424981
 20
4.9359531694
 30
0.0
 10
5.2636929398
 20
4.9358887887
 30
0.0
 10
5.2635016205
 20
4.9358241639
 30
0.0
 10
5.2632684572
 20
4.9357592486
 30
0.0
 10
5.2629932398
 20
4.9356941408
 30
0.0
 10
5.2625432026
 20
4.9356016576
 30
0.0
 10
5.2618747269
 20
4.9354888372
 30
0.0
 10
5.2609458811
 20
4.9353592615
 30
0.0
 10
5.2598496616
 20
4.9352292311
 30
0.0
 10
5.2580560985
 20
4.9350442205
 30
0.0
 10
5.2554000764
 20
4.9348188365
 30
0.0
 10
5.2517206973
 20
4.934559922
 30
0.0
 10
5.2473927344
 20
4.934300099
 30
0.0
 10
5.2424260064
 20
4.9340394557
 30
0.0
 10
5.2368319687
 20
4.9337783762
 30
0.0
 10
5.2306233672
 20
4.9335169183
 30
0.0
 10
5.2238145336
 20
4.9332552217
 30
0.0
 10
5.2164210926
 20
4.9329933309
 30
0.0
 10
5.2084600358
 20
4.9327312777
 30
0.0
 10
5.1967645614
 20
4.9323710551
 30
0.0
 10
5.1808741511
 20
4.9319251928
 30
0.0
 10
5.1603854542
 20
4.9314036947
 30
0.0
 10
5.1381428854
 20
4.9308815735
 30
0.0
 10
5.1143509522
 20
4.9303589643
 30
0.0
 10
5.0892283999
 20
4.9298360186
 30
0.0
 10
5.063006254
 20
4.9293128274
 30
0.0
 10
5.0359256302
 20
4.9287894656
 30
0.0
 10
5.008235541
 20
4.9282659918
 30
0.0
 10
4.9801905904
 20
4.9277424562
 30
0.0
 10
4.9520486452
 20
4.9272189042
 30
0.0
 10
4.9240684764
 20
4.92669538
 30
0.0
 10
4.8965073739
 20
4.9261719296
 30
0.0
 10
4.8696187654
 20
4.9256486044
 30
0.0
 10
4.8436498935
 20
4.9251254668
 30
0.0
 10
4.8188395248
 20
4.9246025944
 30
0.0
 10
4.7954157785
 20
4.9240800948
 30
0.0
 10
4.7735940366
 20
4.9235581028
 30
0.0
 10
4.7535749395
 20
4.9230368715
 30
0.0
 10
4.7355425749
 20
4.9225166062
 30
0.0
 10
4.7218348381
 20
4.9220691516
 30
0.0
 10
4.711984913
 20
4.9217061632
 30
0.0
 10
4.7054749987
 20
4.9214445572
 30
0.0
 10
4.6995726995
 20
4.9211832899
 30
0.0
 10
4.694291492
 20
4.9209223865
 30
0.0
 10
4.6896435769
 20
4.9206621507
 30
0.0
 10
4.6856395039
 20
4.9204026536
 30
0.0
 10
4.6827101941
 20
4.9201774116
 30
0.0
 10
4.6806959935
 20
4.9199933872
 30
0.0
 10
4.6794333716
 20
4.9198630028
 30
0.0
 10
4.6783375606
 20
4.9197329623
 30
0.0
 10
4.6774089817
 20
4.9196034841
 30
0.0
 10
4.6766481137
 20
4.9194747426
 30
0.0
 10
4.6761987996
 20
4.9193786353
 30
0.0
 10
4.6760032748
 20
4.9193279338
 30
0.0
  0
SPLINE
  5
3C5
100
AcDbEntity
  8
0
100
AcDbSpline
 62
7
  6
CONTINUOUS
 70
0
 71
3
 72
30
 73
26
 74
0
 42
0.0000001
 43
0.0000001
 44
0.0000000001
 40
0.0
 40
0.0
 40
0.0
 40
0.0
 40
0.0019021903
 40
0.0043447475
 40
0.0073299531
 40
0.0108583803
 40
0.014929612
 40
0.0195418927
 40
0.0303802902
 40
0.0433534612
 40
0.0584337768
 40
0.0755889484
 40
0.0947822445
 40
0.1159709009
 40
0.1391096291
 40
0.191027313
 40
0.2500787814
 40
0.3157440536
 40
0.3874445852
 40
0.4645480689
 40
0.5463747527
 40
0.6322024829
 40
0.7212754576
 40
0.8128047113
 40
1.0
 40
1.0
 40
1.0
 40
1.0
 10
5.2836812406
 20
4.8509528844
 30
0.0
 10
5.2834883896
 20
4.8509029032
 30
0.0
 10
5.2830428542
 20
4.8508085756
 30
0.0
 10
5.282285494
 20
4.8506826055
 30
0.0
 10
5.281355965
 20
4.8505558694
 30
0.0
 10
5.2802546697
 20
4.8504285411
 30
0.0
 10
5.2789820219
 20
4.8503008688
 30
0.0
 10
5.2769453706
 20
4.8501204631
 30
0.0
 10
5.2739765098
 20
4.8498997705
 30
0.0
 10
5.2699111202
 20
4.8496456593
 30
0.0
 10
5.265183091
 20
4.8493907609
 30
0.0
 10
5.2598028279
 20
4.8491352209
 30
0.0
 10
5.2537821967
 20
4.8488792993
 30
0.0
 10
5.2471343948
 20
4.8486230407
 30
0.0
 10
5.2370606046
 20
4.8482672978
 30
0.0
 10
5.2230218464
 20
4.8478288228
 30
0.0
 10
5.2045293507
 20
4.8473191752
 30
0.0
 10
5.1839642554
 20
4.8468085657
 30
0.0
 10
5.1615080069
 20
4.8462971995
 30
0.0
 10
5.1373587282
 20
4.8457853273
 30
0.0
 10
5.1117295599
 20
4.8452730818
 30
0.0
 10
5.0848465565
 20
4.8447605675
 30
0.0
 10
5.0569471986
 20
4.8442478617
 30
0.0
 10
5.0184327411
 20
4.8435589412
 30
0.0
 10
4.9892454481
 20
4.8430506147
 30
0.0
 10
4.9696428571
 20
4.8427091411
 30
0.0
  0
LINE
  5
3C6
100
AcDbEntity
  8
0
100
AcDbLine
 62
7
  6
CONTINUOUS
 10
5.2632823907
 20
4.8456646127
 11
5.2630008648
 21
4.8455973528
  0
SPLINE
  5
3C7
100
AcDbEntity
  8
0
100
AcDbSpline
 62
7
  6
CONTINUOUS
 70
0
 71
3
 72
62
 73
58
 74
0
 42
0.0000001
 43
0.0000001
 44
0.0000000001
 40
0.0
 40
0.0
 40
0.0
 40
0.0
 40
0.0011685153
 40
0.002616593
 40
0.0043449046
 40
0.0063534573
 40
0.0112077711
 40
0.0171705876
 40
0.0242301903
 40
0.0323705284
 40
0.0415741565
 40
0.0518199562
 40
0.0630849549
 40
0.0753437508
 40
0.1027286325
 40
0.1337256522
 40
0.1680526347
 40
0.205396931
 40
0.2454182419
 40
0.2877516929
 40
0.3320113524
 40
0.3777936162
 40
0.424681087
 40
0.4722462596
 40
0.5200553455
 40
0.5676724835
 40
0.6146633145
 40
0.6605994686
 40
0.7050620543
 40
0.7476457026
 40
0.7879622418
 40
0.8256440536
 40
0.8603477436
 40
0.891757087
 40
0.906135845
 40
0.9195862079
 40
0.9320779272
 40
0.9435820758
 40
0.954073224
 40
0.9635270546
 40
0.9719227537
 40
0.9792414289
 40
0.9854669314
 40
0.9905865754
 40
0.9927282706
 40
0.9945901853
 40
0.9961720014
 40
0.997473814
 40
0.9980200093
 40
0.998496722
 40
0.9989045073
 40
0.9992442962
 40
0.9995177342
 40
0.9997280542
 40
0.9998117267
 40
0.9998830757
 40
1.0
 40
1.0
 40
1.0
 40
1.0
 10
5.2630008648
 20
4.8455973528
 30
0.0
 10
5.2627771748
 20
4.8455477964
 30
0.0
 10
5.2622727871
 20
4.8454527268
 30
0.0
 10
5.2614305743
 20
4.8453240306
 30
0.0
 10
5.2604221227
 20
4.8451947295
 30
0.0
 10
5.258747742
 20
4.8450099184
 30
0.0
 10
5.2562427973
 20
4.8447854101
 30
0.0
 10
5.2527470715
 20
4.8445278454
 30
0.0
 10
5.2486056308
 20
4.8442692976
 30
0.0
 10
5.2438277702
 20
4.8440098376
 30
0.0
 10
5.2384244007
 20
4.8437498994
 30
0.0
 10
5.2324077622
 20
4.843489565
 30
0.0
 10
5.2257915954
 20
4.8432289497
 30
0.0
 10
5.2158163359
 20
4.8428677266
 30
0.0
 10
5.201972762
 20
4.8424222082
 30
0.0
 10
5.1838024792
 20
4.8419038552
 30
0.0
 10
5.1636787421
 20
4.8413845851
 30
0.0
 10
5.1417850753
 20
4.8408645927
 30
0.0
 10
5.1183211626
 20
4.8403441165
 30
0.0
 10
5.0935010335
 20
4.8398232838
 30
0.0
 10
5.0675511098
 20
4.8393021973
 30
0.0
 10
5.0407080994
 20
4.8387809312
 30
0.0
 10
5.013216853
 20
4.8382595458
 30
0.0
 10
4.9853281341
 20
4.8377380912
 30
0.0
 10
4.9572963232
 20
4.8372166125
 30
0.0
 10
4.929377144
 20
4.836695153
 30
0.0
 10
4.9018252583
 20
4.8361737568
 30
0.0
 10
4.8748920035
 20
4.8356524737
 30
0.0
 10
4.848823038
 20
4.8351313617
 30
0.0
 10
4.8238561465
 20
4.834610495
 30
0.0
 10
4.8002190732
 20
4.8340899652
 30
0.0
 10
4.7781274263
 20
4.8335699226
 30
0.0
 10
4.75778274
 20
4.8330505006
 30
0.0
 10
4.7420067449
 20
4.8326063961
 30
0.0
 10
4.7303972555
 20
4.832247592
 30
0.0
 10
4.7224957558
 20
4.8319865835
 30
0.0
 10
4.7151582104
 20
4.8317257478
 30
0.0
 10
4.7084012733
 20
4.8314650798
 30
0.0
 10
4.7022404523
 20
4.8312046874
 30
0.0
 10
4.6966896922
 20
4.8309446271
 30
0.0
 10
4.6917617026
 20
4.8306850446
 30
0.0
 10
4.6874676278
 20
4.8304262505
 30
0.0
 10
4.683817203
 20
4.8301683593
 30
0.0
 10
4.6811821612
 20
4.8299439013
 30
0.0
 10
4.6794028138
 20
4.8297596052
 30
0.0
 10
4.6783152869
 20
4.8296300942
 30
0.0
 10
4.6773937433
 20
4.8295010452
 30
0.0
 10
4.6767305167
 20
4.8293886839
 30
0.0
 10
4.676284059
 20
4.8292965697
 30
0.0
 10
4.6760110786
 20
4.8292317184
 30
0.0
 10
4.6757798332
 20
4.8291670553
 30
0.0
 10
4.6755900846
 20
4.8291026783
 30
0.0
 10
4.6754417306
 20
4.829038547
 30
0.0
 10
4.6753452391
 20
4.8289818402
 30
0.0
 10
4.6752910161
 20
4.8289345372
 30
0.0
 10
4.6752568149
 20
4.828893642
 30
0.0
 10
4.6752429377
 20
4.828856699
 30
0.0
 10
4.6752429242
 20
4.8288337734
 30
0.0
  0
SPLINE
  5
3C8
100
AcDbEntity
  8
0
100
AcDbSpline
 62
7
  6
CONTINUOUS
 70
0
 71
3
 72
30
 73
26
 74
0
 42
0.0000001
 43
0.0000001
 44
0.0000000001
 40
0.0
 40
0.0
 40
0.0
 40
0.0
 40
0.0019021903
 40
0.0043447475
 40
0.0073299531
 40
0.0108583803
 40
0.014929612
 40
0.0195418927
 40
0.0303802902
 40
0.0433534612
 40
0.0584337768
 40
0.0755889484
 40
0.0947822445
 40
0.1159709009
 40
0.1391096291
 40
0.191027313
 40
0.2500787814
 40
0.3157440536
 40
0.3874445852
 40
0.4645480689
 40
0.5463747527
 40
0.6322024829
 40
0.7212754576
 40
0.8128047113
 40
1.0
 40
1.0
 40
1.0
 40
1.0
 10
5.2836812406
 20
4.8854028844
 30
0.0
 10
5.2834883896
 20
4.8853529032
 30
0.0
 10
5.2830428542
 20
4.8852585756
 30
0.0
 10
5.282285494
 20
4.8851326055
 30
0.0
 10
5.281355965
 20
4.8850058694
 30
0.0
 10
5.2802546697
 20
4.8848785411
 30
0.0
 10
5.2789820219
 20
4.8847508688
 30
0.0
 10
5.2769453706
 20
4.8845704631
 30
0.0
 10
5.2739765098
 20
4.8843497705
 30
0.0
 10
5.2699111202
 20
4.8840956593
 30
0.0
 10
5.265183091
 20
4.8838407609
 30
0.0
 10
5.2598028279
 20
4.8835852209
 30
0.0
 10
5.2537821967
 20
4.8833292993
 30
0.0
 10
5.2471343948
 20
4.8830730407
 30
0.0
 10
5.2370606046
 20
4.8827172978
 30
0.0
 10
5.2230218464
 20
4.8822788228
 30
0.0
 10
5.2045293507
 20
4.8817691752
 30
0.0
 10
5.1839642554
 20
4.8812585657
 30
0.0
 10
5.1615080069
 20
4.8807471995
 30
0.0
 10
5.1373587282
 20
4.8802353273
 30
0.0
 10
5.1117295599
 20
4.8797230818
 30
0.0
 10
5.0848465565
 20
4.8792105675
 30
0.0
 10
5.0569471986
 20
4.8786978617
 30
0.0
 10
5.0184327411
 20
4.8780089412
 30
0.0
 10
4.9892454481
 20
4.8775006147
 30
0.0
 10
4.9696428571
 20
4.8771591411
 30
0.0
  0
LINE
  5
3C9
100
AcDbEntity
  8
0
100
AcDbLine
 62
7
  6
CONTINUOUS
 10
5.2632824239
 20
4.8801146128
 11
5.2629596764
 21
4.8800382955
  0
SPLINE
  5
3CA
100
AcDbEntity
  8
0
100
AcDbSpline
 62
7
  6
CONTINUOUS
 70
0
 71
3
 72
62
 73
58
 74
0
 42
0.0000001
 43
0.0000001
 44
0.0000000001
 40
0.0
 40
0.0
 40
0.0
 40
0.0
 40
0.001187238
 40
0.0026539676
 40
0.0044005441
 40
0.0064267733
 40
0.0113157709
 40
0.0173120004
 40
0.0244030233
 40
0.0325737366
 40
0.0418054399
 40
0.0520780926
 40
0.0633678846
 40
0.0756497559
 40
0.1030752804
 40
0.1341056223
 40
0.1684586995
 40
0.2058217374
 40
0.2458546475
 40
0.2881928507
 40
0.3324507979
 40
0.3782254773
 40
0.4250998961
 40
0.4726471636
 40
0.5204340931
 40
0.5680254176
 40
0.6149876724
 40
0.6608930892
 40
0.7053235589
 40
0.7478744153
 40
0.7881580422
 40
0.8258077192
 40
0.8604806729
 40
0.8918614199
 40
0.9062268917
 40
0.9196646025
 40
0.9321442454
 40
0.943637581
 40
0.9541182605
 40
0.9635631617
 40
0.9719503771
 40
0.9792618939
 40
0.985481248
 40
0.990595599
 40
0.9927353904
 40
0.99459552
 40
0.9961755931
 40
0.9974759574
 40
0.9980216202
 40
0.9984979534
 40
0.9989054649
 40
0.9992450257
 40
0.9995182312
 40
0.999728325
 40
0.9998118998
 40
0.9998831683
 40
1.0
 40
1.0
 40
1.0
 40
1.0
 10
5.2629596764
 20
4.8800382955
 30
0.0
 10
5.2627322171
 20
4.8799888668
 30
0.0
 10
5.2622203981
 20
4.8798939354
 30
0.0
 10
5.2613672114
 20
4.8797652643
 30
0.0
 10
5.2603480417
 20
4.8796360011
 30
0.0
 10
5.2586598364
 20
4.8794513485
 30
0.0
 10
5.2561381825
 20
4.8792269771
 30
0.0
 10
5.2526231383
 20
4.8789695137
 30
0.0
 10
5.2484632895
 20
4.878711042
 30
0.0
 10
5.2436681189
 20
4.8784517303
 30
0.0
 10
5.2382483896
 20
4.8781918895
 30
0.0
 10
5.232216532
 20
4.8779317037
 30
0.0
 10
5.2255861742
 20
4.8776712118
 30
0.0
 10
5.2155942571
 20
4.8773102292
 30
0.0
 10
5.2017326331
 20
4.8768649681
 30
0.0
 10
5.1835440206
 20
4.8763468745
 30
0.0
 10
5.163406391
 20
4.8758278697
 30
0.0
 10
5.1415032198
 20
4.8753081471
 30
0.0
 10
5.1180341013
 20
4.8747879433
 30
0.0
 10
5.093212875
 20
4.8742673847
 30
0.0
 10
5.0672656971
 20
4.8737465742
 30
0.0
 10
5.040428988
 20
4.8732255855
 30
0.0
 10
5.0129472646
 20
4.8727044783
 30
0.0
 10
4.9850709546
 20
4.8721833028
 30
0.0
 10
4.9570540655
 20
4.8716621032
 30
0.0
 10
4.9291518925
 20
4.8711409229
 30
0.0
 10
4.9016186692
 20
4.8706198064
 30
0.0
 10
4.8747052685
 20
4.8700988033
 30
0.0
 10
4.8486569218
 20
4.8695779715
 30
0.0
 10
4.8237109969
 20
4.8690573854
 30
0.0
 10
4.8000947987
 20
4.8685371352
 30
0.0
 10
4.7780235134
 20
4.8680173715
 30
0.0
 10
4.7576982176
 20
4.8674982288
 30
0.0
 10
4.7419375904
 20
4.8670543607
 30
0.0
 10
4.7303396248
 20
4.8666957485
 30
0.0
 10
4.7224461443
 20
4.8664348848
 30
0.0
 10
4.7151160933
 20
4.8661741784
 30
0.0
 10
4.7083661799
 20
4.8659136702
 30
0.0
 10
4.7022117246
 20
4.8656533944
 30
0.0
 10
4.696666828
 20
4.8653934985
 30
0.0
 10
4.69174401
 20
4.8651340384
 30
0.0
 10
4.6874545155
 20
4.8648753885
 30
0.0
 10
4.6838079981
 20
4.8646176519
 30
0.0
 10
4.6811757651
 20
4.8643932811
 30
0.0
 10
4.6793983043
 20
4.8642091089
 30
0.0
 10
4.6783119198
 20
4.8640796737
 30
0.0
 10
4.6773914198
 20
4.8639506861
 30
0.0
 10
4.676728974
 20
4.8638383768
 30
0.0
 10
4.6762830118
 20
4.8637463132
 30
0.0
 10
4.6760102824
 20
4.8636814988
 30
0.0
 10
4.6757792237
 20
4.8636168744
 30
0.0
 10
4.6755896282
 20
4.8635525384
 30
0.0
 10
4.6754414174
 20
4.8634884439
 30
0.0
 10
4.6753450446
 20
4.8634317629
 30
0.0
 10
4.6752909143
 20
4.8633844823
 30
0.0
 10
4.6752567818
 20
4.8633436016
 30
0.0
 10
4.6752429625
 20
4.8633066791
 30
0.0
 10
4.6752429691
 20
4.8632837733
 30
0.0
  0
SPLINE
  5
3CB
100
AcDbEntity
  8
0
100
AcDbSpline
 62
7
  6
CONTINUOUS
 70
0
 71
3
 72
39
 73
35
 74
0
 42
0.0000001
 43
0.0000001
 44
0.0000000001
 40
0.0
 40
0.0
 40
0.0
 40
0.0
 40
0.093478315
 40
0.1872588766
 40
0.2802719572
 40
0.3714615371
 40
0.4597895434
 40
0.5442515275
 40
0.6238869066
 40
0.6977900298
 40
0.7323267706
 40
0.7651207872
 40
0.7960794568
 40
0.8251139863
 40
0.8521428729
 40
0.8770884093
 40
0.8998810024
 40
0.9204549265
 40
0.9387534459
 40
0.9547240087
 40
0.96832361
 40
0.9795142601
 40
0.9841974928
 40
0.9882690454
 40
0.9917267195
 40
0.9945699183
 40
0.9957616387
 40
0.9968006787
 40
0.9976879085
 40
0.9984248565
 40
0.9990143719
 40
0.9992556233
 40
0.9994627422
 40
1.0
 40
1.0
 40
1.0
 40
1.0
 10
5.0097881377
 20
5.0793462733
 30
0.0
 10
4.9993564125
 20
5.0791501616
 30
0.0
 10
4.9784591788
 20
5.0787601841
 30
0.0
 10
4.9471820768
 20
5.0781783477
 30
0.0
 10
4.9161604748
 20
5.0775965648
 30
0.0
 10
4.8857475646
 20
5.0770149186
 30
0.0
 10
4.8562892583
 20
5.0764334961
 30
0.0
 10
4.8281208249
 20
5.0758524258
 30
0.0
 10
4.8015627732
 20
5.0752718264
 30
0.0
 10
4.7805765733
 20
5.0747781254
 30
0.0
 10
4.7648177988
 20
5.0743800027
 30
0.0
 10
4.7538511148
 20
5.0740882618
 30
0.0
 10
4.7434987849
 20
5.0737966418
 30
0.0
 10
4.7337901964
 20
5.0735051344
 30
0.0
 10
4.7247530797
 20
5.073213809
 30
0.0
 10
4.716413038
 20
5.0729226756
 30
0.0
 10
4.7087939305
 20
5.0726318484
 30
0.0
 10
4.7019173037
 20
5.0723413859
 30
0.0
 10
4.6958028466
 20
5.0720514799
 30
0.0
 10
4.690467754
 20
5.0717624136
 30
0.0
 10
4.6859273024
 20
5.0714744299
 30
0.0
 10
4.6826470022
 20
5.0712237392
 30
0.0
 10
4.6804302814
 20
5.0710179274
 30
0.0
 10
4.6790748201
 20
5.0708732938
 30
0.0
 10
4.6779260431
 20
5.0707291781
 30
0.0
 10
4.6770990408
 20
5.0706036655
 30
0.0
 10
4.6765420952
 20
5.0705007606
 30
0.0
 10
4.6762016307
 20
5.0704283219
 30
0.0
 10
4.6759132242
 20
5.0703562109
 30
0.0
 10
4.6756765595
 20
5.0702841866
 30
0.0
 10
4.6755133569
 20
5.0702215456
 30
0.0
 10
4.6754090346
 20
5.0701691006
 30
0.0
 10
4.6753173311
 20
5.0701136675
 30
0.0
 10
4.6752429151
 20
5.0700437392
 30
0.0
 10
4.6752429449
 20
5.0699837732
 30
0.0
  0
SPLINE
  5
3CC
100
AcDbEntity
  8
0
100
AcDbSpline
 62
7
  6
CONTINUOUS
 70
0
 71
3
 72
30
 73
26
 74
0
 42
0.0000001
 43
0.0000001
 44
0.0000000001
 40
0.0
 40
0.0
 40
0.0
 40
0.0
 40
0.0019021903
 40
0.0043447475
 40
0.0073299531
 40
0.0108583803
 40
0.014929612
 40
0.0195418927
 40
0.0303802902
 40
0.0433534612
 40
0.0584337768
 40
0.0755889484
 40
0.0947822445
 40
0.1159709009
 40
0.1391096291
 40
0.191027313
 40
0.2500787814
 40
0.3157440536
 40
0.3874445852
 40
0.4645480689
 40
0.5463747527
 40
0.6322024829
 40
0.7212754576
 40
0.8128047113
 40
1.0
 40
1.0
 40
1.0
 40
1.0
 10
5.2836812406
 20
4.9198528844
 30
0.0
 10
5.2834883896
 20
4.9198029032
 30
0.0
 10
5.2830428542
 20
4.9197085756
 30
0.0
 10
5.282285494
 20
4.9195826055
 30
0.0
 10
5.281355965
 20
4.9194558694
 30
0.0
 10
5.2802546697
 20
4.9193285411
 30
0.0
 10
5.2789820219
 20
4.9192008688
 30
0.0
 10
5.2769453706
 20
4.9190204631
 30
0.0
 10
5.2739765098
 20
4.9187997705
 30
0.0
 10
5.2699111202
 20
4.9185456593
 30
0.0
 10
5.265183091
 20
4.9182907609
 30
0.0
 10
5.2598028279
 20
4.9180352209
 30
0.0
 10
5.2537821967
 20
4.9177792993
 30
0.0
 10
5.2471343948
 20
4.9175230407
 30
0.0
 10
5.2370606046
 20
4.9171672978
 30
0.0
 10
5.2230218464
 20
4.9167288228
 30
0.0
 10
5.2045293507
 20
4.9162191752
 30
0.0
 10
5.1839642554
 20
4.9157085657
 30
0.0
 10
5.1615080069
 20
4.9151971995
 30
0.0
 10
5.1373587282
 20
4.9146853272
 30
0.0
 10
5.1117295599
 20
4.9141730818
 30
0.0
 10
5.0848465565
 20
4.9136605675
 30
0.0
 10
5.0569471986
 20
4.9131478617
 30
0.0
 10
5.0184327411
 20
4.9124589412
 30
0.0
 10
4.9892454481
 20
4.9119506147
 30
0.0
 10
4.9696428571
 20
4.9116091411
 30
0.0
  0
LINE
  5
3CD
100
AcDbEntity
  8
0
100
AcDbLine
 62
7
  6
CONTINUOUS
 10
5.2632823306
 20
4.9145646128
 11
5.262916593
 21
4.9144790438
  0
SPLINE
  5
3CE
100
AcDbEntity
  8
0
100
AcDbSpline
 62
7
  6
CONTINUOUS
 70
0
 71
3
 72
62
 73
58
 74
0
 42
0.0000001
 43
0.0000001
 44
0.0000000001
 40
0.0
 40
0.0
 40
0.0
 40
0.0
 40
0.0012060892
 40
0.0026915476
 40
0.004456825
 40
0.0065014649
 40
0.0114256175
 40
0.0174559211
 40
0.0245792572
 40
0.0327805095
 40
0.0420414038
 40
0.0523409497
 40
0.0636564112
 40
0.075961596
 40
0.10342877
 40
0.1344932136
 40
0.1688726931
 40
0.2062547167
 40
0.2462993573
 40
0.2886424147
 40
0.3328987743
 40
0.3786656983
 40
0.4255268521
 40
0.4730557789
 40
0.5208200813
 40
0.5683852032
 40
0.6153182832
 40
0.6611923883
 40
0.7055899921
 40
0.7481072886
 40
0.7883574863
 40
0.8259745036
 40
0.8606163057
 40
0.8919679023
 40
0.9063194518
 40
0.9197444571
 40
0.9322118638
 40
0.9436939029
 40
0.954164345
 40
0.9635995569
 40
0.9719786795
 40
0.9792825212
 40
0.9854958163
 40
0.9906048435
 40
0.9927423039
 40
0.9946006472
 40
0.9961793329
 40
0.9974783383
 40
0.9980233589
 40
0.9984991184
 40
0.9989061569
 40
0.9992453761
 40
0.999518392
 40
0.9997284081
 40
0.999811964
 40
0.999883216
 40
1.0
 40
1.0
 40
1.0
 40
1.0
 10
5.262916593
 20
4.9144790438
 30
0.0
 10
5.2626853416
 20
4.9144297531
 30
0.0
 10
5.2621660601
 20
4.9143349448
 30
0.0
 10
5.2613017805
 20
4.9142062909
 30
0.0
 10
5.2602716517
 20
4.9140770739
 30
0.0
 10
5.2585693024
 20
4.9138926253
 30
0.0
 10
5.2560305882
 20
4.913668343
 30
0.0
 10
5.2524958403
 20
4.9134109982
 30
0.0
 10
5.2483172613
 20
4.9131526248
 30
0.0
 10
5.2435043739
 20
4.9128934261
 30
0.0
 10
5.238068043
 20
4.912633731
 30
0.0
 10
5.2320205908
 20
4.912373655
 30
0.0
 10
5.2253758373
 20
4.9121133189
 30
0.0
 10
5.2153668813
 20
4.9117525594
 30
0.0
 10
5.2014868557
 20
4.9113075779
 30
0.0
 10
5.1832795631
 20
4.9107897445
 30
0.0
 10
5.1631278455
 20
4.9102710105
 30
0.0
 10
5.1412151064
 20
4.9097515627
 30
0.0
 10
5.1177407632
 20
4.909231637
 30
0.0
 10
5.092918448
 20
4.9087113591
 30
0.0
 10
5.0669740864
 20
4.9081908312
 30
0.0
 10
5.0401438131
 20
4.9076701259
 30
0.0
 10
5.0126718588
 20
4.9071493029
 30
0.0
 10
4.9848082635
 20
4.9066284117
 30
0.0
 10
4.9568066362
 20
4.9061074971
 30
0.0
 10
4.9289218408
 20
4.9055866024
 30
0.0
 10
4.9014076704
 20
4.9050657719
 30
0.0
 10
4.8745145827
 20
4.904545055
 30
0.0
 10
4.8484873444
 20
4.9040245089
 30
0.0
 10
4.8235628607
 20
4.9035042083
 30
0.0
 10
4.799967964
 20
4.9029842437
 30
0.0
 10
4.7779173926
 20
4.9024647668
 30
0.0
 10
4.7576118415
 20
4.9019459073
 30
0.0
 10
4.741866944
 20
4.9015022902
 30
0.0
 10
4.7302807815
 20
4.90114386
 30
0.0
 10
4.7223955101
 20
4.9008831511
 30
0.0
 10
4.715073112
 20
4.9006225828
 30
0.0
 10
4.7083303243
 20
4.9003622148
 30
0.0
 10
4.7021824501
 20
4.9001020969
 30
0.0
 10
4.6966434627
 20
4.8998423201
 30
0.0
 10
4.6917260024
 20
4.8995830346
 30
0.0
 10
4.6874411101
 20
4.8993244949
 30
0.0
 10
4.6837986007
 20
4.8990669243
 30
0.0
 10
4.6811692535
 20
4.8988426772
 30
0.0
 10
4.6793937791
 20
4.8986585897
 30
0.0
 10
4.6783085553
 20
4.8985292271
 30
0.0
 10
4.6773890102
 20
4.89840033
 30
0.0
 10
4.6767272789
 20
4.8982880786
 30
0.0
 10
4.6762818578
 20
4.898196059
 30
0.0
 10
4.6760094822
 20
4.8981312781
 30
0.0
 10
4.6757787157
 20
4.8980666861
 30
0.0
 10
4.6755893341
 20
4.8980023801
 30
0.0
 10
4.6754412523
 20
4.8979383199
 30
0.0
 10
4.6753449342
 20
4.8978816769
 30
0.0
 10
4.6752908145
 20
4.8978344264
 30
0.0
 10
4.6752566819
 20
4.8977935733
 30
0.0
 10
4.6752428557
 20
4.897756668
 30
0.0
 10
4.6752428621
 20
4.8977337733
 30
0.0
  0
SPLINE
  5
3CF
100
AcDbEntity
  8
0
100
AcDbSpline
 62
7
  6
CONTINUOUS
 70
0
 71
3
 72
30
 73
26
 74
0
 42
0.0000001
 43
0.0000001
 44
0.0000000001
 40
0.0
 40
0.0
 40
0.0
 40
0.0
 40
0.1798524129
 40
0.2693138792
 40
0.3572205215
 40
0.4426528833
 40
0.5247199404
 40
0.6025649651
 40
0.6753757235
 40
0.7423924308
 40
0.8029162282
 40
0.8563160389
 40
0.8801673867
 40
0.9020360388
 40
0.9218640135
 40
0.9396012466
 40
0.9552009302
 40
0.9686243534
 40
0.9798372097
 40
0.9846062346
 40
0.9888136491
 40
0.9924572823
 40
0.9955356129
 40
0.9980490164
 40
1.0
 40
1.0
 40
1.0
 40
1.0
 10
5.0097881377
 20
5.0660962733
 30
0.0
 10
4.9897704567
 20
5.06571995
 30
0.0
 10
4.9597955137
 20
5.0651643079
 30
0.0
 10
4.9200366047
 20
5.0644195989
 30
0.0
 10
4.8907868978
 20
5.063862144
 30
0.0
 10
4.8623604878
 20
5.0633048619
 30
0.0
 10
4.8350543564
 20
5.0627478475
 30
0.0
 10
4.8091535621
 20
5.0621912188
 30
0.0
 10
4.7849285741
 20
5.0616351257
 30
0.0
 10
4.762632312
 20
5.061079846
 30
0.0
 10
4.7424975895
 20
5.0605256034
 30
0.0
 10
4.7271677936
 20
5.0600490754
 30
0.0
 10
4.7161405137
 20
5.0596623824
 30
0.0
 10
4.7088490069
 20
5.0593836514
 30
0.0
 10
4.7022386531
 20
5.0591052416
 30
0.0
 10
4.6963268259
 20
5.0588272945
 30
0.0
 10
4.691128792
 20
5.0585500209
 30
0.0
 10
4.6866581952
 20
5.0582736234
 30
0.0
 10
4.6833934596
 20
5.058033585
 30
0.0
 10
4.6811545339
 20
5.0578372942
 30
0.0
 10
4.6797565015
 20
5.0576984143
 30
0.0
 10
4.678547698
 20
5.0575599387
 30
0.0
 10
4.6775287624
 20
5.057422111
 30
0.0
 10
4.6767002729
 20
5.0572851288
 30
0.0
 10
4.6762135952
 20
5.0571824382
 30
0.0
 10
4.6760033616
 20
5.0571279339
 30
0.0
  0
SPLINE
  5
3D0
100
AcDbEntity
  8
0
100
AcDbSpline
 62
7
  6
CONTINUOUS
 70
0
 71
3
 72
30
 73
26
 74
0
 42
0.0000001
 43
0.0000001
 44
0.0000000001
 40
0.0
 40
0.0
 40
0.0
 40
0.0
 40
0.0019022054
 40
0.0043446703
 40
0.0073297945
 40
0.0108582683
 40
0.014929548
 40
0.0195417897
 40
0.0303801552
 40
0.0433534696
 40
0.0584336944
 40
0.0755889787
 40
0.0947822033
 40
0.1159709179
 40
0.1391096682
 40
0.1910273939
 40
0.2500788603
 40
0.3157441458
 40
0.387444631
 40
0.464548118
 40
0.5463748065
 40
0.6322025242
 40
0.7212755238
 40
0.8128046814
 40
1.0
 40
1.0
 40
1.0
 40
1.0
 10
5.28368118
 20
4.9543028844
 30
0.0
 10
5.2834883265
 20
4.9542529069
 30
0.0
 10
5.2830427999
 20
4.9541585787
 30
0.0
 10
5.2822854572
 20
4.9540326047
 30
0.0
 10
5.2813559423
 20
4.9539058648
 30
0.0
 10
5.2802546456
 20
4.9537785386
 30
0.0
 10
5.2789819921
 20
4.9536508668
 30
0.0
 10
5.2769453438
 20
4.9534704588
 30
0.0
 10
5.273976476
 20
4.9532497662
 30
0.0
 10
5.2699110846
 20
4.9529956605
 30
0.0
 10
5.2651830394
 20
4.9527407559
 30
0.0
 10
5.2598027823
 20
4.9524852209
 30
0.0
 10
5.2537821419
 20
4.9522292958
 30
0.0
 10
5.2471343403
 20
4.9519730394
 30
0.0
 10
5.2370605393
 20
4.9516172955
 30
0.0
 10
5.2230217772
 20
4.9511788212
 30
0.0
 10
5.2045292795
 20
4.9506691737
 30
0.0
 10
5.1839641918
 20
4.9501585643
 30
0.0
 10
5.1615079507
 20
4.9496471982
 30
0.0
 10
5.1373586806
 20
4.9491353262
 30
0.0
 10
5.1117295177
 20
4.9486230809
 30
0.0
 10
5.0848465176
 20
4.9481105668
 30
0.0
 10
5.0569471738
 20
4.9475978613
 30
0.0
 10
5.018432728
 20
4.9469089409
 30
0.0
 10
4.9892454475
 20
4.9464006147
 30
0.0
 10
4.9696428571
 20
4.9460591411
 30
0.0
  0
SPLINE
  5
3D1
100
AcDbEntity
  8
0
100
AcDbSpline
 62
7
  6
CONTINUOUS
 70
0
 71
3
 72
11
 73
7
 74
0
 42
0.0000001
 43
0.0000001
 44
0.0000000001
 40
0.0
 40
0.0
 40
0.0
 40
0.0
 40
0.2241428639
 40
0.465579693
 40
0.724318003
 40
1.0
 40
1.0
 40
1.0
 40
1.0
 10
5.1617110107
 20
3.4184924285
 30
0.0
 10
5.1591015827
 20
3.4162206019
 30
0.0
 10
5.1534309027
 20
3.4117850448
 30
0.0
 10
5.1440500764
 20
3.4056816499
 30
0.0
 10
5.1335408925
 20
3.3999184327
 30
0.0
 10
5.1260566647
 20
3.3964347355
 30
0.0
 10
5.1221493248
 20
3.3947492755
 30
0.0
  0
LINE
  5
3D2
100
AcDbEntity
  8
0
100
AcDbLine
 62
7
  6
CONTINUOUS
 10
5.2632823678
 20
4.9490146128
 11
5.2628726578
 21
4.948919781
  0
SPLINE
  5
3D3
100
AcDbEntity
  8
0
100
AcDbSpline
 62
7
  6
CONTINUOUS
 70
0
 71
3
 72
62
 73
58
 74
0
 42
0.0000001
 43
0.0000001
 44
0.0000000001
 40
0.0
 40
0.0
 40
0.0
 40
0.0
 40
0.0012253258
 40
0.0027295398
 40
0.0045131333
 40
0.0065760177
 40
0.0115358961
 40
0.0175998141
 40
0.0247557781
 40
0.0329875213
 40
0.0422774163
 40
0.0526042389
 40
0.0639448983
 40
0.0762739191
 40
0.1037825413
 40
0.1348808695
 40
0.1692867541
 40
0.2066877756
 40
0.2467443253
 40
0.2890923238
 40
0.3333470036
 40
0.3791061516
 40
0.4259539119
 40
0.4734645715
 40
0.5212062815
 40
0.5687451333
 40
0.6156490495
 40
0.6614917134
 40
0.7058565637
 40
0.7483404315
 40
0.788557247
 40
0.8261416457
 40
0.8607520748
 40
0.8920743658
 40
0.9064124833
 40
0.9198242897
 40
0.9322798518
 40
0.9437503803
 40
0.954210592
 40
0.9636363838
 40
0.972006935
 40
0.9793036519
 40
0.9855103276
 40
0.9906144946
 40
0.9927497225
 40
0.9946059792
 40
0.9961829855
 40
0.9974808754
 40
0.9980254539
 40
0.9985007723
 40
0.9989073664
 40
0.9992461707
 40
0.9995188348
 40
0.9997285943
 40
0.9998120655
 40
0.9998832629
 40
1.0
 40
1.0
 40
1.0
 40
1.0
 10
5.2628726578
 20
4.948919781
 30
0.0
 10
5.2626375427
 20
4.948870624
 30
0.0
 10
5.2621107182
 20
4.9487759611
 30
0.0
 10
5.2612353486
 20
4.9486473156
 30
0.0
 10
5.2601943726
 20
4.948518118
 30
0.0
 10
5.258477883
 20
4.9483338615
 30
0.0
 10
5.2559221214
 20
4.9481097313
 30
0.0
 10
5.2523676009
 20
4.9478524397
 30
0.0
 10
5.2481703366
 20
4.9475942071
 30
0.0
 10
5.2433397294
 20
4.9473351073
 30
0.0
 10
5.2378867806
 20
4.9470755482
 30
0.0
 10
5.2318237998
 20
4.946815609
 30
0.0
 10
5.2251645799
 20
4.9465553972
 30
0.0
 10
5.2151386325
 20
4.9461948951
 30
0.0
 10
5.2012402118
 20
4.945750169
 30
0.0
 10
5.1830143534
 20
4.9452326031
 30
0.0
 10
5.1628486231
 20
4.9447141385
 30
0.0
 10
5.140926316
 20
4.9441949669
 30
0.0
 10
5.1174467336
 20
4.9436753208
 30
0.0
 10
5.0926233368
 20
4.9431553243
 30
0.0
 10
5.0666818394
 20
4.9426350788
 30
0.0
 10
5.0398580928
 20
4.942114657
 30
0.0
 10
5.0123959666
 20
4.9415941184
 30
0.0
 10
4.9845451342
 20
4.9410735124
 30
0.0
 10
4.9565588051
 20
4.9405528838
 30
0.0
 10
4.9286914353
 20
4.9400322752
 30
0.0
 10
4.9011963971
 20
4.9395117308
 30
0.0
 10
4.8743236653
 20
4.9389912999
 30
0.0
 10
4.848317553
 20
4.9384710402
 30
0.0
 10
4.8234144916
 20
4.9379510263
 30
0.0
 10
4.7998408894
 20
4.9374313485
 30
0.0
 10
4.7778110915
 20
4.9369121578
 30
0.0
 10
4.7575253816
 20
4.9363935869
 30
0.0
 10
4.741796216
 20
4.9359502013
 30
0.0
 10
4.7302219041
 20
4.9355919815
 30
0.0
 10
4.7223447786
 20
4.9353314006
 30
0.0
 10
4.7150301055
 20
4.9350709945
 30
0.0
 10
4.7082944177
 20
4.9348107552
 30
0.0
 10
4.702153122
 20
4.9345507887
 30
0.0
 10
4.6966200905
 20
4.9342911593
 30
0.0
 10
4.6917079312
 20
4.934031999
 30
0.0
 10
4.6874277393
 20
4.9337736348
 30
0.0
 10
4.6837891591
 20
4.9335161638
 30
0.0
 10
4.6811626987
 20
4.933292074
 30
0.0
 10
4.6793891604
 20
4.9331080835
 30
0.0
 10
4.6783051973
 20
4.9329787843
 30
0.0
 10
4.6773866821
 20
4.932849946
 30
0.0
 10
4.6767256343
 20
4.9327377681
 30
0.0
 10
4.6762806367
 20
4.932645807
 30
0.0
 10
4.6760085416
 20
4.9325810637
 30
0.0
 10
4.6757780489
 20
4.9325165064
 30
0.0
 10
4.6755889227
 20
4.9324522338
 30
0.0
 10
4.6754410583
 20
4.932388206
 30
0.0
 10
4.6753448925
 20
4.9323315893
 30
0.0
 10
4.6752908591
 20
4.9322843674
 30
0.0
 10
4.6752567707
 20
4.9322435296
 30
0.0
 10
4.675242952
 20
4.9322066572
 30
0.0
 10
4.6752429396
 20
4.9321837734
 30
0.0
  0
SPLINE
  5
3D4
100
AcDbEntity
  8
0
100
AcDbSpline
 62
7
  6
CONTINUOUS
 70
0
 71
3
 72
39
 73
35
 74
0
 42
0.0000001
 43
0.0000001
 44
0.0000000001
 40
0.0
 40
0.0
 40
0.0
 40
0.0
 40
0.000522443
 40
0.0007225193
 40
0.0009552567
 40
0.0015233136
 40
0.0022329777
 40
0.0030871452
 40
0.0040873247
 40
0.0052343691
 40
0.0079707117
 40
0.0112981435
 40
0.0152168847
 40
0.0197258015
 40
0.0305042131
 40
0.0436114798
 40
0.0590180463
 40
0.0766875226
 40
0.0965788924
 40
0.1186437664
 40
0.1428305587
 40
0.1690801068
 40
0.1973305283
 40
0.2275130044
 40
0.2595556403
 40
0.2933809986
 40
0.3660507836
 40
0.4448230863
 40
0.5289400226
 40
0.6175916474
 40
0.7099254491
 40
0.8050502783
 40
0.9020555645
 40
1.0
 40
1.0
 40
1.0
 40
1.0
 10
5.2843927457
 20
4.8619959055
 30
0.0
 10
5.2843927457
 20
4.8619410443
 30
0.0
 10
5.2843258068
 20
4.8618766483
 30
0.0
 10
5.2842424883
 20
4.8618254401
 30
0.0
 10
5.2841481926
 20
4.861777216
 30
0.0
 10
5.2840005655
 20
4.8617195721
 30
0.0
 10
5.2837864475
 20
4.8616533115
 30
0.0
 10
5.2835254705
 20
4.8615869724
 30
0.0
 10
5.283217356
 20
4.8615203355
 30
0.0
 10
5.2827133083
 20
4.8614256762
 30
0.0
 10
5.2819647851
 20
4.861310219
 30
0.0
 10
5.2809248897
 20
4.8611776307
 30
0.0
 10
5.2796976324
 20
4.8610445709
 30
0.0
 10
5.2776896864
 20
4.8608552268
 30
0.0
 10
5.2747167595
 20
4.8606245724
 30
0.0
 10
5.2705991795
 20
4.8603596199
 30
0.0
 10
5.265756757
 20
4.860093711
 30
0.0
 10
5.2602010753
 20
4.8598269816
 30
0.0
 10
5.253945523
 20
4.859559791
 30
0.0
 10
5.2470050548
 20
4.859292215
 30
0.0
 10
5.2393964808
 20
4.8590244032
 30
0.0
 10
5.2311380088
 20
4.8587563734
 30
0.0
 10
5.2222496346
 20
4.8584882094
 30
0.0
 10
5.2127526806
 20
4.8582199149
 30
0.0
 10
5.2026700921
 20
4.8579515273
 30
0.0
 10
5.1881270101
 20
4.8575847499
 30
0.0
 10
5.1686775781
 20
4.857129873
 30
0.0
 10
5.1439475424
 20
4.856595548
 30
0.0
 10
5.1175389158
 20
4.8560607712
 30
0.0
 10
5.0897059434
 20
4.855525641
 30
0.0
 10
5.0607168449
 20
4.8549902735
 30
0.0
 10
5.0308503964
 20
4.8544547336
 30
0.0
 10
5.0003946908
 20
4.8539190941
 30
0.0
 10
4.9799263364
 20
4.8535625418
 30
0.0
 10
4.9696428571
 20
4.8533834055
 30
0.0
  0
SPLINE
  5
3D5
100
AcDbEntity
  8
0
100
AcDbSpline
 62
7
  6
CONTINUOUS
 70
0
 71
3
 72
39
 73
35
 74
0
 42
0.0000001
 43
0.0000001
 44
0.0000000001
 40
0.0
 40
0.0
 40
0.0
 40
0.0
 40
0.000522443
 40
0.0007225193
 40
0.0009552567
 40
0.0015233136
 40
0.0022329777
 40
0.0030871452
 40
0.0040873247
 40
0.0052343691
 40
0.0079707117
 40
0.0112981435
 40
0.0152168847
 40
0.0197258015
 40
0.0305042131
 40
0.0436114798
 40
0.0590180463
 40
0.0766875226
 40
0.0965788924
 40
0.1186437664
 40
0.1428305587
 40
0.1690801068
 40
0.1973305283
 40
0.2275130044
 40
0.2595556403
 40
0.2933809986
 40
0.3660507836
 40
0.4448230863
 40
0.5289400226
 40
0.6175916474
 40
0.7099254491
 40
0.8050502783
 40
0.9020555645
 40
1.0
 40
1.0
 40
1.0
 40
1.0
 10
5.2843927457
 20
4.8275459055
 30
0.0
 10
5.2843927457
 20
4.8274910443
 30
0.0
 10
5.2843258068
 20
4.8274266483
 30
0.0
 10
5.2842424883
 20
4.8273754401
 30
0.0
 10
5.2841481926
 20
4.827327216
 30
0.0
 10
5.2840005655
 20
4.8272695721
 30
0.0
 10
5.2837864475
 20
4.8272033115
 30
0.0
 10
5.2835254705
 20
4.8271369724
 30
0.0
 10
5.283217356
 20
4.8270703355
 30
0.0
 10
5.2827133083
 20
4.8269756762
 30
0.0
 10
5.2819647851
 20
4.826860219
 30
0.0
 10
5.2809248897
 20
4.8267276307
 30
0.0
 10
5.2796976324
 20
4.8265945709
 30
0.0
 10
5.2776896864
 20
4.8264052268
 30
0.0
 10
5.2747167595
 20
4.8261745724
 30
0.0
 10
5.2705991795
 20
4.8259096199
 30
0.0
 10
5.265756757
 20
4.825643711
 30
0.0
 10
5.2602010753
 20
4.8253769816
 30
0.0
 10
5.253945523
 20
4.825109791
 30
0.0
 10
5.2470050548
 20
4.824842215
 30
0.0
 10
5.2393964808
 20
4.8245744032
 30
0.0
 10
5.2311380088
 20
4.8243063734
 30
0.0
 10
5.2222496346
 20
4.8240382094
 30
0.0
 10
5.2127526806
 20
4.8237699149
 30
0.0
 10
5.2026700921
 20
4.8235015273
 30
0.0
 10
5.1881270101
 20
4.8231347499
 30
0.0
 10
5.1686775781
 20
4.822679873
 30
0.0
 10
5.1439475424
 20
4.822145548
 30
0.0
 10
5.1175389158
 20
4.8216107712
 30
0.0
 10
5.0897059434
 20
4.821075641
 30
0.0
 10
5.0607168449
 20
4.8205402735
 30
0.0
 10
5.0308503964
 20
4.8200047336
 30
0.0
 10
5.0003946908
 20
4.8194690941
 30
0.0
 10
4.9799263364
 20
4.8191125418
 30
0.0
 10
4.9696428571
 20
4.8189334055
 30
0.0
  0
SPLINE
  5
3D6
100
AcDbEntity
  8
0
100
AcDbSpline
 62
7
  6
CONTINUOUS
 70
0
 71
3
 72
22
 73
18
 74
0
 42
0.0000001
 43
0.0000001
 44
0.0000000001
 40
0.0
 40
0.0
 40
0.0
 40
0.0
 40
0.1643395276
 40
0.2419594504
 40
0.3164721801
 40
0.3878605033
 40
0.4561387264
 40
0.5213498853
 40
0.5835790958
 40
0.6429507638
 40
0.6996377835
 40
0.753867553
 40
0.8059208406
 40
0.8561400493
 40
0.904921807
 40
0.9527134167
 40
1.0
 40
1.0
 40
1.0
 40
1.0
 10
5.1221710116
 20
2.9676463225
 30
0.0
 10
5.1268255784
 20
2.9696547364
 30
0.0
 10
5.1335836825
 20
2.9728452021
 30
0.0
 10
5.1421384053
 20
2.977552944
 30
0.0
 10
5.1480288819
 20
2.9811415118
 30
0.0
 10
5.1535021368
 20
2.9848468091
 30
0.0
 10
5.1585459115
 20
2.9886600774
 30
0.0
 10
5.163148071
 20
2.9925732939
 30
0.0
 10
5.16729822
 20
2.9965772568
 30
0.0
 10
5.170986438
 20
3.0006633448
 30
0.0
 10
5.1742035963
 20
3.0048227621
 30
0.0
 10
5.176942172
 20
3.0090460259
 30
0.0
 10
5.1791941556
 20
3.0133243377
 30
0.0
 10
5.1809537391
 20
3.0176475019
 30
0.0
 10
5.1822150754
 20
3.0220056546
 30
0.0
 10
5.1829735562
 20
3.0263870073
 30
0.0
 10
5.1831428441
 20
3.0293226021
 30
0.0
 10
5.183142856
 20
3.0307812539
 30
0.0
  0
SPLINE
  5
3D7
100
AcDbEntity
  8
0
100
AcDbSpline
 62
7
  6
CONTINUOUS
 70
0
 71
3
 72
22
 73
18
 74
0
 42
0.0000001
 43
0.0000001
 44
0.0000000001
 40
0.0
 40
0.0
 40
0.0
 40
0.0
 40
0.0472858147
 40
0.0950767068
 40
0.1438576938
 40
0.1940763084
 40
0.2461291001
 40
0.3003586206
 40
0.3570456236
 40
0.4164170796
 40
0.4786463753
 40
0.5438576819
 40
0.6121363927
 40
0.6835254342
 40
0.7580384996
 40
0.8356589918
 40
1.0
 40
1.0
 40
1.0
 40
1.0
 10
5.1831428571
 20
2.9061639332
 30
0.0
 10
5.1831428571
 20
2.9047052121
 30
0.0
 10
5.1829735448
 20
2.9017694739
 30
0.0
 10
5.1822149642
 20
2.8973879232
 30
0.0
 10
5.1809535561
 20
2.8930295557
 30
0.0
 10
5.1791937722
 20
2.8887062118
 30
0.0
 10
5.1769415965
 20
2.8844277008
 30
0.0
 10
5.1742027622
 20
2.8802042475
 30
0.0
 10
5.1709852842
 20
2.8760446735
 30
0.0
 10
5.1672967653
 20
2.8719583897
 30
0.0
 10
5.1631462186
 20
2.8679543069
 30
0.0
 10
5.1585436566
 20
2.8640409363
 30
0.0
 10
5.1534994212
 20
2.8602275374
 30
0.0
 10
5.1480256648
 20
2.8565221454
 30
0.0
 10
5.1421346955
 20
2.8529334441
 30
0.0
 10
5.1335792148
 20
2.8482256339
 30
0.0
 10
5.1268205509
 20
2.845035091
 30
0.0
 10
5.1221655879
 20
2.8430266638
 30
0.0
  0
SPLINE
  5
3D8
100
AcDbEntity
  8
0
100
AcDbSpline
 62
7
  6
CONTINUOUS
 70
0
 71
3
 72
39
 73
35
 74
0
 42
0.0000001
 43
0.0000001
 44
0.0000000001
 40
0.0
 40
0.0
 40
0.0
 40
0.0
 40
0.000522443
 40
0.0007225193
 40
0.0009552567
 40
0.0015233136
 40
0.0022329777
 40
0.0030871452
 40
0.0040873247
 40
0.0052343691
 40
0.0079707117
 40
0.0112981435
 40
0.0152168847
 40
0.0197258015
 40
0.0305042131
 40
0.0436114798
 40
0.0590180463
 40
0.0766875226
 40
0.0965788924
 40
0.1186437664
 40
0.1428305587
 40
0.1690801068
 40
0.1973305283
 40
0.2275130044
 40
0.2595556403
 40
0.2933809986
 40
0.3660507836
 40
0.4448230863
 40
0.5289400226
 40
0.6175916474
 40
0.7099254491
 40
0.8050502783
 40
0.9020555645
 40
1.0
 40
1.0
 40
1.0
 40
1.0
 10
5.2843927457
 20
4.7930959055
 30
0.0
 10
5.2843927457
 20
4.7930410443
 30
0.0
 10
5.2843258068
 20
4.7929766483
 30
0.0
 10
5.2842424883
 20
4.7929254401
 30
0.0
 10
5.2841481926
 20
4.792877216
 30
0.0
 10
5.2840005655
 20
4.7928195721
 30
0.0
 10
5.2837864475
 20
4.7927533115
 30
0.0
 10
5.2835254705
 20
4.7926869724
 30
0.0
 10
5.283217356
 20
4.7926203355
 30
0.0
 10
5.2827133083
 20
4.7925256762
 30
0.0
 10
5.2819647851
 20
4.792410219
 30
0.0
 10
5.2809248897
 20
4.7922776307
 30
0.0
 10
5.2796976324
 20
4.7921445709
 30
0.0
 10
5.2776896864
 20
4.7919552268
 30
0.0
 10
5.2747167595
 20
4.7917245724
 30
0.0
 10
5.2705991795
 20
4.7914596199
 30
0.0
 10
5.265756757
 20
4.791193711
 30
0.0
 10
5.2602010753
 20
4.7909269816
 30
0.0
 10
5.253945523
 20
4.790659791
 30
0.0
 10
5.2470050548
 20
4.790392215
 30
0.0
 10
5.2393964808
 20
4.7901244032
 30
0.0
 10
5.2311380088
 20
4.7898563734
 30
0.0
 10
5.2222496346
 20
4.7895882094
 30
0.0
 10
5.2127526806
 20
4.7893199149
 30
0.0
 10
5.2026700921
 20
4.7890515273
 30
0.0
 10
5.1881270101
 20
4.7886847499
 30
0.0
 10
5.1686775781
 20
4.788229873
 30
0.0
 10
5.1439475424
 20
4.787695548
 30
0.0
 10
5.1175389158
 20
4.7871607712
 30
0.0
 10
5.0897059434
 20
4.786625641
 30
0.0
 10
5.0607168449
 20
4.7860902735
 30
0.0
 10
5.0308503964
 20
4.7855547336
 30
0.0
 10
5.0003946908
 20
4.7850190941
 30
0.0
 10
4.9799263364
 20
4.7846625418
 30
0.0
 10
4.9696428571
 20
4.7844834055
 30
0.0
  0
SPLINE
  5
3D9
100
AcDbEntity
  8
0
100
AcDbSpline
 62
7
  6
CONTINUOUS
 70
0
 71
3
 72
27
 73
23
 74
0
 42
0.0000001
 43
0.0000001
 44
0.0000000001
 40
0.0
 40
0.0
 40
0.0
 40
0.0
 40
0.0004088583
 40
0.0016048444
 40
0.0035875038
 40
0.006356378
 40
0.014250935
 40
0.0252848435
 40
0.0394544308
 40
0.056755819
 40
0.0771287424
 40
0.1003801957
 40
0.154671244
 40
0.2179377164
 40
0.2884955119
 40
0.3646703298
 40
0.4448011549
 40
0.5272843035
 40
0.6938957883
 40
0.8544306856
 40
0.9295804571
 40
1.0
 40
1.0
 40
1.0
 40
1.0
 10
4.5221430889
 20
5.3608849083
 30
0.0
 10
4.5221431004
 20
5.3608836244
 30
0.0
 10
4.5221445152
 20
5.3608787137
 30
0.0
 10
4.5221460985
 20
5.3608675943
 30
0.0
 10
4.5221497957
 20
5.3608492589
 30
0.0
 10
4.5221569394
 20
5.3608102089
 30
0.0
 10
4.5221696219
 20
5.3607432507
 30
0.0
 10
4.5221887523
 20
5.3606410926
 30
0.0
 10
4.5222134466
 20
5.3605099145
 30
0.0
 10
4.522243546
 20
5.3603499141
 30
0.0
 10
4.5222790195
 20
5.360161903
 30
0.0
 10
4.5223366828
 20
5.3598598698
 30
0.0
 10
4.5224218163
 20
5.3594259484
 30
0.0
 10
4.5225410878
 20
5.3588473552
 30
0.0
 10
4.5226820548
 20
5.3582031074
 30
0.0
 10
4.5228446375
 20
5.3575094459
 30
0.0
 10
4.5230287519
 20
5.3567824671
 30
0.0
 10
4.5233041934
 20
5.3557858698
 30
0.0
 10
4.5236935183
 20
5.354559193
 30
0.0
 10
4.524159442
 20
5.353382766
 30
0.0
 10
4.5245866902
 20
5.3525210752
 30
0.0
 10
4.5248185552
 20
5.3521263781
 30
0.0
 10
4.5249395986
 20
5.3519413047
 30
0.0
  0
SPLINE
  5
3DA
100
AcDbEntity
  8
0
100
AcDbSpline
 62
7
  6
CONTINUOUS
 70
0
 71
3
 72
63
 73
59
 74
0
 42
0.0000001
 43
0.0000001
 44
0.0000000001
 40
0.0
 40
0.0
 40
0.0
 40
0.0
 40
0.0001173814
 40
0.0001890984
 40
0.0002732599
 40
0.0004849467
 40
0.0007602819
 40
0.0011024973
 40
0.0015132331
 40
0.0019934143
 40
0.0025436028
 40
0.0038550559
 40
0.0054486779
 40
0.0073245055
 40
0.0094821619
 40
0.0146399068
 40
0.0209117144
 40
0.0282844784
 40
0.0367420093
 40
0.0462649214
 40
0.0568322001
 40
0.0684191085
 40
0.0809997798
 40
0.0945449612
 40
0.1090238074
 40
0.1406474078
 40
0.1755804001
 40
0.2135019779
 40
0.2540636488
 40
0.2968927381
 40
0.3415956067
 40
0.3877614174
 40
0.4349659155
 40
0.4827751069
 40
0.5307496394
 40
0.5784483921
 40
0.6254330185
 40
0.6712716443
 40
0.715542938
 40
0.757840079
 40
0.797774239
 40
0.8349785128
 40
0.8691111205
 40
0.8998586846
 40
0.9269391123
 40
0.9390253219
 40
0.9501042923
 40
0.9601509873
 40
0.9691425971
 40
0.9770584926
 40
0.9838815597
 40
0.989596255
 40
0.9920344648
 40
0.9941916919
 40
0.9960669334
 40
0.9976596841
 40
0.9989702896
 40
1.0
 40
1.0
 40
1.0
 40
1.0
 10
5.2640428152
 20
4.9706087732
 30
0.0
 10
5.2640428018
 20
4.9705857466
 30
0.0
 10
5.2640287885
 20
4.9705486314
 30
0.0
 10
5.2639943178
 20
4.9705075953
 30
0.0
 10
5.2639396387
 20
4.9704600941
 30
0.0
 10
5.2638423576
 20
4.9704031671
 30
0.0
 10
5.2636928104
 20
4.9703387835
 30
0.0
 10
5.263501537
 20
4.9702741519
 30
0.0
 10
5.2632684396
 20
4.9702092309
 30
0.0
 10
5.2629932798
 20
4.9701441195
 30
0.0
 10
5.2625432448
 20
4.9700516312
 30
0.0
 10
5.261874697
 20
4.9699388217
 30
0.0
 10
5.2609457594
 20
4.9698092571
 30
0.0
 10
5.2598495175
 20
4.9696792285
 30
0.0
 10
5.2580559562
 20
4.9694941919
 30
0.0
 10
5.2553999252
 20
4.9692688327
 30
0.0
 10
5.2517205321
 20
4.9690099145
 30
0.0
 10
5.2473925185
 20
4.9687500768
 30
0.0
 10
5.2424258102
 20
4.9684894589
 30
0.0
 10
5.2368317021
 20
4.9682283526
 30
0.0
 10
5.2306231276
 20
4.9679669178
 30
0.0
 10
5.2238142463
 20
4.9677052053
 30
0.0
 10
5.2164208053
 20
4.9674433226
 30
0.0
 10
5.2084597336
 20
4.9671812697
 30
0.0
 10
5.1967642672
 20
4.966821043
 30
0.0
 10
5.1808738644
 20
4.9663751834
 30
0.0
 10
5.1603851239
 20
4.9658536855
 30
0.0
 10
5.1381425077
 20
4.9653315657
 30
0.0
 10
5.1143505402
 20
4.9648089568
 30
0.0
 10
5.0892280002
 20
4.9642860112
 30
0.0
 10
5.0630058813
 20
4.96376282
 30
0.0
 10
5.0359252825
 20
4.9632394586
 30
0.0
 10
5.0082352115
 20
4.9627159853
 30
0.0
 10
4.9801902646
 20
4.9621924503
 30
0.0
 10
4.952048344
 20
4.9616688988
 30
0.0
 10
4.9240682048
 20
4.9611453747
 30
0.0
 10
4.8965071365
 20
4.9606219244
 30
0.0
 10
4.8696185499
 20
4.9600985997
 30
0.0
 10
4.843649677
 20
4.9595754626
 30
0.0
 10
4.8188393148
 20
4.959052591
 30
0.0
 10
4.7954155962
 20
4.9585300922
 30
0.0
 10
4.7735939162
 20
4.9580081002
 30
0.0
 10
4.753574893
 20
4.9574868685
 30
0.0
 10
4.7355425665
 20
4.9569666034
 30
0.0
 10
4.7218348238
 20
4.9565191485
 30
0.0
 10
4.7119848732
 20
4.9561561617
 30
0.0
 10
4.705474978
 20
4.9558945609
 30
0.0
 10
4.699572667
 20
4.9556332784
 30
0.0
 10
4.694291505
 20
4.955372401
 30
0.0
 10
4.6896435391
 20
4.9551121319
 30
0.0
 10
4.6856395132
 20
4.9548526687
 30
0.0
 10
4.6827102084
 20
4.9546274125
 30
0.0
 10
4.6806960378
 20
4.9544433778
 30
0.0
 10
4.6794333652
 20
4.9543130034
 30
0.0
 10
4.6783375137
 20
4.954182974
 30
0.0
 10
4.6774089719
 20
4.9540534889
 30
0.0
 10
4.6766481634
 20
4.9539247342
 30
0.0
 10
4.6761988814
 20
4.9538286259
 30
0.0
 10
4.6760033484
 20
4.9537779339
 30
0.0
  0
SPLINE
  5
3DB
100
AcDbEntity
  8
0
100
AcDbSpline
 62
7
  6
CONTINUOUS
 70
0
 71
3
 72
63
 73
59
 74
0
 42
0.0000001
 43
0.0000001
 44
0.0000000001
 40
0.0
 40
0.0
 40
0.0
 40
0.0
 40
0.0001173463
 40
0.000189041
 40
0.0002731933
 40
0.0004849102
 40
0.000760325
 40
0.0011026398
 40
0.0015134621
 40
0.0019936832
 40
0.0025438324
 40
0.003855051
 40
0.0054486069
 40
0.0073246043
 40
0.009482414
 40
0.0146398407
 40
0.0209118927
 40
0.0282845586
 40
0.0367420523
 40
0.0462651235
 40
0.0568321456
 40
0.0684193609
 40
0.0809997504
 40
0.0945451278
 40
0.1090238651
 40
0.1406476045
 40
0.1755806136
 40
0.2135021171
 40
0.2540637387
 40
0.2968927547
 40
0.3415956562
 40
0.3877615123
 40
0.4349660103
 40
0.4827752235
 40
0.5307496855
 40
0.5784484654
 40
0.6254331237
 40
0.6712717583
 40
0.7155430786
 40
0.7578400947
 40
0.7977742117
 40
0.8349784759
 40
0.8691111474
 40
0.899858839
 40
0.9269393068
 40
0.9390252373
 40
0.9501044533
 40
0.9601510143
 40
0.9691426058
 40
0.9770586288
 40
0.9838814381
 40
0.9895964712
 40
0.9920345418
 40
0.9941915877
 40
0.996066864
 40
0.9976598477
 40
0.9989704755
 40
1.0
 40
1.0
 40
1.0
 40
1.0
 10
5.2640428222
 20
5.0050587734
 30
0.0
 10
5.2640428353
 20
5.0050357537
 30
0.0
 10
5.264028863
 20
5.0049986305
 30
0.0
 10
5.2639944132
 20
5.004957592
 30
0.0
 10
5.2639397369
 20
5.0049100872
 30
0.0
 10
5.2638424295
 20
5.0048531634
 30
0.0
 10
5.2636928368
 20
5.0047887836
 30
0.0
 10
5.2635015075
 20
5.0047241545
 30
0.0
 10
5.2632683639
 20
5.0046592348
 30
0.0
 10
5.2629931864
 20
5.0045941244
 30
0.0
 10
5.2625431983
 20
5.0045016363
 30
0.0
 10
5.261874721
 20
5.0043888094
 30
0.0
 10
5.2609458084
 20
5.0042592488
 30
0.0
 10
5.2598495144
 20
5.0041292304
 30
0.0
 10
5.2580559507
 20
5.0039442089
 30
0.0
 10
5.2553999073
 20
5.0037188106
 30
0.0
 10
5.251720545
 20
5.0034599278
 30
0.0
 10
5.2473925111
 20
5.0032000721
 30
0.0
 10
5.2424257976
 20
5.0029394556
 30
0.0
 10
5.2368317152
 20
5.0026783606
 30
0.0
 10
5.2306231
 20
5.0024169075
 30
0.0
 10
5.223814263
 20
5.0021552153
 30
0.0
 10
5.2164207789
 20
5.0018933139
 30
0.0
 10
5.2084597446
 20
5.0016312745
 30
0.0
 10
5.1967642335
 20
5.0012710381
 30
0.0
 10
5.1808738204
 20
5.0008251857
 30
0.0
 10
5.1603850629
 20
5.0003036853
 30
0.0
 10
5.1381424665
 20
4.9997815656
 30
0.0
 10
5.1143505363
 20
4.9992589563
 30
0.0
 10
5.0892280127
 20
4.9987360106
 30
0.0
 10
5.0630058913
 20
4.9982128196
 30
0.0
 10
5.0359252758
 20
4.9976894584
 30
0.0
 10
5.0082351902
 20
4.9971659853
 30
0.0
 10
4.9801902514
 20
4.9966424501
 30
0.0
 10
4.9520483335
 20
4.9961188984
 30
0.0
 10
4.9240681951
 20
4.9955953743
 30
0.0
 10
4.896507112
 20
4.9950719242
 30
0.0
 10
4.8696185107
 20
4.9945485997
 30
0.0
 10
4.843649654
 20
4.9940254629
 30
0.0
 10
4.8188393183
 20
4.9935025907
 30
0.0
 10
4.7954156333
 20
4.9929800915
 30
0.0
 10
4.77359395
 20
4.9924580992
 30
0.0
 10
4.75357489
 20
4.9919368687
 30
0.0
 10
4.7355425173
 20
4.9914166005
 30
0.0
 10
4.7218347953
 20
4.990969158
 30
0.0
 10
4.7119848435
 20
4.9906061531
 30
0.0
 10
4.7054749803
 20
4.9903445668
 30
0.0
 10
4.6995726508
 20
4.9900832767
 30
0.0
 10
4.6942914938
 20
4.9898223951
 30
0.0
 10
4.6896435556
 20
4.9895621452
 30
0.0
 10
4.6856394912
 20
4.9893026476
 30
0.0
 10
4.6827101951
 20
4.9890774266
 30
0.0
 10
4.680696022
 20
4.9888933796
 30
0.0
 10
4.6794334065
 20
4.9887629967
 30
0.0
 10
4.6783375386
 20
4.9886329628
 30
0.0
 10
4.6774089366
 20
4.9885034967
 30
0.0
 10
4.676648113
 20
4.9883747482
 30
0.0
 10
4.6761988658
 20
4.9882786282
 30
0.0
 10
4.6760033711
 20
4.9882279337
 30
0.0
  0
SPLINE
  5
3DC
100
AcDbEntity
  8
0
100
AcDbSpline
 62
7
  6
CONTINUOUS
 70
0
 71
3
 72
63
 73
59
 74
0
 42
0.0000001
 43
0.0000001
 44
0.0000000001
 40
0.0
 40
0.0
 40
0.0
 40
0.0
 40
0.0001173574
 40
0.0001890451
 40
0.0002731716
 40
0.0004847909
 40
0.0007600928
 40
0.0011023417
 40
0.0015131802
 40
0.001993476
 40
0.0025437266
 40
0.0038550968
 40
0.0054485399
 40
0.0073243222
 40
0.0094821835
 40
0.0146398816
 40
0.020911589
 40
0.0282845606
 40
0.03674182
 40
0.0462650266
 40
0.0568320625
 40
0.068419128
 40
0.0809997451
 40
0.0945448473
 40
0.1090238584
 40
0.140647473
 40
0.1755804019
 40
0.2135018758
 40
0.2540635046
 40
0.296892641
 40
0.3415955325
 40
0.3877613925
 40
0.4349658505
 40
0.482775028
 40
0.5307495491
 40
0.5784483134
 40
0.6254329767
 40
0.6712715562
 40
0.7155428169
 40
0.7578398856
 40
0.7977740461
 40
0.834978402
 40
0.8691111024
 40
0.8998586817
 40
0.9269390416
 40
0.9390251952
 40
0.9501041077
 40
0.9601509816
 40
0.969142327
 40
0.977058511
 40
0.9838812917
 40
0.989596186
 40
0.9920344871
 40
0.9941915479
 40
0.996066639
 40
0.9976594977
 40
0.9989702774
 40
1.0
 40
1.0
 40
1.0
 40
1.0
 10
5.2640427404
 20
5.0395087733
 30
0.0
 10
5.2640427396
 20
5.0394857514
 30
0.0
 10
5.2640287584
 20
5.0394486363
 30
0.0
 10
5.2639943187
 20
5.0394075953
 30
0.0
 10
5.2639396761
 20
5.0393600913
 30
0.0
 10
5.2638424263
 20
5.0393031606
 30
0.0
 10
5.2636928936
 20
5.0392387764
 30
0.0
 10
5.2635015977
 20
5.0391741471
 30
0.0
 10
5.2632684476
 20
5.0391092317
 30
0.0
 10
5.2629932307
 20
5.0390441239
 30
0.0
 10
5.262543176
 20
5.0389516407
 30
0.0
 10
5.2618746695
 20
5.038838823
 30
0.0
 10
5.2609457935
 20
5.0387092508
 30
0.0
 10
5.2598495555
 20
5.0385792195
 30
0.0
 10
5.2580559692
 20
5.0383942084
 30
0.0
 10
5.2553999286
 20
5.038168829
 30
0.0
 10
5.2517205231
 20
5.0379099079
 30
0.0
 10
5.2473925404
 20
5.0376500884
 30
0.0
 10
5.2424257876
 20
5.0373894455
 30
0.0
 10
5.2368317209
 20
5.0371283643
 30
0.0
 10
5.2306231057
 20
5.0368669094
 30
0.0
 10
5.2238142507
 20
5.0366052097
 30
0.0
 10
5.2164208045
 20
5.0363433221
 30
0.0
 10
5.2084597259
 20
5.036081267
 30
0.0
 10
5.1967642386
 20
5.0357210465
 30
0.0
 10
5.1808738116
 20
5.0352751831
 30
0.0
 10
5.1603850992
 20
5.034753686
 30
0.0
 10
5.138142522
 20
5.034231565
 30
0.0
 10
5.1143505715
 20
5.0337089563
 30
0.0
 10
5.0892280236
 20
5.0331860111
 30
0.0
 10
5.0630058787
 20
5.0326628201
 30
0.0
 10
5.035925271
 20
5.0321394588
 30
0.0
 10
5.0082351983
 20
5.0316159853
 30
0.0
 10
4.9801902615
 20
5.0310924501
 30
0.0
 10
4.9520483409
 20
5.0305688986
 30
0.0
 10
4.9240681916
 20
5.0300453747
 30
0.0
 10
4.8965071202
 20
5.0295219246
 30
0.0
 10
4.8696185393
 20
5.0289985998
 30
0.0
 10
4.8436496937
 20
5.0284754626
 30
0.0
 10
4.8188393497
 20
5.0279525906
 30
0.0
 10
4.7954156268
 20
5.0274300915
 30
0.0
 10
4.7735939103
 20
5.0269081
 30
0.0
 10
4.7535748478
 20
5.026386869
 30
0.0
 10
4.7355425117
 20
5.0258666045
 30
0.0
 10
4.721834789
 20
5.0254191481
 30
0.0
 10
4.711984873
 20
5.0250561629
 30
0.0
 10
4.7054749648
 20
5.0247945551
 30
0.0
 10
4.6995726805
 20
5.0245332893
 30
0.0
 10
4.6942914795
 20
5.0242723865
 30
0.0
 10
4.6896435629
 20
5.0240121476
 30
0.0
 10
4.6856394989
 20
5.0237526562
 30
0.0
 10
4.6827101925
 20
5.0235274099
 30
0.0
 10
4.6806959961
 20
5.0233433865
 30
0.0
 10
4.6794333685
 20
5.0232130047
 30
0.0
 10
4.6783375597
 20
5.0230829631
 30
0.0
 10
4.6774089909
 20
5.0229534839
 30
0.0
 10
4.6766481225
 20
5.0228247393
 30
0.0
 10
4.6761988015
 20
5.0227286344
 30
0.0
 10
4.6760032683
 20
5.0226779338
 30
0.0
  0
SPLINE
  5
3DD
100
AcDbEntity
  8
0
100
AcDbSpline
 62
7
  6
CONTINUOUS
 70
0
 71
3
 72
30
 73
26
 74
0
 42
0.0000001
 43
0.0000001
 44
0.0000000001
 40
0.0
 40
0.0
 40
0.0
 40
0.0
 40
0.0019021903
 40
0.0043447475
 40
0.0073299531
 40
0.0108583803
 40
0.014929612
 40
0.0195418927
 40
0.0303802902
 40
0.0433534612
 40
0.0584337768
 40
0.0755889484
 40
0.0947822445
 40
0.1159709009
 40
0.1391096291
 40
0.191027313
 40
0.2500787814
 40
0.3157440536
 40
0.3874445852
 40
0.4645480689
 40
0.5463747527
 40
0.6322024829
 40
0.7212754576
 40
0.8128047113
 40
1.0
 40
1.0
 40
1.0
 40
1.0
 10
5.2836812406
 20
4.9887528844
 30
0.0
 10
5.2834883896
 20
4.9887029032
 30
0.0
 10
5.2830428542
 20
4.9886085756
 30
0.0
 10
5.282285494
 20
4.9884826055
 30
0.0
 10
5.281355965
 20
4.9883558694
 30
0.0
 10
5.2802546697
 20
4.9882285411
 30
0.0
 10
5.2789820219
 20
4.9881008688
 30
0.0
 10
5.2769453706
 20
4.9879204631
 30
0.0
 10
5.2739765098
 20
4.9876997705
 30
0.0
 10
5.2699111202
 20
4.9874456592
 30
0.0
 10
5.265183091
 20
4.9871907609
 30
0.0
 10
5.2598028279
 20
4.9869352209
 30
0.0
 10
5.2537821967
 20
4.9866792993
 30
0.0
 10
5.2471343948
 20
4.9864230407
 30
0.0
 10
5.2370606046
 20
4.9860672978
 30
0.0
 10
5.2230218464
 20
4.9856288228
 30
0.0
 10
5.2045293507
 20
4.9851191752
 30
0.0
 10
5.1839642554
 20
4.9846085657
 30
0.0
 10
5.1615080069
 20
4.9840971995
 30
0.0
 10
5.1373587282
 20
4.9835853272
 30
0.0
 10
5.1117295599
 20
4.9830730818
 30
0.0
 10
5.0848465565
 20
4.9825605675
 30
0.0
 10
5.0569471986
 20
4.9820478617
 30
0.0
 10
5.0184327411
 20
4.9813589412
 30
0.0
 10
4.9892454481
 20
4.9808506147
 30
0.0
 10
4.9696428571
 20
4.9805091411
 30
0.0
  0
LINE
  5
3DE
100
AcDbEntity
  8
0
100
AcDbLine
 62
7
  6
CONTINUOUS
 10
5.2632824095
 20
4.9834646128
 11
5.2628287098
 21
4.9833606458
  0
SPLINE
  5
3DF
100
AcDbEntity
  8
0
100
AcDbSpline
 62
7
  6
CONTINUOUS
 70
0
 71
3
 72
62
 73
58
 74
0
 42
0.0000001
 43
0.0000001
 44
0.0000000001
 40
0.0
 40
0.0
 40
0.0
 40
0.0
 40
0.0012441788
 40
0.002767175
 40
0.0045691594
 40
0.0066498317
 40
0.0116445647
 40
0.0177420355
 40
0.0249295348
 40
0.0331917706
 40
0.0425098711
 40
0.0528636591
 40
0.0642292106
 40
0.0765813463
 40
0.1041307425
 40
0.1352625148
 40
0.169694492
 40
0.2071143338
 40
0.2471824173
 40
0.2895351442
 40
0.3337880874
 40
0.3795395265
 40
0.4263742182
 40
0.4738668283
 40
0.5215862794
 40
0.5690992426
 40
0.6159744161
 40
0.6617862823
 40
0.706118871
 40
0.7485698032
 40
0.7887536262
 40
0.8263057286
 40
0.8608853962
 40
0.8921789924
 40
0.9065036981
 40
0.9199028912
 40
0.9323463185
 40
0.943806038
 40
0.9542557301
 40
0.9636725082
 40
0.9720346229
 40
0.9793240954
 40
0.985524693
 40
0.9906234804
 40
0.9927567711
 40
0.9946112933
 40
0.9961865817
 40
0.9974829989
 40
0.9980270138
 40
0.9985019219
 40
0.9989082358
 40
0.9992468301
 40
0.9995192969
 40
0.9997288546
 40
0.9998122349
 40
0.9998833553
 40
1.0
 40
1.0
 40
1.0
 40
1.0
 10
5.2628287098
 20
4.9833606458
 30
0.0
 10
5.262589815
 20
4.9833116065
 30
0.0
 10
5.2620555239
 20
4.9832170794
 30
0.0
 10
5.2611691211
 20
4.9830884665
 30
0.0
 10
5.2601173683
 20
4.9829593128
 30
0.0
 10
5.2583869928
 20
4.9827752147
 30
0.0
 10
5.2558144607
 20
4.9825512225
 30
0.0
 10
5.2522405651
 20
4.9822940342
 30
0.0
 10
5.2480248481
 20
4.9820358808
 30
0.0
 10
5.2431768903
 20
4.9817769315
 30
0.0
 10
5.2377075437
 20
4.9815174721
 30
0.0
 10
5.231629312
 20
4.9812576818
 30
0.0
 10
5.2249558891
 20
4.9809975953
 30
0.0
 10
5.2149132851
 20
4.9806373343
 30
0.0
 10
5.2009968291
 20
4.9801928687
 30
0.0
 10
5.1827526842
 20
4.9796755642
 30
0.0
 10
5.1625731218
 20
4.9791573675
 30
0.0
 10
5.1406414135
 20
4.9786384684
 30
0.0
 10
5.1171567379
 20
4.9781190965
 30
0.0
 10
5.0923323812
 20
4.977599377
 30
0.0
 10
5.0663937819
 20
4.9770794097
 30
0.0
 10
5.03957649
 20
4.9765592676
 30
0.0
 10
5.0121240652
 20
4.9760390096
 30
0.0
 10
4.9842858165
 20
4.9755186848
 30
0.0
 10
4.9563145946
 20
4.9749983375
 30
0.0
 10
4.9284644194
 20
4.9744780105
 30
0.0
 10
4.9009882214
 20
4.973957748
 30
0.0
 10
4.8741355319
 20
4.9734375995
 30
0.0
 10
4.8481502178
 20
4.9729176224
 30
0.0
 10
4.823268301
 20
4.972397891
 30
0.0
 10
4.7997157489
 20
4.9718784952
 30
0.0
 10
4.7777064576
 20
4.9713595858
 30
0.0
 10
4.7574402789
 20
4.9708412959
 30
0.0
 10
4.7417265957
 20
4.9703981514
 30
0.0
 10
4.7301638923
 20
4.9700401215
 30
0.0
 10
4.7222948471
 20
4.9697796899
 30
0.0
 10
4.7149877021
 20
4.9695194108
 30
0.0
 10
4.7082590866
 20
4.9692593343
 30
0.0
 10
4.7021242078
 20
4.9689994868
 30
0.0
 10
4.69659708
 20
4.9687400189
 30
0.0
 10
4.6916901365
 20
4.9684809889
 30
0.0
 10
4.687414537
 20
4.9682227607
 30
0.0
 10
4.6837798987
 20
4.9679654548
 30
0.0
 10
4.6811562681
 20
4.9677414503
 30
0.0
 10
4.6793846378
 20
4.9675575803
 30
0.0
 10
4.6783018128
 20
4.9674283618
 30
0.0
 10
4.6773843347
 20
4.9672995865
 30
0.0
 10
4.6767240763
 20
4.967187461
 30
0.0
 10
4.6762795938
 20
4.967095549
 30
0.0
 10
4.6760077651
 20
4.9670308406
 30
0.0
 10
4.6757774641
 20
4.9669663218
 30
0.0
 10
4.6755884826
 20
4.9669020896
 30
0.0
 10
4.6754407443
 20
4.9668381021
 30
0.0
 10
4.675344682
 20
4.9667815122
 30
0.0
 10
4.6752907328
 20
4.9667343124
 30
0.0
 10
4.6752567092
 20
4.9666934902
 30
0.0
 10
4.6752429468
 20
4.9666566372
 30
0.0
 10
4.675242956
 20
4.9666337732
 30
0.0
  0
SPLINE
  5
3E0
100
AcDbEntity
  8
0
100
AcDbSpline
 62
7
  6
CONTINUOUS
 70
0
 71
3
 72
30
 73
26
 74
0
 42
0.0000001
 43
0.0000001
 44
0.0000000001
 40
0.0
 40
0.0
 40
0.0
 40
0.0
 40
0.0019021903
 40
0.0043447475
 40
0.0073299531
 40
0.0108583803
 40
0.014929612
 40
0.0195418927
 40
0.0303802902
 40
0.0433534612
 40
0.0584337768
 40
0.0755889484
 40
0.0947822445
 40
0.1159709009
 40
0.1391096291
 40
0.191027313
 40
0.2500787814
 40
0.3157440536
 40
0.3874445852
 40
0.4645480689
 40
0.5463747527
 40
0.6322024829
 40
0.7212754576
 40
0.8128047113
 40
1.0
 40
1.0
 40
1.0
 40
1.0
 10
5.2836812406
 20
5.0232028844
 30
0.0
 10
5.2834883896
 20
5.0231529032
 30
0.0
 10
5.2830428542
 20
5.0230585756
 30
0.0
 10
5.282285494
 20
5.0229326055
 30
0.0
 10
5.281355965
 20
5.0228058694
 30
0.0
 10
5.2802546697
 20
5.0226785411
 30
0.0
 10
5.2789820219
 20
5.0225508688
 30
0.0
 10
5.2769453706
 20
5.0223704631
 30
0.0
 10
5.2739765098
 20
5.0221497705
 30
0.0
 10
5.2699111202
 20
5.0218956593
 30
0.0
 10
5.265183091
 20
5.0216407609
 30
0.0
 10
5.2598028279
 20
5.0213852209
 30
0.0
 10
5.2537821967
 20
5.0211292993
 30
0.0
 10
5.2471343948
 20
5.0208730407
 30
0.0
 10
5.2370606046
 20
5.0205172978
 30
0.0
 10
5.2230218464
 20
5.0200788228
 30
0.0
 10
5.2045293507
 20
5.0195691752
 30
0.0
 10
5.1839642554
 20
5.0190585657
 30
0.0
 10
5.1615080069
 20
5.0185471995
 30
0.0
 10
5.1373587282
 20
5.0180353272
 30
0.0
 10
5.1117295599
 20
5.0175230818
 30
0.0
 10
5.0848465565
 20
5.0170105675
 30
0.0
 10
5.0569471986
 20
5.0164978617
 30
0.0
 10
5.0184327411
 20
5.0158089412
 30
0.0
 10
4.9892454481
 20
5.0153006147
 30
0.0
 10
4.9696428571
 20
5.0149591411
 30
0.0
  0
LINE
  5
3E1
100
AcDbEntity
  8
0
100
AcDbLine
 62
7
  6
CONTINUOUS
 10
5.2632823266
 20
5.0179146127
 11
5.2627821379
 21
5.0178011946
  0
SPLINE
  5
3E2
100
AcDbEntity
  8
0
100
AcDbSpline
 62
7
  6
CONTINUOUS
 70
0
 71
3
 72
62
 73
58
 74
0
 42
0.0000001
 43
0.0000001
 44
0.0000000001
 40
0.0
 40
0.0
 40
0.0
 40
0.0
 40
0.0012634088
 40
0.0028054886
 40
0.0046265135
 40
0.006725927
 40
0.0117564569
 40
0.0178886128
 40
0.025109012
 40
0.03340231
 40
0.0427500903
 40
0.0531312273
 40
0.0645228874
 40
0.0768987587
 40
0.1044904708
 40
0.1356568821
 40
0.1701157001
 40
0.2075547595
 40
0.2476347757
 40
0.2899923869
 40
0.3342436544
 40
0.3799872267
 40
0.426808309
 40
0.4742823063
 40
0.5219786953
 40
0.5694649799
 40
0.6163105327
 40
0.6620904653
 40
0.7063896967
 40
0.748806486
 40
0.7889563379
 40
0.8264752906
 40
0.8610232495
 40
0.8922872391
 40
0.9065978262
 40
0.9199840372
 40
0.9324150806
 40
0.9438632557
 40
0.954302624
 40
0.9637095377
 40
0.9720634175
 40
0.9793451143
 40
0.9855394778
 40
0.9906329508
 40
0.9927638548
 40
0.9946165025
 40
0.996190393
 40
0.9974854891
 40
0.9980288632
 40
0.9985031868
 40
0.9989090046
 40
0.9992472226
 40
0.9995194605
 40
0.9997289235
 40
0.9998122852
 40
0.9998833934
 40
1.0
 40
1.0
 40
1.0
 40
1.0
 10
5.2627821379
 20
5.0178011946
 30
0.0
 10
5.2625393907
 20
5.0177522852
 30
0.0
 10
5.2619975079
 20
5.0176578809
 30
0.0
 10
5.2610998187
 20
5.0175292905
 30
0.0
 10
5.2600369204
 20
5.017400187
 30
0.0
 10
5.2582921641
 20
5.0172162928
 30
0.0
 10
5.2557022853
 20
5.0169923965
 30
0.0
 10
5.2521083566
 20
5.01673533
 30
0.0
 10
5.2478736058
 20
5.0164772796
 30
0.0
 10
5.243007655
 20
5.016218446
 30
0.0
 10
5.2375214593
 20
5.0159591362
 30
0.0
 10
5.2314274051
 20
5.0156994593
 30
0.0
 10
5.2247393746
 20
5.0154395313
 30
0.0
 10
5.2146794996
 20
5.0150794983
 30
0.0
 10
5.2007444145
 20
5.0146353175
 30
0.0
 10
5.1824813845
 20
5.0141182796
 30
0.0
 10
5.1622876237
 20
5.0136003597
 30
0.0
 10
5.1403463111
 20
5.0130817414
 30
0.0
 10
5.1168564619
 20
5.012562654
 30
0.0
 10
5.0920311359
 20
5.012043221
 30
0.0
 10
5.0660955391
 20
5.0115235425
 30
0.0
 10
5.0392849461
 20
5.0110036901
 30
0.0
 10
5.0118425917
 20
5.0104837223
 30
0.0
 10
4.9840174234
 20
5.0099636881
 30
0.0
 10
4.9560618546
 20
5.0094436321
 30
0.0
 10
4.9282294806
 20
5.0089235968
 30
0.0
 10
4.9007727928
 20
5.0084036266
 30
0.0
 10
4.8739408723
 20
5.0078837702
 30
0.0
 10
4.8479771439
 20
5.0073640851
 30
0.0
 10
4.8231171232
 20
5.0068446455
 30
0.0
 10
4.7995863194
 20
5.0063255414
 30
0.0
 10
4.7775981749
 20
5.0058069251
 30
0.0
 10
4.7573521471
 20
5.0052889249
 30
0.0
 10
4.741654517
 20
5.004846035
 30
0.0
 10
4.7301038621
 20
5.0044881934
 30
0.0
 10
4.7222431909
 20
5.0042279167
 30
0.0
 10
4.7149438703
 20
5.0039677834
 30
0.0
 10
4.7082225119
 20
5.0037078452
 30
0.0
 10
4.7020943473
 20
5.0034481626
 30
0.0
 10
4.6965732382
 20
5.0031888147
 30
0.0
 10
4.6916717611
 20
5.0029299616
 30
0.0
 10
4.6874008687
 20
5.002671852
 30
0.0
 10
4.6837703111
 20
5.0024147056
 30
0.0
 10
4.6811496234
 20
5.0021908358
 30
0.0
 10
4.6793800156
 20
5.0020070514
 30
0.0
 10
4.6782983882
 20
5.0018779024
 30
0.0
 10
4.677381882
 20
5.0017492189
 30
0.0
 10
4.6767223351
 20
5.0016371575
 30
0.0
 10
4.6762783902
 20
5.0015452901
 30
0.0
 10
4.6760069233
 20
5.0014806164
 30
0.0
 10
4.6757769295
 20
5.0014161311
 30
0.0
 10
4.6755881827
 20
5.0013519302
 30
0.0
 10
4.6754405947
 20
5.0012879741
 30
0.0
 10
4.6753446011
 20
5.0012314223
 30
0.0
 10
4.6752906647
 20
5.0011842546
 30
0.0
 10
4.6752566375
 20
5.0011434604
 30
0.0
 10
4.675242856
 20
5.0011066279
 30
0.0
 10
4.6752428573
 20
5.0010837733
 30
0.0
  0
SPLINE
  5
3E3
100
AcDbEntity
  8
0
100
AcDbSpline
 62
7
  6
CONTINUOUS
 70
0
 71
3
 72
39
 73
35
 74
0
 42
0.0000001
 43
0.0000001
 44
0.0000000001
 40
0.0
 40
0.0
 40
0.0
 40
0.0
 40
0.000522443
 40
0.0007225193
 40
0.0009552567
 40
0.0015233136
 40
0.0022329777
 40
0.0030871452
 40
0.0040873247
 40
0.0052343691
 40
0.0079707117
 40
0.0112981435
 40
0.0152168847
 40
0.0197258015
 40
0.0305042131
 40
0.0436114798
 40
0.0590180463
 40
0.0766875226
 40
0.0965788924
 40
0.1186437664
 40
0.1428305587
 40
0.1690801068
 40
0.1973305283
 40
0.2275130044
 40
0.2595556403
 40
0.2933809986
 40
0.3660507836
 40
0.4448230863
 40
0.5289400226
 40
0.6175916474
 40
0.7099254491
 40
0.8050502783
 40
0.9020555645
 40
1.0
 40
1.0
 40
1.0
 40
1.0
 10
5.2843927457
 20
4.4485959055
 30
0.0
 10
5.2843927457
 20
4.4485410443
 30
0.0
 10
5.2843258068
 20
4.4484766483
 30
0.0
 10
5.2842424883
 20
4.4484254401
 30
0.0
 10
5.2841481926
 20
4.448377216
 30
0.0
 10
5.2840005655
 20
4.4483195721
 30
0.0
 10
5.2837864475
 20
4.4482533115
 30
0.0
 10
5.2835254705
 20
4.4481869724
 30
0.0
 10
5.283217356
 20
4.4481203355
 30
0.0
 10
5.2827133083
 20
4.4480256762
 30
0.0
 10
5.2819647851
 20
4.447910219
 30
0.0
 10
5.2809248897
 20
4.4477776307
 30
0.0
 10
5.2796976324
 20
4.4476445709
 30
0.0
 10
5.2776896864
 20
4.4474552268
 30
0.0
 10
5.2747167595
 20
4.4472245724
 30
0.0
 10
5.2705991795
 20
4.4469596199
 30
0.0
 10
5.265756757
 20
4.446693711
 30
0.0
 10
5.2602010753
 20
4.4464269816
 30
0.0
 10
5.253945523
 20
4.446159791
 30
0.0
 10
5.2470050548
 20
4.445892215
 30
0.0
 10
5.2393964808
 20
4.4456244032
 30
0.0
 10
5.2311380088
 20
4.4453563734
 30
0.0
 10
5.2222496346
 20
4.4450882094
 30
0.0
 10
5.2127526806
 20
4.4448199149
 30
0.0
 10
5.2026700921
 20
4.4445515273
 30
0.0
 10
5.1881270101
 20
4.4441847499
 30
0.0
 10
5.1686775781
 20
4.443729873
 30
0.0
 10
5.1439475424
 20
4.443195548
 30
0.0
 10
5.1175389158
 20
4.4426607712
 30
0.0
 10
5.0897059434
 20
4.442125641
 30
0.0
 10
5.0607168449
 20
4.4415902735
 30
0.0
 10
5.0308503964
 20
4.4410547336
 30
0.0
 10
5.0003946908
 20
4.4405190941
 30
0.0
 10
4.9799263364
 20
4.4401625418
 30
0.0
 10
4.9696428571
 20
4.4399834055
 30
0.0
  0
SPLINE
  5
3E4
100
AcDbEntity
  8
0
100
AcDbSpline
 62
7
  6
CONTINUOUS
 70
0
 71
3
 72
30
 73
26
 74
0
 42
0.0000001
 43
0.0000001
 44
0.0000000001
 40
0.0
 40
0.0
 40
0.0
 40
0.0
 40
0.0019021903
 40
0.0043447475
 40
0.0073299531
 40
0.0108583803
 40
0.014929612
 40
0.0195418927
 40
0.0303802902
 40
0.0433534612
 40
0.0584337768
 40
0.0755889484
 40
0.0947822445
 40
0.1159709009
 40
0.1391096291
 40
0.191027313
 40
0.2500787814
 40
0.3157440536
 40
0.3874445852
 40
0.4645480689
 40
0.5463747527
 40
0.6322024829
 40
0.7212754576
 40
0.8128047113
 40
1.0
 40
1.0
 40
1.0
 40
1.0
 10
5.2836812406
 20
5.0576528844
 30
0.0
 10
5.2834883896
 20
5.0576029032
 30
0.0
 10
5.2830428542
 20
5.0575085756
 30
0.0
 10
5.282285494
 20
5.0573826055
 30
0.0
 10
5.281355965
 20
5.0572558694
 30
0.0
 10
5.2802546697
 20
5.0571285411
 30
0.0
 10
5.2789820219
 20
5.0570008688
 30
0.0
 10
5.2769453706
 20
5.0568204631
 30
0.0
 10
5.2739765098
 20
5.0565997705
 30
0.0
 10
5.2699111202
 20
5.0563456593
 30
0.0
 10
5.265183091
 20
5.0560907609
 30
0.0
 10
5.2598028279
 20
5.0558352209
 30
0.0
 10
5.2537821967
 20
5.0555792993
 30
0.0
 10
5.2471343948
 20
5.0553230407
 30
0.0
 10
5.2370606046
 20
5.0549672978
 30
0.0
 10
5.2230218464
 20
5.0545288228
 30
0.0
 10
5.2045293507
 20
5.0540191752
 30
0.0
 10
5.1839642554
 20
5.0535085657
 30
0.0
 10
5.1615080069
 20
5.0529971995
 30
0.0
 10
5.1373587282
 20
5.0524853272
 30
0.0
 10
5.1117295599
 20
5.0519730818
 30
0.0
 10
5.0848465565
 20
5.0514605675
 30
0.0
 10
5.0569471986
 20
5.0509478617
 30
0.0
 10
5.0184327411
 20
5.0502589412
 30
0.0
 10
4.9892454481
 20
5.0497506147
 30
0.0
 10
4.9696428571
 20
5.0494091411
 30
0.0
  0
SPLINE
  5
3E5
100
AcDbEntity
  8
0
100
AcDbSpline
 62
7
  6
CONTINUOUS
 70
0
 71
3
 72
63
 73
59
 74
0
 42
0.0000001
 43
0.0000001
 44
0.0000000001
 40
0.0
 40
0.0
 40
0.0
 40
0.0
 40
0.0010297647
 40
0.0023404664
 40
0.0039332397
 40
0.0058083522
 40
0.0079655452
 40
0.010403836
 40
0.0161185813
 40
0.0229415359
 40
0.0308575776
 40
0.0398490195
 40
0.0498958568
 40
0.0609747219
 40
0.0730609759
 40
0.1001413523
 40
0.130888902
 40
0.1650215296
 40
0.202225873
 40
0.2421600507
 40
0.2844571649
 40
0.3287284391
 40
0.3745670304
 40
0.4215516726
 40
0.4692504269
 40
0.5172249645
 40
0.565034146
 40
0.6122386162
 40
0.6584044459
 40
0.7031073249
 40
0.7459364482
 40
0.7864981255
 40
0.8244196494
 40
0.8593525873
 40
0.8909761714
 40
0.9054551519
 40
0.9190002313
 40
0.9315809467
 40
0.9431678713
 40
0.9537350537
 40
0.9632581074
 40
0.971715482
 40
0.9790884134
 40
0.9853600982
 40
0.990517898
 40
0.9926756276
 40
0.9945513884
 40
0.9961449172
 40
0.9974563656
 40
0.9980066174
 40
0.9984868708
 40
0.9988976338
 40
0.9992398373
 40
0.9995151372
 40
0.9997267815
 40
0.9998109244
 40
0.9998826275
 40
1.0
 40
1.0
 40
1.0
 40
1.0
 10
5.2632824203
 20
5.0523646127
 30
0.0
 10
5.2630868771
 20
5.0523139177
 30
0.0
 10
5.262637564
 20
5.0522178122
 30
0.0
 10
5.2618767206
 20
5.0520890618
 30
0.0
 10
5.2609481805
 20
5.0519595788
 30
0.0
 10
5.2598523581
 20
5.0518295382
 30
0.0
 10
5.2585897013
 20
5.0516991657
 30
0.0
 10
5.2565755109
 20
5.0515151377
 30
0.0
 10
5.2536462024
 20
5.0512898813
 30
0.0
 10
5.2496421605
 20
5.051030408
 30
0.0
 10
5.24499422
 20
5.0507701534
 30
0.0
 10
5.2397130349
 20
5.050509261
 30
0.0
 10
5.2338107487
 20
5.050247991
 30
0.0
 10
5.2273008376
 20
5.0499863817
 30
0.0
 10
5.2174509083
 20
5.049623401
 30
0.0
 10
5.2037431693
 20
5.0491759419
 30
0.0
 10
5.1857108509
 20
5.048655678
 30
0.0
 10
5.165691812
 20
5.048134446
 30
0.0
 10
5.1438701099
 20
5.0476124548
 30
0.0
 10
5.1204463784
 20
5.0470899558
 30
0.0
 10
5.0956360207
 20
5.046567084
 30
0.0
 10
5.0696671625
 20
5.0460439468
 30
0.0
 10
5.0427785821
 20
5.045520622
 30
0.0
 10
5.0152175159
 20
5.0449971718
 30
0.0
 10
4.987237371
 20
5.0444736478
 30
0.0
 10
4.9590954497
 20
5.0439500964
 30
0.0
 10
4.9310505079
 20
5.0434265613
 30
0.0
 10
4.9033604394
 20
5.0429030879
 30
0.0
 10
4.8762798391
 20
5.0423797265
 30
0.0
 10
4.8500577065
 20
5.0418565353
 30
0.0
 10
4.8249351554
 20
5.0413335899
 30
0.0
 10
4.8011431894
 20
5.0408109815
 30
0.0
 10
4.7789005922
 20
5.0402888609
 30
0.0
 10
4.7584118752
 20
5.0397673639
 30
0.0
 10
4.7425214593
 20
5.0393215001
 30
0.0
 10
4.730825989
 20
5.03896128
 30
0.0
 10
4.7228649021
 20
5.0386992221
 30
0.0
 10
4.7154714689
 20
5.0384373413
 30
0.0
 10
4.7086625943
 20
5.0381756315
 30
0.0
 10
4.7024540078
 20
5.0379141886
 30
0.0
 10
4.6968599206
 20
5.0376530953
 30
0.0
 10
4.6918931829
 20
5.0373924612
 30
0.0
 10
4.6875651901
 20
5.03713264
 30
0.0
 10
4.6838857779
 20
5.03687371
 30
0.0
 10
4.681229746
 20
5.03664835
 30
0.0
 10
4.6794361715
 20
5.0364633235
 30
0.0
 10
4.6783399471
 20
5.0363332912
 30
0.0
 10
4.6774110426
 20
5.0362037225
 30
0.0
 10
4.6767425025
 20
5.0360909087
 30
0.0
 10
4.6762924404
 20
5.0359984255
 30
0.0
 10
4.6760172467
 20
5.0359333186
 30
0.0
 10
4.6757841313
 20
5.0358683979
 30
0.0
 10
4.6755928619
 20
5.0358037661
 30
0.0
 10
4.675443334
 20
5.035739382
 30
0.0
 10
4.6753460752
 20
5.035682453
 30
0.0
 10
4.6752914164
 20
5.0356349509
 30
0.0
 10
4.6752569606
 20
5.0355939122
 30
0.0
 10
4.6752429606
 20
5.0355567982
 30
0.0
 10
4.6752429503
 20
5.0355337734
 30
0.0
  0
SPLINE
  5
3E6
100
AcDbEntity
  8
0
100
AcDbSpline
 62
7
  6
CONTINUOUS
 70
0
 71
3
 72
23
 73
19
 74
0
 42
0.0000001
 43
0.0000001
 44
0.0000000001
 40
0.0
 40
0.0
 40
0.0
 40
0.0
 40
0.1517232674
 40
0.2263387982
 40
0.2997211529
 40
0.3715800547
 40
0.4416275573
 40
0.5095916829
 40
0.5752193454
 40
0.6382809644
 40
0.6985809009
 40
0.7559706552
 40
0.8103648321
 40
0.861764767
 40
0.9102883652
 40
0.9562051717
 40
0.9783334883
 40
1.0
 40
1.0
 40
1.0
 40
1.0
 10
4.9558282061
 20
3.6258462733
 30
0.0
 10
4.9469689775
 20
3.6173316107
 30
0.0
 10
4.9337893247
 20
3.6045908096
 30
0.0
 10
4.9165688026
 20
3.5874829357
 30
0.0
 10
4.9040939892
 20
3.5747771298
 30
0.0
 10
4.8920800472
 20
3.5621399681
 30
0.0
 10
4.8806194591
 20
3.5495863325
 30
0.0
 10
4.8698050019
 20
3.5371321824
 30
0.0
 10
4.8597295458
 20
3.5247941352
 30
0.0
 10
4.8504861596
 20
3.51258969
 30
0.0
 10
4.8421677829
 20
3.5005374565
 30
0.0
 10
4.8348673393
 20
3.4886567921
 30
0.0
 10
4.8286774148
 20
3.4769681555
 30
0.0
 10
4.8236902951
 20
3.4654921432
 30
0.0
 10
4.8199989626
 20
3.4542525662
 30
0.0
 10
4.8180576484
 20
3.44498736
 30
0.0
 10
4.8172764256
 20
3.4377592796
 30
0.0
 10
4.8171428612
 20
3.4342112099
 30
0.0
 10
4.817142884
 20
3.4324565041
 30
0.0
  0
SPLINE
  5
3E7
100
AcDbEntity
  8
0
100
AcDbSpline
 62
7
  6
CONTINUOUS
 70
0
 71
3
 72
11
 73
7
 74
0
 42
0.0000001
 43
0.0000001
 44
0.0000000001
 40
0.0
 40
0.0
 40
0.0
 40
0.0
 40
0.2756819972
 40
0.5344203071
 40
0.7758571359
 40
1.0
 40
1.0
 40
1.0
 40
1.0
 10
4.8171363894
 20
3.3947492755
 30
0.0
 10
4.8132290496
 20
3.3964347355
 30
0.0
 10
4.8057448217
 20
3.3999184328
 30
0.0
 10
4.7952356379
 20
3.4056816499
 30
0.0
 10
4.7858548116
 20
3.4117850448
 30
0.0
 10
4.7801841316
 20
3.4162206019
 30
0.0
 10
4.7775747036
 20
3.4184924285
 30
0.0
  0
SPLINE
  5
3E8
100
AcDbEntity
  8
0
100
AcDbSpline
 62
7
  6
CONTINUOUS
 70
0
 71
3
 72
40
 73
36
 74
0
 42
0.0000001
 43
0.0000001
 44
0.0000000001
 40
0.0
 40
0.0
 40
0.0
 40
0.0
 40
0.0002520354
 40
0.0005771464
 40
0.0010129853
 40
0.0015753378
 40
0.0022713941
 40
0.0031048572
 40
0.0051913424
 40
0.0064467546
 40
0.0078442796
 40
0.0093841304
 40
0.0110663986
 40
0.0148581354
 40
0.019219055
 40
0.0241481401
 40
0.0296439788
 40
0.0423254238
 40
0.0572393604
 40
0.0743589083
 40
0.0936494933
 40
0.1150735805
 40
0.1385890812
 40
0.1641480462
 40
0.191700829
 40
0.2211912273
 40
0.2857467946
 40
0.3572974954
 40
0.435270016
 40
0.5190393664
 40
0.6079334417
 40
0.7012403685
 40
0.7982061103
 40
0.898066573
 40
1.0
 40
1.0
 40
1.0
 40
1.0
 10
5.264042829
 20
5.0739587732
 30
0.0
 10
5.2640428173
 20
5.0739373884
 30
0.0
 10
5.2640255899
 20
5.0738885044
 30
0.0
 10
5.2639635674
 20
5.073827128
 30
0.0
 10
5.2638683952
 20
5.0737668099
 30
0.0
 10
5.2637374989
 20
5.0737066702
 30
0.0
 10
5.2635705087
 20
5.0736461823
 30
0.0
 10
5.263276326
 20
5.0735586166
 30
0.0
 10
5.2629306666
 20
5.0734795905
 30
0.0
 10
5.2625359783
 20
5.0734026433
 30
0.0
 10
5.2621854789
 20
5.0733415609
 30
0.0
 10
5.261798303
 20
5.07328038
 30
0.0
 10
5.2612092794
 20
5.0731953385
 30
0.0
 10
5.2603813752
 20
5.0730903286
 30
0.0
 10
5.259278082
 20
5.0729685018
 30
0.0
 10
5.2580294474
 20
5.0728464627
 30
0.0
 10
5.2560763698
 20
5.0726752665
 30
0.0
 10
5.2532764135
 20
5.0724649959
 30
0.0
 10
5.2494901566
 20
5.0722220875
 30
0.0
 10
5.2451421567
 20
5.0719786215
 30
0.0
 10
5.2402410533
 20
5.0717346499
 30
0.0
 10
5.2347966772
 20
5.0714903676
 30
0.0
 10
5.2288199655
 20
5.0712458541
 30
0.0
 10
5.2223228531
 20
5.0710011463
 30
0.0
 10
5.2153184527
 20
5.0707563092
 30
0.0
 10
5.2050064702
 20
5.0704194584
 30
0.0
 10
5.1909619928
 20
5.0700025256
 30
0.0
 10
5.1728042445
 20
5.0695151636
 30
0.0
 10
5.1530157143
 20
5.069027216
 30
0.0
 10
5.1317552236
 20
5.0685388016
 30
0.0
 10
5.1091933172
 20
5.0680500597
 30
0.0
 10
5.0855114729
 20
5.0675610805
 30
0.0
 10
5.0608989609
 20
5.067071909
 30
0.0
 10
5.0355543658
 20
5.0665826236
 30
0.0
 10
5.0184355115
 20
5.06625884
 30
0.0
 10
5.0097881377
 20
5.0660962733
 30
0.0
  0
SPLINE
  5
3E9
100
AcDbEntity
  8
0
100
AcDbSpline
 62
7
  6
CONTINUOUS
 70
0
 71
3
 72
63
 73
59
 74
0
 42
0.0000001
 43
0.0000001
 44
0.0000000001
 40
0.0
 40
0.0
 40
0.0
 40
0.0
 40
0.0001173432
 40
0.000189031
 40
0.0002731728
 40
0.000484875
 40
0.0007602873
 40
0.0011026094
 40
0.0015134449
 40
0.001993681
 40
0.0025438427
 40
0.0038550618
 40
0.0054485752
 40
0.0073245719
 40
0.0094824096
 40
0.01463984
 40
0.0209118629
 40
0.0282845667
 40
0.0367420148
 40
0.0462651394
 40
0.0568321166
 40
0.0684193417
 40
0.0809997278
 40
0.0945451018
 40
0.1090238859
 40
0.1406475844
 40
0.1755806048
 40
0.2135020871
 40
0.2540636852
 40
0.296892744
 40
0.3415956043
 40
0.3877615134
 40
0.4349659771
 40
0.4827751938
 40
0.5307496698
 40
0.5784484322
 40
0.6254331144
 40
0.671271737
 40
0.7155430369
 40
0.7578400634
 40
0.7977741657
 40
0.8349784492
 40
0.86911114
 40
0.8998588154
 40
0.9269393008
 40
0.9390252138
 40
0.9501043931
 40
0.9601509921
 40
0.9691425533
 40
0.9770586371
 40
0.9838813954
 40
0.9895964481
 40
0.9920345307
 40
0.9941915552
 40
0.9960668094
 40
0.9976598034
 40
0.9989704775
 40
1.0
 40
1.0
 40
1.0
 40
1.0
 10
5.2640428064
 20
5.1084087734
 30
0.0
 10
5.26404282
 20
5.1083857543
 30
0.0
 10
5.2640288523
 20
5.1083486324
 30
0.0
 10
5.2639944104
 20
5.1083075925
 30
0.0
 10
5.2639397444
 20
5.1082600854
 30
0.0
 10
5.2638424424
 20
5.1082031617
 30
0.0
 10
5.2636928516
 20
5.1081387828
 30
0.0
 10
5.2635015182
 20
5.1080741543
 30
0.0
 10
5.2632683674
 20
5.1080092349
 30
0.0
 10
5.2629931816
 20
5.1079441248
 30
0.0
 10
5.2625431877
 20
5.1078516376
 30
0.0
 10
5.2618747162
 20
5.1077388114
 30
0.0
 10
5.2609458126
 20
5.1076092464
 30
0.0
 10
5.2598495214
 20
5.1074792297
 30
0.0
 10
5.2580559513
 20
5.1072942104
 30
0.0
 10
5.2553999075
 20
5.107068811
 30
0.0
 10
5.2517205428
 20
5.1068099261
 30
0.0
 10
5.2473925158
 20
5.1065500745
 30
0.0
 10
5.2424257935
 20
5.1062894533
 30
0.0
 10
5.2368317181
 20
5.1060283626
 30
0.0
 10
5.2306230994
 20
5.1057669061
 30
0.0
 10
5.2238142698
 20
5.105505216
 30
0.0
 10
5.2164207851
 20
5.1052433143
 30
0.0
 10
5.2084597428
 20
5.1049812741
 30
0.0
 10
5.196764231
 20
5.1046210391
 30
0.0
 10
5.1808738143
 20
5.1041751854
 30
0.0
 10
5.1603850665
 20
5.1036536857
 30
0.0
 10
5.1381424763
 20
5.1031315655
 30
0.0
 10
5.1143505462
 20
5.1026089564
 30
0.0
 10
5.0892280264
 20
5.1020860107
 30
0.0
 10
5.063005894
 20
5.1015628197
 30
0.0
 10
5.0359252825
 20
5.1010394587
 30
0.0
 10
5.0082351922
 20
5.1005159853
 30
0.0
 10
4.9801902563
 20
5.0999924502
 30
0.0
 10
4.952048338
 20
5.0994688985
 30
0.0
 10
4.9240681952
 20
5.0989453744
 30
0.0
 10
4.8965071128
 20
5.0984219243
 30
0.0
 10
4.8696185128
 20
5.0978985998
 30
0.0
 10
4.84364966
 20
5.0973754629
 30
0.0
 10
4.8188393288
 20
5.0968525907
 30
0.0
 10
4.7954156405
 20
5.0963300916
 30
0.0
 10
4.7735939522
 20
5.0958080992
 30
0.0
 10
4.7535748875
 20
5.0952868689
 30
0.0
 10
4.7355425105
 20
5.0947666008
 30
0.0
 10
4.7218347915
 20
5.0943191578
 30
0.0
 10
4.7119848467
 20
5.0939561538
 30
0.0
 10
4.7054749867
 20
5.0936945658
 30
0.0
 10
4.6995726627
 20
5.0934332789
 30
0.0
 10
4.6942914923
 20
5.0931723925
 30
0.0
 10
4.6896435578
 20
5.092912148
 30
0.0
 10
4.6856394878
 20
5.0926526461
 30
0.0
 10
4.6827101954
 20
5.0924274267
 30
0.0
 10
4.6806960201
 20
5.0922433812
 30
0.0
 10
4.6794334109
 20
5.092112997
 30
0.0
 10
4.6783375497
 20
5.0919829619
 30
0.0
 10
4.6774089412
 20
5.0918534939
 30
0.0
 10
4.6766481058
 20
5.0917247507
 30
0.0
 10
4.6761988499
 20
5.0916286292
 30
0.0
 10
4.6760033559
 20
5.0915779337
 30
0.0
  0
SPLINE
  5
3EA
100
AcDbEntity
  8
0
100
AcDbSpline
 62
7
  6
CONTINUOUS
 70
0
 71
3
 72
22
 73
18
 74
0
 42
0.0000001
 43
0.0000001
 44
0.0000000001
 40
0.0
 40
0.0
 40
0.0
 40
0.0
 40
0.1643410082
 40
0.2419615004
 40
0.3164745658
 40
0.3878636073
 40
0.4561423181
 40
0.5213536247
 40
0.5835829204
 40
0.6429543764
 40
0.6996413794
 40
0.7538708999
 40
0.8059236916
 40
0.8561423062
 40
0.9049232932
 40
0.9527141853
 40
1.0
 40
1.0
 40
1.0
 40
1.0
 10
4.8171201264
 20
2.8430266638
 30
0.0
 10
4.8124651634
 20
2.845035091
 30
0.0
 10
4.8057064995
 20
2.8482256339
 30
0.0
 10
4.7971510188
 20
2.8529334441
 30
0.0
 10
4.7912600495
 20
2.8565221454
 30
0.0
 10
4.7857862931
 20
2.8602275374
 30
0.0
 10
4.7807420577
 20
2.8640409363
 30
0.0
 10
4.7761394956
 20
2.8679543069
 30
0.0
 10
4.771988949
 20
2.8719583897
 30
0.0
 10
4.7683004301
 20
2.8760446735
 30
0.0
 10
4.7650829521
 20
2.8802042475
 30
0.0
 10
4.7623441178
 20
2.8844277008
 30
0.0
 10
4.7600919421
 20
2.8887062118
 30
0.0
 10
4.7583321582
 20
2.8930295557
 30
0.0
 10
4.7570707501
 20
2.8973879232
 30
0.0
 10
4.7563121695
 20
2.9017694739
 30
0.0
 10
4.7561428571
 20
2.9047052121
 30
0.0
 10
4.7561428571
 20
2.9061639332
 30
0.0
  0
SPLINE
  5
3EB
100
AcDbEntity
  8
0
100
AcDbSpline
 62
7
  6
CONTINUOUS
 70
0
 71
3
 72
9
 73
5
 74
0
 42
0.0000001
 43
0.0000001
 44
0.0000000001
 40
0.0
 40
0.0
 40
0.0
 40
0.0
 40
0.3864466542
 40
1.0
 40
1.0
 40
1.0
 40
1.0
 10
4.5249395986
 20
5.3519413047
 30
0.0
 10
4.5276847412
 20
5.3477440617
 30
0.0
 10
4.5349187269
 20
5.3369680346
 30
0.0
 10
4.54243645
 20
5.3263865564
 30
0.0
 10
4.5471319718
 20
5.3199557698
 30
0.0
  0
SPLINE
  5
3EC
100
AcDbEntity
  8
0
100
AcDbSpline
 62
7
  6
CONTINUOUS
 70
0
 71
3
 72
63
 73
59
 74
0
 42
0.0000001
 43
0.0000001
 44
0.0000000001
 40
0.0
 40
0.0
 40
0.0
 40
0.0
 40
0.0001173623
 40
0.0001890543
 40
0.0002731849
 40
0.0004848079
 40
0.0007601027
 40
0.0011023288
 40
0.0015131447
 40
0.001993433
 40
0.0025436873
 40
0.0038550825
 40
0.0054485463
 40
0.0073243113
 40
0.0094821423
 40
0.0146398919
 40
0.020911574
 40
0.0282845419
 40
0.0367418179
 40
0.0462649938
 40
0.0568320869
 40
0.0684191042
 40
0.0809997486
 40
0.0945448213
 40
0.1090238482
 40
0.1406474618
 40
0.175580377
 40
0.2135018709
 40
0.2540635224
 40
0.2968926439
 40
0.341595554
 40
0.3877613848
 40
0.4349658458
 40
0.4827750441
 40
0.5307495261
 40
0.5784483443
 40
0.6254329477
 40
0.6712715615
 40
0.7155428182
 40
0.7578398822
 40
0.7977740866
 40
0.8349784063
 40
0.8691111172
 40
0.8998586658
 40
0.9269390264
 40
0.9390252293
 40
0.9501041117
 40
0.9601509856
 40
0.9691423421
 40
0.9770584902
 40
0.9838813221
 40
0.9895961676
 40
0.9920344761
 40
0.9941915788
 40
0.9960666643
 40
0.9976594932
 40
0.9989702531
 40
1.0
 40
1.0
 40
1.0
 40
1.0
 10
5.2640427396
 20
5.1428587733
 30
0.0
 10
5.2640427355
 20
5.1428357504
 30
0.0
 10
5.2640287486
 20
5.1427986358
 30
0.0
 10
5.2639943046
 20
5.1427575953
 30
0.0
 10
5.2639396584
 20
5.1427100919
 30
0.0
 10
5.2638424085
 20
5.1426531616
 30
0.0
 10
5.2636928814
 20
5.1425887774
 30
0.0
 10
5.2635015971
 20
5.1425241461
 30
0.0
 10
5.2632684579
 20
5.14245923
 30
0.0
 10
5.2629932461
 20
5.1423941229
 30
0.0
 10
5.2625431871
 20
5.1423016399
 30
0.0
 10
5.2618746706
 20
5.1421888236
 30
0.0
 10
5.2609457889
 20
5.1420592526
 30
0.0
 10
5.2598495563
 20
5.1419292201
 30
0.0
 10
5.2580559696
 20
5.1417442054
 30
0.0
 10
5.2553999293
 20
5.1415188322
 30
0.0
 10
5.2517205199
 20
5.1412599061
 30
0.0
 10
5.2473925395
 20
5.1410000881
 30
0.0
 10
5.2424257902
 20
5.1407394468
 30
0.0
 10
5.2368317153
 20
5.1404783628
 30
0.0
 10
5.2306231043
 20
5.1402169111
 30
0.0
 10
5.2238142424
 20
5.1399552078
 30
0.0
 10
5.2164208062
 20
5.1396933231
 30
0.0
 10
5.2084597251
 20
5.1394312664
 30
0.0
 10
5.1967642408
 20
5.1390710469
 30
0.0
 10
5.1808738139
 20
5.1386251827
 30
0.0
 10
5.1603851007
 20
5.1381036858
 30
0.0
 10
5.1381425182
 20
5.1375815648
 30
0.0
 10
5.1143505626
 20
5.1370589563
 30
0.0
 10
5.08922801
 20
5.136536011
 30
0.0
 10
5.0630058705
 20
5.13601282
 30
0.0
 10
5.0359252647
 20
5.1354894586
 30
0.0
 10
5.0082351934
 20
5.1349659852
 30
0.0
 10
4.9801902601
 20
5.1344424501
 30
0.0
 10
4.9520483329
 20
5.1339188985
 30
0.0
 10
4.924068193
 20
5.1333953747
 30
0.0
 10
4.8965071165
 20
5.1328719245
 30
0.0
 10
4.8696185418
 20
5.1323485997
 30
0.0
 10
4.8436496915
 20
5.1318254626
 30
0.0
 10
4.8188393409
 20
5.1313025904
 30
0.0
 10
4.7954156179
 20
5.1307800916
 30
0.0
 10
4.7735938981
 20
5.1302581
 30
0.0
 10
4.753574847
 20
5.1297368688
 30
0.0
 10
4.735542515
 20
5.1292166046
 30
0.0
 10
4.7218347889
 20
5.1287691466
 30
0.0
 10
4.711984869
 20
5.1284061638
 30
0.0
 10
4.7054749571
 20
5.1281445544
 30
0.0
 10
4.6995726767
 20
5.1278832886
 30
0.0
 10
4.6942914805
 20
5.1276223879
 30
0.0
 10
4.6896435591
 20
5.1273621449
 30
0.0
 10
4.6856395014
 20
5.127102659
 30
0.0
 10
4.6827101933
 20
5.1268774086
 30
0.0
 10
4.680695997
 20
5.1266933847
 30
0.0
 10
4.6794333604
 20
5.1265630062
 30
0.0
 10
4.6783375504
 20
5.126432964
 30
0.0
 10
4.6774089927
 20
5.1263034838
 30
0.0
 10
4.6766481297
 20
5.1261747372
 30
0.0
 10
4.6761988079
 20
5.1260786325
 30
0.0
 10
4.6760032693
 20
5.1260279338
 30
0.0
  0
SPLINE
  5
3ED
100
AcDbEntity
  8
0
100
AcDbSpline
 62
7
  6
CONTINUOUS
 70
0
 71
3
 72
11
 73
7
 74
0
 42
0.0000001
 43
0.0000001
 44
0.0000000001
 40
0.0
 40
0.0
 40
0.0
 40
0.0
 40
0.2491604095
 40
0.4989636135
 40
0.7492854133
 40
1.0
 40
1.0
 40
1.0
 40
1.0
 10
4.6107289983
 20
5.3199557698
 30
0.0
 10
4.6303749494
 20
5.3237206789
 30
0.0
 10
4.6698137678
 20
5.3307692693
 30
0.0
 10
4.7293036773
 20
5.3397439513
 30
0.0
 10
4.7891578263
 20
5.346971993
 30
0.0
 10
4.8292353772
 20
5.3505135528
 30
0.0
 10
4.8493128988
 20
5.3519413047
 30
0.0
  0
SPLINE
  5
3EE
100
AcDbEntity
  8
0
100
AcDbSpline
 62
7
  6
CONTINUOUS
 70
0
 71
3
 72
63
 73
59
 74
0
 42
0.0000001
 43
0.0000001
 44
0.0000000001
 40
0.0
 40
0.0
 40
0.0
 40
0.0
 40
0.0001173818
 40
0.0001891014
 40
0.0002732674
 40
0.0004849671
 40
0.0007603165
 40
0.0011025428
 40
0.0015132815
 40
0.001993453
 40
0.0025436159
 40
0.0038550455
 40
0.005448688
 40
0.0073245447
 40
0.0094822028
 40
0.0146399025
 40
0.0209117669
 40
0.0282844705
 40
0.0367420381
 40
0.0462649266
 40
0.0568322144
 40
0.0684191587
 40
0.0809997781
 40
0.0945450009
 40
0.1090237939
 40
0.1406474303
 40
0.1755804351
 40
0.2135020265
 40
0.2540636863
 40
0.2968927561
 40
0.3415956308
 40
0.3877614351
 40
0.4349659458
 40
0.4827751496
 40
0.5307496593
 40
0.5784484281
 40
0.6254330436
 40
0.6712716831
 40
0.7155430037
 40
0.7578401132
 40
0.797774277
 40
0.834978508
 40
0.8691111329
 40
0.8998587284
 40
0.9269391764
 40
0.939025324
 40
0.9501043956
 40
0.9601510011
 40
0.9691426804
 40
0.9770585321
 40
0.9838815893
 40
0.9895963433
 40
0.9920344957
 40
0.9941916946
 40
0.9960670009
 40
0.9976597894
 40
0.998970348
 40
1.0
 40
1.0
 40
1.0
 40
1.0
 10
5.2640428302
 20
4.4538587732
 30
0.0
 10
5.2640428179
 20
4.4538357466
 30
0.0
 10
5.2640288031
 20
4.4537986304
 30
0.0
 10
5.2639943295
 20
4.4537575951
 30
0.0
 10
5.2639396451
 20
4.4537100939
 30
0.0
 10
5.2638423565
 20
4.4536531674
 30
0.0
 10
5.2636928013
 20
4.453588784
 30
0.0
 10
5.2635015221
 20
4.4535241526
 30
0.0
 10
5.2632684239
 20
4.4534592317
 30
0.0
 10
5.2629932706
 20
4.4533941204
 30
0.0
 10
5.262543248
 20
4.453301629
 30
0.0
 10
5.2618747057
 20
4.4531888199
 30
0.0
 10
5.2609457628
 20
4.4530592571
 30
0.0
 10
5.2598495106
 20
4.4529292297
 30
0.0
 10
5.2580559523
 20
4.452744193
 30
0.0
 10
5.2553999191
 20
4.4525188293
 30
0.0
 10
5.2517205352
 20
4.452259918
 30
0.0
 10
5.2473925157
 20
4.4520000738
 30
0.0
 10
5.2424258166
 20
4.4517394608
 30
0.0
 10
5.2368317045
 20
4.451478352
 30
0.0
 10
5.230623126
 20
4.4512169175
 30
0.0
 10
5.2238142463
 20
4.4509552065
 30
0.0
 10
5.2164208007
 20
4.450693321
 30
0.0
 10
5.2084597417
 20
4.4504312713
 30
0.0
 10
5.1967642711
 20
4.4500710416
 30
0.0
 10
5.1808738697
 20
4.4496251838
 30
0.0
 10
5.1603851178
 20
4.4491036856
 30
0.0
 10
5.1381424996
 20
4.4485815658
 30
0.0
 10
5.1143505363
 20
4.4480589568
 30
0.0
 10
5.0892280021
 20
4.4475360112
 30
0.0
 10
5.063005888
 20
4.44701282
 30
0.0
 10
5.0359252878
 20
4.4464894585
 30
0.0
 10
5.0082352142
 20
4.4459659854
 30
0.0
 10
4.980190268
 20
4.4454424504
 30
0.0
 10
4.9520483473
 20
4.4449188989
 30
0.0
 10
4.9240682126
 20
4.4443953748
 30
0.0
 10
4.8965071417
 20
4.4438719245
 30
0.0
 10
4.8696185502
 20
4.4433485997
 30
0.0
 10
4.8436496766
 20
4.4428254629
 30
0.0
 10
4.8188393154
 20
4.4423025913
 30
0.0
 10
4.7954156116
 20
4.4417800923
 30
0.0
 10
4.7735939367
 20
4.4412581001
 30
0.0
 10
4.7535749131
 20
4.4407368687
 30
0.0
 10
4.7355425738
 20
4.4402166025
 30
0.0
 10
4.7218348335
 20
4.4397691517
 30
0.0
 10
4.7119848718
 20
4.4394061587
 30
0.0
 10
4.7054749865
 20
4.4391445646
 30
0.0
 10
4.69957266
 20
4.4388832751
 30
0.0
 10
4.6942915105
 20
4.4386224037
 30
0.0
 10
4.6896435418
 20
4.438362132
 30
0.0
 10
4.6856395153
 20
4.4381026656
 30
0.0
 10
4.6827102117
 20
4.4378774169
 30
0.0
 10
4.6806960469
 20
4.4376933776
 30
0.0
 10
4.6794333788
 20
4.4375629999
 30
0.0
 10
4.6783375122
 20
4.4374329746
 30
0.0
 10
4.6774089588
 20
4.4373034932
 30
0.0
 10
4.6766481641
 20
4.437174736
 30
0.0
 10
4.6761989037
 20
4.4370786253
 30
0.0
 10
4.6760033825
 20
4.4370279338
 30
0.0
  0
SPLINE
  5
3EF
100
AcDbEntity
  8
0
100
AcDbSpline
 62
7
  6
CONTINUOUS
 70
0
 71
3
 72
29
 73
25
 74
0
 42
0.0000001
 43
0.0000001
 44
0.0000000001
 40
0.0
 40
0.0
 40
0.0
 40
0.0
 40
0.1249158786
 40
0.1874078023
 40
0.2186615484
 40
0.2499193036
 40
0.3124359343
 40
0.3436916117
 40
0.3749456926
 40
0.406201004
 40
0.4374621501
 40
0.4687292275
 40
0.4999994717
 40
0.5312700319
 40
0.5625379995
 40
0.5938004183
 40
0.6250564019
 40
0.6563103336
 40
0.6875653509
 40
0.7500802909
 40
0.7813375708
 40
0.8125912139
 40
0.8750833796
 40
1.0
 40
1.0
 40
1.0
 40
1.0
 10
4.8493128988
 20
5.3519413047
 30
0.0
 10
4.8593398162
 20
5.3526543727
 30
0.0
 10
4.8743605936
 20
5.3540287143
 30
0.0
 10
4.8918677598
 20
5.3557921734
 30
0.0
 10
4.9018771734
 20
5.3567930729
 30
0.0
 10
4.9118907103
 20
5.3577717251
 30
0.0
 10
4.9219110012
 20
5.3586845847
 30
0.0
 10
4.9319418335
 20
5.3594668854
 30
0.0
 10
4.9394705539
 20
5.3599719808
 30
0.0
 10
4.9470057016
 20
5.3603796299
 30
0.0
 10
4.9545473008
 20
5.3606720708
 30
0.0
 10
4.9620937437
 20
5.3608466237
 30
0.0
 10
4.9696427388
 20
5.3609043728
 30
0.0
 10
4.9771917956
 20
5.3608453956
 30
0.0
 10
4.9847384146
 20
5.3606701201
 30
0.0
 10
4.9922802707
 20
5.3603785634
 30
0.0
 10
4.9998156225
 20
5.3599719747
 30
0.0
 10
5.0073443692
 20
5.3594674086
 30
0.0
 10
5.0173750267
 20
5.3586854432
 30
0.0
 10
5.0273950743
 20
5.3577723811
 30
0.0
 10
5.0374083705
 20
5.3567931459
 30
0.0
 10
5.0474177047
 20
5.3557917266
 30
0.0
 10
5.0649249367
 20
5.3540281982
 30
0.0
 10
5.0799458364
 20
5.3526543469
 30
0.0
 10
5.0899728155
 20
5.3519413047
 30
0.0
  0
SPLINE
  5
3F0
100
AcDbEntity
  8
0
100
AcDbSpline
 62
7
  6
CONTINUOUS
 70
0
 71
3
 72
11
 73
7
 74
0
 42
0.0000001
 43
0.0000001
 44
0.0000000001
 40
0.0
 40
0.0
 40
0.0
 40
0.0
 40
0.2507145843
 40
0.5010363857
 40
0.7508395921
 40
1.0
 40
1.0
 40
1.0
 40
1.0
 10
5.0899728155
 20
5.3519413047
 30
0.0
 10
5.110050337
 20
5.3505135544
 30
0.0
 10
5.150127888
 20
5.3469719952
 30
0.0
 10
5.2099820369
 20
5.3397439526
 30
0.0
 10
5.2694719462
 20
5.3307692675
 30
0.0
 10
5.3089107645
 20
5.3237206762
 30
0.0
 10
5.3285567159
 20
5.3199557698
 30
0.0
  0
SPLINE
  5
3F1
100
AcDbEntity
  8
0
100
AcDbSpline
 62
7
  6
CONTINUOUS
 70
0
 71
3
 72
63
 73
59
 74
0
 42
0.0000001
 43
0.0000001
 44
0.0000000001
 40
0.0
 40
0.0
 40
0.0
 40
0.0
 40
0.0001173806
 40
0.0001891017
 40
0.0002732711
 40
0.0004849822
 40
0.0007603459
 40
0.0011025851
 40
0.0015133309
 40
0.0019934994
 40
0.0025436448
 40
0.0038550405
 40
0.0054486951
 40
0.0073245792
 40
0.0094822478
 40
0.0146398999
 40
0.0209118106
 40
0.0282844781
 40
0.0367420742
 40
0.0462649614
 40
0.0568322269
 40
0.0684191967
 40
0.080999789
 40
0.0945450591
 40
0.1090238193
 40
0.1406474441
 40
0.1755805035
 40
0.2135020447
 40
0.2540637314
 40
0.2968927866
 40
0.341595637
 40
0.3877614932
 40
0.4349659419
 40
0.482775205
 40
0.5307496728
 40
0.5784484505
 40
0.62543308
 40
0.6712716955
 40
0.7155430358
 40
0.7578401358
 40
0.797774278
 40
0.8349785268
 40
0.8691111323
 40
0.8998587297
 40
0.9269391894
 40
0.9390253117
 40
0.9501043783
 40
0.9601509938
 40
0.9691426859
 40
0.977058532
 40
0.9838815714
 40
0.9895963189
 40
0.9920344738
 40
0.9941916776
 40
0.9960669894
 40
0.997659784
 40
0.9989703475
 40
1.0
 40
1.0
 40
1.0
 40
1.0
 10
5.2640428428
 20
5.1773087732
 30
0.0
 10
5.2640428327
 20
5.1772857468
 30
0.0
 10
5.2640288181
 20
5.1772486294
 30
0.0
 10
5.2639943427
 20
5.1772075948
 30
0.0
 10
5.2639396542
 20
5.1771600934
 30
0.0
 10
5.2638423588
 20
5.1771031674
 30
0.0
 10
5.2636927952
 20
5.1770387843
 30
0.0
 10
5.2635015089
 20
5.176974153
 30
0.0
 10
5.2632684072
 20
5.1769092321
 30
0.0
 10
5.2629932566
 20
5.1768441209
 30
0.0
 10
5.2625432453
 20
5.1767516279
 30
0.0
 10
5.261874711
 20
5.176638817
 30
0.0
 10
5.2609457666
 20
5.1765092565
 30
0.0
 10
5.2598495044
 20
5.17637923
 30
0.0
 10
5.2580559478
 20
5.1761941946
 30
0.0
 10
5.2553999132
 20
5.1759688258
 30
0.0
 10
5.251720536
 20
5.1757099207
 30
0.0
 10
5.247392509
 20
5.1754500715
 30
0.0
 10
5.2424258113
 20
5.1751894613
 30
0.0
 10
5.2368316981
 20
5.1749283518
 30
0.0
 10
5.230623119
 20
5.1746669165
 30
0.0
 10
5.2238142436
 20
5.1744052074
 30
0.0
 10
5.2164207889
 20
5.1741433196
 30
0.0
 10
5.208459732
 20
5.1738812719
 30
0.0
 10
5.1967642604
 20
5.1735210402
 30
0.0
 10
5.1808738563
 20
5.1730751839
 30
0.0
 10
5.1603851051
 20
5.1725536855
 30
0.0
 10
5.1381424798
 20
5.1720315654
 30
0.0
 10
5.114350523
 20
5.1715089567
 30
0.0
 10
5.0892279902
 20
5.1709860108
 30
0.0
 10
5.0630058725
 20
5.1704628197
 30
0.0
 10
5.035925278
 20
5.1699394583
 30
0.0
 10
5.0082351937
 20
5.169415985
 30
0.0
 10
4.9801902551
 20
5.1688924502
 30
0.0
 10
4.9520483282
 20
5.1683688985
 30
0.0
 10
4.9240681961
 20
5.1678453744
 30
0.0
 10
4.8965071243
 20
5.1673219242
 30
0.0
 10
4.8696185298
 20
5.1667985994
 30
0.0
 10
4.8436496579
 20
5.1662754625
 30
0.0
 10
4.818839298
 20
5.1657525909
 30
0.0
 10
4.7954155959
 20
5.165230092
 30
0.0
 10
4.7735939247
 20
5.1647080997
 30
0.0
 10
4.7535749002
 20
5.1641868685
 30
0.0
 10
4.7355425614
 20
5.1636666019
 30
0.0
 10
4.7218348228
 20
5.1632191516
 30
0.0
 10
4.7119848644
 20
5.1628561585
 30
0.0
 10
4.7054749828
 20
5.1625945644
 30
0.0
 10
4.6995726526
 20
5.1623332745
 30
0.0
 10
4.6942914995
 20
5.1620724031
 30
0.0
 10
4.6896435326
 20
5.1618121319
 30
0.0
 10
4.6856395119
 20
5.1615526656
 30
0.0
 10
4.6827102125
 20
5.1613274166
 30
0.0
 10
4.6806960474
 20
5.161143377
 30
0.0
 10
4.6794333767
 20
5.1610129992
 30
0.0
 10
4.6783375069
 20
5.1608829738
 30
0.0
 10
4.6774089501
 20
5.1607534926
 30
0.0
 10
4.6766481531
 20
5.1606247358
 30
0.0
 10
4.6761988915
 20
5.1605286254
 30
0.0
 10
4.6760033702
 20
5.1604779338
 30
0.0
  0
SPLINE
  5
3F2
100
AcDbEntity
  8
0
100
AcDbSpline
 62
7
  6
CONTINUOUS
 70
0
 71
3
 72
9
 73
5
 74
0
 42
0.0000001
 43
0.0000001
 44
0.0000000001
 40
0.0
 40
0.0
 40
0.0
 40
0.0
 40
0.613553086
 40
1.0
 40
1.0
 40
1.0
 40
1.0
 10
5.3921538695
 20
5.3199559437
 30
0.0
 10
5.3968493602
 20
5.3263866944
 30
0.0
 10
5.4043670491
 20
5.336968109
 30
0.0
 10
5.4116009822
 20
5.3477440849
 30
0.0
 10
5.4143461157
 20
5.3519413047
 30
0.0
  0
SPLINE
  5
3F3
100
AcDbEntity
  8
0
100
AcDbSpline
 62
7
  6
CONTINUOUS
 70
0
 71
3
 72
30
 73
26
 74
0
 42
0.0000001
 43
0.0000001
 44
0.0000000001
 40
0.0
 40
0.0
 40
0.0
 40
0.0
 40
0.0702278083
 40
0.145155673
 40
0.3052410506
 40
0.3882272792
 40
0.4715690864
 40
0.5539568008
 40
0.6338572417
 40
0.7096739815
 40
0.7797931861
 40
0.8425882769
 40
0.8707301682
 40
0.8964672965
 40
0.9196673958
 40
0.9401993643
 40
0.9579319391
 40
0.9727337099
 40
0.9844731301
 40
0.9891533173
 40
0.9930185301
 40
0.9960522914
 40
0.9982381176
 40
0.9995595187
 40
1.0
 40
1.0
 40
1.0
 40
1.0
 10
5.4143461157
 20
5.3519413047
 30
0.0
 10
5.4144671374
 20
5.3521263571
 30
0.0
 10
5.4146989995
 20
5.3525209218
 30
0.0
 10
5.4151263285
 20
5.3533823051
 30
0.0
 10
5.415495779
 20
5.3543146945
 30
0.0
 10
5.4158238758
 20
5.3552886443
 30
0.0
 10
5.4160512325
 20
5.3560381369
 30
0.0
 10
5.4162568759
 20
5.3567837224
 30
0.0
 10
5.4164409873
 20
5.357510486
 30
0.0
 10
5.4166035339
 20
5.3582027338
 30
0.0
 10
5.4167444627
 20
5.358844655
 30
0.0
 10
5.4168472913
 20
5.3593412151
 30
0.0
 10
5.4169191967
 20
5.3597014586
 30
0.0
 10
5.4169657152
 20
5.359939642
 30
0.0
 10
5.4170067794
 20
5.36015448
 30
0.0
 10
5.417042385
 20
5.360344689
 30
0.0
 10
5.4170725255
 20
5.3605090552
 30
0.0
 10
5.4170971916
 20
5.3606461734
 30
0.0
 10
5.4171142695
 20
5.360743163
 30
0.0
 10
5.417125199
 20
5.3608058022
 30
0.0
 10
5.417131396
 20
5.3608423382
 30
0.0
 10
5.4171361824
 20
5.3608689452
 30
0.0
 10
5.4171396823
 20
5.3608928851
 30
0.0
 10
5.417141636
 20
5.3608987144
 30
0.0
 10
5.4171426672
 20
5.3609108585
 30
0.0
 10
5.4171428571
 20
5.3609094848
 30
0.0
  0
SPLINE
  5
3F4
100
AcDbEntity
  8
0
100
AcDbSpline
 62
7
  6
CONTINUOUS
 70
0
 71
3
 72
23
 73
19
 74
0
 42
0.0000001
 43
0.0000001
 44
0.0000000001
 40
0.0
 40
0.0
 40
0.0
 40
0.0
 40
0.0216665118
 40
0.0437948284
 40
0.0897116347
 40
0.1382352329
 40
0.1896351682
 40
0.2440293451
 40
0.301419099
 40
0.3617190357
 40
0.424780655
 40
0.4904083172
 40
0.5583724427
 40
0.6284199454
 40
0.7002788473
 40
0.773661202
 40
0.8482767327
 40
1.0
 40
1.0
 40
1.0
 40
1.0
 10
5.1221428303
 20
3.4324565041
 30
0.0
 10
5.1221428531
 20
3.4342112099
 30
0.0
 10
5.1220092887
 20
3.4377592796
 30
0.0
 10
5.1212280659
 20
3.44498736
 30
0.0
 10
5.1192867516
 20
3.4542525662
 30
0.0
 10
5.1155954192
 20
3.4654921432
 30
0.0
 10
5.1106082994
 20
3.4769681555
 30
0.0
 10
5.104418375
 20
3.4886567921
 30
0.0
 10
5.0971179314
 20
3.5005374566
 30
0.0
 10
5.0887995546
 20
3.51258969
 30
0.0
 10
5.0795561685
 20
3.5247941353
 30
0.0
 10
5.0694807123
 20
3.5371321825
 30
0.0
 10
5.0586662552
 20
3.5495863325
 30
0.0
 10
5.0472056671
 20
3.5621399681
 30
0.0
 10
5.035191725
 20
3.5747771298
 30
0.0
 10
5.0227169117
 20
3.5874829357
 30
0.0
 10
5.0054963896
 20
3.6045908096
 30
0.0
 10
4.9923167368
 20
3.6173316107
 30
0.0
 10
4.9834575082
 20
3.6258462733
 30
0.0
  0
SPLINE
  5
3F5
100
AcDbEntity
  8
0
100
AcDbSpline
 62
7
  6
CONTINUOUS
 70
0
 71
3
 72
39
 73
35
 74
0
 42
0.0000001
 43
0.0000001
 44
0.0000000001
 40
0.0
 40
0.0
 40
0.0
 40
0.0
 40
0.000522443
 40
0.0007225193
 40
0.0009552567
 40
0.0015233136
 40
0.0022329777
 40
0.0030871452
 40
0.0040873247
 40
0.0052343691
 40
0.0079707117
 40
0.0112981435
 40
0.0152168847
 40
0.0197258015
 40
0.0305042131
 40
0.0436114798
 40
0.0590180463
 40
0.0766875226
 40
0.0965788924
 40
0.1186437664
 40
0.1428305587
 40
0.1690801068
 40
0.1973305283
 40
0.2275130044
 40
0.2595556403
 40
0.2933809986
 40
0.3660507836
 40
0.4448230863
 40
0.5289400226
 40
0.6175916474
 40
0.7099254491
 40
0.8050502783
 40
0.9020555645
 40
1.0
 40
1.0
 40
1.0
 40
1.0
 10
5.2843927457
 20
5.2064959054
 30
0.0
 10
5.2843927457
 20
5.2064410443
 30
0.0
 10
5.2843258068
 20
5.2063766483
 30
0.0
 10
5.2842424883
 20
5.2063254401
 30
0.0
 10
5.2841481926
 20
5.206277216
 30
0.0
 10
5.2840005655
 20
5.2062195721
 30
0.0
 10
5.2837864475
 20
5.2061533115
 30
0.0
 10
5.2835254705
 20
5.2060869724
 30
0.0
 10
5.283217356
 20
5.2060203355
 30
0.0
 10
5.2827133083
 20
5.2059256762
 30
0.0
 10
5.2819647851
 20
5.205810219
 30
0.0
 10
5.2809248897
 20
5.2056776307
 30
0.0
 10
5.2796976324
 20
5.2055445709
 30
0.0
 10
5.2776896864
 20
5.2053552268
 30
0.0
 10
5.2747167595
 20
5.2051245724
 30
0.0
 10
5.2705991795
 20
5.2048596199
 30
0.0
 10
5.265756757
 20
5.204593711
 30
0.0
 10
5.2602010753
 20
5.2043269816
 30
0.0
 10
5.253945523
 20
5.204059791
 30
0.0
 10
5.2470050548
 20
5.203792215
 30
0.0
 10
5.2393964808
 20
5.2035244032
 30
0.0
 10
5.2311380088
 20
5.2032563734
 30
0.0
 10
5.2222496346
 20
5.2029882094
 30
0.0
 10
5.2127526806
 20
5.2027199149
 30
0.0
 10
5.2026700921
 20
5.2024515273
 30
0.0
 10
5.1881270101
 20
5.2020847499
 30
0.0
 10
5.1686775781
 20
5.201629873
 30
0.0
 10
5.1439475424
 20
5.201095548
 30
0.0
 10
5.1175389158
 20
5.2005607712
 30
0.0
 10
5.0897059434
 20
5.200025641
 30
0.0
 10
5.0607168449
 20
5.1994902735
 30
0.0
 10
5.0308503964
 20
5.1989547336
 30
0.0
 10
5.0003946908
 20
5.1984190941
 30
0.0
 10
4.9799263364
 20
5.1980625418
 30
0.0
 10
4.9696428571
 20
5.1978834055
 30
0.0
  0
SPLINE
  5
3F6
100
AcDbEntity
  8
0
100
AcDbSpline
 62
7
  6
CONTINUOUS
 70
0
 71
3
 72
50
 73
46
 74
0
 42
0.0000001
 43
0.0000001
 44
0.0000000001
 40
0.0
 40
0.0
 40
0.0
 40
0.0
 40
0.0009936716
 40
0.0022504921
 40
0.0037715941
 40
0.0055573134
 40
0.0076074068
 40
0.0099209932
 40
0.0153342763
 40
0.021787621
 40
0.0292676508
 40
0.0377588509
 40
0.0472436375
 40
0.0577013442
 40
0.0691103138
 40
0.0946812278
 40
0.1237376602
 40
0.156030579
 40
0.1912829932
 40
0.2291922373
 40
0.2694328813
 40
0.3116594589
 40
0.3555093873
 40
0.4006061458
 40
0.4929835065
 40
0.5856248914
 40
0.6753547195
 40
0.7181597161
 40
0.7590971109
 40
0.7978153875
 40
0.8339821807
 40
0.86728711
 40
0.8974442807
 40
0.9241951327
 40
0.9473105844
 40
0.9574422736
 40
0.9665934113
 40
0.9747451869
 40
0.9818798205
 40
0.9879832042
 40
0.9930433048
 40
0.9951789993
 40
0.9970506805
 40
0.9986577693
 40
1.0
 40
1.0
 40
1.0
 40
1.0
 10
5.2632823983
 20
5.2246146127
 30
0.0
 10
5.263094252
 20
5.224565836
 30
0.0
 10
5.2626636057
 20
5.2244730757
 30
0.0
 10
5.2619363765
 20
5.2243485166
 30
0.0
 10
5.2610524303
 20
5.2242232848
 30
0.0
 10
5.2600121226
 20
5.2240975494
 30
0.0
 10
5.2588158598
 20
5.2239715036
 30
0.0
 10
5.2569116974
 20
5.2237937029
 30
0.0
 10
5.2541464202
 20
5.2235759758
 30
0.0
 10
5.2503704089
 20
5.2233251155
 30
0.0
 10
5.2459912482
 20
5.2230735128
 30
0.0
 10
5.2410183153
 20
5.2228213084
 30
0.0
 10
5.2354622898
 20
5.2225687459
 30
0.0
 10
5.2293350223
 20
5.2223158592
 30
0.0
 10
5.2200626662
 20
5.2219649465
 30
0.0
 10
5.2071528936
 20
5.2215323075
 30
0.0
 10
5.1901583618
 20
5.2210293365
 30
0.0
 10
5.1712693746
 20
5.2205254369
 30
0.0
 10
5.1506482054
 20
5.2200208055
 30
0.0
 10
5.1284720121
 20
5.2195156821
 30
0.0
 10
5.1049313226
 20
5.2190101944
 30
0.0
 10
5.0802283639
 20
5.2185044461
 30
0.0
 10
5.0545753436
 20
5.2179985031
 30
0.0
 10
5.0191141671
 20
5.2173183141
 30
0.0
 10
4.9741104913
 20
5.2164790459
 30
0.0
 10
4.9203778836
 20
5.2154795809
 30
0.0
 10
4.8763406197
 20
5.2146350034
 30
0.0
 10
4.8424156856
 20
5.213949802
 30
0.0
 10
4.8184672285
 20
5.2134442083
 30
0.0
 10
4.795817526
 20
5.2129389518
 30
0.0
 10
4.7746611465
 20
5.2124341445
 30
0.0
 10
4.7551798497
 20
5.2119299516
 30
0.0
 10
4.7375409888
 20
5.2114267031
 30
0.0
 10
4.7218960998
 20
5.2109246441
 30
0.0
 10
4.710168179
 20
5.2104912166
 30
0.0
 10
4.7018823917
 20
5.2101384863
 30
0.0
 10
4.6965219953
 20
5.2098859926
 30
0.0
 10
4.6917485328
 20
5.2096339763
 30
0.0
 10
4.6875721052
 20
5.2093826307
 30
0.0
 10
4.6840016394
 20
5.2091321191
 30
0.0
 10
4.6814092411
 20
5.2089142902
 30
0.0
 10
4.6796445661
 20
5.2087358347
 30
0.0
 10
4.6785535384
 20
5.2086099703
 30
0.0
 10
4.6776188563
 20
5.2084845398
 30
0.0
 10
4.677049103
 20
5.2083932476
 30
0.0
 10
4.6767907938
 20
5.2083462733
 30
0.0
  0
SPLINE
  5
3F7
100
AcDbEntity
  8
0
100
AcDbSpline
 62
7
  6
CONTINUOUS
 70
0
 71
3
 72
29
 73
25
 74
0
 42
0.0000001
 43
0.0000001
 44
0.0000000001
 40
0.0
 40
0.0
 40
0.0
 40
0.0
 40
0.0019769102
 40
0.0044705896
 40
0.0074834886
 40
0.0110165057
 40
0.0196405271
 40
0.0303314889
 40
0.0430737896
 40
0.0578454208
 40
0.074620125
 40
0.0933690811
 40
0.1140573392
 40
0.136648476
 40
0.1873708932
 40
0.2451685076
 40
0.3096207383
 40
0.3802580793
 40
0.4565661691
 40
0.5379891
 40
0.6239334775
 40
0.7137739673
 40
0.8068507581
 40
1.0
 40
1.0
 40
1.0
 40
1.0
 10
5.2836811965
 20
5.0921028844
 30
0.0
 10
5.2835081529
 20
5.0920580371
 30
0.0
 10
5.283112736
 20
5.0919726319
 30
0.0
 10
5.2824457792
 20
5.0918578368
 30
0.0
 10
5.2816364727
 20
5.0917424129
 30
0.0
 10
5.2802747244
 20
5.0915767295
 30
0.0
 10
5.2782182421
 20
5.0913759879
 30
0.0
 10
5.2753285618
 20
5.0911459342
 30
0.0
 10
5.2718815688
 20
5.09091493
 30
0.0
 10
5.2678834843
 20
5.0906830641
 30
0.0
 10
5.263341481
 20
5.0904507033
 30
0.0
 10
5.2582638709
 20
5.0902180022
 30
0.0
 10
5.2526598305
 20
5.0899850098
 30
0.0
 10
5.2441659313
 20
5.0896614939
 30
0.0
 10
5.2323169588
 20
5.0892626064
 30
0.0
 10
5.2166829126
 20
5.0887991009
 30
0.0
 10
5.1992473926
 20
5.0883347393
 30
0.0
 10
5.1801375603
 20
5.0878696965
 30
0.0
 10
5.1594927585
 20
5.087404194
 30
0.0
 10
5.1374635099
 20
5.0869383465
 30
0.0
 10
5.1142103518
 20
5.0864722465
 30
0.0
 10
5.0899032045
 20
5.0860059564
 30
0.0
 10
5.0559034951
 20
5.0853762849
 30
0.0
 10
5.0300258038
 20
5.0849162061
 30
0.0
 10
5.0125631256
 20
5.0846091411
 30
0.0
  0
SPLINE
  5
3F8
100
AcDbEntity
  8
0
100
AcDbSpline
 62
7
  6
CONTINUOUS
 70
0
 71
3
 72
29
 73
25
 74
0
 42
0.0000001
 43
0.0000001
 44
0.0000000001
 40
0.0
 40
0.0
 40
0.0
 40
0.0
 40
0.0020874097
 40
0.0046882776
 40
0.0078046598
 40
0.0114368416
 40
0.0202461931
 40
0.0311079935
 40
0.0440045683
 40
0.0589143317
 40
0.0758124152
 40
0.0946676254
 40
0.1154474354
 40
0.1381143866
 40
0.1889423728
 40
0.2467854967
 40
0.3112265954
 40
0.3817995948
 40
0.4579938287
 40
0.539257687
 40
0.6250035455
 40
0.7146116075
 40
0.8074276186
 40
1.0
 40
1.0
 40
1.0
 40
1.0
 10
5.2632823909
 20
5.0868146128
 30
0.0
 10
5.2631115473
 20
5.0867703082
 30
0.0
 10
5.2627240757
 20
5.0866854498
 30
0.0
 10
5.2620741227
 20
5.0865708594
 30
0.0
 10
5.2612919503
 20
5.0864557051
 30
0.0
 10
5.2599868061
 20
5.0862908553
 30
0.0
 10
5.2580264108
 20
5.0860907416
 30
0.0
 10
5.2552822424
 20
5.0858613427
 30
0.0
 10
5.2520208201
 20
5.0856309882
 30
0.0
 10
5.2482480061
 20
5.0853998281
 30
0.0
 10
5.2439705748
 20
5.0851682282
 30
0.0
 10
5.2391961954
 20
5.0849362584
 30
0.0
 10
5.2339335395
 20
5.0847040431
 30
0.0
 10
5.2259689167
 20
5.0843817367
 30
0.0
 10
5.2148710679
 20
5.0839842538
 30
0.0
 10
5.2002413333
 20
5.0835222475
 30
0.0
 10
5.1839413984
 20
5.0830594102
 30
0.0
 10
5.166089294
 20
5.0825959092
 30
0.0
 10
5.1468143607
 20
5.0821319572
 30
0.0
 10
5.1262561928
 20
5.0816676655
 30
0.0
 10
5.1045635909
 20
5.0812031263
 30
0.0
 10
5.0818940211
 20
5.0807384026
 30
0.0
 10
5.0501934927
 20
5.0801108881
 30
0.0
 10
5.0260676599
 20
5.0796523209
 30
0.0
 10
5.0097881377
 20
5.0793462733
 30
0.0
  0
SPLINE
  5
3F9
100
AcDbEntity
  8
0
100
AcDbSpline
 62
7
  6
CONTINUOUS
 70
0
 71
3
 72
61
 73
57
 74
0
 42
0.0000001
 43
0.0000001
 44
0.0000000001
 40
0.0
 40
0.0
 40
0.0
 40
0.0
 40
0.0001162361
 40
0.0001870274
 40
0.0002699629
 40
0.0004782435
 40
0.0007488856
 40
0.0010851387
 40
0.0014886506
 40
0.0019602956
 40
0.0025005731
 40
0.0037880397
 40
0.0053523179
 40
0.0071936924
 40
0.0093119497
 40
0.0143751141
 40
0.0205321561
 40
0.0277708977
 40
0.0360750272
 40
0.0454268963
 40
0.0558052693
 40
0.0671871697
 40
0.0795471811
 40
0.0928572727
 40
0.1070880464
 40
0.1381804149
 40
0.1725446476
 40
0.209871513
 40
0.2498249053
 40
0.2920450315
 40
0.3361515363
 40
0.3817470902
 40
0.4284209773
 40
0.4757527174
 40
0.5233159004
 40
0.5706820603
 40
0.6174243625
 40
0.6631217976
 40
0.7073626378
 40
0.7497484154
 40
0.7898973792
 40
0.82744787
 40
0.8620618231
 40
0.8934275397
 40
0.9212629762
 40
0.9453180249
 40
0.9558593365
 40
0.9653772238
 40
0.973851099
 40
0.9812617144
 40
0.987593402
 40
0.9928331843
 40
0.9950401736
 40
0.9969706729
 40
0.998624048
 40
1.0
 40
1.0
 40
1.0
 40
1.0
 10
5.2640427426
 20
5.2117587733
 30
0.0
 10
5.2640427406
 20
5.2117360026
 30
0.0
 10
5.2640290872
 20
5.2116993164
 30
0.0
 10
5.2639953058
 20
5.2116586313
 30
0.0
 10
5.2639417806
 20
5.2116116242
 30
0.0
 10
5.263846477
 20
5.2115552473
 30
0.0
 10
5.2636998997
 20
5.2114914954
 30
0.0
 10
5.2635124006
 20
5.2114275028
 30
0.0
 10
5.2632838834
 20
5.2113632332
 30
0.0
 10
5.2630141355
 20
5.2112987745
 30
0.0
 10
5.2625730383
 20
5.2112072185
 30
0.0
 10
5.2619178077
 20
5.2110955281
 30
0.0
 10
5.2610073505
 20
5.2109672503
 30
0.0
 10
5.2599328345
 20
5.2108385176
 30
0.0
 10
5.2581747326
 20
5.2106553532
 30
0.0
 10
5.2555710783
 20
5.210432225
 30
0.0
 10
5.2519639961
 20
5.2101758886
 30
0.0
 10
5.247720701
 20
5.2099186654
 30
0.0
 10
5.2428506105
 20
5.2096606279
 30
0.0
 10
5.2373647266
 20
5.2094021545
 30
0.0
 10
5.2312753276
 20
5.2091433135
 30
0.0
 10
5.2245961609
 20
5.2088842275
 30
0.0
 10
5.2173422816
 20
5.2086249581
 30
0.0
 10
5.2095299837
 20
5.2083655212
 30
0.0
 10
5.1980492417
 20
5.2080088564
 30
0.0
 10
5.1824446678
 20
5.2075673897
 30
0.0
 10
5.1623159512
 20
5.2070510875
 30
0.0
 10
5.1404508492
 20
5.2065341663
 30
0.0
 10
5.1170463885
 20
5.2060167607
 30
0.0
 10
5.0923134962
 20
5.2054990194
 30
0.0
 10
5.0664750771
 20
5.2049810323
 30
0.0
 10
5.0397639995
 20
5.2044628732
 30
0.0
 10
5.0124209838
 20
5.2039445992
 30
0.0
 10
4.9846924421
 20
5.203426259
 30
0.0
 10
4.9568282609
 20
5.2029078962
 30
0.0
 10
4.9290795704
 20
5.2023895529
 30
0.0
 10
4.9016964437
 20
5.2018712719
 30
0.0
 10
4.8749256777
 20
5.2013531015
 30
0.0
 10
4.8490085172
 20
5.2008350982
 30
0.0
 10
4.8241785243
 20
5.2003173331
 30
0.0
 10
4.8006594646
 20
5.1997998979
 30
0.0
 10
4.778663287
 20
5.1992829263
 30
0.0
 10
4.7583882454
 20
5.1987665851
 30
0.0
 10
4.7400170269
 20
5.1982512178
 30
0.0
 10
4.7237151739
 20
5.197737081
 30
0.0
 10
4.7114927327
 20
5.1972932269
 30
0.0
 10
4.7028582671
 20
5.1969319524
 30
0.0
 10
4.6972745873
 20
5.1966733677
 30
0.0
 10
4.6923049183
 20
5.1964152734
 30
0.0
 10
4.6879603197
 20
5.1961578928
 30
0.0
 10
4.6842505194
 20
5.195901377
 30
0.0
 10
4.6815603814
 20
5.1956782742
 30
0.0
 10
4.6797324529
 20
5.1954953963
 30
0.0
 10
4.6786053091
 20
5.1953665211
 30
0.0
 10
4.6776421435
 20
5.1952381094
 30
0.0
 10
4.6770559939
 20
5.1951445007
 30
0.0
 10
4.6767907938
 20
5.1950962733
 30
0.0
  0
SPLINE
  5
3FA
100
AcDbEntity
  8
0
100
AcDbSpline
 62
7
  6
CONTINUOUS
 70
0
 71
3
 72
30
 73
26
 74
0
 42
0.0000001
 43
0.0000001
 44
0.0000000001
 40
0.0
 40
0.0
 40
0.0
 40
0.0
 40
0.0019021903
 40
0.0043447475
 40
0.0073299531
 40
0.0108583803
 40
0.014929612
 40
0.0195418927
 40
0.0303802902
 40
0.0433534612
 40
0.0584337768
 40
0.0755889484
 40
0.0947822445
 40
0.1159709009
 40
0.1391096291
 40
0.191027313
 40
0.2500787814
 40
0.3157440536
 40
0.3874445852
 40
0.4645480689
 40
0.5463747527
 40
0.6322024829
 40
0.7212754576
 40
0.8128047113
 40
1.0
 40
1.0
 40
1.0
 40
1.0
 10
5.2836812406
 20
5.1265528844
 30
0.0
 10
5.2834883896
 20
5.1265029032
 30
0.0
 10
5.2830428542
 20
5.1264085756
 30
0.0
 10
5.282285494
 20
5.1262826055
 30
0.0
 10
5.281355965
 20
5.1261558694
 30
0.0
 10
5.2802546697
 20
5.1260285411
 30
0.0
 10
5.2789820219
 20
5.1259008688
 30
0.0
 10
5.2769453706
 20
5.1257204631
 30
0.0
 10
5.2739765098
 20
5.1254997705
 30
0.0
 10
5.2699111202
 20
5.1252456593
 30
0.0
 10
5.265183091
 20
5.1249907609
 30
0.0
 10
5.2598028279
 20
5.1247352209
 30
0.0
 10
5.2537821967
 20
5.1244792993
 30
0.0
 10
5.2471343948
 20
5.1242230407
 30
0.0
 10
5.2370606046
 20
5.1238672978
 30
0.0
 10
5.2230218464
 20
5.1234288228
 30
0.0
 10
5.2045293507
 20
5.1229191752
 30
0.0
 10
5.1839642554
 20
5.1224085657
 30
0.0
 10
5.1615080069
 20
5.1218971995
 30
0.0
 10
5.1373587282
 20
5.1213853272
 30
0.0
 10
5.1117295599
 20
5.1208730818
 30
0.0
 10
5.0848465565
 20
5.1203605675
 30
0.0
 10
5.0569471986
 20
5.1198478617
 30
0.0
 10
5.0184327411
 20
5.1191589412
 30
0.0
 10
4.9892454481
 20
5.1186506147
 30
0.0
 10
4.9696428571
 20
5.1183091411
 30
0.0
  0
SPLINE
  5
3FB
100
AcDbEntity
  8
0
100
AcDbSpline
 62
7
  6
CONTINUOUS
 70
0
 71
3
 72
63
 73
59
 74
0
 42
0.0000001
 43
0.0000001
 44
0.0000000001
 40
0.0
 40
0.0
 40
0.0
 40
0.0
 40
0.001029616
 40
0.002340166
 40
0.0039330086
 40
0.0058083353
 40
0.0079655049
 40
0.0104036228
 40
0.0161184338
 40
0.0229414428
 40
0.0308572977
 40
0.0398490044
 40
0.0498955659
 40
0.0609746949
 40
0.0730607659
 40
0.1001412487
 40
0.1308888566
 40
0.1650214847
 40
0.2022257334
 40
0.2421598371
 40
0.2844569636
 40
0.3287282646
 40
0.374566927
 40
0.4215515511
 40
0.469250311
 40
0.5172248206
 40
0.5650340179
 40
0.6122385386
 40
0.6584043552
 40
0.7031072213
 40
0.7459362725
 40
0.7864979163
 40
0.8244194765
 40
0.8593525219
 40
0.8909761846
 40
0.9054549099
 40
0.9190002303
 40
0.9315807545
 40
0.9431677735
 40
0.9537349967
 40
0.9632579072
 40
0.971715528
 40
0.9790881484
 40
0.9853601112
 40
0.9905176866
 40
0.9926753792
 40
0.9945513031
 40
0.9961449675
 40
0.9974563111
 40
0.9980064438
 40
0.9984866158
 40
0.9988973753
 40
0.9992396325
 40
0.9995150131
 40
0.9997267344
 40
0.9998109051
 40
0.999882625
 40
1.0
 40
1.0
 40
1.0
 40
1.0
 10
5.26328233
 20
5.1212646127
 30
0.0
 10
5.2630868161
 20
5.121213921
 30
0.0
 10
5.2626375649
 20
5.1211178087
 30
0.0
 10
5.2618767684
 20
5.1209890505
 30
0.0
 10
5.2609482011
 20
5.1208595745
 30
0.0
 10
5.2598523257
 20
5.1207295484
 30
0.0
 10
5.2585896663
 20
5.1205991692
 30
0.0
 10
5.256575503
 20
5.1204151266
 30
0.0
 10
5.2536462037
 20
5.1201898849
 30
0.0
 10
5.2496421751
 20
5.1199304129
 30
0.0
 10
5.2449942095
 20
5.1196701432
 30
0.0
 10
5.2397130624
 20
5.119409273
 30
0.0
 10
5.2338107277
 20
5.1191479801
 30
0.0
 10
5.2273008544
 20
5.1188863902
 30
0.0
 10
5.2174508893
 20
5.1185233927
 30
0.0
 10
5.203743154
 20
5.1180759452
 30
0.0
 10
5.1857108041
 20
5.1175556778
 30
0.0
 10
5.165691773
 20
5.1170344469
 30
0.0
 10
5.1438701048
 20
5.1165124546
 30
0.0
 10
5.1204464049
 20
5.1159899554
 30
0.0
 10
5.095636055
 20
5.1154670838
 30
0.0
 10
5.0696671762
 20
5.1149439469
 30
0.0
 10
5.0427785811
 20
5.1144206223
 30
0.0
 10
5.0152175045
 20
5.1138971719
 30
0.0
 10
4.9872373686
 20
5.1133736478
 30
0.0
 10
4.9590954497
 20
5.1128500962
 30
0.0
 10
4.9310505015
 20
5.1123265611
 30
0.0
 10
4.9033604236
 20
5.1118030881
 30
0.0
 10
4.8762798195
 20
5.1112797266
 30
0.0
 10
4.8500577072
 20
5.1107565355
 30
0.0
 10
4.8249351803
 20
5.1102335898
 30
0.0
 10
4.8011432288
 20
5.1097109807
 30
0.0
 10
4.7789006109
 20
5.1091888609
 30
0.0
 10
4.7584118511
 20
5.1086673617
 30
0.0
 10
4.7425214491
 20
5.1082215077
 30
0.0
 10
4.730825967
 20
5.107861273
 30
0.0
 10
4.7228649203
 20
5.1075992285
 30
0.0
 10
4.7154714595
 20
5.1073373369
 30
0.0
 10
4.7086625959
 20
5.1070756316
 30
0.0
 10
4.702454011
 20
5.1068141936
 30
0.0
 10
4.6968598966
 20
5.1065530844
 30
0.0
 10
4.6918931985
 20
5.1062924768
 30
0.0
 10
4.687565166
 20
5.1060326219
 30
0.0
 10
4.6838858023
 20
5.1057737258
 30
0.0
 10
4.6812297684
 20
5.1055483486
 30
0.0
 10
4.6794362142
 20
5.1053633156
 30
0.0
 10
4.6783399374
 20
5.10523329
 30
0.0
 10
4.6774109929
 20
5.1051037328
 30
0.0
 10
4.6767424703
 20
5.1049909171
 30
0.0
 10
4.6762924713
 20
5.1048984241
 30
0.0
 10
4.6760173198
 20
5.1048333132
 30
0.0
 10
4.6757842109
 20
5.1047683925
 30
0.0
 10
4.6755929144
 20
5.1047037617
 30
0.0
 10
4.675443341
 20
5.1046393792
 30
0.0
 10
4.6753460386
 20
5.1045824539
 30
0.0
 10
4.6752913476
 20
5.1045349522
 30
0.0
 10
4.6752568731
 20
5.1044939182
 30
0.0
 10
4.6752428631
 20
5.1044567986
 30
0.0
 10
4.675242859
 20
5.1044337733
 30
0.0
  0
SPLINE
  5
3FC
100
AcDbEntity
  8
0
100
AcDbSpline
 62
7
  6
CONTINUOUS
 70
0
 71
3
 72
9
 73
5
 74
0
 42
0.0000001
 43
0.0000001
 44
0.0000000001
 40
0.0
 40
0.0
 40
0.0
 40
0.0
 40
0.2448717208
 40
1.0
 40
1.0
 40
1.0
 40
1.0
 10
4.5471319718
 20
5.3199557698
 30
0.0
 10
4.5476621024
 20
5.3193972758
 30
0.0
 10
4.5498049322
 20
5.3170957842
 30
0.0
 10
4.5518526865
 20
5.3147045672
 30
0.0
 10
4.5533257784
 20
5.3128421009
 30
0.0
  0
SPLINE
  5
3FD
100
AcDbEntity
  8
0
100
AcDbSpline
 62
7
  6
CONTINUOUS
 70
0
 71
3
 72
15
 73
11
 74
0
 42
0.0000001
 43
0.0000001
 44
0.0000000001
 40
0.0
 40
0.0
 40
0.0
 40
0.0
 40
0.1475819827
 40
0.2895412643
 40
0.4245682027
 40
0.5523284325
 40
0.6730704507
 40
0.7873983988
 40
0.8961222805
 40
1.0
 40
1.0
 40
1.0
 40
1.0
 10
4.5533257784
 20
5.3128421009
 30
0.0
 10
4.5530622068
 20
5.3106582392
 30
0.0
 10
4.5523050274
 20
5.3063985269
 30
0.0
 10
4.5505036964
 20
5.3003190497
 30
0.0
 10
4.5481541696
 20
5.2947490712
 30
0.0
 10
4.5453601916
 20
5.2897486461
 30
0.0
 10
4.5422129856
 20
5.2853373408
 30
0.0
 10
4.5387882086
 20
5.2815114148
 30
0.0
 10
4.5351479229
 20
5.2782575668
 30
0.0
 10
4.5325562816
 20
5.2764202311
 30
0.0
 10
4.5312432517
 20
5.2755997571
 30
0.0
  0
SPLINE
  5
3FE
100
AcDbEntity
  8
0
100
AcDbSpline
 62
7
  6
CONTINUOUS
 70
0
 71
3
 72
51
 73
47
 74
0
 42
0.0000001
 43
0.0000001
 44
0.0000000001
 40
0.0
 40
0.0
 40
0.0
 40
0.0
 40
0.0211965548
 40
0.045562562
 40
0.0729276622
 40
0.1030998272
 40
0.135867214
 40
0.1709999348
 40
0.2473600945
 40
0.330038552
 40
0.4167166059
 40
0.5049628027
 40
0.5489002968
 40
0.5923018579
 40
0.6348627089
 40
0.6762839344
 40
0.7162743735
 40
0.7545532214
 40
0.7908517639
 40
0.8249150808
 40
0.8565038457
 40
0.8853964237
 40
0.9113903444
 40
0.9232425132
 40
0.9343034689
 40
0.9445535018
 40
0.9539753073
 40
0.962552048
 40
0.9702689473
 40
0.9771131377
 40
0.9830724253
 40
0.9881375555
 40
0.9903323601
 40
0.9923007601
 40
0.9940421732
 40
0.9955564277
 40
0.9968435984
 40
0.9979041891
 40
0.9983499434
 40
0.9987397203
 40
0.9990740783
 40
0.9993539786
 40
0.9995810879
 40
0.9997585725
 40
0.9998931552
 40
1.0
 40
1.0
 40
1.0
 40
1.0
 10
5.2336696804
 20
4.4645962718
 30
0.0
 10
5.2297249692
 20
4.4644301992
 30
0.0
 10
5.2212443687
 20
4.4641049641
 30
0.0
 10
5.2076679759
 20
4.4636503435
 30
0.0
 10
5.192418928
 20
4.4631947298
 30
0.0
 10
5.1756043838
 20
4.462738384
 30
0.0
 10
5.1573425201
 20
4.4622815068
 30
0.0
 10
5.1304789935
 20
4.461654326
 30
0.0
 10
5.0943196113
 20
4.4608823024
 30
0.0
 10
5.0485597995
 20
4.4599772026
 30
0.0
 10
5.0005856317
 20
4.4590709576
 30
0.0
 10
4.95982607
 20
4.4583143056
 30
0.0
 10
4.9271261619
 20
4.4577025995
 30
0.0
 10
4.9029345134
 20
4.4572445024
 30
0.0
 10
4.8792116451
 20
4.4567864719
 30
0.0
 10
4.8561242733
 20
4.4563285383
 30
0.0
 10
4.8338346535
 20
4.4558707356
 30
0.0
 10
4.8124994225
 20
4.4554131089
 30
0.0
 10
4.7922684754
 20
4.4549557207
 30
0.0
 10
4.773283995
 20
4.4544986474
 30
0.0
 10
4.7556794113
 20
4.4540420161
 30
0.0
 10
4.7395784181
 20
4.4535859362
 30
0.0
 10
4.727153348
 20
4.4531955519
 30
0.0
 10
4.7180490634
 20
4.452880167
 30
0.0
 10
4.7118761241
 20
4.4526510819
 30
0.0
 10
4.706156209
 20
4.4524221193
 30
0.0
 10
4.7008994119
 20
4.452193338
 30
0.0
 10
4.6961149274
 20
4.4519647756
 30
0.0
 10
4.6918111539
 20
4.4517364975
 30
0.0
 10
4.6879956527
 20
4.4515086967
 30
0.0
 10
4.6846750556
 20
4.4512814197
 30
0.0
 10
4.6822205341
 20
4.4510846508
 30
0.0
 10
4.6805090605
 20
4.4509244664
 30
0.0
 10
4.679415145
 20
4.4508102851
 30
0.0
 10
4.6784487414
 20
4.4506963025
 30
0.0
 10
4.6776101693
 20
4.4505826343
 30
0.0
 10
4.6768997153
 20
4.4504693424
 30
0.0
 10
4.6763886287
 20
4.4503707088
 30
0.0
 10
4.6760447637
 20
4.4502898939
 30
0.0
 10
4.6758343726
 20
4.4502329496
 30
0.0
 10
4.6756560947
 20
4.4501761613
 30
0.0
 10
4.6755098358
 20
4.4501195398
 30
0.0
 10
4.6753951777
 20
4.4500631505
 30
0.0
 10
4.6753117197
 20
4.4500065655
 30
0.0
 10
4.6752575762
 20
4.4499487067
 30
0.0
 10
4.6752429766
 20
4.4499036749
 30
0.0
 10
4.6752429714
 20
4.4498837733
 30
0.0
  0
SPLINE
  5
3FF
100
AcDbEntity
  8
0
100
AcDbSpline
 62
7
  6
CONTINUOUS
 70
0
 71
3
 72
30
 73
26
 74
0
 42
0.0000001
 43
0.0000001
 44
0.0000000001
 40
0.0
 40
0.0
 40
0.0
 40
0.0
 40
0.0019021903
 40
0.0043447475
 40
0.0073299531
 40
0.0108583803
 40
0.014929612
 40
0.0195418927
 40
0.0303802902
 40
0.0433534612
 40
0.0584337768
 40
0.0755889484
 40
0.0947822445
 40
0.1159709009
 40
0.1391096291
 40
0.191027313
 40
0.2500787814
 40
0.3157440536
 40
0.3874445852
 40
0.4645480689
 40
0.5463747527
 40
0.6322024829
 40
0.7212754576
 40
0.8128047113
 40
1.0
 40
1.0
 40
1.0
 40
1.0
 10
5.2836812406
 20
5.1610028844
 30
0.0
 10
5.2834883896
 20
5.1609529032
 30
0.0
 10
5.2830428542
 20
5.1608585756
 30
0.0
 10
5.282285494
 20
5.1607326055
 30
0.0
 10
5.281355965
 20
5.1606058694
 30
0.0
 10
5.2802546697
 20
5.1604785411
 30
0.0
 10
5.2789820219
 20
5.1603508688
 30
0.0
 10
5.2769453706
 20
5.1601704631
 30
0.0
 10
5.2739765098
 20
5.1599497705
 30
0.0
 10
5.2699111202
 20
5.1596956593
 30
0.0
 10
5.265183091
 20
5.1594407609
 30
0.0
 10
5.2598028279
 20
5.1591852209
 30
0.0
 10
5.2537821967
 20
5.1589292993
 30
0.0
 10
5.2471343948
 20
5.1586730407
 30
0.0
 10
5.2370606046
 20
5.1583172978
 30
0.0
 10
5.2230218464
 20
5.1578788228
 30
0.0
 10
5.2045293507
 20
5.1573691752
 30
0.0
 10
5.1839642554
 20
5.1568585657
 30
0.0
 10
5.1615080069
 20
5.1563471995
 30
0.0
 10
5.1373587282
 20
5.1558353272
 30
0.0
 10
5.1117295599
 20
5.1553230818
 30
0.0
 10
5.0848465565
 20
5.1548105675
 30
0.0
 10
5.0569471986
 20
5.1542978617
 30
0.0
 10
5.0184327411
 20
5.1536089412
 30
0.0
 10
4.9892454481
 20
5.1531006147
 30
0.0
 10
4.9696428571
 20
5.1527591411
 30
0.0
  0
SPLINE
  5
400
100
AcDbEntity
  8
0
100
AcDbSpline
 62
7
  6
CONTINUOUS
 70
0
 71
3
 72
63
 73
59
 74
0
 42
0.0000001
 43
0.0000001
 44
0.0000000001
 40
0.0
 40
0.0
 40
0.0
 40
0.0
 40
0.0010297599
 40
0.0023404857
 40
0.0039332789
 40
0.0058083734
 40
0.007965535
 40
0.0104038432
 40
0.0161186332
 40
0.0229415277
 40
0.030857605
 40
0.0398490029
 40
0.0498958779
 40
0.0609747491
 40
0.0730609777
 40
0.1001413326
 40
0.1308889012
 40
0.1650215355
 40
0.2022258933
 40
0.2421600757
 40
0.2844571612
 40
0.3287284407
 40
0.3745670251
 40
0.4215516493
 40
0.4692504475
 40
0.5172249295
 40
0.5650341537
 40
0.6122385939
 40
0.6584044302
 40
0.7031073431
 40
0.7459364304
 40
0.7864981488
 40
0.8244196184
 40
0.8593525688
 40
0.8909761612
 40
0.9054551555
 40
0.9190002277
 40
0.9315809339
 40
0.9431678971
 40
0.9537350334
 40
0.9632581352
 40
0.9717154661
 40
0.9790884303
 40
0.9853601042
 40
0.9905178873
 40
0.9926756593
 40
0.9945514152
 40
0.9961449146
 40
0.9974563439
 40
0.9980066004
 40
0.9984868736
 40
0.9988976578
 40
0.9992398674
 40
0.9995151624
 40
0.9997267961
 40
0.9998109334
 40
0.9998826316
 40
1.0
 40
1.0
 40
1.0
 40
1.0
 10
5.2632824348
 20
5.1557146127
 30
0.0
 10
5.2630868929
 20
5.1556639163
 30
0.0
 10
5.2626375757
 20
5.1555678113
 30
0.0
 10
5.2618767242
 20
5.1554390626
 30
0.0
 10
5.2609481787
 20
5.155309581
 30
0.0
 10
5.2598523623
 20
5.1551795391
 30
0.0
 10
5.2585897121
 20
5.1550491646
 30
0.0
 10
5.2565755154
 20
5.1548651385
 30
0.0
 10
5.2536462063
 20
5.1546398839
 30
0.0
 10
5.2496421607
 20
5.1543804052
 30
0.0
 10
5.2449942333
 20
5.1541201561
 30
0.0
 10
5.2397130425
 20
5.1538592598
 30
0.0
 10
5.2338107561
 20
5.1535979921
 30
0.0
 10
5.2273008413
 20
5.1533363819
 30
0.0
 10
5.2174509199
 20
5.1529734008
 30
0.0
 10
5.2037431861
 20
5.1525259421
 30
0.0
 10
5.1857108666
 20
5.1520056781
 30
0.0
 10
5.1656918195
 20
5.1514844463
 30
0.0
 10
5.143870112
 20
5.1509624551
 30
0.0
 10
5.120446382
 20
5.1504399561
 30
0.0
 10
5.0956360275
 20
5.1499170842
 30
0.0
 10
5.0696671748
 20
5.149393947
 30
0.0
 10
5.0427785978
 20
5.1488706222
 30
0.0
 10
5.0152175274
 20
5.148347172
 30
0.0
 10
4.9872373878
 20
5.1478236481
 30
0.0
 10
4.9590954599
 20
5.1473000966
 30
0.0
 10
4.9310505261
 20
5.1467765615
 30
0.0
 10
4.9033604533
 20
5.1462530882
 30
0.0
 10
4.8762798504
 20
5.1457297266
 30
0.0
 10
4.8500577165
 20
5.1452065357
 30
0.0
 10
4.8249351573
 20
5.1446835901
 30
0.0
 10
4.8011432005
 20
5.1441609819
 30
0.0
 10
4.7789006031
 20
5.143638861
 30
0.0
 10
4.7584118923
 20
5.143117364
 30
0.0
 10
4.7425214693
 20
5.1426714999
 30
0.0
 10
4.7308259959
 20
5.1423112806
 30
0.0
 10
4.7228649094
 20
5.1420492226
 30
0.0
 10
4.7154714717
 20
5.1417873403
 30
0.0
 10
4.7086626001
 20
5.1415256332
 30
0.0
 10
4.7024540058
 20
5.1412641866
 30
0.0
 10
4.6968599264
 20
5.1410030976
 30
0.0
 10
4.6918931816
 20
5.1407424596
 30
0.0
 10
4.6875651928
 20
5.1404826409
 30
0.0
 10
4.6838857795
 20
5.1402237114
 30
0.0
 10
4.6812297451
 20
5.1399983464
 30
0.0
 10
4.6794361659
 20
5.1398133253
 30
0.0
 10
4.6783399399
 20
5.1396832924
 30
0.0
 10
4.6774110461
 20
5.1395537227
 30
0.0
 10
4.6767425149
 20
5.1394409078
 30
0.0
 10
4.6762924518
 20
5.1393484246
 30
0.0
 10
4.6760172487
 20
5.1392833184
 30
0.0
 10
4.6757841232
 20
5.1392183994
 30
0.0
 10
4.6755928492
 20
5.1391537674
 30
0.0
 10
4.6754433233
 20
5.1390893833
 30
0.0
 10
4.6753460693
 20
5.1390324536
 30
0.0
 10
4.6752914164
 20
5.138984951
 30
0.0
 10
4.6752569658
 20
5.1389439115
 30
0.0
 10
4.6752429713
 20
5.1389067974
 30
0.0
 10
4.6752429634
 20
5.1388837733
 30
0.0
  0
SPLINE
  5
401
100
AcDbEntity
  8
0
100
AcDbSpline
 62
7
  6
CONTINUOUS
 70
0
 71
3
 72
16
 73
12
 74
0
 42
0.0000001
 43
0.0000001
 44
0.0000000001
 40
0.0
 40
0.0
 40
0.0
 40
0.0
 40
0.1363944582
 40
0.2698332769
 40
0.3996864921
 40
0.52586951
 40
0.6485850051
 40
0.7682093828
 40
0.8270368971
 40
0.8852567842
 40
1.0
 40
1.0
 40
1.0
 40
1.0
 10
4.5656751156
 20
5.3128413789
 30
0.0
 10
4.5653299548
 20
5.3106450835
 30
0.0
 10
4.5643280456
 20
5.3063436842
 30
0.0
 10
4.5619642666
 20
5.3002516273
 30
0.0
 10
4.5588868809
 20
5.2946779386
 30
0.0
 10
4.5552351071
 20
5.289680812
 30
0.0
 10
4.551129897
 20
5.2852774205
 30
0.0
 10
4.5473917453
 20
5.2820790525
 30
0.0
 10
4.5442662787
 20
5.2798149563
 30
0.0
 10
4.5410940115
 20
5.2777604101
 30
0.0
 10
4.5386117725
 20
5.2764104402
 30
0.0
 10
4.5369262646
 20
5.2755997559
 30
0.0
  0
SPLINE
  5
402
100
AcDbEntity
  8
0
100
AcDbSpline
 62
7
  6
CONTINUOUS
 70
0
 71
3
 72
30
 73
26
 74
0
 42
0.0000001
 43
0.0000001
 44
0.0000000001
 40
0.0
 40
0.0
 40
0.0
 40
0.0
 40
0.0019021903
 40
0.0043447475
 40
0.0073299531
 40
0.0108583803
 40
0.014929612
 40
0.0195418927
 40
0.0303802902
 40
0.0433534612
 40
0.0584337768
 40
0.0755889484
 40
0.0947822445
 40
0.1159709009
 40
0.1391096291
 40
0.191027313
 40
0.2500787814
 40
0.3157440536
 40
0.3874445852
 40
0.4645480689
 40
0.5463747527
 40
0.6322024829
 40
0.7212754576
 40
0.8128047113
 40
1.0
 40
1.0
 40
1.0
 40
1.0
 10
5.2836812406
 20
5.1954528844
 30
0.0
 10
5.2834883896
 20
5.1954029032
 30
0.0
 10
5.2830428542
 20
5.1953085756
 30
0.0
 10
5.282285494
 20
5.1951826055
 30
0.0
 10
5.281355965
 20
5.1950558694
 30
0.0
 10
5.2802546697
 20
5.1949285411
 30
0.0
 10
5.2789820219
 20
5.1948008688
 30
0.0
 10
5.2769453706
 20
5.1946204631
 30
0.0
 10
5.2739765098
 20
5.1943997705
 30
0.0
 10
5.2699111202
 20
5.1941456593
 30
0.0
 10
5.265183091
 20
5.1938907609
 30
0.0
 10
5.2598028279
 20
5.1936352209
 30
0.0
 10
5.2537821967
 20
5.1933792993
 30
0.0
 10
5.2471343948
 20
5.1931230407
 30
0.0
 10
5.2370606046
 20
5.1927672978
 30
0.0
 10
5.2230218464
 20
5.1923288228
 30
0.0
 10
5.2045293507
 20
5.1918191752
 30
0.0
 10
5.1839642554
 20
5.1913085657
 30
0.0
 10
5.1615080069
 20
5.1907971995
 30
0.0
 10
5.1373587282
 20
5.1902853272
 30
0.0
 10
5.1117295599
 20
5.1897730818
 30
0.0
 10
5.0848465565
 20
5.1892605675
 30
0.0
 10
5.0569471986
 20
5.1887478617
 30
0.0
 10
5.0184327411
 20
5.1880589412
 30
0.0
 10
4.9892454481
 20
5.1875506147
 30
0.0
 10
4.9696428571
 20
5.1872091411
 30
0.0
  0
SPLINE
  5
403
100
AcDbEntity
  8
0
100
AcDbSpline
 62
7
  6
CONTINUOUS
 70
0
 71
3
 72
22
 73
18
 74
0
 42
0.0000001
 43
0.0000001
 44
0.0000000001
 40
0.0
 40
0.0
 40
0.0
 40
0.0
 40
0.1643410082
 40
0.2419615004
 40
0.3164745658
 40
0.3878636073
 40
0.4561423181
 40
0.5213536247
 40
0.5835829204
 40
0.6429543764
 40
0.6996413794
 40
0.7538708999
 40
0.8059236916
 40
0.8561423062
 40
0.9049232932
 40
0.9527141853
 40
1.0
 40
1.0
 40
1.0
 40
1.0
 10
5.1221655879
 20
2.344557381
 30
0.0
 10
5.1268205509
 20
2.3465658081
 30
0.0
 10
5.1335792148
 20
2.349756351
 30
0.0
 10
5.1421346955
 20
2.3544641612
 30
0.0
 10
5.1480256648
 20
2.3580528625
 30
0.0
 10
5.1534994212
 20
2.3617582545
 30
0.0
 10
5.1585436566
 20
2.3655716534
 30
0.0
 10
5.1631462186
 20
2.369485024
 30
0.0
 10
5.1672967653
 20
2.3734891069
 30
0.0
 10
5.1709852842
 20
2.3775753906
 30
0.0
 10
5.1742027622
 20
2.3817349646
 30
0.0
 10
5.1769415965
 20
2.385958418
 30
0.0
 10
5.1791937722
 20
2.3902369289
 30
0.0
 10
5.1809535561
 20
2.3945602728
 30
0.0
 10
5.1822149642
 20
2.3989186404
 30
0.0
 10
5.1829735448
 20
2.4033001911
 30
0.0
 10
5.1831428571
 20
2.4062359292
 30
0.0
 10
5.1831428571
 20
2.4076946503
 30
0.0
  0
SPLINE
  5
404
100
AcDbEntity
  8
0
100
AcDbSpline
 62
7
  6
CONTINUOUS
 70
0
 71
3
 72
63
 73
59
 74
0
 42
0.0000001
 43
0.0000001
 44
0.0000000001
 40
0.0
 40
0.0
 40
0.0
 40
0.0
 40
0.0010295306
 40
0.0023402557
 40
0.0039332392
 40
0.0058084528
 40
0.0079654522
 40
0.0104035708
 40
0.0161186432
 40
0.0229413604
 40
0.0308575048
 40
0.039848997
 40
0.0498956539
 40
0.0609747932
 40
0.0730607245
 40
0.1001411821
 40
0.1308888462
 40
0.165021574
 40
0.2022258582
 40
0.2421599743
 40
0.2844570211
 40
0.3287282639
 40
0.3745669375
 40
0.4215515673
 40
0.4692503749
 40
0.5172248451
 40
0.5650340344
 40
0.6122385383
 40
0.6584043926
 40
0.7031073158
 40
0.7459363573
 40
0.7864979553
 40
0.8244194353
 40
0.8593524209
 40
0.8909761166
 40
0.9054549556
 40
0.9190002855
 40
0.9315806879
 40
0.9431679223
 40
0.953734867
 40
0.9632580545
 40
0.9717154351
 40
0.979088192
 40
0.9853601561
 40
0.9905176176
 40
0.9926754894
 40
0.9945514713
 40
0.9961449365
 40
0.9974561689
 40
0.9980063487
 40
0.998486603
 40
0.9988974513
 40
0.9992397755
 40
0.9995151747
 40
0.9997268473
 40
0.9998109771
 40
0.9998826585
 40
1.0
 40
1.0
 40
1.0
 40
1.0
 10
5.2632823747
 20
5.1901646128
 30
0.0
 10
5.2630868795
 20
5.1901139157
 30
0.0
 10
5.2626376117
 20
5.1900177938
 30
0.0
 10
5.2618767657
 20
5.1898890564
 30
0.0
 10
5.2609481578
 20
5.189759585
 30
0.0
 10
5.2598523117
 20
5.1896295491
 30
0.0
 10
5.2585897085
 20
5.1894991637
 30
0.0
 10
5.2565755268
 20
5.1893151225
 30
0.0
 10
5.2536462316
 20
5.1890899018
 30
0.0
 10
5.2496421541
 20
5.188830396
 30
0.0
 10
5.244994229
 20
5.1885701571
 30
0.0
 10
5.2397130492
 20
5.188309265
 30
0.0
 10
5.233810735
 20
5.1880479832
 30
0.0
 10
5.227300868
 20
5.1877863918
 30
0.0
 10
5.2174509328
 20
5.18742339
 30
0.0
 10
5.2037432179
 20
5.1869759453
 30
0.0
 10
5.1857108412
 20
5.1864556777
 30
0.0
 10
5.1656917713
 20
5.1859344475
 30
0.0
 10
5.1438700728
 20
5.1854124551
 30
0.0
 10
5.1204463776
 20
5.184889956
 30
0.0
 10
5.0956360508
 20
5.1843670838
 30
0.0
 10
5.0696671952
 20
5.1838439467
 30
0.0
 10
5.0427786066
 20
5.1833206222
 30
0.0
 10
5.0152175156
 20
5.1827971721
 30
0.0
 10
4.9872373752
 20
5.1822736481
 30
0.0
 10
4.9590954544
 20
5.1817500964
 30
0.0
 10
4.9310505171
 20
5.1812265611
 30
0.0
 10
4.9033604349
 20
5.1807030879
 30
0.0
 10
4.8762798138
 20
5.1801797266
 30
0.0
 10
4.8500576831
 20
5.1796565359
 30
0.0
 10
4.8249351544
 20
5.1791335902
 30
0.0
 10
4.801143228
 20
5.1786109811
 30
0.0
 10
4.7789006452
 20
5.1780888608
 30
0.0
 10
4.7584119051
 20
5.1775673614
 30
0.0
 10
4.742521485
 20
5.177121506
 30
0.0
 10
4.7308259716
 20
5.1767612735
 30
0.0
 10
4.722864924
 20
5.1764992313
 30
0.0
 10
4.7154714428
 20
5.1762373306
 30
0.0
 10
4.7086626145
 20
5.1759756416
 30
0.0
 10
4.7024539881
 20
5.1757141817
 30
0.0
 10
4.6968599197
 20
5.175453096
 30
0.0
 10
4.6918931883
 20
5.1751924684
 30
0.0
 10
4.6875651752
 20
5.1749326237
 30
0.0
 10
4.6838858058
 20
5.1746737335
 30
0.0
 10
4.6812297608
 20
5.1744483344
 30
0.0
 10
4.6794361805
 20
5.1742633179
 30
0.0
 10
4.6783398949
 20
5.1741333018
 30
0.0
 10
4.6774110019
 20
5.1740037317
 30
0.0
 10
4.6767425335
 20
5.1738909073
 30
0.0
 10
4.6762925294
 20
5.1737984214
 30
0.0
 10
4.6760173336
 20
5.1737333117
 30
0.0
 10
4.6757841758
 20
5.1736683931
 30
0.0
 10
4.6755928419
 20
5.1736037653
 30
0.0
 10
4.6754432586
 20
5.1735393885
 30
0.0
 10
4.6753459703
 20
5.1734824616
 30
0.0
 10
4.6752913178
 20
5.1734349534
 30
0.0
 10
4.6752568832
 20
5.1733939123
 30
0.0
 10
4.6752429191
 20
5.173356792
 30
0.0
 10
4.6752429323
 20
5.1733337732
 30
0.0
  0
SPLINE
  5
405
100
AcDbEntity
  8
0
100
AcDbSpline
 62
7
  6
CONTINUOUS
 70
0
 71
3
 72
22
 73
18
 74
0
 42
0.0000001
 43
0.0000001
 44
0.0000000001
 40
0.0
 40
0.0
 40
0.0
 40
0.0
 40
0.1637395266
 40
0.2410926011
 40
0.3153696423
 40
0.3865624907
 40
0.4546899298
 40
0.5198012054
 40
0.5819863185
 40
0.6413721286
 40
0.6981344603
 40
0.7524992544
 40
0.8047445923
 40
0.8552071596
 40
0.9042743584
 40
0.9523818082
 40
1.0
 40
1.0
 40
1.0
 40
1.0
 10
4.8148885674
 20
2.7193867722
 30
0.0
 10
4.8103945216
 20
2.7213850483
 30
0.0
 10
4.8038722457
 20
2.724553447
 30
0.0
 10
4.7956228061
 20
2.7292143367
 30
0.0
 10
4.7899445768
 20
2.7327621408
 30
0.0
 10
4.7846704105
 20
2.736420086
 30
0.0
 10
4.7798118532
 20
2.740180216
 30
0.0
 10
4.7753801268
 20
2.7440347836
 30
0.0
 10
4.7713847495
 20
2.7479749831
 30
0.0
 10
4.767835184
 20
2.7519929137
 30
0.0
 10
4.7647395951
 20
2.7560799358
 30
0.0
 10
4.7621051796
 20
2.7602272764
 30
0.0
 10
4.7599393449
 20
2.7644265055
 30
0.0
 10
4.7582473151
 20
2.7686679235
 30
0.0
 10
4.7570347343
 20
2.7729422875
 30
0.0
 10
4.7563055775
 20
2.777238394
 30
0.0
 10
4.7561428571
 20
2.7801162922
 30
0.0
 10
4.7561428571
 20
2.7815466125
 30
0.0
  0
ELLIPSE
  5
406
100
AcDbEntity
  8
0
100
AcDbEllipse
 62
7
  6
CONTINUOUS
 10
5.026564574
 20
4.4845962733
 30
0.0
 11
0.0344217168
 21
0.0
 31
0.0
 40
0.5810285439
 41
-3.1415926536
 42
-1.5707963268
  0
ELLIPSE
  5
407
100
AcDbEntity
  8
0
100
AcDbEllipse
 62
7
  6
CONTINUOUS
 10
5.2671161027
 20
4.4845962733
 30
0.0
 11
0.0349195013
 21
-0.0
 31
0.0
 40
0.5727458664
 41
-1.5707963268
 42
0.0
  0
ELLIPSE
  5
408
100
AcDbEntity
  8
0
100
AcDbEllipse
 62
7
  6
CONTINUOUS
 10
4.9127211403
 20
4.4845962733
 30
0.0
 11
0.0344217168
 21
0.0
 31
0.0
 40
0.5810285439
 41
-1.5707963268
 42
0.0
  0
ELLIPSE
  5
409
100
AcDbEntity
  8
0
100
AcDbEllipse
 62
7
  6
CONTINUOUS
 10
4.6721696116
 20
4.4845962733
 30
0.0
 11
0.0349195013
 21
-0.0
 31
0.0
 40
0.5727458664
 41
-3.1415926536
 42
-1.5707963268
  0
ENDSEC
  0
SECTION
  2
OBJECTS
  0
DICTIONARY
  5
C
100
AcDbDictionary
280
0
281
1
  3
ACAD_GROUP
350
D
  3
ACAD_MLINESTYLE
350
17
  3
ACAD_LAYOUT
350
1A
  3
ACAD_PLOTSETTINGS
350
19
  3
ACAD_PLOTSTYLENAME
350
E
  0
DICTIONARY
  5
D
102
{ACAD_REACTORS
330
C
102
}
100
AcDbDictionary
280
0
281
1
  0
ACDBDICTIONARYWDFLT
  5
E
102
{ACAD_REACTORS
330
C
102
}
100
AcDbDictionary
281
1
  3
Normal
350
F
100
AcDbDictionaryWithDefault
340
F
  0
DICTIONARY
  5
17
102
{ACAD_REACTORS
330
C
102
}
100
AcDbDictionary
280
0
281
1
  3
Standard
350
18
  0
DICTIONARY
  5
19
102
{ACAD_REACTORS
330
C
102
}
100
AcDbDictionary
281
1
  0
DICTIONARY
  5
1A
102
{ACAD_REACTORS
330
C
102
}
100
AcDbDictionary
281
1
  3
Model
350
40A
  3
Layout1
350
40B
  0
ACDBPLACEHOLDER
  5
F
102
{ACAD_REACTORS
330
E
102
}
  0
MLINESTYLE
  5
18
102
{ACAD_REACTORS
330
17
102
}
100
AcDbMlineStyle
  2
STANDARD
 70
0
  3

 62
256
 51
90.0
 52
90.0
 71
2
 49
0.5
 62
256
  6
BYLAYER
 49
-0.5
 62
256
  6
BYLAYER
  0
LAYOUT
  5
40A
102
{ACAD_REACTORS
330
1A
102
}
100
AcDbPlotSettings
  1

  2
none_device
  4
ANSI_A_(11.00_x_8.50_Inches)
  6

 40
0.0
 41
0.0
 42
0.0
 43
0.0
 44
279.4
 45
215.9
 46
0.0
 47
0.0
 48
0.0
 49
0.0
140
0.0
141
0.0
142
1.0
143
1.0
 70
1024
 72
0
 73
0
 74
0
  7

 75
0
147
1.0
148
0.0
149
0.0
100
AcDbLayout
  1
Model
 70
0
 71
0
 10
0.0
 20
0.0
 11
11.0
 21
8.5
 12
0.0
 22
0.0
 32
0.0
 14
0.0
 24
0.0
 34
0.0
 15
0.0
 25
0.0
 35
0.0
146
0.0
 13
0.0
 23
0.0
 33
0.0
 16
1.0
 26
0.0
 36
0.0
 17
0.0
 27
1.0
 37
0.0
 76
0
330
202
345
0
346
0
  0
LAYOUT
  5
40B
102
{ACAD_REACTORS
330
1A
102
}
100
AcDbPlotSettings
  1

  2
none_device
  4
ANSI_A_(11.00_x_8.50_Inches)
  6

 40
0.0
 41
0.0
 42
0.0
 43
0.0
 44
279.4
 45
215.9
 46
0.0
 47
0.0
 48
0.0
 49
0.0
140
0.0
141
0.0
142
1.0
143
1.0
 70
0
 72
0
 73
0
 74
0
  7

 75
0
147
1.0
148
0.0
149
0.0
100
AcDbLayout
  1
Layout1
 70
0
 71
1
 10
0.0
 20
0.0
 11
11.0
 21
8.5
 12
0.0
 22
0.0
 32
0.0
 14
0.0
 24
0.0
 34
0.0
 15
0.0
 25
0.0
 35
0.0
146
0.0
 13
0.0
 23
0.0
 33
0.0
 16
1.0
 26
0.0
 36
0.0
 17
0.0
 27
1.0
 37
0.0
 76
0
330
203
345
0
346
0
  0
ENDSEC
  0
EOF
