999
DXF file: 3160-5751_front.dxf
999
Pro/ENGINEER 2018400 by Parametric Technology Corporation
  0
SECTION
  2
HEADER
  9
$ACADVER
  1
AC1027
  9
$DWGCODEPAGE
  3
ANSI_1252
  9
$EXTMAX
 10
11.0
 20
8.5
 30
0.0
  9
$EXTMIN
 10
0.0
 20
0.0
 30
0.0
  9
$LIMMIN
 10
0.0
 20
0.0
  9
$LIMMAX
 10
11.0
 20
8.5
  9
$VIEWCTR
 10
5.5
 20
4.25
  9
$VIEWSIZE
 40
8.5
  9
$CLAYER
  8
0
  9
$LTSCALE
 40
0.605
  9
$CELTYPE
  6
BYLAYER
  9
$DIMSCALE
 40
1.0
  9
$DIMASZ
 40
0.1
  9
$DIMEXO
 40
0.0625
  9
$DIMDLI
 40
0.418
  9
$DIMEXE
 40
0.125
  9
$DIMCEN
 40
0.099
  9
$DIMLFAC
 40
1.0
  9
$DIMBLK
  1
_FILLED
  9
$DIMALT
 70
0
  9
$DIMALTF
 40
25.4
  9
$DIMTXT
 40
0.08
  9
$DIMTOL
 70
1
  9
$DIMLIM
 70
0
  9
$DIMTFAC
 40
1.0
  9
$DIMTP
 40
0.001
  9
$DIMTM
 40
0.001
  9
$DIMGAP
 40
0.09
  9
$DIMDSEP
 70
46
  9
$AUNITS
 70
0
  9
$PDMODE
 70
3
  9
$PDSIZE
 40
0.06
  9
$HANDSEED
  5
297
  9
$TILEMODE
 70
1
  9
$MEASUREMENT
 70
0
  9
$INSUNITS
 70
1
  0
ENDSEC
  0
SECTION
  2
CLASSES
  0
CLASS
  1
ACDBDICTIONARYWDFLT
  2
AcDbDictionaryWithDefault
  3
AutoCAD 2000
 90
0
 91
1
280
0
281
0
  0
CLASS
  1
ACDBPLACEHOLDER
  2
AcDbPlaceHolder
  3
AutoCAD 2000
 90
0
 91
1
280
0
281
0
  0
CLASS
  1
LAYOUT
  2
AcDbLayout
  3
AutoCAD 2000
 90
0
 91
0
280
0
281
0
  0
ENDSEC
  0
SECTION
  2
TABLES
  0
TABLE
  2
VPORT
  5
8
100
AcDbSymbolTable
 70
2
  0
VPORT
  5
1F4
100
AcDbSymbolTableRecord
100
AcDbViewportTableRecord
  2
*ACTIVE
 70
0
 10
0.0
 20
0.0
 11
1.0
 21
1.0
 12
5.5
 22
4.25
 13
0.0
 23
0.0
 14
1.0
 24
1.0
 15
0.0
 25
0.0
 16
0.0
 26
0.0
 36
1.0
 17
0.0
 27
0.0
 37
0.0
 40
8.5
 41
1.2941176471
 42
50.0
 43
0.0
 44
0.0
 50
0.0
 51
0.0
 71
0
 72
100
 73
1
 74
1
 75
0
 76
0
 77
0
 78
0
  0
ENDTAB
  0
TABLE
  2
LTYPE
  5
5
100
AcDbSymbolTable
 70
6
  0
LTYPE
  5
14
100
AcDbSymbolTableRecord
100
AcDbLinetypeTableRecord
  2
BYBLOCK
 70
0
  3

 72
65
 73
0
 40
0.0
  0
LTYPE
  5
15
100
AcDbSymbolTableRecord
100
AcDbLinetypeTableRecord
  2
BYLAYER
 70
0
  3

 72
65
 73
0
 40
0.0
  0
LTYPE
  5
16
100
AcDbSymbolTableRecord
100
AcDbLinetypeTableRecord
  2
CONTINUOUS
 70
64
  3
Solid line
 72
65
 73
0
 40
0.0
  0
LTYPE
  5
1F5
100
AcDbSymbolTableRecord
100
AcDbLinetypeTableRecord
  2
CENTER
 70
64
  3
____ _ ____ _ ____ _ ____ _ ____ _ ____ _ ____
 72
65
 73
4
 40
0.6
 49
0.375
 74
0
 49
-0.075
 74
0
 49
0.075
 74
0
 49
-0.075
 74
0
  0
LTYPE
  5
1F6
100
AcDbSymbolTableRecord
100
AcDbLinetypeTableRecord
  2
HIDDEN
 70
64
  3
- - - - - - - - - - - - - - - - - - - -
 72
65
 73
2
 40
0.2
 49
0.1
 74
0
 49
-0.1
 74
0
  0
LTYPE
  5
1F7
100
AcDbSymbolTableRecord
100
AcDbLinetypeTableRecord
  2
PHANTOM
 70
64
  3
_____ _ _ _____ _ _ _____ _ _ _____
 72
65
 73
6
 40
0.8
 49
0.45
 74
0
 49
-0.05
 74
0
 49
0.1
 74
0
 49
-0.05
 74
0
 49
0.1
 74
0
 49
-0.05
 74
0
  0
LTYPE
  5
1F8
100
AcDbSymbolTableRecord
100
AcDbLinetypeTableRecord
  2
DOT
 70
64
  3
. . . . . . . . . . . . . . . . . . . .
 72
65
 73
2
 40
0.2
 49
0.1
 74
0
 49
-0.1
 74
0
  0
LTYPE
  5
1F9
100
AcDbSymbolTableRecord
100
AcDbLinetypeTableRecord
  2
DASHED
 70
64
  3
- - - - - - - - - - - - - - - - - - - -
 72
65
 73
2
 40
0.2
 49
0.1
 74
0
 49
-0.1
 74
0
  0
ENDTAB
  0
TABLE
  2
LAYER
  5
2
100
AcDbSymbolTable
 70
36
  0
LAYER
  5
10
100
AcDbSymbolTableRecord
100
AcDbLayerTableRecord
  2
0
 70
0
 62
7
  6
CONTINUOUS
370
-3
390
F
  0
LAYER
  5
1FA
100
AcDbSymbolTableRecord
100
AcDbLayerTableRecord
  2
DEFAULT_1
 70
0
 62
7
  6
CENTER
370
-3
390
F
  0
LAYER
  5
1FB
100
AcDbSymbolTableRecord
100
AcDbLayerTableRecord
  2
DEFAULT_2
 70
0
 62
8
  6
HIDDEN
370
-3
390
F
  0
LAYER
  5
1FC
100
AcDbSymbolTableRecord
100
AcDbLayerTableRecord
  2
DEFAULT_3
 70
0
 62
7
  6
PHANTOM
370
-3
390
F
  0
LAYER
  5
1FD
100
AcDbSymbolTableRecord
100
AcDbLayerTableRecord
  2
ALL_FEATURES
 70
0
 62
7
  6
CONTINUOUS
370
-3
390
F
  0
LAYER
  5
1FE
100
AcDbSymbolTableRecord
100
AcDbLayerTableRecord
  2
AXES_FEATURES
 70
0
 62
7
  6
CONTINUOUS
370
-3
390
F
  0
LAYER
  5
1FF
100
AcDbSymbolTableRecord
100
AcDbLayerTableRecord
  2
DATUM_CURVES
 70
0
 62
7
  6
CONTINUOUS
370
-3
390
F
  0
LAYER
  5
200
100
AcDbSymbolTableRecord
100
AcDbLayerTableRecord
  2
DEFAULT_COORDINATE_SYSTEM
 70
0
 62
7
  6
CONTINUOUS
370
-3
390
F
  0
LAYER
  5
201
100
AcDbSymbolTableRecord
100
AcDbLayerTableRecord
  2
DEFAULT_DATUM_AXES
 70
0
 62
7
  6
CONTINUOUS
370
-3
390
F
  0
LAYER
  5
202
100
AcDbSymbolTableRecord
100
AcDbLayerTableRecord
  2
DEFAULT_DATUM_PLANES
 70
0
 62
7
  6
CONTINUOUS
370
-3
390
F
  0
LAYER
  5
203
100
AcDbSymbolTableRecord
100
AcDbLayerTableRecord
  2
DIMENSIONS
 70
0
 62
7
  6
CONTINUOUS
370
-3
390
F
  0
LAYER
  5
204
100
AcDbSymbolTableRecord
100
AcDbLayerTableRecord
  2
LAY0001
 70
0
 62
7
  6
CONTINUOUS
370
-3
390
F
  0
LAYER
  5
205
100
AcDbSymbolTableRecord
100
AcDbLayerTableRecord
  2
PROTRUSION_FEATURES
 70
0
 62
7
  6
CONTINUOUS
370
-3
390
F
  0
LAYER
  5
206
100
AcDbSymbolTableRecord
100
AcDbLayerTableRecord
  2
SIZE_REF
 70
0
 62
7
  6
CONTINUOUS
370
-3
390
F
  0
ENDTAB
  0
TABLE
  2
STYLE
  5
3
100
AcDbSymbolTable
 70
1
  0
STYLE
  5
11
100
AcDbSymbolTableRecord
100
AcDbTextStyleTableRecord
  2
STANDARD
 70
0
 40
0.0
 41
0.8
 50
0.0
 71
0
 42
0.2
  3
txt
  4

  0
STYLE
  5
207
100
AcDbSymbolTableRecord
100
AcDbTextStyleTableRecord
  2
TEXTSTYLE_1
 70
0
 40
0.0
 41
0.8
 50
0.0
 71
0
 42
0.2
  3
gdt
  4

  0
ENDTAB
  0
TABLE
  2
VIEW
  5
6
100
AcDbSymbolTable
 70
0
  0
ENDTAB
  0
TABLE
  2
UCS
  5
7
100
AcDbSymbolTable
 70
0
  0
ENDTAB
  0
TABLE
  2
APPID
  5
9
100
AcDbSymbolTable
 70
1
  0
APPID
  5
208
100
AcDbSymbolTableRecord
100
AcDbRegAppTableRecord
  2
ACAD
 70
0
  0
ENDTAB
  0
TABLE
  2
BLOCK_RECORD
  5
1
100
AcDbSymbolTable
 70
0
  0
BLOCK_RECORD
  5
209
100
AcDbSymbolTableRecord
100
AcDbBlockTableRecord
  2
*Model_Space
  0
BLOCK_RECORD
  5
20A
100
AcDbSymbolTableRecord
100
AcDbBlockTableRecord
  2
*Paper_Space
  0
BLOCK_RECORD
  5
20B
100
AcDbSymbolTableRecord
100
AcDbBlockTableRecord
  2
_FILLED
  0
ENDTAB
  0
TABLE
  2
DIMSTYLE
  5
A
100
AcDbSymbolTable
 70
1
100
AcDbDimStyleTable
 71
0
  0
DIMSTYLE
105
20C
100
AcDbSymbolTableRecord
100
AcDbDimStyleTableRecord
  2
STANDARD
 70
0
  3

  4

 40
1.0
 41
0.1
 42
0.0625
 43
0.38
 44
0.125
 45
0.0
 46
0.0
 47
0.001
 48
0.001
140
0.08
141
0.09
142
0.0
143
25.4
144
1.0
145
0.0
146
1.0
147
0.09
 71
1.0
 72
0.0
 73
1
 74
1
 75
0
 76
0
 77
0
 78
4
 79
1
170
0
171
2
172
0
173
0
174
0
175
0
176
0
177
0
178
0
270
2
179
3
271
3
272
3
273
2
274
2
275
0
280
0
281
0
282
0
283
1
284
4
285
0
286
0
287
3
288
0
340
11
278
46
341
20B
342
20B
343
20B
344
20B
  0
ENDTAB
  0
ENDSEC
  0
SECTION
  2
BLOCKS
  0
BLOCK
  5
20
100
AcDbEntity
  8
0
100
AcDbBlockBegin
  2
*Model_Space
 70
0
 10
0.0
 20
0.0
 30
0.0
  3
*Model_Space
  1

  0
ENDBLK
  5
21
100
AcDbEntity
  8
0
100
AcDbBlockEnd
  0
BLOCK
  5
1C
100
AcDbEntity
  8
0
100
AcDbBlockBegin
  2
*Paper_Space
 70
0
 10
0.0
 20
0.0
 30
0.0
  3
*Paper_Space
  1

  0
ENDBLK
  5
1D
100
AcDbEntity
  8
0
100
AcDbBlockEnd
  0
BLOCK
  5
20D
100
AcDbEntity
  8
0
100
AcDbBlockBegin
  2
_FILLED
 70
64
 10
0.0
 20
0.0
  3
_FILLED
  1

  0
SOLID
  5
20E
100
AcDbEntity
  8
0
  6
BYBLOCK
 62
0
100
AcDbTrace
 10
0.0
 20
0.0
 11
-1.0
 21
0.2
 12
-1.0
 22
-0.2
 13
-1.0
 23
-0.2
  0
ENDBLK
  5
20F
100
AcDbEntity
  8
0
  6
BYBLOCK
 62
0
100
AcDbBlockEnd
  0
ENDSEC
  0
SECTION
  2
ENTITIES
  0
LINE
  5
210
100
AcDbEntity
  8
0
100
AcDbLine
 62
7
  6
CONTINUOUS
 10
0.0
 20
0.0
 11
0.0
 21
8.5
  0
LINE
  5
211
100
AcDbEntity
  8
0
100
AcDbLine
 62
7
  6
CONTINUOUS
 10
0.0
 20
0.0
 11
11.0
 21
0.0
  0
LINE
  5
212
100
AcDbEntity
  8
0
100
AcDbLine
 62
7
  6
CONTINUOUS
 10
0.0
 20
8.5
 11
11.0
 21
8.5
  0
LINE
  5
213
100
AcDbEntity
  8
0
100
AcDbLine
 62
7
  6
CONTINUOUS
 10
11.0
 20
0.0
 11
11.0
 21
8.5
  0
LINE
  5
214
100
AcDbEntity
  8
0
100
AcDbLine
 62
7
  6
CONTINUOUS
 10
3.7480086553
 20
3.2148253106
 11
3.7480086553
 21
3.240651017
  0
LINE
  5
215
100
AcDbEntity
  8
0
100
AcDbLine
 62
7
  6
CONTINUOUS
 10
3.8180086553
 20
3.3955446514
 11
3.8180086553
 21
3.4774517335
  0
LINE
  5
216
100
AcDbEntity
  8
0
100
AcDbLine
 62
7
  6
CONTINUOUS
 10
3.8202779729
 20
3.2802190255
 11
3.8202779729
 21
3.2148253106
  0
LINE
  5
217
100
AcDbEntity
  8
0
100
AcDbLine
 62
7
  6
CONTINUOUS
 10
3.8449044097
 20
3.2802186776
 11
3.8449044097
 21
3.2148253106
  0
LINE
  5
218
100
AcDbEntity
  8
0
100
AcDbLine
 62
7
  6
CONTINUOUS
 10
3.8955086553
 20
5.5998253106
 11
3.8955086553
 21
3.7639659944
  0
LINE
  5
219
100
AcDbEntity
  8
ALL_FEATURES
100
AcDbLine
 62
7
  6
CONTINUOUS
 10
3.7930086553
 20
3.2133253106
 11
5.6330086553
 21
3.2133253106
  0
LINE
  5
21A
100
AcDbEntity
  8
0
100
AcDbLine
 62
7
  6
CONTINUOUS
 10
3.748011062
 20
3.2148253106
 11
5.6780062485
 21
3.2148253106
  0
LINE
  5
21B
100
AcDbEntity
  8
0
100
AcDbLine
 62
7
  6
CONTINUOUS
 10
5.6780086553
 20
3.2802186776
 11
3.7480086553
 21
3.2802190255
  0
LINE
  5
21C
100
AcDbEntity
  8
0
100
AcDbLine
 62
7
  6
CONTINUOUS
 10
5.6618548091
 20
3.3068322836
 11
5.5898078689
 21
3.3068322757
  0
LINE
  5
21D
100
AcDbEntity
  8
0
100
AcDbLine
 62
7
  6
CONTINUOUS
 10
5.5784418276
 20
3.3068322782
 11
3.8475747865
 21
3.3068322783
  0
LINE
  5
21E
100
AcDbEntity
  8
0
100
AcDbLine
 62
7
  6
CONTINUOUS
 10
3.8362093247
 20
3.3068326236
 11
3.7641625014
 21
3.3068326315
  0
LINE
  5
21F
100
AcDbEntity
  8
0
100
AcDbLine
 62
7
  6
CONTINUOUS
 10
3.8955086553
 20
3.7639659944
 11
3.8783126095
 21
3.6440849893
  0
LINE
  5
220
100
AcDbEntity
  8
0
100
AcDbLine
 62
7
  6
CONTINUOUS
 10
3.9951809377
 20
3.3955443035
 11
5.4308363729
 21
3.3955443035
  0
LINE
  5
221
100
AcDbEntity
  8
0
100
AcDbLine
 62
7
  6
CONTINUOUS
 10
5.558030426
 20
3.3955443035
 11
5.6080086553
 21
3.3955443035
  0
LINE
  5
222
100
AcDbEntity
  8
0
100
AcDbLine
 62
7
  6
CONTINUOUS
 10
3.8180086553
 20
3.3955446514
 11
3.8679866306
 21
3.3955446514
  0
LINE
  5
223
100
AcDbEntity
  8
0
100
AcDbLine
 62
7
  6
CONTINUOUS
 10
5.5812603822
 20
3.4880865962
 11
4.9547282594
 21
3.4880865962
  0
LINE
  5
224
100
AcDbEntity
  8
0
100
AcDbLine
 62
7
  6
CONTINUOUS
 10
4.4712890511
 20
3.4880865962
 11
3.8447569283
 21
3.4880865962
  0
LINE
  5
225
100
AcDbEntity
  8
0
100
AcDbLine
 62
7
  6
CONTINUOUS
 10
3.8315780675
 20
3.5243826932
 11
5.5944392431
 21
3.5243826932
  0
LINE
  5
226
100
AcDbEntity
  8
0
100
AcDbLine
 62
7
  6
CONTINUOUS
 10
3.8377401155
 20
3.5620553912
 11
5.588277195
 21
3.5620553912
  0
LINE
  5
227
100
AcDbEntity
  8
0
100
AcDbLine
 62
7
  6
CONTINUOUS
 10
3.8783126095
 20
3.6440849893
 11
3.9080086553
 21
3.6398253106
  0
LINE
  5
228
100
AcDbEntity
  8
0
100
AcDbLine
 62
7
  6
CONTINUOUS
 10
5.5477047011
 20
3.6440849893
 11
5.5180086553
 21
3.6398253106
  0
LINE
  5
229
100
AcDbEntity
  8
0
100
AcDbLine
 62
7
  6
CONTINUOUS
 10
3.8441124377
 20
3.6034230306
 11
5.5819048729
 21
3.6034230306
  0
LINE
  5
22A
100
AcDbEntity
  8
0
100
AcDbLine
 62
7
  6
CONTINUOUS
 10
3.8715503219
 20
3.6398253106
 11
5.5544669886
 21
3.6398253106
  0
LINE
  5
22B
100
AcDbEntity
  8
0
100
AcDbLine
 62
7
  6
CONTINUOUS
 10
3.8783126095
 20
3.6440849893
 11
5.5477047011
 21
3.6440849893
  0
LINE
  5
22C
100
AcDbEntity
  8
0
100
AcDbLine
 62
7
  6
CONTINUOUS
 10
3.8955086553
 20
3.7639659944
 11
5.5305086553
 21
3.7639659944
  0
LINE
  5
22D
100
AcDbEntity
  8
0
100
AcDbLine
 62
7
  6
CONTINUOUS
 10
5.1090086553
 20
4.3198253106
 11
4.3250086553
 21
4.3198253106
  0
LINE
  5
22E
100
AcDbEntity
  8
0
100
AcDbLine
 62
7
  6
CONTINUOUS
 10
5.5272912512
 20
4.4398253106
 11
5.5157567925
 21
4.4398253106
  0
LINE
  5
22F
100
AcDbEntity
  8
0
100
AcDbLine
 62
7
  6
CONTINUOUS
 10
5.4940823152
 20
4.4398253106
 11
5.4897204744
 21
4.4398253106
  0
LINE
  5
230
100
AcDbEntity
  8
0
100
AcDbLine
 62
7
  6
CONTINUOUS
 10
5.5157567925
 20
4.4605061616
 11
5.5272912512
 21
4.4605061616
  0
LINE
  5
231
100
AcDbEntity
  8
0
100
AcDbLine
 62
7
  6
CONTINUOUS
 10
5.4714816278
 20
4.5148253106
 11
5.3597746485
 21
4.5148253106
  0
LINE
  5
232
100
AcDbEntity
  8
0
100
AcDbLine
 62
7
  6
CONTINUOUS
 10
5.1090086553
 20
4.5148253106
 11
4.3250086553
 21
4.5148253106
  0
LINE
  5
233
100
AcDbEntity
  8
0
100
AcDbLine
 62
7
  6
CONTINUOUS
 10
5.4897204744
 20
4.5156550984
 11
5.509995747
 21
4.5156550984
  0
LINE
  5
234
100
AcDbEntity
  8
0
100
AcDbLine
 62
7
  6
CONTINUOUS
 10
5.4714816278
 20
4.5198253106
 11
5.3597746485
 21
4.5198253106
  0
LINE
  5
235
100
AcDbEntity
  8
0
100
AcDbLine
 62
7
  6
CONTINUOUS
 10
5.4897204744
 20
4.536335947
 11
5.509995747
 21
4.536335947
  0
LINE
  5
236
100
AcDbEntity
  8
0
100
AcDbLine
 62
7
  6
CONTINUOUS
 10
5.4897204744
 20
4.581144462
 11
5.5120249764
 21
4.581144462
  0
LINE
  5
237
100
AcDbEntity
  8
0
100
AcDbLine
 62
7
  6
CONTINUOUS
 10
5.5182727979
 20
4.6018253106
 11
5.5157567925
 21
4.6018253106
  0
LINE
  5
238
100
AcDbEntity
  8
0
100
AcDbLine
 62
7
  6
CONTINUOUS
 10
5.4897204744
 20
4.6018253106
 11
5.5120249764
 21
4.6018253106
  0
LINE
  5
239
100
AcDbEntity
  8
0
100
AcDbLine
 62
7
  6
CONTINUOUS
 10
5.3597746485
 20
4.5198253106
 11
5.3597746485
 21
4.5148253106
  0
LINE
  5
23A
100
AcDbEntity
  8
0
100
AcDbLine
 62
7
  6
CONTINUOUS
 10
5.1090086553
 20
4.7138253106
 11
4.3250086553
 21
4.7138253106
  0
LINE
  5
23B
100
AcDbEntity
  8
0
100
AcDbLine
 62
7
  6
CONTINUOUS
 10
5.5305086553
 20
3.7639659944
 11
5.5477047011
 21
3.6440849893
  0
LINE
  5
23C
100
AcDbEntity
  8
0
100
AcDbLine
 62
7
  6
CONTINUOUS
 10
5.4606925791
 20
4.5148253106
 11
5.4606925791
 21
4.5198253106
  0
LINE
  5
23D
100
AcDbEntity
  8
0
100
AcDbLine
 62
7
  6
CONTINUOUS
 10
5.4714816278
 20
4.5198253106
 11
5.4714816278
 21
4.5148253106
  0
LINE
  5
23E
100
AcDbEntity
  8
0
100
AcDbLine
 62
7
  6
CONTINUOUS
 10
5.4897204744
 20
4.4398253106
 11
5.4897204744
 21
4.6018253106
  0
LINE
  5
23F
100
AcDbEntity
  8
0
100
AcDbLine
 62
7
  6
CONTINUOUS
 10
5.4940823152
 20
4.581144462
 11
5.4940823152
 21
4.536335947
  0
LINE
  5
240
100
AcDbEntity
  8
0
100
AcDbLine
 62
7
  6
CONTINUOUS
 10
5.4940823152
 20
4.5156550984
 11
5.4940823152
 21
4.4398253106
  0
LINE
  5
241
100
AcDbEntity
  8
0
100
AcDbLine
 62
7
  6
CONTINUOUS
 10
5.4997350527
 20
4.5156550984
 11
5.4997350527
 21
4.536335947
  0
LINE
  5
242
100
AcDbEntity
  8
0
100
AcDbLine
 62
7
  6
CONTINUOUS
 10
5.5017906793
 20
4.581144462
 11
5.5017906793
 21
4.6018253106
  0
LINE
  5
243
100
AcDbEntity
  8
0
100
AcDbLine
 62
7
  6
CONTINUOUS
 10
5.509995747
 20
4.536335947
 11
5.509995747
 21
4.5156550984
  0
LINE
  5
244
100
AcDbEntity
  8
0
100
AcDbLine
 62
7
  6
CONTINUOUS
 10
5.5120249764
 20
4.6018253106
 11
5.5120249764
 21
4.581144462
  0
LINE
  5
245
100
AcDbEntity
  8
0
100
AcDbLine
 62
7
  6
CONTINUOUS
 10
5.5157567925
 20
4.6018253106
 11
5.5157567925
 21
4.4398253106
  0
LINE
  5
246
100
AcDbEntity
  8
0
100
AcDbLine
 62
7
  6
CONTINUOUS
 10
5.5172512468
 20
4.4398253106
 11
5.5172512468
 21
4.4605061616
  0
LINE
  5
247
100
AcDbEntity
  8
0
100
AcDbLine
 62
7
  6
CONTINUOUS
 10
5.5182727979
 20
4.6018253106
 11
5.5182727979
 21
4.4605061616
  0
LINE
  5
248
100
AcDbEntity
  8
0
100
AcDbLine
 62
7
  6
CONTINUOUS
 10
5.5272912512
 20
4.4605061616
 11
5.5272912512
 21
4.4398253106
  0
LINE
  5
249
100
AcDbEntity
  8
0
100
AcDbLine
 62
7
  6
CONTINUOUS
 10
5.5305086553
 20
5.5998253106
 11
5.5305086553
 21
3.7639659944
  0
LINE
  5
24A
100
AcDbEntity
  8
0
100
AcDbLine
 62
7
  6
CONTINUOUS
 10
5.5811129008
 20
3.2802186776
 11
5.5811129008
 21
3.2148253106
  0
LINE
  5
24B
100
AcDbEntity
  8
0
100
AcDbLine
 62
7
  6
CONTINUOUS
 10
5.6057393376
 20
3.2802186776
 11
5.6057393376
 21
3.2148253106
  0
LINE
  5
24C
100
AcDbEntity
  8
0
100
AcDbLine
 62
7
  6
CONTINUOUS
 10
5.6080086553
 20
3.3955443035
 11
5.6080086553
 21
3.4774500381
  0
LINE
  5
24D
100
AcDbEntity
  8
0
100
AcDbLine
 62
7
  6
CONTINUOUS
 10
5.6780086553
 20
3.2148253106
 11
5.6780086553
 21
3.240651017
  0
LINE
  5
24E
100
AcDbEntity
  8
0
100
AcDbLine
 62
7
  6
CONTINUOUS
 10
5.1090086553
 20
4.9088253106
 11
4.3250086553
 21
4.9088253106
  0
LINE
  5
24F
100
AcDbEntity
  8
0
100
AcDbLine
 62
7
  6
CONTINUOUS
 10
3.8955086553
 20
5.5998253106
 11
5.5305086553
 21
5.5998253106
  0
LINE
  5
250
100
AcDbEntity
  8
0
100
AcDbLine
 62
7
  6
CONTINUOUS
 10
5.3005086553
 20
5.8298253106
 11
4.1255086553
 21
5.8298253106
  0
ARC
  5
251
100
AcDbEntity
  8
0
100
AcDbCircle
 62
7
  6
CONTINUOUS
 10
4.6351609044
 20
-0.9502025296
 40
4.3926176587
100
AcDbArc
 50
98.3774946891
 51
99.5674170963
  0
ARC
  5
252
100
AcDbEntity
  8
0
100
AcDbCircle
 62
7
  6
CONTINUOUS
 10
4.650873308
 20
-0.0038977491
 40
3.4903630367
100
AcDbArc
 50
100.8669551026
 51
102.3795281752
  0
ARC
  5
253
100
AcDbEntity
  8
0
100
AcDbCircle
 62
7
  6
CONTINUOUS
 10
4.142617876
 20
4.4595949163
 40
1.735949503
100
AcDbArc
 50
323.3710554481
 51
325.9690336558
  0
ARC
  5
254
100
AcDbEntity
  8
0
100
AcDbCircle
 62
7
  6
CONTINUOUS
 10
4.1255086553
 20
5.5998253106
 40
0.23
100
AcDbArc
 50
90.0
 51
180.0
  0
ARC
  5
255
100
AcDbEntity
  8
0
100
AcDbCircle
 62
7
  6
CONTINUOUS
 10
3.7180086553
 20
3.3955446514
 40
0.1
100
AcDbArc
 50
298.8402691458
 51
360.0
  0
ARC
  5
256
100
AcDbEntity
  8
0
100
AcDbCircle
 62
7
  6
CONTINUOUS
 10
4.3250086553
 20
4.8113253106
 40
0.0975
100
AcDbArc
 50
90.0
 51
270.0
  0
ARC
  5
257
100
AcDbEntity
  8
0
100
AcDbCircle
 62
7
  6
CONTINUOUS
 10
4.3250086553
 20
4.4173253106
 40
0.0975
100
AcDbArc
 50
90.0
 51
270.0
  0
ARC
  5
258
100
AcDbEntity
  8
ALL_FEATURES
100
AcDbCircle
 62
7
  6
CONTINUOUS
 10
3.7930086553
 20
3.2648253106
 40
0.0515
100
AcDbArc
 50
257.9516812057
 51
270.0
  0
ARC
  5
259
100
AcDbEntity
  8
ALL_FEATURES
100
AcDbCircle
 62
7
  6
CONTINUOUS
 10
3.7930086553
 20
3.2648253106
 40
0.0515
100
AcDbArc
 50
114.5454545455
 51
208.2249160535
  0
ARC
  5
25A
100
AcDbEntity
  8
0
100
AcDbCircle
 62
7
  6
CONTINUOUS
 10
3.796046071
 20
3.5896526131
 40
0.05
100
AcDbArc
 50
326.4994880154
 51
15.9863506383
  0
ARC
  5
25B
100
AcDbEntity
  8
0
100
AcDbCircle
 62
7
  6
CONTINUOUS
 10
3.8765503219
 20
3.5363669772
 40
0.0465416667
100
AcDbArc
 50
146.4994880157
 51
194.921523935
  0
ARC
  5
25C
100
AcDbEntity
  8
0
100
AcDbCircle
 62
7
  6
CONTINUOUS
 10
3.8536531959
 20
3.4593794576
 40
0.0300529104
100
AcDbArc
 50
107.2180728368
 51
179.7408627002
  0
ARC
  5
25D
100
AcDbEntity
  8
0
100
AcDbCircle
 62
7
  6
CONTINUOUS
 10
3.802589685
 20
3.516657819
 40
0.03
100
AcDbArc
 50
319.1989286932
 51
14.921523935
  0
ARC
  5
25E
100
AcDbEntity
  8
0
100
AcDbCircle
 62
7
  6
CONTINUOUS
 10
3.8480086553
 20
3.4774517335
 40
0.03
100
AcDbArc
 50
139.1989286933
 51
179.9999999998
  0
ARC
  5
25F
100
AcDbEntity
  8
0
100
AcDbCircle
 62
7
  6
CONTINUOUS
 10
3.8715503219
 20
3.6112836439
 40
0.0285416667
100
AcDbArc
 50
90.0
 51
195.9863506381
  0
ARC
  5
260
100
AcDbEntity
  8
0
100
AcDbCircle
 62
7
  6
CONTINUOUS
 10
4.7840375049
 20
-0.9933897802
 40
4.4363375849
100
AcDbArc
 50
80.4384469139
 51
81.6166418658
  0
ARC
  5
261
100
AcDbEntity
  8
0
100
AcDbCircle
 62
7
  6
CONTINUOUS
 10
4.7703355742
 20
-0.0272745813
 40
3.5142272091
100
AcDbArc
 50
77.6256091647
 51
79.1279093297
  0
ARC
  5
262
100
AcDbEntity
  8
0
100
AcDbCircle
 62
7
  6
CONTINUOUS
 10
5.2834033864
 20
4.4595977338
 40
1.7359543547
100
AcDbArc
 50
214.0309704144
 51
216.6289270128
  0
ARC
  5
263
100
AcDbEntity
  8
0
100
AcDbCircle
 62
7
  6
CONTINUOUS
 10
5.3005086553
 20
5.5998253106
 40
0.23
100
AcDbArc
 50
0.0
 51
90.0
  0
ARC
  5
264
100
AcDbEntity
  8
0
100
AcDbCircle
 62
7
  6
CONTINUOUS
 10
5.7080086553
 20
3.3955443035
 40
0.1
100
AcDbArc
 50
180.0
 51
241.1502039405
  0
ARC
  5
265
100
AcDbEntity
  8
0
100
AcDbCircle
 62
7
  6
CONTINUOUS
 10
5.1090086553
 20
4.4173253106
 40
0.0975
100
AcDbArc
 50
270.0
 51
90.0
  0
ARC
  5
266
100
AcDbEntity
  8
0
100
AcDbCircle
 62
7
  6
CONTINUOUS
 10
5.1090086553
 20
4.8113253106
 40
0.0975
100
AcDbArc
 50
270.0
 51
90.0
  0
ARC
  5
267
100
AcDbEntity
  8
ALL_FEATURES
100
AcDbCircle
 62
7
  6
CONTINUOUS
 10
5.6330086553
 20
3.2648253106
 40
0.0515
100
AcDbArc
 50
270.0
 51
282.0483187943
  0
ARC
  5
268
100
AcDbEntity
  8
ALL_FEATURES
100
AcDbCircle
 62
7
  6
CONTINUOUS
 10
5.6330086553
 20
3.2648253106
 40
0.0515
100
AcDbArc
 50
331.7750839465
 51
65.4545454545
  0
ARC
  5
269
100
AcDbEntity
  8
0
100
AcDbCircle
 62
7
  6
CONTINUOUS
 10
5.6299712395
 20
3.5896526131
 40
0.05
100
AcDbArc
 50
164.0136493617
 51
213.5005119846
  0
ARC
  5
26A
100
AcDbEntity
  8
0
100
AcDbCircle
 62
7
  6
CONTINUOUS
 10
5.5494669886
 20
3.5363669772
 40
0.0465416667
100
AcDbArc
 50
345.078476065
 51
33.5005119843
  0
ARC
  5
26B
100
AcDbEntity
  8
0
100
AcDbCircle
 62
7
  6
CONTINUOUS
 10
5.5723641068
 20
3.4593794518
 40
0.0300529105
100
AcDbArc
 50
0.2591482785
 51
72.7819162365
  0
ARC
  5
26C
100
AcDbEntity
  8
0
100
AcDbCircle
 62
7
  6
CONTINUOUS
 10
5.578008648
 20
3.4774496835
 40
0.030000613
100
AcDbArc
 50
0.0006773637
 51
40.8025486587
  0
ARC
  5
26D
100
AcDbEntity
  8
0
100
AcDbCircle
 62
7
  6
CONTINUOUS
 10
5.6234276256
 20
3.516657819
 40
0.03
100
AcDbArc
 50
165.078476065
 51
220.8025486095
  0
ARC
  5
26E
100
AcDbEntity
  8
0
100
AcDbCircle
 62
7
  6
CONTINUOUS
 10
5.5544669886
 20
3.6112836439
 40
0.0285416667
100
AcDbArc
 50
344.0136493619
 51
90.0
  0
SPLINE
  5
26F
100
AcDbEntity
  8
0
100
AcDbSpline
 62
7
  6
CONTINUOUS
 70
0
 71
3
 72
10
 73
6
 74
0
 42
0.0000001
 43
0.0000001
 44
0.0000000001
 40
0.0
 40
0.0
 40
0.0
 40
0.0
 40
0.2448319376
 40
0.6187715795
 40
1.0
 40
1.0
 40
1.0
 40
1.0
 10
3.8679866306
 20
3.3955446514
 30
0.0
 10
3.8690469174
 20
3.3944276401
 30
0.0
 10
3.8716992997
 20
3.3915785491
 30
0.0
 10
3.875867429
 20
3.3868657637
 30
0.0
 10
3.8788865562
 20
3.3831965165
 30
0.0
 10
3.8803741757
 20
3.3813155922
 30
0.0
  0
SPLINE
  5
270
100
AcDbEntity
  8
0
100
AcDbSpline
 62
7
  6
CONTINUOUS
 70
0
 71
3
 72
13
 73
9
 74
0
 42
0.0000001
 43
0.0000001
 44
0.0000000001
 40
0.0
 40
0.0
 40
0.0
 40
0.0
 40
0.2895073054
 40
0.5521273133
 40
0.6729349545
 40
0.7873193527
 40
0.8960594158
 40
1.0
 40
1.0
 40
1.0
 40
1.0
 10
3.8803741757
 20
3.3813155922
 30
0.0
 10
3.8793419666
 20
3.3727549552
 30
0.0
 10
3.875570696
 20
3.3565841332
 30
0.0
 10
3.866769387
 20
3.3383877037
 30
0.0
 10
3.8581404337
 20
3.3262978374
 30
0.0
 10
3.8512929173
 20
3.3186499556
 30
0.0
 10
3.8440153441
 20
3.312145955
 30
0.0
 10
3.8388346719
 20
3.3084731191
 30
0.0
 10
3.8362093247
 20
3.3068326236
 30
0.0
  0
SPLINE
  5
271
100
AcDbEntity
  8
0
100
AcDbSpline
 62
7
  6
CONTINUOUS
 70
0
 71
3
 72
17
 73
13
 74
0
 42
0.0000001
 43
0.0000001
 44
0.0000000001
 40
0.0
 40
0.0
 40
0.0
 40
0.0
 40
0.1364774297
 40
0.2037594144
 40
0.2701248798
 40
0.3999957956
 40
0.4635588097
 40
0.5262154169
 40
0.6488736392
 40
0.7684279596
 40
0.8853211334
 40
1.0
 40
1.0
 40
1.0
 40
1.0
 10
3.9050726884
 20
3.3813169604
 30
0.0
 10
3.9043826135
 20
3.3769210798
 30
0.0
 10
3.9028646861
 20
3.3704222187
 30
0.0
 10
3.8999657137
 20
3.3621006243
 30
0.0
 10
3.8965810317
 20
3.3541972717
 30
0.0
 10
3.8924721568
 20
3.3467575227
 30
0.0
 10
3.8877524448
 20
3.3398648374
 30
0.0
 10
3.8827634386
 20
3.3334596251
 30
0.0
 10
3.8759669427
 20
3.3261731433
 30
0.0
 10
3.8670515661
 20
3.3185481483
 30
0.0
 10
3.8575901598
 20
3.3120672238
 30
0.0
 10
3.8509443004
 20
3.3084529126
 30
0.0
 10
3.8475747865
 20
3.3068322783
 30
0.0
  0
SPLINE
  5
272
100
AcDbEntity
  8
0
100
AcDbSpline
 62
7
  6
CONTINUOUS
 70
0
 71
3
 72
17
 73
13
 74
0
 42
0.0000001
 43
0.0000001
 44
0.0000000001
 40
0.0
 40
0.0
 40
0.0
 40
0.0
 40
0.1364775968
 40
0.2037596366
 40
0.2701251719
 40
0.3999962366
 40
0.4635593094
 40
0.5262159584
 40
0.648874223
 40
0.7684284996
 40
0.8853214972
 40
1.0
 40
1.0
 40
1.0
 40
1.0
 10
5.5209445914
 20
3.3813169657
 30
0.0
 10
5.5216346476
 20
3.3769210966
 30
0.0
 10
5.5231525308
 20
3.3704222489
 30
0.0
 10
5.526051449
 20
3.3621006666
 30
0.0
 10
5.5294360852
 20
3.354197326
 30
0.0
 10
5.5335449154
 20
3.3467575852
 30
0.0
 10
5.5382645772
 20
3.3398649007
 30
0.0
 10
5.5432535315
 20
3.3334596877
 30
0.0
 10
5.5500499606
 20
3.3261732025
 30
0.0
 10
5.5589652497
 20
3.318548194
 30
0.0
 10
5.5684265611
 20
3.3120672562
 30
0.0
 10
5.5750723476
 20
3.3084529175
 30
0.0
 10
5.5784418276
 20
3.3068322782
 30
0.0
  0
SPLINE
  5
273
100
AcDbEntity
  8
0
100
AcDbSpline
 62
7
  6
CONTINUOUS
 70
0
 71
3
 72
11
 73
7
 74
0
 42
0.0000001
 43
0.0000001
 44
0.0000000001
 40
0.0
 40
0.0
 40
0.0
 40
0.0
 40
0.2491381134
 40
0.4989288347
 40
0.7492561441
 40
1.0
 40
1.0
 40
1.0
 40
1.0
 10
3.992838395
 20
3.4238747318
 30
0.0
 10
4.0322299303
 20
3.4314420167
 30
0.0
 10
4.1113112542
 20
3.445603709
 30
0.0
 10
4.2306061074
 20
3.4636218179
 30
0.0
 10
4.3506420469
 20
3.4781234244
 30
0.0
 10
4.4310203563
 20
3.4852237356
 30
0.0
 10
4.4712890511
 20
3.4880865962
 30
0.0
  0
SPLINE
  5
274
100
AcDbEntity
  8
0
100
AcDbSpline
 62
7
  6
CONTINUOUS
 70
0
 71
3
 72
9
 73
5
 74
0
 42
0.0000001
 43
0.0000001
 44
0.0000000001
 40
0.0
 40
0.0
 40
0.0
 40
0.0
 40
0.2445367558
 40
1.0
 40
1.0
 40
1.0
 40
1.0
 10
3.8902716237
 20
3.423875081
 30
0.0
 10
3.8913533392
 20
3.422415896
 30
0.0
 10
3.8957062354
 20
3.4163971392
 30
0.0
 10
3.8997555738
 20
3.4101554107
 30
0.0
 10
3.9025871243
 20
3.4053106509
 30
0.0
  0
SPLINE
  5
275
100
AcDbEntity
  8
0
100
AcDbSpline
 62
7
  6
CONTINUOUS
 70
0
 71
3
 72
11
 73
7
 74
0
 42
0.0000001
 43
0.0000001
 44
0.0000000001
 40
0.0
 40
0.0
 40
0.0
 40
0.0
 40
0.2507408883
 40
0.5010689966
 40
0.7508599609
 40
1.0
 40
1.0
 40
1.0
 40
1.0
 10
4.9547282594
 20
3.4880865962
 30
0.0
 10
4.9949964774
 20
3.4852237659
 30
0.0
 10
5.0753744381
 20
3.4781234863
 30
0.0
 10
5.1954100786
 20
3.463621988
 30
0.0
 10
5.3147054038
 20
3.4456038041
 30
0.0
 10
5.3937870753
 20
3.4314420729
 30
0.0
 10
5.4331789155
 20
3.4238747318
 30
0.0
  0
SPLINE
  5
276
100
AcDbEntity
  8
0
100
AcDbSpline
 62
7
  6
CONTINUOUS
 70
0
 71
3
 72
9
 73
5
 74
0
 42
0.0000001
 43
0.0000001
 44
0.0000000001
 40
0.0
 40
0.0
 40
0.0
 40
0.0
 40
0.2553576848
 40
1.0
 40
1.0
 40
1.0
 40
1.0
 10
5.5234301361
 20
3.4053106627
 30
0.0
 10
5.5243872709
 20
3.4069482755
 30
0.0
 10
5.5282363896
 20
3.4133021738
 30
0.0
 10
5.5324514354
 20
3.4194312875
 30
0.0
 10
5.535745428
 20
3.4238747318
 30
0.0
  0
SPLINE
  5
277
100
AcDbEntity
  8
0
100
AcDbSpline
 62
7
  6
CONTINUOUS
 70
0
 71
3
 72
11
 73
7
 74
0
 42
0.0000001
 43
0.0000001
 44
0.0000000001
 40
0.0
 40
0.0
 40
0.0
 40
0.0
 40
0.2507150188
 40
0.5010347206
 40
0.7508348803
 40
1.0
 40
1.0
 40
1.0
 40
1.0
 10
4.953668572
 20
3.4595153734
 30
0.0
 10
4.9938236845
 20
3.4566598646
 30
0.0
 10
5.073978578
 20
3.4495773874
 30
0.0
 10
5.1936860368
 20
3.4351205746
 30
0.0
 10
5.3126657553
 20
3.4171711003
 30
0.0
 10
5.3915437269
 20
3.4030742591
 30
0.0
 10
5.4308363729
 20
3.3955443035
 30
0.0
  0
SPLINE
  5
278
100
AcDbEntity
  8
0
100
AcDbSpline
 62
7
  6
CONTINUOUS
 70
0
 71
3
 72
11
 73
7
 74
0
 42
0.0000001
 43
0.0000001
 44
0.0000000001
 40
0.0
 40
0.0
 40
0.0
 40
0.0
 40
0.249163214
 40
0.498963139
 40
0.7492820583
 40
1.0
 40
1.0
 40
1.0
 40
1.0
 10
3.9951809377
 20
3.3955443035
 30
0.0
 10
4.0344732823
 20
3.4030742058
 30
0.0
 10
4.1133509121
 20
3.4171710071
 30
0.0
 10
4.2323301672
 20
3.4351204059
 30
0.0
 10
4.3520379209
 20
3.4495773269
 30
0.0
 10
4.4321931575
 20
3.4566598373
 30
0.0
 10
4.4723487385
 20
3.4595153734
 30
0.0
  0
SPLINE
  5
279
100
AcDbEntity
  8
0
100
AcDbSpline
 62
7
  6
CONTINUOUS
 70
0
 71
3
 72
27
 73
23
 74
0
 42
0.0000001
 43
0.0000001
 44
0.0000000001
 40
0.0
 40
0.0
 40
0.0
 40
0.0
 40
0.1249377224
 40
0.1874270426
 40
0.2499269744
 40
0.3124360549
 40
0.3436932985
 40
0.3749524582
 40
0.4062135937
 40
0.4374752211
 40
0.4687375338
 40
0.5000008678
 40
0.531264185
 40
0.5625264754
 40
0.5937881268
 40
0.6250492742
 40
0.6563084138
 40
0.6875656684
 40
0.750074645
 40
0.8125745535
 40
0.8750639707
 40
1.0
 40
1.0
 40
1.0
 40
1.0
 10
4.4723487385
 20
3.4595153734
 30
0.0
 10
4.4924061509
 20
3.4609417645
 30
0.0
 10
4.5224511966
 20
3.4636871008
 30
0.0
 10
4.5624719421
 20
3.4677219072
 30
0.0
 10
4.5924997872
 20
3.4707189793
 30
0.0
 10
4.6175478229
 20
3.4729928767
 30
0.0
 10
4.6376096296
 20
3.4745546638
 30
0.0
 10
4.6526691229
 20
3.4755649723
 30
0.0
 10
4.6677409514
 20
3.4763855535
 30
0.0
 10
4.6828234174
 20
3.4769948749
 30
0.0
 10
4.6979140568
 20
3.4773674412
 30
0.0
 10
4.7130090724
 20
3.4774907037
 30
0.0
 10
4.728104087
 20
3.4773675467
 30
0.0
 10
4.7431947187
 20
3.4769947603
 30
0.0
 10
4.7582771875
 20
3.4763854867
 30
0.0
 10
4.7733490228
 20
3.4755649707
 30
0.0
 10
4.7884085121
 20
3.4745545957
 30
0.0
 10
4.8084703026
 20
3.4729928359
 30
0.0
 10
4.8335183094
 20
3.4707188264
 30
0.0
 10
4.8635461625
 20
3.4677218876
 30
0.0
 10
4.9035666108
 20
3.4636867241
 30
0.0
 10
4.9336114271
 20
3.4609416843
 30
0.0
 10
4.953668572
 20
3.4595153734
 30
0.0
  0
SPLINE
  5
27A
100
AcDbEntity
  8
0
100
AcDbSpline
 62
7
  6
CONTINUOUS
 70
0
 71
3
 72
9
 73
5
 74
0
 42
0.0000001
 43
0.0000001
 44
0.0000000001
 40
0.0
 40
0.0
 40
0.0
 40
0.0
 40
0.6135524023
 40
1.0
 40
1.0
 40
1.0
 40
1.0
 10
5.558030426
 20
3.3955443035
 30
0.0
 10
5.5674214521
 20
3.4084058597
 30
0.0
 10
5.5824569982
 20
3.429568747
 30
0.0
 10
5.5969248741
 20
3.4511208666
 30
0.0
 10
5.6024151724
 20
3.4595153734
 30
0.0
  0
SPLINE
  5
27B
100
AcDbEntity
  8
0
100
AcDbSpline
 62
7
  6
CONTINUOUS
 70
0
 71
3
 72
35
 73
31
 74
0
 42
0.0000001
 43
0.0000001
 44
0.0000000001
 40
0.0
 40
0.0
 40
0.0
 40
0.0
 40
0.2164774095
 40
0.3162269621
 40
0.4101736592
 40
0.4981806781
 40
0.5800743214
 40
0.6556403522
 40
0.7246200885
 40
0.7867179375
 40
0.8416067018
 40
0.8662381416
 40
0.8889315988
 40
0.9096382925
 40
0.9283098258
 40
0.944906821
 40
0.9593924511
 40
0.9717291179
 40
0.9818784988
 40
0.9861208026
 40
0.9898016271
 40
0.9929170238
 40
0.9954662604
 40
0.9974492566
 40
0.9982283894
 40
0.998865932
 40
0.9993618744
 40
0.9997162064
 40
0.9999289182
 40
1.0
 40
1.0
 40
1.0
 40
1.0
 10
5.5812603822
 20
3.4880865962
 30
0.0
 10
5.5827796909
 20
3.488433123
 30
0.0
 10
5.5849798306
 20
3.4890311219
 30
0.0
 10
5.5877755295
 20
3.4899826072
 30
0.0
 10
5.5896686684
 20
3.4907109394
 30
0.0
 10
5.5914146091
 20
3.491459763
 30
0.0
 10
5.5930123614
 20
3.4922153131
 30
0.0
 10
5.5944608375
 20
3.4929636285
 30
0.0
 10
5.5957592802
 20
3.4936899764
 30
0.0
 10
5.5969068418
 20
3.4943797048
 30
0.0
 10
5.5977652007
 20
3.4949299557
 30
0.0
 10
5.5983764812
 20
3.4953395267
 30
0.0
 10
5.5987799874
 20
3.4956170685
 30
0.0
 10
5.5991452779
 20
3.4958744094
 30
0.0
 10
5.5994723677
 20
3.4961097363
 30
0.0
 10
5.5997611314
 20
3.4963216242
 30
0.0
 10
5.6000114902
 20
3.4965087453
 30
0.0
 10
5.6002233926
 20
3.4966697758
 30
0.0
 10
5.6003757864
 20
3.496787234
 30
0.0
 10
5.6004785302
 20
3.4968670387
 30
0.0
 10
5.6005412134
 20
3.4969158735
 30
0.0
 10
5.6005942828
 20
3.4969572218
 30
0.0
 10
5.6006376912
 20
3.4969910714
 30
0.0
 10
5.6006678712
 20
3.4970145667
 30
0.0
 10
5.6006871268
 20
3.4970296385
 30
0.0
 10
5.6006980699
 20
3.4970380631
 30
0.0
 10
5.6007062868
 20
3.4970447664
 30
0.0
 10
5.6007128304
 20
3.4970492175
 30
0.0
 10
5.6007155503
 20
3.4970524995
 30
0.0
 10
5.6007180907
 20
3.4970532895
 30
0.0
 10
5.6007181081
 20
3.4970538009
 30
0.0
  0
SPLINE
  5
27C
100
AcDbEntity
  8
0
100
AcDbSpline
 62
7
  6
CONTINUOUS
 70
0
 71
3
 72
26
 73
22
 74
0
 42
0.0000001
 43
0.0000001
 44
0.0000000001
 40
0.0
 40
0.0
 40
0.0
 40
0.0
 40
0.1243085129
 40
0.1866929561
 40
0.2492018123
 40
0.3118117107
 40
0.3744981417
 40
0.4058626748
 40
0.4372368354
 40
0.4686175246
 40
0.5000016367
 40
0.5313857437
 40
0.5627664237
 40
0.5941405864
 40
0.6255051237
 40
0.6881915609
 40
0.7508012659
 40
0.8133097332
 40
0.8756937249
 40
0.9379308608
 40
1.0
 40
1.0
 40
1.0
 40
1.0
 10
4.4712890511
 20
3.4880865962
 30
0.0
 10
4.4913232931
 20
3.488817944
 30
0.0
 10
4.5214002186
 20
3.4902211993
 30
0.0
 10
4.5615382125
 20
3.492250613
 30
0.0
 10
4.5917404342
 20
3.4937466595
 30
0.0
 10
4.6219983777
 20
3.4950970414
 30
0.0
 10
4.647247887
 20
3.4960014175
 30
0.0
 10
4.6674686304
 20
3.4965357508
 30
0.0
 10
4.6826447605
 20
3.4968326593
 30
0.0
 10
4.6978258948
 20
3.4970138137
 30
0.0
 10
4.7130095976
 20
3.4970737878
 30
0.0
 10
4.7281932995
 20
3.4970138542
 30
0.0
 10
4.7433744306
 20
3.4968325888
 30
0.0
 10
4.7585505602
 20
3.4965356955
 30
0.0
 10
4.7787713066
 20
3.4960013851
 30
0.0
 10
4.8040207824
 20
3.4950969695
 30
0.0
 10
4.8342786425
 20
3.493746547
 30
0.0
 10
4.864480659
 20
3.4922505994
 30
0.0
 10
4.8946210586
 20
3.4907263311
 30
0.0
 10
4.9246946757
 20
3.4892851269
 30
0.0
 10
4.9447248563
 20
3.4884517659
 30
0.0
 10
4.9547282594
 20
3.4880865962
 30
0.0
  0
SPLINE
  5
27D
100
AcDbEntity
  8
0
100
AcDbSpline
 62
7
  6
CONTINUOUS
 70
0
 71
3
 72
35
 73
31
 74
0
 42
0.0000001
 43
0.0000001
 44
0.0000000001
 40
0.0
 40
0.0
 40
0.0
 40
0.0
 40
0.0000714214
 40
0.0002864095
 40
0.0006446063
 40
0.001145653
 40
0.0017891918
 40
0.0025748656
 40
0.0045711941
 40
0.0071318007
 40
0.0102538622
 40
0.0139345703
 40
0.0181711322
 40
0.0283007111
 40
0.040620574
 40
0.0551053135
 40
0.0717117457
 40
0.0903919503
 40
0.1110991968
 40
0.133788047
 40
0.1584144336
 40
0.2133002963
 40
0.275398516
 40
0.3443754992
 40
0.4199349514
 40
0.5018255151
 40
0.5898337031
 40
0.6837835046
 40
0.7835317076
 40
1.0
 40
1.0
 40
1.0
 40
1.0
 10
3.8252991701
 20
3.4970547762
 30
0.0
 10
3.8252991987
 20
3.4970552896
 30
0.0
 10
3.8253017283
 20
3.4970519773
 30
0.0
 10
3.8253044577
 20
3.4970510318
 30
0.0
 10
3.8253109994
 20
3.497045079
 30
0.0
 10
3.8253192232
 20
3.4970388144
 30
0.0
 10
3.825330171
 20
3.4970299563
 30
0.0
 10
3.8253494238
 20
3.4970146901
 30
0.0
 10
3.8253795939
 20
3.4969907437
 30
0.0
 10
3.8254230016
 20
3.4969565561
 30
0.0
 10
3.8254760676
 20
3.4969149791
 30
0.0
 10
3.8255387667
 20
3.4968661551
 30
0.0
 10
3.825641502
 20
3.4967866328
 30
0.0
 10
3.8257939645
 20
3.4966697557
 30
0.0
 10
3.8260059366
 20
3.4965092522
 30
0.0
 10
3.8262562171
 20
3.4963221124
 30
0.0
 10
3.826544898
 20
3.4961098849
 30
0.0
 10
3.826871935
 20
3.4958742331
 30
0.0
 10
3.8272372535
 20
3.4956168498
 30
0.0
 10
3.8276407823
 20
3.4953394307
 30
0.0
 10
3.8282521077
 20
3.4949300506
 30
0.0
 10
3.8291104515
 20
3.4943798266
 30
0.0
 10
3.8302579272
 20
3.4936899537
 30
0.0
 10
3.8315563194
 20
3.4929635495
 30
0.0
 10
3.83300492
 20
3.4922155635
 30
0.0
 10
3.83460266
 20
3.4914600211
 30
0.0
 10
3.8363485727
 20
3.4907109697
 30
0.0
 10
3.8382417274
 20
3.4899824478
 30
0.0
 10
3.8410374753
 20
3.4890309883
 30
0.0
 10
3.8432376426
 20
3.4884331347
 30
0.0
 10
3.8447569283
 20
3.4880865962
 30
0.0
  0
SPLINE
  5
27E
100
AcDbEntity
  8
0
100
AcDbSpline
 62
7
  6
CONTINUOUS
 70
0
 71
3
 72
28
 73
24
 74
0
 42
0.0000001
 43
0.0000001
 44
0.0000000001
 40
0.0
 40
0.0
 40
0.0
 40
0.0
 40
0.0702384647
 40
0.1451827608
 40
0.2239137699
 40
0.3053674284
 40
0.4716298647
 40
0.5538801154
 40
0.6336304226
 40
0.7093761131
 40
0.7795690843
 40
0.8425994881
 40
0.8968470987
 40
0.9202108541
 40
0.9408617315
 40
0.9586488154
 40
0.9734210192
 40
0.9850271092
 40
0.9933399954
 40
0.9962511867
 40
0.998331793
 40
0.9995815017
 40
1.0
 40
1.0
 40
1.0
 40
1.0
 10
5.6024151724
 20
3.4595153734
 30
0.0
 10
5.6026572324
 20
3.4598855014
 30
0.0
 10
5.6031209524
 20
3.4606747249
 30
0.0
 10
5.6037480436
 20
3.4619383212
 30
0.0
 10
5.6043320547
 20
3.46329944
 30
0.0
 10
5.6050578469
 20
3.4652230129
 30
0.0
 10
5.6056859619
 20
3.4672050385
 30
0.0
 10
5.6062366129
 20
3.4691972835
 30
0.0
 10
5.6066049394
 20
3.4706483416
 30
0.0
 10
5.60693016
 20
3.4720317231
 30
0.0
 10
5.6072121262
 20
3.4733169626
 30
0.0
 10
5.6074507577
 20
3.474473016
 30
0.0
 10
5.6076211909
 20
3.4753420167
 30
0.0
 10
5.6077365708
 20
3.4759498675
 30
0.0
 10
5.6078077605
 20
3.4763324327
 30
0.0
 10
5.6078679833
 20
3.4766620106
 30
0.0
 10
5.6079172865
 20
3.4769356928
 30
0.0
 10
5.6079554755
 20
3.4771507541
 30
0.0
 10
5.6079808209
 20
3.4772922632
 30
0.0
 10
5.6079952228
 20
3.4773747725
 30
0.0
 10
5.6080025134
 20
3.4774134185
 30
0.0
 10
5.6080058991
 20
3.4774367439
 30
0.0
 10
5.6080085003
 20
3.4774469987
 30
0.0
 10
5.6080086408
 20
3.4774496301
 30
0.0
  0
SPLINE
  5
27F
100
AcDbEntity
  8
0
100
AcDbSpline
 62
7
  6
CONTINUOUS
 70
0
 71
3
 72
30
 73
26
 74
0
 42
0.0000001
 43
0.0000001
 44
0.0000000001
 40
0.0
 40
0.0
 40
0.0
 40
0.0
 40
0.0004281578
 40
0.0017114558
 40
0.0038389834
 40
0.0067998329
 40
0.0105830995
 40
0.0151778814
 40
0.0267583988
 40
0.0414542381
 40
0.0591783063
 40
0.0798259901
 40
0.1032234446
 40
0.1575050332
 40
0.220501426
 40
0.2906730924
 40
0.3664268709
 40
0.4461724475
 40
0.5283796836
 40
0.6116584469
 40
0.6946684491
 40
0.7761188294
 40
0.8548373791
 40
0.9297697622
 40
1.0
 40
1.0
 40
1.0
 40
1.0
 10
3.8180086553
 20
3.4774517335
 30
0.0
 10
3.8180086543
 20
3.4774544297
 30
0.0
 10
3.8180116057
 20
3.4774307804
 30
0.0
 10
3.818014639
 20
3.4774195124
 30
0.0
 10
3.8180221182
 20
3.4773728639
 30
0.0
 10
3.8180314635
 20
3.4773209516
 30
0.0
 10
3.8180439283
 20
3.4772494268
 30
0.0
 10
3.8180657716
 20
3.4771262287
 30
0.0
 10
3.8181000021
 20
3.4769344908
 30
0.0
 10
3.8181493468
 20
3.4766619973
 30
0.0
 10
3.8182096466
 20
3.4763332451
 30
0.0
 10
3.8182807609
 20
3.4759508425
 30
0.0
 10
3.8183960031
 20
3.4753424632
 30
0.0
 10
3.8185663823
 20
3.4744731232
 30
0.0
 10
3.8188052026
 20
3.4733170882
 30
0.0
 10
3.8190871619
 20
3.4720319812
 30
0.0
 10
3.8194122926
 20
3.4706485001
 30
0.0
 10
3.8197805613
 20
3.4691975104
 30
0.0
 10
3.8201921378
 20
3.4677089375
 30
0.0
 10
3.8206467569
 20
3.4662113862
 30
0.0
 10
3.8211443877
 20
3.4647325058
 30
0.0
 10
3.8216852261
 20
3.4632994041
 30
0.0
 10
3.8222692432
 20
3.4619382804
 30
0.0
 10
3.8228963573
 20
3.4606747185
 30
0.0
 10
3.8233600797
 20
3.4598855086
 30
0.0
 10
3.8236021382
 20
3.4595153734
 30
0.0
  0
SPLINE
  5
280
100
AcDbEntity
  8
0
100
AcDbSpline
 62
7
  6
CONTINUOUS
 70
0
 71
3
 72
11
 73
7
 74
0
 42
0.0000001
 43
0.0000001
 44
0.0000000001
 40
0.0
 40
0.0
 40
0.0
 40
0.0
 40
0.232698183
 40
0.4745937866
 40
0.7295498333
 40
1.0
 40
1.0
 40
1.0
 40
1.0
 10
5.5898081374
 20
3.3068321661
 30
0.0
 10
5.5889752659
 20
3.3071704413
 30
0.0
 10
5.5871997911
 20
3.3076835559
 30
0.0
 10
5.5843763841
 20
3.3079270193
 30
0.0
 10
5.5814108735
 20
3.3076573796
 30
0.0
 10
5.5794350017
 20
3.3071566746
 30
0.0
 10
5.5784418563
 20
3.3068322607
 30
0.0
  0
SPLINE
  5
281
100
AcDbEntity
  8
0
100
AcDbSpline
 62
7
  6
CONTINUOUS
 70
0
 71
3
 72
18
 73
14
 74
0
 42
0.0000001
 43
0.0000001
 44
0.0000000001
 40
0.0
 40
0.0
 40
0.0
 40
0.0
 40
0.1814266792
 40
0.3541480433
 40
0.513418609
 40
0.6556191806
 40
0.7775778565
 40
0.8301507806
 40
0.8767232947
 40
0.9170491488
 40
0.9510167626
 40
0.9786141257
 40
1.0
 40
1.0
 40
1.0
 40
1.0
 10
5.5209448046
 20
3.3813160748
 30
0.0
 10
5.5224394837
 20
3.3814708843
 30
0.0
 10
5.5253601971
 20
3.3817443295
 30
0.0
 10
5.5296017731
 20
3.382052264
 30
0.0
 10
5.5335251515
 20
3.3822426573
 30
0.0
 10
5.537032056
 20
3.3823118767
 30
0.0
 10
5.5396560447
 20
3.3822661982
 30
0.0
 10
5.5414844539
 20
3.3821589939
 30
0.0
 10
5.5426350599
 20
3.3820530634
 30
0.0
 10
5.5436273785
 20
3.381918472
 30
0.0
 10
5.5444564728
 20
3.3817564117
 30
0.0
 10
5.5451178856
 20
3.381568429
 30
0.0
 10
5.5454931886
 20
3.3814068404
 30
0.0
 10
5.5456451358
 20
3.3813158079
 30
0.0
  0
SPLINE
  5
282
100
AcDbEntity
  8
0
100
AcDbSpline
 62
7
  6
CONTINUOUS
 70
0
 71
3
 72
9
 73
5
 74
0
 42
0.0000001
 43
0.0000001
 44
0.0000000001
 40
0.0
 40
0.0
 40
0.0
 40
0.0
 40
0.386446643
 40
1.0
 40
1.0
 40
1.0
 40
1.0
 10
3.8236021382
 20
3.4595153734
 30
0.0
 10
3.8290923972
 20
3.4511209368
 30
0.0
 10
3.8435601862
 20
3.4295689321
 30
0.0
 10
3.8585956414
 20
3.4084061562
 30
0.0
 10
3.8679866306
 20
3.3955446514
 30
0.0
  0
SPLINE
  5
283
100
AcDbEntity
  8
0
100
AcDbSpline
 62
7
  6
CONTINUOUS
 70
0
 71
3
 72
17
 73
13
 74
0
 42
0.0000001
 43
0.0000001
 44
0.0000000001
 40
0.0
 40
0.0
 40
0.0
 40
0.0
 40
0.074380721
 40
0.1477252249
 40
0.219645107
 40
0.2898697865
 40
0.4249101854
 40
0.5526403685
 40
0.6733149146
 40
0.7875683133
 40
0.8961821225
 40
1.0
 40
1.0
 40
1.0
 40
1.0
 10
5.5456430944
 20
3.3813155218
 30
0.0
 10
5.5459085435
 20
3.3791139622
 30
0.0
 10
5.5465610404
 20
3.3747555967
 30
0.0
 10
5.5478931158
 20
3.3683410094
 30
0.0
 10
5.5495500652
 20
3.3621302624
 30
0.0
 10
5.5521276546
 20
3.3542752179
 30
0.0
 10
5.5559965817
 20
3.3451085894
 30
0.0
 10
5.5615864231
 20
3.3351109087
 30
0.0
 10
5.5678804125
 20
3.3262929175
 30
0.0
 10
5.5747269305
 20
3.3186471692
 30
0.0
 10
5.5820033905
 20
3.312144461
 30
0.0
 10
5.5871830696
 20
3.3084724423
 30
0.0
 10
5.5898078689
 20
3.3068322757
 30
0.0
  0
SPLINE
  5
284
100
AcDbEntity
  8
0
100
AcDbSpline
 62
7
  6
CONTINUOUS
 70
0
 71
3
 72
11
 73
7
 74
0
 42
0.0000001
 43
0.0000001
 44
0.0000000001
 40
0.0
 40
0.0
 40
0.0
 40
0.0
 40
0.2704502818
 40
0.5254039094
 40
0.7672980787
 40
1.0
 40
1.0
 40
1.0
 40
1.0
 10
3.8475754282
 20
3.3068323662
 30
0.0
 10
3.8465822831
 20
3.3071567914
 30
0.0
 10
3.8446064144
 20
3.3076574922
 30
0.0
 10
3.8416409186
 20
3.3079271935
 30
0.0
 10
3.838817498
 20
3.3076837793
 30
0.0
 10
3.8370420057
 20
3.3071706722
 30
0.0
 10
3.8362091155
 20
3.3068323981
 30
0.0
  0
SPLINE
  5
285
100
AcDbEntity
  8
0
100
AcDbSpline
 62
7
  6
CONTINUOUS
 70
0
 71
3
 72
18
 73
14
 74
0
 42
0.0000001
 43
0.0000001
 44
0.0000000001
 40
0.0
 40
0.0
 40
0.0
 40
0.0
 40
0.0213893923
 40
0.0489934459
 40
0.0829659738
 40
0.1232931742
 40
0.1698635418
 40
0.2224325824
 40
0.3443831173
 40
0.4865785442
 40
0.6458476771
 40
0.8185706177
 40
1.0
 40
1.0
 40
1.0
 40
1.0
 10
3.8803721086
 20
3.3813125564
 30
0.0
 10
3.8805240651
 20
3.3814036353
 30
0.0
 10
3.88089929
 20
3.381565571
 30
0.0
 10
3.881560604
 20
3.3817544124
 30
0.0
 10
3.8823896334
 20
3.3819174457
 30
0.0
 10
3.8833819021
 20
3.3820528334
 30
0.0
 10
3.8845324613
 20
3.382159107
 30
0.0
 10
3.8863607824
 20
3.3822663488
 30
0.0
 10
3.8889846813
 20
3.3823115638
 30
0.0
 10
3.8924915055
 20
3.3822420938
 30
0.0
 10
3.8964149106
 20
3.3820519704
 30
0.0
 10
3.9006566502
 20
3.3817451061
 30
0.0
 10
3.9035774951
 20
3.3814721405
 30
0.0
 10
3.9050722212
 20
3.3813173418
 30
0.0
  0
SPLINE
  5
286
100
AcDbEntity
  8
0
100
AcDbSpline
 62
7
  6
CONTINUOUS
 70
0
 71
3
 72
15
 73
11
 74
0
 42
0.0000001
 43
0.0000001
 44
0.0000000001
 40
0.0
 40
0.0
 40
0.0
 40
0.0
 40
0.1519212484
 40
0.3013994866
 40
0.4453282866
 40
0.5811646147
 40
0.7065702605
 40
0.8194355905
 40
0.9178025999
 40
1.0
 40
1.0
 40
1.0
 40
1.0
 10
5.5811129008
 20
3.2802186776
 30
0.0
 10
5.5811129008
 20
3.2815770214
 30
0.0
 10
5.5810824731
 20
3.2842719616
 30
0.0
 10
5.5809476482
 20
3.28825175
 30
0.0
 10
5.5807248861
 20
3.2920835936
 30
0.0
 10
5.5804196998
 20
3.2956938748
 30
0.0
 10
5.5800374122
 20
3.2990174471
 30
0.0
 10
5.5795864926
 20
3.3019943157
 30
0.0
 10
5.5790747767
 20
3.3045683961
 30
0.0
 10
5.5786644325
 20
3.3061318666
 30
0.0
 10
5.5784418256
 20
3.3068322782
 30
0.0
  0
SPLINE
  5
287
100
AcDbEntity
  8
0
100
AcDbSpline
 62
7
  6
CONTINUOUS
 70
0
 71
3
 72
9
 73
5
 74
0
 42
0.0000001
 43
0.0000001
 44
0.0000000001
 40
0.0
 40
0.0
 40
0.0
 40
0.0
 40
0.2549330368
 40
1.0
 40
1.0
 40
1.0
 40
1.0
 10
5.5456430944
 20
3.3813155218
 30
0.0
 10
5.5466377827
 20
3.3825731762
 30
0.0
 10
5.5506033276
 20
3.3874559479
 30
0.0
 10
5.5548041484
 20
3.3921454227
 30
0.0
 10
5.558030426
 20
3.3955443035
 30
0.0
  0
SPLINE
  5
288
100
AcDbEntity
  8
0
100
AcDbSpline
 62
7
  6
CONTINUOUS
 70
0
 71
3
 72
11
 73
7
 74
0
 42
0.0000001
 43
0.0000001
 44
0.0000000001
 40
0.0
 40
0.0
 40
0.0
 40
0.0
 40
0.2510050156
 40
0.5015304128
 40
0.7512315458
 40
1.0
 40
1.0
 40
1.0
 40
1.0
 10
3.8202779729
 20
3.2802190255
 30
0.0
 10
3.8202779722
 20
3.2829375598
 30
0.0
 10
3.821014268
 20
3.2883975537
 30
0.0
 10
3.8242509637
 20
3.2959670072
 30
0.0
 10
3.829376231
 20
3.3023795704
 30
0.0
 10
3.8338262733
 20
3.3055754911
 30
0.0
 10
3.8362093238
 20
3.3068326236
 30
0.0
  0
SPLINE
  5
289
100
AcDbEntity
  8
0
100
AcDbSpline
 62
7
  6
CONTINUOUS
 70
0
 71
3
 72
11
 73
7
 74
0
 42
0.0000001
 43
0.0000001
 44
0.0000000001
 40
0.0
 40
0.0
 40
0.0
 40
0.0
 40
0.2509564191
 40
0.5020811716
 40
0.7520524025
 40
1.0
 40
1.0
 40
1.0
 40
1.0
 10
5.535745428
 20
3.4238747318
 30
0.0
 10
5.5388376893
 20
3.4230034914
 30
0.0
 10
5.5447877554
 20
3.42025732
 30
0.0
 10
5.5519646902
 20
3.4136114529
 30
0.0
 10
5.5567220555
 20
3.4051064722
 30
0.0
 10
5.5579464882
 20
3.3987173287
 30
0.0
 10
5.558030426
 20
3.3955443035
 30
0.0
  0
SPLINE
  5
28A
100
AcDbEntity
  8
0
100
AcDbSpline
 62
7
  6
CONTINUOUS
 70
0
 71
3
 72
15
 73
11
 74
0
 42
0.0000001
 43
0.0000001
 44
0.0000000001
 40
0.0
 40
0.0
 40
0.0
 40
0.0
 40
0.0277761509
 40
0.0616839431
 40
0.146919057
 40
0.2535693073
 40
0.3788776149
 40
0.5198263212
 40
0.672986522
 40
1.0
 40
1.0
 40
1.0
 40
1.0
 10
4.9547282594
 20
3.4880865962
 30
0.0
 10
4.9547489182
 20
3.487822568
 30
0.0
 10
4.9547817806
 20
3.4872352219
 30
0.0
 10
4.9548247658
 20
3.4858349926
 30
0.0
 10
4.9548308134
 20
3.4836817963
 30
0.0
 10
4.9547780779
 20
3.480657853
 30
0.0
 10
4.9546647538
 20
3.4771040177
 30
0.0
 10
4.9544930566
 20
3.4731086577
 30
0.0
 10
4.9541845587
 20
3.4671944733
 30
0.0
 10
4.9538905405
 20
3.4626254128
 30
0.0
 10
4.953668572
 20
3.4595153734
 30
0.0
  0
SPLINE
  5
28B
100
AcDbEntity
  8
0
100
AcDbSpline
 62
7
  6
CONTINUOUS
 70
0
 71
3
 72
11
 73
7
 74
0
 42
0.0000001
 43
0.0000001
 44
0.0000000001
 40
0.0
 40
0.0
 40
0.0
 40
0.0
 40
0.250956415
 40
0.5020811624
 40
0.7520523943
 40
1.0
 40
1.0
 40
1.0
 40
1.0
 10
3.8902716237
 20
3.423875081
 30
0.0
 10
3.8871793627
 20
3.4230038403
 30
0.0
 10
3.8812292973
 20
3.4202576686
 30
0.0
 10
3.8740523638
 20
3.4136118009
 30
0.0
 10
3.8692949998
 20
3.40510682
 30
0.0
 10
3.868070568
 20
3.3987176766
 30
0.0
 10
3.8679866306
 20
3.3955446514
 30
0.0
  0
SPLINE
  5
28C
100
AcDbEntity
  8
0
100
AcDbSpline
 62
7
  6
CONTINUOUS
 70
0
 71
3
 72
11
 73
7
 74
0
 42
0.0000001
 43
0.0000001
 44
0.0000000001
 40
0.0
 40
0.0
 40
0.0
 40
0.0
 40
0.2512280547
 40
0.5023556911
 40
0.7521985069
 40
1.0
 40
1.0
 40
1.0
 40
1.0
 10
3.9025849513
 20
3.4053096413
 30
0.0
 10
3.8998035935
 20
3.4045623451
 30
0.0
 10
3.8944238174
 20
3.4022690707
 30
0.0
 10
3.8876517353
 20
3.3967556912
 30
0.0
 10
3.8826926058
 20
3.3896133715
 30
0.0
 10
3.8808662889
 20
3.3841099611
 30
0.0
 10
3.8803721086
 20
3.3813125564
 30
0.0
  0
SPLINE
  5
28D
100
AcDbEntity
  8
0
100
AcDbSpline
 62
7
  6
CONTINUOUS
 70
0
 71
3
 72
18
 73
14
 74
0
 42
0.0000001
 43
0.0000001
 44
0.0000000001
 40
0.0
 40
0.0
 40
0.0
 40
0.0
 40
0.0268145827
 40
0.0595911504
 40
0.0982520703
 40
0.1426483363
 40
0.1925753819
 40
0.2477275653
 40
0.3723323347
 40
0.5135524106
 40
0.6679530337
 40
0.8317097517
 40
1.0
 40
1.0
 40
1.0
 40
1.0
 10
3.992838395
 20
3.4238747318
 30
0.0
 10
3.9927641786
 20
3.4236305045
 30
0.0
 10
3.9926394512
 20
3.4230756815
 30
0.0
 10
3.9925113399
 20
3.4221486904
 30
0.0
 10
3.9924255955
 20
3.4210488263
 30
0.0
 10
3.9923836613
 20
3.4197833109
 30
0.0
 10
3.9923867515
 20
3.4183601744
 30
0.0
 10
3.9924533558
 20
3.4161745461
 30
0.0
 10
3.992656324
 20
3.4131248676
 30
0.0
 10
3.9930592008
 20
3.4091444182
 30
0.0
 10
3.9936215935
 20
3.4048072707
 30
0.0
 10
3.9943303202
 20
3.4002308102
 30
0.0
 10
3.994883347
 20
3.3971184186
 30
0.0
 10
3.9951809377
 20
3.3955443035
 30
0.0
  0
SPLINE
  5
28E
100
AcDbEntity
  8
0
100
AcDbSpline
 62
7
  6
CONTINUOUS
 70
0
 71
3
 72
11
 73
7
 74
0
 42
0.0000001
 43
0.0000001
 44
0.0000000001
 40
0.0
 40
0.0
 40
0.0
 40
0.0
 40
0.2510050985
 40
0.5015304148
 40
0.7512314423
 40
1.0
 40
1.0
 40
1.0
 40
1.0
 10
5.6057393376
 20
3.2802186732
 30
0.0
 10
5.6057393376
 20
3.2829371909
 30
0.0
 10
5.6050029969
 20
3.2883971412
 30
0.0
 10
5.6017663667
 20
3.2959665569
 30
0.0
 10
5.5966411559
 20
3.302379095
 30
0.0
 10
5.5921911707
 20
3.3055750358
 30
0.0
 10
5.5898081374
 20
3.3068321661
 30
0.0
  0
SPLINE
  5
28F
100
AcDbEntity
  8
0
100
AcDbSpline
 62
7
  6
CONTINUOUS
 70
0
 71
3
 72
17
 73
13
 74
0
 42
0.0000001
 43
0.0000001
 44
0.0000000001
 40
0.0
 40
0.0
 40
0.0
 40
0.0
 40
0.0266380879
 40
0.0589892867
 40
0.0970031244
 40
0.1405696246
 40
0.2436431611
 40
0.3662753216
 40
0.5061695018
 40
0.6606068065
 40
0.8265306297
 40
1.0
 40
1.0
 40
1.0
 40
1.0
 10
3.9025849513
 20
3.4053096413
 30
0.0
 10
3.902533155
 20
3.4051009786
 30
0.0
 10
3.9024492901
 20
3.4046313314
 30
0.0
 10
3.9023713553
 20
3.4038519323
 30
0.0
 10
3.9023302222
 20
3.4029329239
 30
0.0
 10
3.9023253754
 20
3.4014422979
 30
0.0
 10
3.902427085
 20
3.3992701924
 30
0.0
 10
3.9026873135
 20
3.3963304498
 30
0.0
 10
3.9030914041
 20
3.3929889995
 30
0.0
 10
3.9036302375
 20
3.3893132617
 30
0.0
 10
3.9042931461
 20
3.3853828155
 30
0.0
 10
3.9048003998
 20
3.3826907682
 30
0.0
 10
3.9050722212
 20
3.3813173418
 30
0.0
  0
SPLINE
  5
290
100
AcDbEntity
  8
0
100
AcDbSpline
 62
7
  6
CONTINUOUS
 70
0
 71
3
 72
15
 73
11
 74
0
 42
0.0000001
 43
0.0000001
 44
0.0000000001
 40
0.0
 40
0.0
 40
0.0
 40
0.0
 40
0.0277761528
 40
0.0616839457
 40
0.1469190593
 40
0.2535693077
 40
0.3788776129
 40
0.5198263178
 40
0.6729865193
 40
1.0
 40
1.0
 40
1.0
 40
1.0
 10
4.4712890511
 20
3.4880865962
 30
0.0
 10
4.4712683922
 20
3.487822568
 30
0.0
 10
4.4712355294
 20
3.4872352218
 30
0.0
 10
4.4711925436
 20
3.4858349925
 30
0.0
 10
4.4711864956
 20
3.4836817963
 30
0.0
 10
4.4712392308
 20
3.480657853
 30
0.0
 10
4.471352555
 20
3.4771040178
 30
0.0
 10
4.4715242526
 20
3.4731086578
 30
0.0
 10
4.4718327511
 20
3.4671944733
 30
0.0
 10
4.4721267697
 20
3.4626254128
 30
0.0
 10
4.4723487385
 20
3.4595153734
 30
0.0
  0
SPLINE
  5
291
100
AcDbEntity
  8
0
100
AcDbSpline
 62
7
  6
CONTINUOUS
 70
0
 71
3
 72
15
 73
11
 74
0
 42
0.0000001
 43
0.0000001
 44
0.0000000001
 40
0.0
 40
0.0
 40
0.0
 40
0.0
 40
0.1519206801
 40
0.3013982559
 40
0.4453266079
 40
0.5811627076
 40
0.7065681026
 40
0.8194335583
 40
0.9178016422
 40
1.0
 40
1.0
 40
1.0
 40
1.0
 10
3.8449044374
 20
3.2802188471
 30
0.0
 10
3.8449044352
 20
3.2815771833
 30
0.0
 10
3.8449347772
 20
3.2842721073
 30
0.0
 10
3.845069431
 20
3.2882518796
 30
0.0
 10
3.8452921841
 20
3.2920837056
 30
0.0
 10
3.8455974112
 20
3.2956939678
 30
0.0
 10
3.8459796683
 20
3.2990175334
 30
0.0
 10
3.8464305762
 20
3.3019944077
 30
0.0
 10
3.8469424023
 20
3.304568483
 30
0.0
 10
3.847352818
 20
3.3061319481
 30
0.0
 10
3.8475754282
 20
3.3068323662
 30
0.0
  0
SPLINE
  5
292
100
AcDbEntity
  8
0
100
AcDbSpline
 62
7
  6
CONTINUOUS
 70
0
 71
3
 72
18
 73
14
 74
0
 42
0.0000001
 43
0.0000001
 44
0.0000000001
 40
0.0
 40
0.0
 40
0.0
 40
0.0
 40
0.0268145845
 40
0.0595911532
 40
0.0982520737
 40
0.1426483402
 40
0.192575386
 40
0.2477275694
 40
0.3723323385
 40
0.5135524137
 40
0.667953036
 40
0.8317097529
 40
1.0
 40
1.0
 40
1.0
 40
1.0
 10
5.4331789155
 20
3.4238747318
 30
0.0
 10
5.433253132
 20
3.4236305045
 30
0.0
 10
5.4333778595
 20
3.4230756815
 30
0.0
 10
5.433505971
 20
3.4221486904
 30
0.0
 10
5.4335917154
 20
3.4210488263
 30
0.0
 10
5.4336336497
 20
3.4197833109
 30
0.0
 10
5.4336305596
 20
3.4183601744
 30
0.0
 10
5.4335639554
 20
3.416174546
 30
0.0
 10
5.4333609873
 20
3.4131248675
 30
0.0
 10
5.4329581104
 20
3.4091444181
 30
0.0
 10
5.4323957177
 20
3.4048072706
 30
0.0
 10
5.4316869908
 20
3.4002308102
 30
0.0
 10
5.4311339637
 20
3.3971184186
 30
0.0
 10
5.4308363729
 20
3.3955443035
 30
0.0
  0
SPLINE
  5
293
100
AcDbEntity
  8
0
100
AcDbSpline
 62
7
  6
CONTINUOUS
 70
0
 71
3
 72
17
 73
13
 74
0
 42
0.0000001
 43
0.0000001
 44
0.0000000001
 40
0.0
 40
0.0
 40
0.0
 40
0.0
 40
0.0266429686
 40
0.0590029504
 40
0.0970258814
 40
0.1405993074
 40
0.2436770431
 40
0.3663070964
 40
0.5061975023
 40
0.6606284869
 40
0.8265428053
 40
1.0
 40
1.0
 40
1.0
 40
1.0
 10
5.523431841
 20
3.4053097791
 30
0.0
 10
5.5234836352
 20
3.4051010603
 30
0.0
 10
5.5235676315
 20
3.4046312996
 30
0.0
 10
5.5236459395
 20
3.4038517
 30
0.0
 10
5.5236875011
 20
3.4029324474
 30
0.0
 10
5.5236928125
 20
3.4014415547
 30
0.0
 10
5.5235910125
 20
3.3992692201
 30
0.0
 10
5.5233304595
 20
3.396329325
 30
0.0
 10
5.5229264078
 20
3.3929877419
 30
0.0
 10
5.5223875451
 20
3.3893119115
 30
0.0
 10
5.5217241673
 20
3.3853814985
 30
0.0
 10
5.521216659
 20
3.3826894909
 30
0.0
 10
5.5209448046
 20
3.3813160748
 30
0.0
  0
SPLINE
  5
294
100
AcDbEntity
  8
0
100
AcDbSpline
 62
7
  6
CONTINUOUS
 70
0
 71
3
 72
11
 73
7
 74
0
 42
0.0000001
 43
0.0000001
 44
0.0000000001
 40
0.0
 40
0.0
 40
0.0
 40
0.0
 40
0.251227447
 40
0.5023524199
 40
0.7521929322
 40
1.0
 40
1.0
 40
1.0
 40
1.0
 10
5.523431841
 20
3.4053097791
 30
0.0
 10
5.5262130491
 20
3.4045625651
 30
0.0
 10
5.531592972
 20
3.4022706015
 30
0.0
 10
5.5383647576
 20
3.3967575693
 30
0.0
 10
5.5433242479
 20
3.3896161645
 30
0.0
 10
5.5451508428
 20
3.3841130983
 30
0.0
 10
5.5456451358
 20
3.3813158079
 30
0.0
  0
ENDSEC
  0
SECTION
  2
OBJECTS
  0
DICTIONARY
  5
C
100
AcDbDictionary
280
0
281
1
  3
ACAD_GROUP
350
D
  3
ACAD_MLINESTYLE
350
17
  3
ACAD_LAYOUT
350
1A
  3
ACAD_PLOTSETTINGS
350
19
  3
ACAD_PLOTSTYLENAME
350
E
  0
DICTIONARY
  5
D
102
{ACAD_REACTORS
330
C
102
}
100
AcDbDictionary
280
0
281
1
  0
ACDBDICTIONARYWDFLT
  5
E
102
{ACAD_REACTORS
330
C
102
}
100
AcDbDictionary
281
1
  3
Normal
350
F
100
AcDbDictionaryWithDefault
340
F
  0
DICTIONARY
  5
17
102
{ACAD_REACTORS
330
C
102
}
100
AcDbDictionary
280
0
281
1
  3
Standard
350
18
  0
DICTIONARY
  5
19
102
{ACAD_REACTORS
330
C
102
}
100
AcDbDictionary
281
1
  0
DICTIONARY
  5
1A
102
{ACAD_REACTORS
330
C
102
}
100
AcDbDictionary
281
1
  3
Model
350
295
  3
Layout1
350
296
  0
ACDBPLACEHOLDER
  5
F
102
{ACAD_REACTORS
330
E
102
}
  0
MLINESTYLE
  5
18
102
{ACAD_REACTORS
330
17
102
}
100
AcDbMlineStyle
  2
STANDARD
 70
0
  3

 62
256
 51
90.0
 52
90.0
 71
2
 49
0.5
 62
256
  6
BYLAYER
 49
-0.5
 62
256
  6
BYLAYER
  0
LAYOUT
  5
295
102
{ACAD_REACTORS
330
1A
102
}
100
AcDbPlotSettings
  1

  2
none_device
  4
ANSI_A_(11.00_x_8.50_Inches)
  6

 40
0.0
 41
0.0
 42
0.0
 43
0.0
 44
279.4
 45
215.9
 46
0.0
 47
0.0
 48
0.0
 49
0.0
140
0.0
141
0.0
142
1.0
143
1.0
 70
1024
 72
0
 73
0
 74
0
  7

 75
0
147
1.0
148
0.0
149
0.0
100
AcDbLayout
  1
Model
 70
0
 71
0
 10
0.0
 20
0.0
 11
11.0
 21
8.5
 12
0.0
 22
0.0
 32
0.0
 14
0.0
 24
0.0
 34
0.0
 15
0.0
 25
0.0
 35
0.0
146
0.0
 13
0.0
 23
0.0
 33
0.0
 16
1.0
 26
0.0
 36
0.0
 17
0.0
 27
1.0
 37
0.0
 76
0
330
209
345
0
346
0
  0
LAYOUT
  5
296
102
{ACAD_REACTORS
330
1A
102
}
100
AcDbPlotSettings
  1

  2
none_device
  4
ANSI_A_(11.00_x_8.50_Inches)
  6

 40
0.0
 41
0.0
 42
0.0
 43
0.0
 44
279.4
 45
215.9
 46
0.0
 47
0.0
 48
0.0
 49
0.0
140
0.0
141
0.0
142
1.0
143
1.0
 70
0
 72
0
 73
0
 74
0
  7

 75
0
147
1.0
148
0.0
149
0.0
100
AcDbLayout
  1
Layout1
 70
0
 71
1
 10
0.0
 20
0.0
 11
11.0
 21
8.5
 12
0.0
 22
0.0
 32
0.0
 14
0.0
 24
0.0
 34
0.0
 15
0.0
 25
0.0
 35
0.0
146
0.0
 13
0.0
 23
0.0
 33
0.0
 16
1.0
 26
0.0
 36
0.0
 17
0.0
 27
1.0
 37
0.0
 76
0
330
20A
345
0
346
0
  0
ENDSEC
  0
EOF
