999
DXF file: 3160-5811_top.dxf
999
Pro/ENGINEER 2018400 by Parametric Technology Corporation
  0
SECTION
  2
HEADER
  9
$ACADVER
  1
AC1027
  9
$DWGCODEPAGE
  3
ANSI_1252
  9
$EXTMAX
 10
11.0
 20
8.5
 30
0.0
  9
$EXTMIN
 10
0.0
 20
0.0
 30
0.0
  9
$LIMMIN
 10
0.0
 20
0.0
  9
$LIMMAX
 10
11.0
 20
8.5
  9
$VIEWCTR
 10
5.5
 20
4.25
  9
$VIEWSIZE
 40
8.5
  9
$CLAYER
  8
0
  9
$LTSCALE
 40
0.605
  9
$CELTYPE
  6
BYLAYER
  9
$DIMSCALE
 40
1.0
  9
$DIMASZ
 40
0.1
  9
$DIMEXO
 40
0.0625
  9
$DIMDLI
 40
0.418
  9
$DIMEXE
 40
0.125
  9
$DIMCEN
 40
0.099
  9
$DIMLFAC
 40
1.0
  9
$DIMBLK
  1
_FILLED
  9
$DIMALT
 70
1
  9
$DIMALTD
 70
1
  9
$DIMALTTD
 70
2
  9
$DIMALTF
 40
25.4
  9
$DIMTXT
 40
0.08
  9
$DIMTOL
 70
1
  9
$DIMLIM
 70
0
  9
$DIMTFAC
 40
1.0
  9
$DIMTP
 40
0.01
  9
$DIMTM
 40
0.01
  9
$DIMGAP
 40
0.09
  9
$DIMDSEP
 70
46
  9
$AUNITS
 70
0
  9
$PDMODE
 70
3
  9
$PDSIZE
 40
0.3125
  9
$HANDSEED
  5
2C9
  9
$TILEMODE
 70
1
  9
$MEASUREMENT
 70
0
  9
$INSUNITS
 70
1
  0
ENDSEC
  0
SECTION
  2
CLASSES
  0
CLASS
  1
ACDBDICTIONARYWDFLT
  2
AcDbDictionaryWithDefault
  3
AutoCAD 2000
 90
0
 91
1
280
0
281
0
  0
CLASS
  1
ACDBPLACEHOLDER
  2
AcDbPlaceHolder
  3
AutoCAD 2000
 90
0
 91
1
280
0
281
0
  0
CLASS
  1
LAYOUT
  2
AcDbLayout
  3
AutoCAD 2000
 90
0
 91
0
280
0
281
0
  0
ENDSEC
  0
SECTION
  2
TABLES
  0
TABLE
  2
VPORT
  5
8
100
AcDbSymbolTable
 70
2
  0
VPORT
  5
1F4
100
AcDbSymbolTableRecord
100
AcDbViewportTableRecord
  2
*ACTIVE
 70
0
 10
0.0
 20
0.0
 11
1.0
 21
1.0
 12
5.5
 22
4.25
 13
0.0
 23
0.0
 14
1.0
 24
1.0
 15
0.0
 25
0.0
 16
0.0
 26
0.0
 36
1.0
 17
0.0
 27
0.0
 37
0.0
 40
8.5
 41
1.2941176471
 42
50.0
 43
0.0
 44
0.0
 50
0.0
 51
0.0
 71
0
 72
100
 73
1
 74
1
 75
0
 76
0
 77
0
 78
0
  0
ENDTAB
  0
TABLE
  2
LTYPE
  5
5
100
AcDbSymbolTable
 70
6
  0
LTYPE
  5
14
100
AcDbSymbolTableRecord
100
AcDbLinetypeTableRecord
  2
BYBLOCK
 70
0
  3

 72
65
 73
0
 40
0.0
  0
LTYPE
  5
15
100
AcDbSymbolTableRecord
100
AcDbLinetypeTableRecord
  2
BYLAYER
 70
0
  3

 72
65
 73
0
 40
0.0
  0
LTYPE
  5
16
100
AcDbSymbolTableRecord
100
AcDbLinetypeTableRecord
  2
CONTINUOUS
 70
64
  3
Solid line
 72
65
 73
0
 40
0.0
  0
LTYPE
  5
1F5
100
AcDbSymbolTableRecord
100
AcDbLinetypeTableRecord
  2
CENTER
 70
64
  3
____ _ ____ _ ____ _ ____ _ ____ _ ____ _ ____
 72
65
 73
4
 40
0.6
 49
0.375
 74
0
 49
-0.075
 74
0
 49
0.075
 74
0
 49
-0.075
 74
0
  0
LTYPE
  5
1F6
100
AcDbSymbolTableRecord
100
AcDbLinetypeTableRecord
  2
HIDDEN
 70
64
  3
- - - - - - - - - - - - - - - - - - - -
 72
65
 73
2
 40
0.2
 49
0.1
 74
0
 49
-0.1
 74
0
  0
LTYPE
  5
1F7
100
AcDbSymbolTableRecord
100
AcDbLinetypeTableRecord
  2
PHANTOM
 70
64
  3
_____ _ _ _____ _ _ _____ _ _ _____
 72
65
 73
6
 40
0.8
 49
0.45
 74
0
 49
-0.05
 74
0
 49
0.1
 74
0
 49
-0.05
 74
0
 49
0.1
 74
0
 49
-0.05
 74
0
  0
LTYPE
  5
1F8
100
AcDbSymbolTableRecord
100
AcDbLinetypeTableRecord
  2
DOT
 70
64
  3
. . . . . . . . . . . . . . . . . . . .
 72
65
 73
2
 40
0.2
 49
0.1
 74
0
 49
-0.1
 74
0
  0
LTYPE
  5
1F9
100
AcDbSymbolTableRecord
100
AcDbLinetypeTableRecord
  2
DASHED
 70
64
  3
- - - - - - - - - - - - - - - - - - - -
 72
65
 73
2
 40
0.2
 49
0.1
 74
0
 49
-0.1
 74
0
  0
ENDTAB
  0
TABLE
  2
LAYER
  5
2
100
AcDbSymbolTable
 70
36
  0
LAYER
  5
10
100
AcDbSymbolTableRecord
100
AcDbLayerTableRecord
  2
0
 70
0
 62
7
  6
CONTINUOUS
370
-3
390
F
  0
LAYER
  5
1FA
100
AcDbSymbolTableRecord
100
AcDbLayerTableRecord
  2
DEFAULT_1
 70
0
 62
7
  6
CENTER
370
-3
390
F
  0
LAYER
  5
1FB
100
AcDbSymbolTableRecord
100
AcDbLayerTableRecord
  2
DEFAULT_2
 70
0
 62
8
  6
HIDDEN
370
-3
390
F
  0
LAYER
  5
1FC
100
AcDbSymbolTableRecord
100
AcDbLayerTableRecord
  2
DEFAULT_3
 70
0
 62
7
  6
PHANTOM
370
-3
390
F
  0
LAYER
  5
1FD
100
AcDbSymbolTableRecord
100
AcDbLayerTableRecord
  2
DEFAULT_COORDINATE_SYSTEM
 70
0
 62
7
  6
CONTINUOUS
370
-3
390
F
  0
LAYER
  5
1FE
100
AcDbSymbolTableRecord
100
AcDbLayerTableRecord
  2
DEFAULT_DATUM_AXES
 70
0
 62
7
  6
CONTINUOUS
370
-3
390
F
  0
LAYER
  5
1FF
100
AcDbSymbolTableRecord
100
AcDbLayerTableRecord
  2
DEFAULT_DATUM_PLANES
 70
0
 62
7
  6
CONTINUOUS
370
-3
390
F
  0
ENDTAB
  0
TABLE
  2
STYLE
  5
3
100
AcDbSymbolTable
 70
1
  0
STYLE
  5
11
100
AcDbSymbolTableRecord
100
AcDbTextStyleTableRecord
  2
STANDARD
 70
0
 40
0.0
 41
0.8
 50
0.0
 71
0
 42
0.2
  3
txt
  4

  0
STYLE
  5
200
100
AcDbSymbolTableRecord
100
AcDbTextStyleTableRecord
  2
TEXTSTYLE_1
 70
0
 40
0.0
 41
0.8
 50
0.0
 71
0
 42
0.2
  3
gdt
  4

  0
ENDTAB
  0
TABLE
  2
VIEW
  5
6
100
AcDbSymbolTable
 70
0
  0
ENDTAB
  0
TABLE
  2
UCS
  5
7
100
AcDbSymbolTable
 70
0
  0
ENDTAB
  0
TABLE
  2
APPID
  5
9
100
AcDbSymbolTable
 70
1
  0
APPID
  5
201
100
AcDbSymbolTableRecord
100
AcDbRegAppTableRecord
  2
ACAD
 70
0
  0
ENDTAB
  0
TABLE
  2
BLOCK_RECORD
  5
1
100
AcDbSymbolTable
 70
0
  0
BLOCK_RECORD
  5
202
100
AcDbSymbolTableRecord
100
AcDbBlockTableRecord
  2
*Model_Space
  0
BLOCK_RECORD
  5
203
100
AcDbSymbolTableRecord
100
AcDbBlockTableRecord
  2
*Paper_Space
  0
BLOCK_RECORD
  5
204
100
AcDbSymbolTableRecord
100
AcDbBlockTableRecord
  2
_FILLED
  0
ENDTAB
  0
TABLE
  2
DIMSTYLE
  5
A
100
AcDbSymbolTable
 70
1
100
AcDbDimStyleTable
 71
0
  0
DIMSTYLE
105
205
100
AcDbSymbolTableRecord
100
AcDbDimStyleTableRecord
  2
STANDARD
 70
0
  3

  4

 40
1.0
 41
0.1
 42
0.0625
 43
0.38
 44
0.125
 45
0.0
 46
0.0
 47
0.01
 48
0.01
140
0.08
141
0.09
142
0.0
143
25.4
144
1.0
145
0.0
146
1.0
147
0.09
 71
1.0
 72
0.0
 73
1
 74
1
 75
0
 76
0
 77
0
 78
4
 79
1
170
1
171
1
172
0
173
0
174
0
175
0
176
0
177
0
178
0
270
2
179
2
271
2
272
2
273
2
274
2
275
0
280
0
281
0
282
0
283
1
284
4
285
0
286
0
287
3
288
0
340
11
278
46
341
204
342
204
343
204
344
204
  0
ENDTAB
  0
ENDSEC
  0
SECTION
  2
BLOCKS
  0
BLOCK
  5
20
100
AcDbEntity
  8
0
100
AcDbBlockBegin
  2
*Model_Space
 70
0
 10
0.0
 20
0.0
 30
0.0
  3
*Model_Space
  1

  0
ENDBLK
  5
21
100
AcDbEntity
  8
0
100
AcDbBlockEnd
  0
BLOCK
  5
1C
100
AcDbEntity
  8
0
100
AcDbBlockBegin
  2
*Paper_Space
 70
0
 10
0.0
 20
0.0
 30
0.0
  3
*Paper_Space
  1

  0
ENDBLK
  5
1D
100
AcDbEntity
  8
0
100
AcDbBlockEnd
  0
BLOCK
  5
206
100
AcDbEntity
  8
0
100
AcDbBlockBegin
  2
_FILLED
 70
64
 10
0.0
 20
0.0
  3
_FILLED
  1

  0
SOLID
  5
207
100
AcDbEntity
  8
0
  6
BYBLOCK
 62
0
100
AcDbTrace
 10
0.0
 20
0.0
 11
-1.0
 21
0.2
 12
-1.0
 22
-0.2
 13
-1.0
 23
-0.2
  0
ENDBLK
  5
208
100
AcDbEntity
  8
0
  6
BYBLOCK
 62
0
100
AcDbBlockEnd
  0
ENDSEC
  0
SECTION
  2
ENTITIES
  0
MTEXT
  5
209
100
AcDbEntity
  8
0
100
AcDbMText
 62
2
  6
CONTINUOUS
  7
STANDARD
 71
3
 72
1
 10
4.7044642857
 20
3.9169138056
 30
0.0
 11
1.0
 21
0.0
 31
0.0
 73
2
 44
0.9
  1
SCALE  .500
 40
0.08
 41
0.704
  0
LINE
  5
20A
100
AcDbEntity
  8
0
100
AcDbLine
 62
7
  6
CONTINUOUS
 10
0.0
 20
0.0
 11
0.0
 21
8.5
  0
LINE
  5
20B
100
AcDbEntity
  8
0
100
AcDbLine
 62
7
  6
CONTINUOUS
 10
0.0
 20
0.0
 11
11.0
 21
0.0
  0
LINE
  5
20C
100
AcDbEntity
  8
0
100
AcDbLine
 62
7
  6
CONTINUOUS
 10
0.0
 20
8.5
 11
11.0
 21
8.5
  0
LINE
  5
20D
100
AcDbEntity
  8
0
100
AcDbLine
 62
7
  6
CONTINUOUS
 10
11.0
 20
0.0
 11
11.0
 21
8.5
  0
LINE
  5
20E
100
AcDbEntity
  8
0
100
AcDbLine
 62
7
  6
CONTINUOUS
 10
2.6649642857
 20
4.464413822
 11
2.6649642857
 21
4.554413822
  0
LINE
  5
20F
100
AcDbEntity
  8
0
100
AcDbLine
 62
7
  6
CONTINUOUS
 10
2.7199642857
 20
4.399413822
 11
2.7199642857
 21
4.368413822
  0
LINE
  5
210
100
AcDbEntity
  8
0
100
AcDbLine
 62
7
  6
CONTINUOUS
 10
2.7199642857
 20
4.619413822
 11
2.7199642857
 21
4.650413822
  0
LINE
  5
211
100
AcDbEntity
  8
0
100
AcDbLine
 62
7
  6
CONTINUOUS
 10
2.7499642857
 20
4.619413822
 11
2.7499642857
 21
4.650413822
  0
LINE
  5
212
100
AcDbEntity
  8
0
100
AcDbLine
 62
7
  6
CONTINUOUS
 10
2.7671392886
 20
4.368413822
 11
2.7671392886
 21
4.399413822
  0
LINE
  5
213
100
AcDbEntity
  8
0
100
AcDbLine
 62
7
  6
CONTINUOUS
 10
3.0399642857
 20
4.074413822
 11
3.0399642857
 21
4.944413822
  0
LINE
  5
214
100
AcDbEntity
  8
0
100
AcDbLine
 62
7
  6
CONTINUOUS
 10
3.1024642857
 20
4.011913822
 11
3.1024642857
 21
5.006913822
  0
LINE
  5
215
100
AcDbEntity
  8
0
100
AcDbLine
 62
7
  6
CONTINUOUS
 10
3.0399642857
 20
4.944413822
 11
3.1024642857
 21
5.006913822
  0
LINE
  5
216
100
AcDbEntity
  8
0
100
AcDbLine
 62
7
  6
CONTINUOUS
 10
3.0399642857
 20
4.074413822
 11
3.1024642857
 21
4.011913822
  0
LINE
  5
217
100
AcDbEntity
  8
0
100
AcDbLine
 62
7
  6
CONTINUOUS
 10
3.8119642857
 20
5.006913822
 11
3.8119642857
 21
4.571913822
  0
LINE
  5
218
100
AcDbEntity
  8
0
100
AcDbLine
 62
7
  6
CONTINUOUS
 10
3.8119642857
 20
4.446913822
 11
3.8119642857
 21
4.011913822
  0
LINE
  5
219
100
AcDbEntity
  8
0
100
AcDbLine
 62
7
  6
CONTINUOUS
 10
3.8899642857
 20
4.928913822
 11
3.8899642857
 21
4.571913822
  0
LINE
  5
21A
100
AcDbEntity
  8
0
100
AcDbLine
 62
7
  6
CONTINUOUS
 10
3.8899642857
 20
4.446913822
 11
3.8899642857
 21
4.089913822
  0
LINE
  5
21B
100
AcDbEntity
  8
0
100
AcDbLine
 62
7
  6
CONTINUOUS
 10
3.8949642857
 20
4.8282265916
 11
3.8949642857
 21
4.7427613579
  0
LINE
  5
21C
100
AcDbEntity
  8
0
100
AcDbLine
 62
7
  6
CONTINUOUS
 10
3.8949642857
 20
4.7252299945
 11
3.8949642857
 21
4.712081497
  0
LINE
  5
21D
100
AcDbEntity
  8
0
100
AcDbLine
 62
7
  6
CONTINUOUS
 10
3.8949642857
 20
4.6994713657
 11
3.8949642857
 21
4.571913822
  0
LINE
  5
21E
100
AcDbEntity
  8
0
100
AcDbLine
 62
7
  6
CONTINUOUS
 10
3.8949642857
 20
4.446913822
 11
3.8949642857
 21
4.3110523424
  0
LINE
  5
21F
100
AcDbEntity
  8
0
100
AcDbLine
 62
7
  6
CONTINUOUS
 10
3.8949642857
 20
4.2935210103
 11
3.8949642857
 21
4.2146300254
  0
LINE
  5
220
100
AcDbEntity
  8
0
100
AcDbLine
 62
7
  6
CONTINUOUS
 10
5.8600989445
 20
4.0753616992
 11
5.86806462
 21
4.0766975805
  0
LINE
  5
221
100
AcDbEntity
  8
0
100
AcDbLine
 62
7
  6
CONTINUOUS
 10
3.1024642857
 20
4.011913822
 11
3.8119642857
 21
4.011913822
  0
LINE
  5
222
100
AcDbEntity
  8
0
100
AcDbLine
 62
7
  6
CONTINUOUS
 10
4.3064642857
 20
4.571913822
 11
4.3064642857
 21
4.446913822
  0
LINE
  5
223
100
AcDbEntity
  8
0
100
AcDbLine
 62
7
  6
CONTINUOUS
 10
3.8899642857
 20
4.2146300254
 11
3.8949642857
 21
4.2146300254
  0
LINE
  5
224
100
AcDbEntity
  8
0
100
AcDbLine
 62
7
  6
CONTINUOUS
 10
3.8899642857
 20
4.2277785229
 11
3.8949642857
 21
4.2277785229
  0
LINE
  5
225
100
AcDbEntity
  8
0
100
AcDbLine
 62
7
  6
CONTINUOUS
 10
3.8899642857
 20
4.2935210103
 11
3.8949642857
 21
4.2935210103
  0
LINE
  5
226
100
AcDbEntity
  8
0
100
AcDbLine
 62
7
  6
CONTINUOUS
 10
3.8899642857
 20
4.3110523424
 11
3.8949642857
 21
4.3110523424
  0
LINE
  5
227
100
AcDbEntity
  8
0
100
AcDbLine
 62
7
  6
CONTINUOUS
 10
3.0399642857
 20
4.368413822
 11
2.7199642857
 21
4.368413822
  0
LINE
  5
228
100
AcDbEntity
  8
0
100
AcDbLine
 62
7
  6
CONTINUOUS
 10
3.8899642857
 20
4.3899433211
 11
3.8949642857
 21
4.3899433211
  0
LINE
  5
229
100
AcDbEntity
  8
0
100
AcDbLine
 62
7
  6
CONTINUOUS
 10
3.0399642857
 20
4.399413822
 11
2.7199642857
 21
4.399413822
  0
LINE
  5
22A
100
AcDbEntity
  8
0
100
AcDbLine
 62
7
  6
CONTINUOUS
 10
3.8899642857
 20
4.4074746594
 11
3.8949642857
 21
4.4074746594
  0
LINE
  5
22B
100
AcDbEntity
  8
0
100
AcDbLine
 62
7
  6
CONTINUOUS
 10
3.8899642857
 20
4.4096660673
 11
3.8949642857
 21
4.4096660673
  0
LINE
  5
22C
100
AcDbEntity
  8
0
100
AcDbLine
 62
7
  6
CONTINUOUS
 10
3.8899642857
 20
4.4140489082
 11
3.8949642857
 21
4.4140489082
  0
LINE
  5
22D
100
AcDbEntity
  8
0
100
AcDbLine
 62
7
  6
CONTINUOUS
 10
3.8899642857
 20
4.4228145648
 11
3.8949642857
 21
4.4228145648
  0
LINE
  5
22E
100
AcDbEntity
  8
0
100
AcDbLine
 62
7
  6
CONTINUOUS
 10
3.8899642857
 20
4.431580234
 11
3.8949642857
 21
4.431580234
  0
LINE
  5
22F
100
AcDbEntity
  8
0
100
AcDbLine
 62
7
  6
CONTINUOUS
 10
3.8899642857
 20
4.4425373236
 11
3.8949642857
 21
4.4425373236
  0
LINE
  5
230
100
AcDbEntity
  8
0
100
AcDbLine
 62
7
  6
CONTINUOUS
 10
3.8064642857
 20
4.446913822
 11
4.604371465
 21
4.446913822
  0
LINE
  5
231
100
AcDbEntity
  8
0
100
AcDbLine
 62
7
  6
CONTINUOUS
 10
5.4430040286
 20
4.446913822
 11
5.8248005565
 21
4.446913822
  0
LINE
  5
232
100
AcDbEntity
  8
0
100
AcDbLine
 62
7
  6
CONTINUOUS
 10
3.0399642857
 20
4.464413822
 11
2.6649642857
 21
4.464413822
  0
LINE
  5
233
100
AcDbEntity
  8
0
100
AcDbLine
 62
7
  6
CONTINUOUS
 10
6.7528296269
 20
4.0753616992
 11
6.7448640268
 21
4.0766974185
  0
LINE
  5
234
100
AcDbEntity
  8
0
100
AcDbLine
 62
7
  6
CONTINUOUS
 10
6.7528296269
 20
4.9434659447
 11
6.7448638327
 21
4.9421307567
  0
LINE
  5
235
100
AcDbEntity
  8
0
100
AcDbLine
 62
7
  6
CONTINUOUS
 10
3.0399642857
 20
4.554413822
 11
2.6649642857
 21
4.554413822
  0
LINE
  5
236
100
AcDbEntity
  8
0
100
AcDbLine
 62
7
  6
CONTINUOUS
 10
3.8064642857
 20
4.571913822
 11
4.604371465
 21
4.571913822
  0
LINE
  5
237
100
AcDbEntity
  8
0
100
AcDbLine
 62
7
  6
CONTINUOUS
 10
5.4430040286
 20
4.571913822
 11
5.8248005565
 21
4.571913822
  0
LINE
  5
238
100
AcDbEntity
  8
0
100
AcDbLine
 62
7
  6
CONTINUOUS
 10
3.8899642857
 20
4.5937450447
 11
3.8949642857
 21
4.5937450447
  0
LINE
  5
239
100
AcDbEntity
  8
0
100
AcDbLine
 62
7
  6
CONTINUOUS
 10
3.8899642857
 20
4.6112763579
 11
3.8949642857
 21
4.6112763579
  0
LINE
  5
23A
100
AcDbEntity
  8
0
100
AcDbLine
 62
7
  6
CONTINUOUS
 10
2.7199642857
 20
4.619413822
 11
3.0399642857
 21
4.619413822
  0
LINE
  5
23B
100
AcDbEntity
  8
0
100
AcDbLine
 62
7
  6
CONTINUOUS
 10
2.7199642857
 20
4.650413822
 11
3.0399642857
 21
4.650413822
  0
LINE
  5
23C
100
AcDbEntity
  8
0
100
AcDbLine
 62
7
  6
CONTINUOUS
 10
3.8899642857
 20
4.663870373
 11
3.8949642857
 21
4.663870373
  0
LINE
  5
23D
100
AcDbEntity
  8
0
100
AcDbLine
 62
7
  6
CONTINUOUS
 10
3.8899642857
 20
4.6748274375
 11
3.8949642857
 21
4.6748274375
  0
LINE
  5
23E
100
AcDbEntity
  8
0
100
AcDbLine
 62
7
  6
CONTINUOUS
 10
3.8899642857
 20
4.6835931192
 11
3.8949642857
 21
4.6835931192
  0
LINE
  5
23F
100
AcDbEntity
  8
0
100
AcDbLine
 62
7
  6
CONTINUOUS
 10
3.8899642857
 20
4.6901673679
 11
3.8949642857
 21
4.6901673679
  0
LINE
  5
240
100
AcDbEntity
  8
0
100
AcDbLine
 62
7
  6
CONTINUOUS
 10
3.8899642857
 20
4.6923587507
 11
3.8949642857
 21
4.6923587507
  0
LINE
  5
241
100
AcDbEntity
  8
0
100
AcDbLine
 62
7
  6
CONTINUOUS
 10
3.8899642857
 20
4.6945501837
 11
3.8949642857
 21
4.6945501837
  0
LINE
  5
242
100
AcDbEntity
  8
0
100
AcDbLine
 62
7
  6
CONTINUOUS
 10
3.8899642857
 20
4.697852626
 11
3.8949642857
 21
4.697852626
  0
LINE
  5
243
100
AcDbEntity
  8
0
100
AcDbLine
 62
7
  6
CONTINUOUS
 10
3.8899642857
 20
4.6994713657
 11
3.8949642857
 21
4.6994713657
  0
LINE
  5
244
100
AcDbEntity
  8
0
100
AcDbLine
 62
7
  6
CONTINUOUS
 10
3.8899642857
 20
4.712081497
 11
3.8949642857
 21
4.712081497
  0
LINE
  5
245
100
AcDbEntity
  8
0
100
AcDbLine
 62
7
  6
CONTINUOUS
 10
3.8899642857
 20
4.7252299945
 11
3.8949642857
 21
4.7252299945
  0
LINE
  5
246
100
AcDbEntity
  8
0
100
AcDbLine
 62
7
  6
CONTINUOUS
 10
3.8899642857
 20
4.7427613579
 11
3.8949642857
 21
4.7427613579
  0
LINE
  5
247
100
AcDbEntity
  8
0
100
AcDbLine
 62
7
  6
CONTINUOUS
 10
3.8899642857
 20
4.7449527407
 11
3.8949642857
 21
4.7449527407
  0
LINE
  5
248
100
AcDbEntity
  8
0
100
AcDbLine
 62
7
  6
CONTINUOUS
 10
3.8899642857
 20
4.7493356066
 11
3.8949642857
 21
4.7493356066
  0
LINE
  5
249
100
AcDbEntity
  8
0
100
AcDbLine
 62
7
  6
CONTINUOUS
 10
3.8899642857
 20
4.7581012382
 11
3.8949642857
 21
4.7581012382
  0
LINE
  5
24A
100
AcDbEntity
  8
0
100
AcDbLine
 62
7
  6
CONTINUOUS
 10
3.8899642857
 20
4.7668669199
 11
3.8949642857
 21
4.7668669199
  0
LINE
  5
24B
100
AcDbEntity
  8
0
100
AcDbLine
 62
7
  6
CONTINUOUS
 10
3.8899642857
 20
4.7778239844
 11
3.8949642857
 21
4.7778239844
  0
LINE
  5
24C
100
AcDbEntity
  8
0
100
AcDbLine
 62
7
  6
CONTINUOUS
 10
3.8899642857
 20
4.7975467307
 11
3.8949642857
 21
4.7975467307
  0
LINE
  5
24D
100
AcDbEntity
  8
0
100
AcDbLine
 62
7
  6
CONTINUOUS
 10
3.8899642857
 20
4.8085038453
 11
3.8949642857
 21
4.8085038453
  0
LINE
  5
24E
100
AcDbEntity
  8
0
100
AcDbLine
 62
7
  6
CONTINUOUS
 10
3.8899642857
 20
4.8172694769
 11
3.8949642857
 21
4.8172694769
  0
LINE
  5
24F
100
AcDbEntity
  8
0
100
AcDbLine
 62
7
  6
CONTINUOUS
 10
3.8899642857
 20
4.8260351586
 11
3.8949642857
 21
4.8260351586
  0
LINE
  5
250
100
AcDbEntity
  8
0
100
AcDbLine
 62
7
  6
CONTINUOUS
 10
3.8899642857
 20
4.8282265916
 11
3.8949642857
 21
4.8282265916
  0
LINE
  5
251
100
AcDbEntity
  8
0
100
AcDbLine
 62
7
  6
CONTINUOUS
 10
3.8119642857
 20
5.006913822
 11
3.1024642857
 21
5.006913822
  0
LINE
  5
252
100
AcDbEntity
  8
0
100
AcDbLine
 62
7
  6
CONTINUOUS
 10
5.8600989445
 20
4.9434659447
 11
5.8680645446
 21
4.9421302254
  0
LINE
  5
253
100
AcDbEntity
  8
0
100
AcDbLine
 62
7
  6
CONTINUOUS
 10
6.7104320363
 20
4.9257310605
 11
6.710832368
 21
4.9260427544
  0
LINE
  5
254
100
AcDbEntity
  8
0
100
AcDbLine
 62
7
  6
CONTINUOUS
 10
6.7104320363
 20
4.9257310605
 11
6.7391805298
 21
4.9478134872
  0
LINE
  5
255
100
AcDbEntity
  8
0
100
AcDbLine
 62
7
  6
CONTINUOUS
 10
6.7202774049
 20
4.933282146
 11
6.7220571119
 21
4.9346493708
  0
LINE
  5
256
100
AcDbEntity
  8
0
100
AcDbLine
 62
7
  6
CONTINUOUS
 10
6.7158772152
 20
4.9299064708
 11
6.7171884183
 21
4.9309139052
  0
LINE
  5
257
100
AcDbEntity
  8
0
100
AcDbLine
 62
7
  6
CONTINUOUS
 10
5.8064642857
 20
4.571913822
 11
5.8064642857
 21
4.446913822
  0
LINE
  5
258
100
AcDbEntity
  8
0
100
AcDbLine
 62
7
  6
CONTINUOUS
 10
5.8724121768
 20
4.0630485632
 11
5.8737476722
 21
4.0710142263
  0
LINE
  5
259
100
AcDbEntity
  8
0
100
AcDbLine
 62
7
  6
CONTINUOUS
 10
5.8901470459
 20
4.1054460808
 11
5.8680646204
 21
4.0766975778
  0
LINE
  5
25A
100
AcDbEntity
  8
0
100
AcDbLine
 62
7
  6
CONTINUOUS
 10
5.8901470459
 20
4.1054460808
 11
5.8898353508
 21
4.105045742
  0
LINE
  5
25B
100
AcDbEntity
  8
0
100
AcDbLine
 62
7
  6
CONTINUOUS
 10
5.8901470489
 20
4.9133815859
 11
5.8898354646
 21
4.9137817169
  0
LINE
  5
25C
100
AcDbEntity
  8
0
100
AcDbLine
 62
7
  6
CONTINUOUS
 10
5.8901470489
 20
4.9133815859
 11
5.8680646789
 21
4.9421304145
  0
LINE
  5
25D
100
AcDbEntity
  8
0
100
AcDbLine
 62
7
  6
CONTINUOUS
 10
5.8724121629
 20
4.9557791631
 11
5.8737477006
 21
4.9478134276
  0
LINE
  5
25E
100
AcDbEntity
  8
0
100
AcDbLine
 62
7
  6
CONTINUOUS
 10
6.7227815053
 20
4.1054460804
 11
6.7230930852
 21
4.1050459552
  0
LINE
  5
25F
100
AcDbEntity
  8
0
100
AcDbLine
 62
7
  6
CONTINUOUS
 10
6.7227815053
 20
4.1054460804
 11
6.7448638925
 21
4.0766972294
  0
LINE
  5
260
100
AcDbEntity
  8
0
100
AcDbLine
 62
7
  6
CONTINUOUS
 10
6.7405164223
 20
4.9557792455
 11
6.7391804756
 21
4.9478137113
  0
LINE
  5
261
100
AcDbEntity
  8
0
100
AcDbLine
 62
7
  6
CONTINUOUS
 10
6.7405164085
 20
4.0630484808
 11
6.7391808709
 21
4.0710142163
  0
ARC
  5
262
100
AcDbEntity
  8
0
100
AcDbCircle
 62
7
  6
CONTINUOUS
 10
4.9545985076
 20
-2.9689270299
 40
7.1253554319
100
AcDbArc
 50
81.9894915277
 51
82.3551848512
  0
ARC
  5
263
100
AcDbEntity
  8
0
100
AcDbCircle
 62
7
  6
CONTINUOUS
 10
-1.1589750262
 20
3.1593422293
 40
7.1123297509
100
AcDbArc
 50
7.6443183988
 51
8.010686734
  0
ARC
  5
264
100
AcDbEntity
  8
0
100
AcDbCircle
 62
7
  6
CONTINUOUS
 10
5.4752590212
 20
0.8141131503
 40
3.3175541345
100
AcDbArc
 50
81.8359269222
 51
82.6224979506
  0
ARC
  5
265
100
AcDbEntity
  8
0
100
AcDbCircle
 62
7
  6
CONTINUOUS
 10
2.6191941409
 20
3.679328862
 40
3.3094459018
100
AcDbArc
 50
7.3761268928
 51
8.1646334655
  0
ARC
  5
266
100
AcDbEntity
  8
0
100
AcDbCircle
 62
7
  6
CONTINUOUS
 10
6.3064642857
 20
2.366913822
 40
2.625
100
AcDbArc
 50
80.4822474196
 51
99.5177525804
  0
ARC
  5
267
100
AcDbEntity
  8
0
100
AcDbCircle
 62
7
  6
CONTINUOUS
 10
6.3064642857
 20
2.366913822
 40
2.6169230769
100
AcDbArc
 50
80.4822548546
 51
99.5177527473
  0
ARC
  5
268
100
AcDbEntity
  8
0
100
AcDbCircle
 62
7
  6
CONTINUOUS
 10
6.3064642857
 20
2.366913822
 40
2.59
100
AcDbArc
 50
82.0345212979
 51
97.9654787021
  0
ARC
  5
269
100
AcDbEntity
  8
0
100
AcDbCircle
 62
7
  6
CONTINUOUS
 10
6.3038371975
 20
2.3767120278
 40
2.5697963414
100
AcDbArc
 50
81.8859505745
 51
87.2456948086
  0
ARC
  5
26A
100
AcDbEntity
  8
0
100
AcDbCircle
 62
7
  6
CONTINUOUS
 10
4.1737628655
 20
4.5067867709
 40
2.569795966
100
AcDbArc
 50
2.7543047643
 51
8.1140702503
  0
ARC
  5
26B
100
AcDbEntity
  8
0
100
AcDbCircle
 62
7
  6
CONTINUOUS
 10
6.3090913285
 20
2.3767125058
 40
2.5697958617
100
AcDbArc
 50
92.7543046908
 51
98.1140499261
  0
ARC
  5
26C
100
AcDbEntity
  8
0
100
AcDbCircle
 62
7
  6
CONTINUOUS
 10
6.305846875
 20
4.1907190673
 40
0.762553599
100
AcDbArc
 50
80.8336078671
 51
89.9536139457
  0
ARC
  5
26D
100
AcDbEntity
  8
0
100
AcDbCircle
 62
7
  6
CONTINUOUS
 10
6.3070806465
 20
4.1907359973
 40
0.762536692
100
AcDbArc
 50
90.0463170046
 51
99.1665168969
  0
ARC
  5
26E
100
AcDbEntity
  8
0
100
AcDbCircle
 62
7
  6
CONTINUOUS
 10
3.8119642857
 20
4.089913822
 40
0.078
100
AcDbArc
 50
270.0
 51
360.0
  0
ARC
  5
26F
100
AcDbEntity
  8
0
100
AcDbCircle
 62
7
  6
CONTINUOUS
 10
5.8748924608
 20
4.077841997
 40
0.015
100
AcDbArc
 50
189.5177525804
 51
260.4822474196
  0
ARC
  5
270
100
AcDbEntity
  8
0
100
AcDbCircle
 62
7
  6
CONTINUOUS
 10
-1.159014014
 20
5.859490766
 40
7.112369104
100
AcDbArc
 50
351.9893143461
 51
352.3556808393
  0
ARC
  5
271
100
AcDbEntity
  8
0
100
AcDbCircle
 62
7
  6
CONTINUOUS
 10
2.6187261296
 20
5.3395625307
 40
3.3099182229
100
AcDbArc
 50
351.8354247555
 51
352.6238192425
  0
ARC
  5
272
100
AcDbEntity
  8
0
100
AcDbCircle
 62
7
  6
CONTINUOUS
 10
4.1639642857
 20
4.509413822
 40
2.625
100
AcDbArc
 50
350.4822474196
 51
9.5177525804
  0
ARC
  5
273
100
AcDbEntity
  8
0
100
AcDbCircle
 62
7
  6
CONTINUOUS
 10
4.1639642857
 20
4.509413822
 40
2.6169230769
100
AcDbArc
 50
350.4822471187
 51
9.5177604782
  0
ARC
  5
274
100
AcDbEntity
  8
0
100
AcDbCircle
 62
7
  6
CONTINUOUS
 10
4.1639642857
 20
4.509413822
 40
2.59
100
AcDbArc
 50
352.0345010231
 51
7.9654989769
  0
ARC
  5
275
100
AcDbEntity
  8
0
100
AcDbCircle
 62
7
  6
CONTINUOUS
 10
4.1737636366
 20
4.5120407997
 40
2.5697951923
100
AcDbArc
 50
351.8859289422
 51
357.2456960432
  0
ARC
  5
276
100
AcDbEntity
  8
0
100
AcDbCircle
 62
7
  6
CONTINUOUS
 10
3.8119642857
 20
4.928913822
 40
0.078
100
AcDbArc
 50
0.0
 51
90.0
  0
ARC
  5
277
100
AcDbEntity
  8
0
100
AcDbCircle
 62
7
  6
CONTINUOUS
 10
3.8064642857
 20
4.509413822
 40
0.0625
100
AcDbArc
 50
90.0
 51
270.0
  0
ARC
  5
278
100
AcDbEntity
  8
0
100
AcDbCircle
 62
7
  6
CONTINUOUS
 10
2.6649642857
 20
4.509413822
 40
0.045
100
AcDbArc
 50
90.0
 51
270.0
  0
ARC
  5
279
100
AcDbEntity
  8
0
100
AcDbCircle
 62
7
  6
CONTINUOUS
 10
6.3064642857
 20
4.509413822
 40
0.4506355036
100
AcDbArc
 50
15.5570999336
 51
74.4429000664
  0
ARC
  5
27A
100
AcDbEntity
  8
0
100
AcDbCircle
 62
7
  6
CONTINUOUS
 10
6.3064642857
 20
4.509413822
 40
0.4506355036
100
AcDbArc
 50
195.5570999336
 51
254.4429000664
  0
ARC
  5
27B
100
AcDbEntity
  8
0
100
AcDbCircle
 62
7
  6
CONTINUOUS
 10
6.3064642857
 20
4.509413822
 40
0.4506355036
100
AcDbArc
 50
285.5570999336
 51
344.4429000664
  0
ARC
  5
27C
100
AcDbEntity
  8
0
100
AcDbCircle
 62
7
  6
CONTINUOUS
 10
6.3064642857
 20
4.509413822
 40
0.4506355036
100
AcDbArc
 50
105.5570999336
 51
164.4429000664
  0
CIRCLE
  5
27D
100
AcDbEntity
  8
0
100
AcDbCircle
 62
7
  6
CONTINUOUS
 10
6.3064642857
 20
4.509413822
 40
0.4415
  0
CIRCLE
  5
27E
100
AcDbEntity
  8
0
100
AcDbCircle
 62
7
  6
CONTINUOUS
 10
6.3064642857
 20
4.509413822
 40
0.4376342699
  0
CIRCLE
  5
27F
100
AcDbEntity
  8
0
100
AcDbCircle
 62
7
  6
CONTINUOUS
 10
6.3064642857
 20
4.509413822
 40
0.435
  0
CIRCLE
  5
280
100
AcDbEntity
  8
0
100
AcDbCircle
 62
7
  6
CONTINUOUS
 10
6.3064642857
 20
4.509413822
 40
0.4207291667
  0
CIRCLE
  5
281
100
AcDbEntity
  8
0
100
AcDbCircle
 62
7
  6
CONTINUOUS
 10
6.3064642857
 20
4.509413822
 40
0.235
  0
CIRCLE
  5
282
100
AcDbEntity
  8
0
100
AcDbCircle
 62
7
  6
CONTINUOUS
 10
6.3064642857
 20
4.509413822
 40
0.225
  0
CIRCLE
  5
283
100
AcDbEntity
  8
0
100
AcDbCircle
 62
7
  6
CONTINUOUS
 10
6.3064642857
 20
4.509413822
 40
0.205
  0
CIRCLE
  5
284
100
AcDbEntity
  8
0
100
AcDbCircle
 62
7
  6
CONTINUOUS
 10
6.3064642857
 20
4.509413822
 40
0.1837949243
  0
ARC
  5
285
100
AcDbEntity
  8
0
100
AcDbCircle
 62
7
  6
CONTINUOUS
 10
5.8748924608
 20
4.9409856469
 40
0.015
100
AcDbArc
 50
99.5177525804
 51
170.4822474196
  0
ARC
  5
286
100
AcDbEntity
  8
0
100
AcDbCircle
 62
7
  6
CONTINUOUS
 10
5.4752689714
 20
8.2046553999
 40
3.3174942276
100
AcDbArc
 50
277.3774627588
 51
278.164063759
  0
ARC
  5
287
100
AcDbEntity
  8
0
100
AcDbCircle
 62
7
  6
CONTINUOUS
 10
6.3064642857
 20
6.651913822
 40
2.625
100
AcDbArc
 50
260.4822474196
 51
279.5177525804
  0
ARC
  5
288
100
AcDbEntity
  8
0
100
AcDbCircle
 62
7
  6
CONTINUOUS
 10
6.3064642857
 20
6.651913822
 40
2.6169230769
100
AcDbArc
 50
260.4822395218
 51
279.5177527473
  0
ARC
  5
289
100
AcDbEntity
  8
0
100
AcDbCircle
 62
7
  6
CONTINUOUS
 10
6.3064642857
 20
6.651913822
 40
2.59
100
AcDbArc
 50
262.0345010231
 51
277.9654989769
  0
ARC
  5
28A
100
AcDbEntity
  8
0
100
AcDbCircle
 62
7
  6
CONTINUOUS
 10
6.3090913825
 20
6.6421157229
 40
2.5697964485
100
AcDbArc
 50
261.8859302532
 51
267.2456947323
  0
ARC
  5
28B
100
AcDbEntity
  8
0
100
AcDbCircle
 62
7
  6
CONTINUOUS
 10
6.3038372344
 20
6.6421152449
 40
2.5697959688
100
AcDbArc
 50
272.7543047671
 51
278.1140702475
  0
ARC
  5
28C
100
AcDbEntity
  8
0
100
AcDbCircle
 62
7
  6
CONTINUOUS
 10
4.9546028484
 20
11.987746995
 40
7.1253472238
100
AcDbArc
 50
277.6447887326
 51
278.0104898822
  0
ARC
  5
28D
100
AcDbEntity
  8
0
100
AcDbCircle
 62
7
  6
CONTINUOUS
 10
7.6583313024
 20
-2.9689360133
 40
7.1253645002
100
AcDbArc
 50
97.6448155347
 51
98.0105082681
  0
ARC
  5
28E
100
AcDbEntity
  8
0
100
AcDbCircle
 62
7
  6
CONTINUOUS
 10
13.7719593597
 20
3.1593312877
 40
7.1123864929
100
AcDbArc
 50
171.9892959669
 51
172.3556540216
  0
ARC
  5
28F
100
AcDbEntity
  8
0
100
AcDbCircle
 62
7
  6
CONTINUOUS
 10
7.1376621605
 20
0.8141681242
 40
3.3174986684
100
AcDbArc
 50
97.377497826
 51
98.1640815722
  0
ARC
  5
290
100
AcDbEntity
  8
0
100
AcDbCircle
 62
7
  6
CONTINUOUS
 10
9.9942058447
 20
3.6792626558
 40
3.3099219393
100
AcDbArc
 50
171.8354069047
 51
172.6237842679
  0
ARC
  5
291
100
AcDbEntity
  8
0
100
AcDbCircle
 62
7
  6
CONTINUOUS
 10
8.4391648279
 20
4.5067868528
 40
2.5697950851
100
AcDbArc
 50
171.8859492635
 51
177.2456961196
  0
ARC
  5
292
100
AcDbEntity
  8
0
100
AcDbCircle
 62
7
  6
CONTINUOUS
 10
6.6251421938
 20
4.5087974761
 40
0.7625367723
100
AcDbArc
 50
170.8334852143
 51
179.9536885319
  0
ARC
  5
293
100
AcDbEntity
  8
0
100
AcDbCircle
 62
7
  6
CONTINUOUS
 10
6.7380361106
 20
4.077841997
 40
0.015
100
AcDbArc
 50
279.5177525804
 51
350.4822474196
  0
ARC
  5
294
100
AcDbEntity
  8
0
100
AcDbCircle
 62
7
  6
CONTINUOUS
 10
13.7848106659
 20
5.8612803598
 40
7.1253610121
100
AcDbArc
 50
187.6448152
 51
188.010508327
  0
ARC
  5
295
100
AcDbEntity
  8
0
100
AcDbCircle
 62
7
  6
CONTINUOUS
 10
7.6565420543
 20
11.9748980627
 40
7.1123751019
100
AcDbArc
 50
261.9893144384
 51
262.355680514
  0
ARC
  5
296
100
AcDbEntity
  8
0
100
AcDbCircle
 62
7
  6
CONTINUOUS
 10
10.00170891
 20
5.340611548
 40
3.3174975846
100
AcDbArc
 50
187.377497191
 51
188.1640816625
  0
ARC
  5
297
100
AcDbEntity
  8
0
100
AcDbCircle
 62
7
  6
CONTINUOUS
 10
7.1366129948
 20
8.1971519906
 40
3.3099182353
100
AcDbArc
 50
261.8354247799
 51
262.6238187948
  0
ARC
  5
298
100
AcDbEntity
  8
0
100
AcDbCircle
 62
7
  6
CONTINUOUS
 10
8.4489642857
 20
4.509413822
 40
2.625
100
AcDbArc
 50
170.4822474196
 51
189.5177525804
  0
ARC
  5
299
100
AcDbEntity
  8
0
100
AcDbCircle
 62
7
  6
CONTINUOUS
 10
8.4489642857
 20
4.509413822
 40
2.6169230769
100
AcDbArc
 50
170.4822471187
 51
189.5177451454
  0
ARC
  5
29A
100
AcDbEntity
  8
0
100
AcDbCircle
 62
7
  6
CONTINUOUS
 10
8.4489642857
 20
4.509413822
 40
2.59
100
AcDbArc
 50
172.0345212979
 51
187.9654787021
  0
ARC
  5
29B
100
AcDbEntity
  8
0
100
AcDbCircle
 62
7
  6
CONTINUOUS
 10
8.4391655991
 20
4.5120408644
 40
2.5697958589
100
AcDbArc
 50
182.7543046879
 51
188.114049929
  0
ARC
  5
29C
100
AcDbEntity
  8
0
100
AcDbCircle
 62
7
  6
CONTINUOUS
 10
6.6251528137
 20
4.5100311963
 40
0.7625474163
100
AcDbArc
 50
180.0463881069
 51
189.1664639652
  0
ARC
  5
29D
100
AcDbEntity
  8
0
100
AcDbCircle
 62
7
  6
CONTINUOUS
 10
6.7380361106
 20
4.9409856469
 40
0.015
100
AcDbArc
 50
9.5177525804
 51
80.4822474196
  0
SPLINE
  5
29E
100
AcDbEntity
  8
0
100
AcDbSpline
 62
7
  6
CONTINUOUS
 70
0
 71
3
 72
11
 73
7
 74
0
 42
0.0000001
 43
0.0000001
 44
0.0000000001
 40
0.0
 40
0.0
 40
0.0
 40
0.0
 40
0.2499164926
 40
0.4999986864
 40
0.7500824588
 40
1.0
 40
1.0
 40
1.0
 40
1.0
 10
6.1856044836
 20
4.0752879585
 30
0.0
 10
6.2055681161
 20
4.0720927455
 30
0.0
 10
6.2457696302
 20
4.0672102229
 30
0.0
 10
6.3064640934
 20
4.0647328644
 30
0.0
 10
6.3671586461
 20
4.067210188
 30
0.0
 10
6.4073603675
 20
4.0720927578
 30
0.0
 10
6.4273240878
 20
4.0752879585
 30
0.0
  0
SPLINE
  5
29F
100
AcDbEntity
  8
0
100
AcDbSpline
 62
7
  6
CONTINUOUS
 70
0
 71
3
 72
20
 73
16
 74
0
 42
0.0000001
 43
0.0000001
 44
0.0000000001
 40
0.0
 40
0.0
 40
0.0
 40
0.0
 40
0.196579333
 40
0.3794228607
 40
0.5438690723
 40
0.6861671184
 40
0.7480049976
 40
0.8032357144
 40
0.851660231
 40
0.8932071314
 40
0.9280203726
 40
0.9565393422
 40
0.9798137334
 40
0.9901258393
 40
1.0
 40
1.0
 40
1.0
 40
1.0
 10
5.9463800645
 20
4.9207823378
 30
0.0
 10
5.9463155062
 20
4.9215363621
 30
0.0
 10
5.9462138805
 20
4.922993829
 30
0.0
 10
5.9461435217
 20
4.9250869595
 30
0.0
 10
5.9461612445
 20
4.926972273
 30
0.0
 10
5.9462509683
 20
4.9283895609
 30
0.0
 10
5.9463735998
 20
4.9293807984
 30
0.0
 10
5.9464820038
 20
4.9300089186
 30
0.0
 10
5.9466102712
 20
4.9305534557
 30
0.0
 10
5.9467576351
 20
4.9310113683
 30
0.0
 10
5.9469234098
 20
4.9313808637
 30
0.0
 10
5.9471074656
 20
4.9316609955
 30
0.0
 10
5.94728675
 20
4.9318256665
 30
0.0
 10
5.9474376896
 20
4.931900222
 30
0.0
 10
5.9475136882
 20
4.9319195666
 30
0.0
 10
5.9475513346
 20
4.9319248343
 30
0.0
  0
SPLINE
  5
2A0
100
AcDbEntity
  8
0
100
AcDbSpline
 62
7
  6
CONTINUOUS
 70
0
 71
3
 72
24
 73
20
 74
0
 42
0.0000001
 43
0.0000001
 44
0.0000000001
 40
0.0
 40
0.0
 40
0.0
 40
0.0
 40
0.2066554133
 40
0.3979948903
 40
0.5688171934
 40
0.645246582
 40
0.7150671955
 40
0.7778653117
 40
0.8332354514
 40
0.880850221
 40
0.9204881979
 40
0.9372593525
 40
0.9519749453
 40
0.9646357208
 40
0.9752672349
 40
0.9839226247
 40
0.9907123814
 40
0.9958825606
 40
1.0
 40
1.0
 40
1.0
 40
1.0
 10
6.4273240884
 20
4.9435396853
 30
0.0
 10
6.4273420194
 20
4.944274779
 30
0.0
 10
6.4273680609
 20
4.9456907161
 30
0.0
 10
6.4273773511
 20
4.9477147002
 30
0.0
 10
6.4273586555
 20
4.9492752749
 30
0.0
 10
6.4273261262
 20
4.9504030236
 30
0.0
 10
6.4272950091
 20
4.9511462241
 30
0.0
 10
6.4272565958
 20
4.9518140453
 30
0.0
 10
6.4272111711
 20
4.9524022301
 30
0.0
 10
6.4271590218
 20
4.952907076
 30
0.0
 10
6.4271081394
 20
4.9532738393
 30
0.0
 10
6.4270628106
 20
4.9535228595
 30
0.0
 10
6.4270292715
 20
4.9536763618
 30
0.0
 10
6.4269943617
 20
4.9538070849
 30
0.0
 10
6.4269581781
 20
4.953914943
 30
0.0
 10
6.4269208521
 20
4.9540001124
 30
0.0
 10
6.4268821576
 20
4.9540627839
 30
0.0
 10
6.4268414446
 20
4.9541042162
 30
0.0
 10
6.4268088788
 20
4.9541163999
 30
0.0
 10
6.4267942441
 20
4.9541170805
 30
0.0
  0
SPLINE
  5
2A1
100
AcDbEntity
  8
0
100
AcDbSpline
 62
7
  6
CONTINUOUS
 70
0
 71
3
 72
18
 73
14
 74
0
 42
0.0000001
 43
0.0000001
 44
0.0000000001
 40
0.0
 40
0.0
 40
0.0
 40
0.0
 40
0.1801858462
 40
0.3500687546
 40
0.5060391895
 40
0.6453082198
 40
0.7654816532
 40
0.8178153487
 40
0.864789747
 40
0.906344563
 40
0.9425278837
 40
0.9735808431
 40
1.0
 40
1.0
 40
1.0
 40
1.0
 10
6.7116755663
 20
4.9146254417
 30
0.0
 10
6.7117209579
 20
4.9153062414
 30
0.0
 10
6.7117873997
 20
4.9166304963
 30
0.0
 10
6.7118148219
 20
4.9185469495
 30
0.0
 10
6.711767709
 20
4.9203082431
 30
0.0
 10
6.7116465913
 20
4.921877313
 30
0.0
 10
6.7114807098
 20
4.9230475952
 30
0.0
 10
6.7113059329
 20
4.9238604698
 30
0.0
 10
6.7111646765
 20
4.9243751931
 30
0.0
 10
6.7110080573
 20
4.9248212127
 30
0.0
 10
6.7108365308
 20
4.9251966352
 30
0.0
 10
6.7106509231
 20
4.9254999607
 30
0.0
 10
6.710506852
 20
4.9256654568
 30
0.0
 10
6.7104322243
 20
4.9257320828
 30
0.0
  0
SPLINE
  5
2A2
100
AcDbEntity
  8
0
100
AcDbSpline
 62
7
  6
CONTINUOUS
 70
0
 71
3
 72
18
 73
14
 74
0
 42
0.0000001
 43
0.0000001
 44
0.0000000001
 40
0.0
 40
0.0
 40
0.0
 40
0.0
 40
0.180177248
 40
0.3500493911
 40
0.506014002
 40
0.6452779938
 40
0.7654437076
 40
0.8177727069
 40
0.8647446244
 40
0.9063032718
 40
0.9424997462
 40
0.973570172
 40
1.0
 40
1.0
 40
1.0
 40
1.0
 10
6.7116755663
 20
4.9146254417
 30
0.0
 10
6.7123563258
 20
4.9146708321
 30
0.0
 10
6.7136804677
 20
4.9147376525
 30
0.0
 10
6.7155968055
 20
4.9147655541
 30
0.0
 10
6.7173579978
 20
4.9147182725
 30
0.0
 10
6.7189269684
 20
4.9145970499
 30
0.0
 10
6.7200971761
 20
4.9144312415
 30
0.0
 10
6.720910012
 20
4.9142565974
 30
0.0
 10
6.7214247244
 20
4.914115364
 30
0.0
 10
6.7218707531
 20
4.9139586025
 30
0.0
 10
6.7222461623
 20
4.9137867317
 30
0.0
 10
6.7225494557
 20
4.9136007811
 30
0.0
 10
6.7227149604
 20
4.9134565787
 30
0.0
 10
6.7227816147
 20
4.9133819235
 30
0.0
  0
SPLINE
  5
2A3
100
AcDbEntity
  8
0
100
AcDbSpline
 62
7
  6
CONTINUOUS
 70
0
 71
3
 72
20
 73
16
 74
0
 42
0.0000001
 43
0.0000001
 44
0.0000000001
 40
0.0
 40
0.0
 40
0.0
 40
0.0
 40
0.1965792955
 40
0.3794227925
 40
0.5438689813
 40
0.6861670139
 40
0.7480048906
 40
0.803235608
 40
0.8516601288
 40
0.8932070378
 40
0.9280202926
 40
0.9565392822
 40
0.9798137005
 40
0.9901258225
 40
1.0
 40
1.0
 40
1.0
 40
1.0
 10
6.7178326721
 20
4.8694989521
 30
0.0
 10
6.7185866965
 20
4.8695635106
 30
0.0
 10
6.7200441635
 20
4.8696651366
 30
0.0
 10
6.7221372943
 20
4.8697354957
 30
0.0
 10
6.7240226081
 20
4.8697177731
 30
0.0
 10
6.7254398963
 20
4.8696280492
 30
0.0
 10
6.726431134
 20
4.8695054176
 30
0.0
 10
6.7270592544
 20
4.8693970135
 30
0.0
 10
6.7276037917
 20
4.8692687459
 30
0.0
 10
6.7280617045
 20
4.8691213817
 30
0.0
 10
6.7284312
 20
4.8689556067
 30
0.0
 10
6.728711332
 20
4.8687715505
 30
0.0
 10
6.7288760031
 20
4.8685922658
 30
0.0
 10
6.7289505587
 20
4.8684413259
 30
0.0
 10
6.7289699033
 20
4.8683653272
 30
0.0
 10
6.7289751711
 20
4.8683276808
 30
0.0
  0
SPLINE
  5
2A4
100
AcDbEntity
  8
0
100
AcDbSpline
 62
7
  6
CONTINUOUS
 70
0
 71
3
 72
24
 73
20
 74
0
 42
0.0000001
 43
0.0000001
 44
0.0000000001
 40
0.0
 40
0.0
 40
0.0
 40
0.0
 40
0.2066581717
 40
0.3980002116
 40
0.5688246731
 40
0.6452549324
 40
0.7150762485
 40
0.7778748692
 40
0.8332452779
 40
0.8808600363
 40
0.9204976689
 40
0.9372684986
 40
0.9519836447
 40
0.9646438236
 40
0.9752745428
 40
0.9839288625
 40
0.9907171483
 40
0.9958852726
 40
1.0
 40
1.0
 40
1.0
 40
1.0
 10
6.7405901492
 20
4.3885540199
 30
0.0
 10
6.7413252463
 20
4.3885361584
 30
0.0
 10
6.7427411888
 20
4.3885102354
 30
0.0
 10
6.7447651775
 20
4.3885010617
 30
0.0
 10
6.7463257541
 20
4.3885198014
 30
0.0
 10
6.7474535035
 20
4.3885523372
 30
0.0
 10
6.7481967034
 20
4.3885834471
 30
0.0
 10
6.7488645235
 20
4.3886218422
 30
0.0
 10
6.7494527066
 20
4.3886672386
 30
0.0
 10
6.7499575502
 20
4.388719351
 30
0.0
 10
6.750324312
 20
4.3887701957
 30
0.0
 10
6.7505733314
 20
4.388815491
 30
0.0
 10
6.7507268322
 20
4.3888490054
 30
0.0
 10
6.7508575538
 20
4.3888838897
 30
0.0
 10
6.75096541
 20
4.3889200471
 30
0.0
 10
6.7510505772
 20
4.3889573456
 30
0.0
 10
6.7511132459
 20
4.3889960111
 30
0.0
 10
6.7511546777
 20
4.3890366914
 30
0.0
 10
6.7511668641
 20
4.3890692387
 30
0.0
 10
6.7511675443
 20
4.3890838636
 30
0.0
  0
SPLINE
  5
2A5
100
AcDbEntity
  8
0
100
AcDbSpline
 62
7
  6
CONTINUOUS
 70
0
 71
3
 72
18
 73
14
 74
0
 42
0.0000001
 43
0.0000001
 44
0.0000000001
 40
0.0
 40
0.0
 40
0.0
 40
0.0
 40
0.1801861052
 40
0.3500692203
 40
0.5060397886
 40
0.6453088646
 40
0.7654822408
 40
0.8178158665
 40
0.8647901739
 40
0.906344888
 40
0.9425281056
 40
0.9735809588
 40
1.0
 40
1.0
 40
1.0
 40
1.0
 10
6.7116758786
 20
4.1042025379
 30
0.0
 10
6.7123566797
 20
4.1041571458
 30
0.0
 10
6.7136809375
 20
4.104090703
 30
0.0
 10
6.7155973946
 20
4.1040632796
 30
0.0
 10
6.7173586911
 20
4.1041103917
 30
0.0
 10
6.7189277628
 20
4.1042315092
 30
0.0
 10
6.7200980458
 20
4.1043973907
 30
0.0
 10
6.7209109201
 20
4.1045721677
 30
0.0
 10
6.7214256428
 20
4.1047134244
 30
0.0
 10
6.7218716615
 20
4.1048700442
 30
0.0
 10
6.7222470826
 20
4.1050415718
 30
0.0
 10
6.7225504063
 20
4.1052271808
 30
0.0
 10
6.7227159008
 20
4.1053712526
 30
0.0
 10
6.722782526
 20
4.1054458806
 30
0.0
  0
SPLINE
  5
2A6
100
AcDbEntity
  8
0
100
AcDbSpline
 62
7
  6
CONTINUOUS
 70
0
 71
3
 72
18
 73
14
 74
0
 42
0.0000001
 43
0.0000001
 44
0.0000000001
 40
0.0
 40
0.0
 40
0.0
 40
0.0
 40
0.1801772574
 40
0.3500494083
 40
0.5060140242
 40
0.645278018
 40
0.7654437303
 40
0.8177727274
 40
0.8647446419
 40
0.9063032855
 40
0.9424997557
 40
0.9735701768
 40
1.0
 40
1.0
 40
1.0
 40
1.0
 10
6.7116758786
 20
4.1042025379
 30
0.0
 10
6.7117212689
 20
4.1035217784
 30
0.0
 10
6.7117880894
 20
4.1021976364
 30
0.0
 10
6.711815991
 20
4.1002812985
 30
0.0
 10
6.7117687095
 20
4.0985201061
 30
0.0
 10
6.7116474869
 20
4.0969511355
 30
0.0
 10
6.7114816785
 20
4.0957809278
 30
0.0
 10
6.7113070343
 20
4.0949680918
 30
0.0
 10
6.711165801
 20
4.0944533795
 30
0.0
 10
6.7110090394
 20
4.0940073508
 30
0.0
 10
6.7108371686
 20
4.0936319416
 30
0.0
 10
6.710651218
 20
4.0933286483
 30
0.0
 10
6.7105070156
 20
4.0931631436
 30
0.0
 10
6.7104323604
 20
4.0930964894
 30
0.0
  0
SPLINE
  5
2A7
100
AcDbEntity
  8
0
100
AcDbSpline
 62
7
  6
CONTINUOUS
 70
0
 71
3
 72
20
 73
16
 74
0
 42
0.0000001
 43
0.0000001
 44
0.0000000001
 40
0.0
 40
0.0
 40
0.0
 40
0.0
 40
0.1965792955
 40
0.3794227925
 40
0.5438689813
 40
0.6861670138
 40
0.7480048904
 40
0.8032356078
 40
0.8516601286
 40
0.8932070376
 40
0.9280202924
 40
0.9565392821
 40
0.9798137005
 40
0.9901258224
 40
1.0
 40
1.0
 40
1.0
 40
1.0
 10
6.6665494158
 20
4.0980454356
 30
0.0
 10
6.6666139743
 20
4.0972914112
 30
0.0
 10
6.6667156004
 20
4.0958339441
 30
0.0
 10
6.6667859595
 20
4.0937408133
 30
0.0
 10
6.6667682369
 20
4.0918554995
 30
0.0
 10
6.666678513
 20
4.0904382114
 30
0.0
 10
6.6665558814
 20
4.0894469737
 30
0.0
 10
6.6664474773
 20
4.0888188533
 30
0.0
 10
6.6663192096
 20
4.088274316
 30
0.0
 10
6.6661718454
 20
4.0878164032
 30
0.0
 10
6.6660060704
 20
4.0874469076
 30
0.0
 10
6.6658220143
 20
4.0871667757
 30
0.0
 10
6.6656427296
 20
4.0870021046
 30
0.0
 10
6.6654917897
 20
4.0869275489
 30
0.0
 10
6.665415791
 20
4.0869082044
 30
0.0
 10
6.6653781445
 20
4.0869029366
 30
0.0
  0
SPLINE
  5
2A8
100
AcDbEntity
  8
0
100
AcDbSpline
 62
7
  6
CONTINUOUS
 70
0
 71
3
 72
24
 73
20
 74
0
 42
0.0000001
 43
0.0000001
 44
0.0000000001
 40
0.0
 40
0.0
 40
0.0
 40
0.0
 40
0.2066581714
 40
0.398000211
 40
0.5688246723
 40
0.6452549315
 40
0.7150762475
 40
0.7778748681
 40
0.8332452767
 40
0.8808600352
 40
0.9204976678
 40
0.9372684975
 40
0.9519836436
 40
0.9646438226
 40
0.9752745419
 40
0.9839288617
 40
0.9907171476
 40
0.9958852722
 40
1.0
 40
1.0
 40
1.0
 40
1.0
 10
6.1856044836
 20
4.0752879585
 30
0.0
 10
6.1855866222
 20
4.0745528614
 30
0.0
 10
6.1855606991
 20
4.0731369189
 30
0.0
 10
6.1855515254
 20
4.0711129301
 30
0.0
 10
6.1855702651
 20
4.0695523536
 30
0.0
 10
6.1856028009
 20
4.0684246042
 30
0.0
 10
6.1856339108
 20
4.0676814043
 30
0.0
 10
6.1856723059
 20
4.0670135842
 30
0.0
 10
6.1857177023
 20
4.0664254011
 30
0.0
 10
6.1857698147
 20
4.0659205574
 30
0.0
 10
6.1858206594
 20
4.0655537956
 30
0.0
 10
6.1858659547
 20
4.0653047763
 30
0.0
 10
6.1858994692
 20
4.0651512754
 30
0.0
 10
6.1859343535
 20
4.0650205538
 30
0.0
 10
6.1859705109
 20
4.0649126977
 30
0.0
 10
6.1860078093
 20
4.0648275304
 30
0.0
 10
6.1860464749
 20
4.0647648618
 30
0.0
 10
6.1860871551
 20
4.06472343
 30
0.0
 10
6.1861197025
 20
4.0647112436
 30
0.0
 10
6.1861343273
 20
4.0647105634
 30
0.0
  0
SPLINE
  5
2A9
100
AcDbEntity
  8
0
100
AcDbSpline
 62
7
  6
CONTINUOUS
 70
0
 71
3
 72
18
 73
14
 74
0
 42
0.0000001
 43
0.0000001
 44
0.0000000001
 40
0.0
 40
0.0
 40
0.0
 40
0.0
 40
0.1801741822
 40
0.3500476625
 40
0.5060106172
 40
0.6452750223
 40
0.7654448688
 40
0.817776583
 40
0.8647509566
 40
0.9063107651
 40
0.9425059775
 40
0.9735731505
 40
1.0
 40
1.0
 40
1.0
 40
1.0
 10
5.9012524337
 20
4.1042025235
 30
0.0
 10
5.9012070341
 20
4.1035217276
 30
0.0
 10
5.9011405737
 20
4.1021974741
 30
0.0
 10
5.9011131101
 20
4.1002810151
 30
0.0
 10
5.9011601729
 20
4.0985196957
 30
0.0
 10
5.9012812955
 20
4.0969505906
 30
0.0
 10
5.9014471256
 20
4.0957802724
 30
0.0
 10
5.9016217903
 20
4.0949673447
 30
0.0
 10
5.9017630136
 20
4.0944525662
 30
0.0
 10
5.9019197125
 20
4.0940064727
 30
0.0
 10
5.9020914565
 20
4.0936309893
 30
0.0
 10
5.902277278
 20
4.093327621
 30
0.0
 10
5.9024214264
 20
4.093162075
 30
0.0
 10
5.9024960687
 20
4.0930954125
 30
0.0
  0
SPLINE
  5
2AA
100
AcDbEntity
  8
0
100
AcDbSpline
 62
7
  6
CONTINUOUS
 70
0
 71
3
 72
18
 73
14
 74
0
 42
0.0000001
 43
0.0000001
 44
0.0000000001
 40
0.0
 40
0.0
 40
0.0
 40
0.0
 40
0.1801856094
 40
0.3500635557
 40
0.5060357307
 40
0.6453039052
 40
0.7654694612
 40
0.8177975823
 40
0.8647673264
 40
0.9063214307
 40
0.9425107471
 40
0.9735738961
 40
1.0
 40
1.0
 40
1.0
 40
1.0
 10
5.9012524337
 20
4.1042025235
 30
0.0
 10
5.9005716132
 20
4.1041571342
 30
0.0
 10
5.8992473847
 20
4.1040899519
 30
0.0
 10
5.8973308807
 20
4.1040616146
 30
0.0
 10
5.8955695483
 20
4.1041091087
 30
0.0
 10
5.8940004762
 20
4.1042304087
 30
0.0
 10
5.8928302058
 20
4.1043962308
 30
0.0
 10
5.8920173594
 20
4.1045709403
 30
0.0
 10
5.8915026648
 20
4.1047122156
 30
0.0
 10
5.8910566777
 20
4.1048689965
 30
0.0
 10
5.8906813239
 20
4.1050408575
 30
0.0
 10
5.89037809
 20
4.105226805
 30
0.0
 10
5.8902126391
 20
4.1053710232
 30
0.0
 10
5.8901460124
 20
4.1054456898
 30
0.0
  0
SPLINE
  5
2AB
100
AcDbEntity
  8
0
100
AcDbSpline
 62
7
  6
CONTINUOUS
 70
0
 71
3
 72
20
 73
16
 74
0
 42
0.0000001
 43
0.0000001
 44
0.0000000001
 40
0.0
 40
0.0
 40
0.0
 40
0.0
 40
0.196579333
 40
0.3794228607
 40
0.5438690724
 40
0.6861671185
 40
0.7480049977
 40
0.8032357146
 40
0.8516602311
 40
0.8932071316
 40
0.9280203728
 40
0.9565393423
 40
0.9798137334
 40
0.9901258394
 40
1.0
 40
1.0
 40
1.0
 40
1.0
 10
5.8950957699
 20
4.1493296007
 30
0.0
 10
5.8943417456
 20
4.1492650424
 30
0.0
 10
5.8928842787
 20
4.1491634167
 30
0.0
 10
5.8907911482
 20
4.149093058
 30
0.0
 10
5.8889058346
 20
4.1491107808
 30
0.0
 10
5.8874885468
 20
4.1492005046
 30
0.0
 10
5.8864973093
 20
4.1493231361
 30
0.0
 10
5.8858691891
 20
4.14943154
 30
0.0
 10
5.8853246519
 20
4.1495598074
 30
0.0
 10
5.8848667393
 20
4.1497071714
 30
0.0
 10
5.884497244
 20
4.1498729461
 30
0.0
 10
5.8842171121
 20
4.1500570019
 30
0.0
 10
5.8840524412
 20
4.1502362863
 30
0.0
 10
5.8839778856
 20
4.1503872258
 30
0.0
 10
5.8839585411
 20
4.1504632244
 30
0.0
 10
5.8839532734
 20
4.1505008708
 30
0.0
  0
SPLINE
  5
2AC
100
AcDbEntity
  8
0
100
AcDbSpline
 62
7
  6
CONTINUOUS
 70
0
 71
3
 72
24
 73
20
 74
0
 42
0.0000001
 43
0.0000001
 44
0.0000000001
 40
0.0
 40
0.0
 40
0.0
 40
0.0
 40
0.2066581785
 40
0.3980002247
 40
0.5688246919
 40
0.6452549537
 40
0.7150762719
 40
0.7778748943
 40
0.8332453041
 40
0.8808600631
 40
0.9204976954
 40
0.9372685245
 40
0.9519836696
 40
0.9646438471
 40
0.9752745643
 40
0.983928881
 40
0.9907171626
 40
0.9958852808
 40
1.0
 40
1.0
 40
1.0
 40
1.0
 10
5.8723384222
 20
4.630273624
 30
0.0
 10
5.8716033251
 20
4.6302914854
 30
0.0
 10
5.8701873827
 20
4.6303174082
 30
0.0
 10
5.8681633939
 20
4.6303265817
 30
0.0
 10
5.8666028173
 20
4.6303078419
 30
0.0
 10
5.8654750679
 20
4.630275306
 30
0.0
 10
5.864731868
 20
4.6302441961
 30
0.0
 10
5.8640640479
 20
4.630205801
 30
0.0
 10
5.8634758648
 20
4.6301604046
 30
0.0
 10
5.8629710212
 20
4.6301082923
 30
0.0
 10
5.8626042594
 20
4.6300574477
 30
0.0
 10
5.86235524
 20
4.6300121524
 30
0.0
 10
5.8622017392
 20
4.629978638
 30
0.0
 10
5.8620710176
 20
4.6299437538
 30
0.0
 10
5.8619631614
 20
4.6299075965
 30
0.0
 10
5.8618779942
 20
4.629870298
 30
0.0
 10
5.8618153255
 20
4.6298316326
 30
0.0
 10
5.8617738938
 20
4.6297909524
 30
0.0
 10
5.8617617073
 20
4.6297584052
 30
0.0
 10
5.8617610272
 20
4.6297437803
 30
0.0
  0
SPLINE
  5
2AD
100
AcDbEntity
  8
0
100
AcDbSpline
 62
7
  6
CONTINUOUS
 70
0
 71
3
 72
18
 73
14
 74
0
 42
0.0000001
 43
0.0000001
 44
0.0000000001
 40
0.0
 40
0.0
 40
0.0
 40
0.0
 40
0.1801858224
 40
0.3500687092
 40
0.5060391264
 40
0.6453081442
 40
0.7654815657
 40
0.8178152543
 40
0.8647896504
 40
0.9063444771
 40
0.9425278268
 40
0.9735808223
 40
1.0
 40
1.0
 40
1.0
 40
1.0
 10
5.9012526695
 20
4.9146251293
 30
0.0
 10
5.9005718699
 20
4.914670521
 30
0.0
 10
5.899247615
 20
4.9147369627
 30
0.0
 10
5.8973311618
 20
4.914764385
 30
0.0
 10
5.8955698684
 20
4.9147172721
 30
0.0
 10
5.8940007985
 20
4.9145961542
 30
0.0
 10
5.8928305163
 20
4.9144302728
 30
0.0
 10
5.8920176417
 20
4.9142554961
 30
0.0
 10
5.8915029184
 20
4.9141142397
 30
0.0
 10
5.8910568986
 20
4.9139576203
 30
0.0
 10
5.890681476
 20
4.9137860932
 30
0.0
 10
5.8903781505
 20
4.9136004848
 30
0.0
 10
5.8902126544
 20
4.9134564135
 30
0.0
 10
5.8901460283
 20
4.9133817857
 30
0.0
  0
SPLINE
  5
2AE
100
AcDbEntity
  8
0
100
AcDbSpline
 62
7
  6
CONTINUOUS
 70
0
 71
3
 72
18
 73
14
 74
0
 42
0.0000001
 43
0.0000001
 44
0.0000000001
 40
0.0
 40
0.0
 40
0.0
 40
0.0
 40
0.1801769749
 40
0.3500488977
 40
0.5060133626
 40
0.6452772983
 40
0.7654430562
 40
0.8177721163
 40
0.8647441198
 40
0.9063028759
 40
0.9424994777
 40
0.9735700406
 40
1.0
 40
1.0
 40
1.0
 40
1.0
 10
5.9012526695
 20
4.9146251293
 30
0.0
 10
5.9012072797
 20
4.9153058873
 30
0.0
 10
5.9011404602
 20
4.9166300265
 30
0.0
 10
5.9011125598
 20
4.9185463604
 30
0.0
 10
5.9011598421
 20
4.9203075498
 30
0.0
 10
5.9012810651
 20
4.9218765186
 30
0.0
 10
5.9014468734
 20
4.9230467256
 30
0.0
 10
5.9016215172
 20
4.9238595617
 30
0.0
 10
5.9017627503
 20
4.9243742747
 30
0.0
 10
5.9019195115
 20
4.9248203045
 30
0.0
 10
5.9020913817
 20
4.9251957152
 30
0.0
 10
5.9022773317
 20
4.9254990103
 30
0.0
 10
5.9024215336
 20
4.9256645166
 30
0.0
 10
5.9024961886
 20
4.9257311717
 30
0.0
  0
LINE
  5
2AF
100
AcDbEntity
  8
0
100
AcDbLine
 62
7
  6
CONTINUOUS
 10
5.9024963023
 20
4.0930967453
 11
5.8737473513
 21
4.0710142749
  0
LINE
  5
2B0
100
AcDbEntity
  8
0
100
AcDbLine
 62
7
  6
CONTINUOUS
 10
6.7104322538
 20
4.0930967432
 11
6.7391808719
 21
4.0710142165
  0
LINE
  5
2B1
100
AcDbEntity
  8
0
100
AcDbLine
 62
7
  6
CONTINUOUS
 10
6.7227813609
 20
4.9133818165
 11
6.7448638327
 21
4.9421307563
  0
LINE
  5
2B2
100
AcDbEntity
  8
0
100
AcDbLine
 62
7
  6
CONTINUOUS
 10
5.9024962952
 20
4.9257309179
 11
5.8737476996
 21
4.9478134274
  0
SPLINE
  5
2B3
100
AcDbEntity
  8
0
100
AcDbSpline
 62
7
  6
CONTINUOUS
 70
0
 71
3
 72
24
 73
20
 74
0
 42
0.0000001
 43
0.0000001
 44
0.0000000001
 40
0.0
 40
0.0
 40
0.0
 40
0.0
 40
0.2066581779
 40
0.3980002234
 40
0.5688246895
 40
0.6452549507
 40
0.7150762682
 40
0.7778748898
 40
0.8332452988
 40
0.8808600571
 40
0.9204976887
 40
0.9372685176
 40
0.9519836626
 40
0.9646438402
 40
0.9752745576
 40
0.9839288751
 40
0.9907171578
 40
0.995885278
 40
1.0
 40
1.0
 40
1.0
 40
1.0
 10
6.1856044836
 20
4.9435396854
 30
0.0
 10
6.1855866224
 20
4.9442747825
 30
0.0
 10
6.1855606996
 20
4.945690725
 30
0.0
 10
6.1855515262
 20
4.9477147138
 30
0.0
 10
6.185570266
 20
4.9492752903
 30
0.0
 10
6.1856028018
 20
4.9504030397
 30
0.0
 10
6.1856339117
 20
4.9511462396
 30
0.0
 10
6.1856723067
 20
4.9518140598
 30
0.0
 10
6.1857177031
 20
4.9524022428
 30
0.0
 10
6.1857698153
 20
4.9529070865
 30
0.0
 10
6.1858206599
 20
4.9532738483
 30
0.0
 10
6.1858659551
 20
4.9535228676
 30
0.0
 10
6.1858994695
 20
4.9536763685
 30
0.0
 10
6.1859343538
 20
4.9538070901
 30
0.0
 10
6.1859705111
 20
4.9539149462
 30
0.0
 10
6.1860078095
 20
4.9540001135
 30
0.0
 10
6.186046475
 20
4.9540627821
 30
0.0
 10
6.1860871552
 20
4.9541042139
 30
0.0
 10
6.1861197025
 20
4.9541164003
 30
0.0
 10
6.1861343273
 20
4.9541170805
 30
0.0
  0
SPLINE
  5
2B4
100
AcDbEntity
  8
0
100
AcDbSpline
 62
7
  6
CONTINUOUS
 70
0
 71
3
 72
24
 73
20
 74
0
 42
0.0000001
 43
0.0000001
 44
0.0000000001
 40
0.0
 40
0.0
 40
0.0
 40
0.0
 40
0.2066581719
 40
0.3980002118
 40
0.5688246732
 40
0.6452549324
 40
0.7150762483
 40
0.7778748688
 40
0.8332452772
 40
0.8808600354
 40
0.9204976677
 40
0.9372684973
 40
0.9519836433
 40
0.9646438222
 40
0.9752745414
 40
0.9839288612
 40
0.9907171472
 40
0.9958852719
 40
1.0
 40
1.0
 40
1.0
 40
1.0
 10
6.7405901492
 20
4.630273624
 30
0.0
 10
6.7413252463
 20
4.6302914855
 30
0.0
 10
6.7427411888
 20
4.6303174084
 30
0.0
 10
6.7447651775
 20
4.6303265821
 30
0.0
 10
6.7463257541
 20
4.6303078424
 30
0.0
 10
6.7474535035
 20
4.6302753066
 30
0.0
 10
6.7481967034
 20
4.6302441968
 30
0.0
 10
6.7488645235
 20
4.6302058017
 30
0.0
 10
6.7494527066
 20
4.6301604053
 30
0.0
 10
6.7499575502
 20
4.6301082929
 30
0.0
 10
6.750324312
 20
4.6300574483
 30
0.0
 10
6.7505733314
 20
4.630012153
 30
0.0
 10
6.7507268322
 20
4.6299786385
 30
0.0
 10
6.7508575538
 20
4.6299437542
 30
0.0
 10
6.75096541
 20
4.6299075968
 30
0.0
 10
6.7510505772
 20
4.6298702983
 30
0.0
 10
6.7511132459
 20
4.6298316328
 30
0.0
 10
6.7511546777
 20
4.6297909525
 30
0.0
 10
6.7511668641
 20
4.6297584052
 30
0.0
 10
6.7511675443
 20
4.6297437803
 30
0.0
  0
SPLINE
  5
2B5
100
AcDbEntity
  8
0
100
AcDbSpline
 62
7
  6
CONTINUOUS
 70
0
 71
3
 72
20
 73
16
 74
0
 42
0.0000001
 43
0.0000001
 44
0.0000000001
 40
0.0
 40
0.0
 40
0.0
 40
0.0
 40
0.1965792974
 40
0.3794227963
 40
0.5438689872
 40
0.6861670219
 40
0.7480048995
 40
0.8032356177
 40
0.851660139
 40
0.8932070481
 40
0.9280203024
 40
0.9565392903
 40
0.9798137055
 40
0.9901258251
 40
1.0
 40
1.0
 40
1.0
 40
1.0
 10
6.7178326721
 20
4.1493286918
 30
0.0
 10
6.7185866965
 20
4.1492641333
 30
0.0
 10
6.7200441635
 20
4.1491625073
 30
0.0
 10
6.7221372943
 20
4.1490921482
 30
0.0
 10
6.7240226082
 20
4.1491098709
 30
0.0
 10
6.7254398963
 20
4.1491995948
 30
0.0
 10
6.726431134
 20
4.1493222265
 30
0.0
 10
6.7270592544
 20
4.1494306306
 30
0.0
 10
6.7276037917
 20
4.1495588982
 30
0.0
 10
6.7280617045
 20
4.1497062624
 30
0.0
 10
6.7284312
 20
4.1498720374
 30
0.0
 10
6.728711332
 20
4.1500560935
 30
0.0
 10
6.7288760031
 20
4.1502353782
 30
0.0
 10
6.7289505587
 20
4.150386318
 30
0.0
 10
6.7289699033
 20
4.1504623167
 30
0.0
 10
6.7289751711
 20
4.1504999631
 30
0.0
  0
SPLINE
  5
2B6
100
AcDbEntity
  8
0
100
AcDbSpline
 62
7
  6
CONTINUOUS
 70
0
 71
3
 72
24
 73
20
 74
0
 42
0.0000001
 43
0.0000001
 44
0.0000000001
 40
0.0
 40
0.0
 40
0.0
 40
0.0
 40
0.2066581779
 40
0.3980002234
 40
0.5688246895
 40
0.6452549507
 40
0.7150762682
 40
0.7778748898
 40
0.8332452988
 40
0.8808600571
 40
0.9204976887
 40
0.9372685176
 40
0.9519836626
 40
0.9646438402
 40
0.9752745576
 40
0.9839288751
 40
0.9907171578
 40
0.995885278
 40
1.0
 40
1.0
 40
1.0
 40
1.0
 10
6.4273240878
 20
4.0752879585
 30
0.0
 10
6.4273419491
 20
4.0745528614
 30
0.0
 10
6.4273678718
 20
4.0731369189
 30
0.0
 10
6.4273770453
 20
4.0711129301
 30
0.0
 10
6.4273583054
 20
4.0695523536
 30
0.0
 10
6.4273257696
 20
4.0684246042
 30
0.0
 10
6.4272946598
 20
4.0676814043
 30
0.0
 10
6.4272562647
 20
4.0670135841
 30
0.0
 10
6.4272108684
 20
4.0664254011
 30
0.0
 10
6.4271587561
 20
4.0659205574
 30
0.0
 10
6.4271079115
 20
4.0655537956
 30
0.0
 10
6.4270626163
 20
4.0653047763
 30
0.0
 10
6.4270291019
 20
4.0651512754
 30
0.0
 10
6.4269942176
 20
4.0650205538
 30
0.0
 10
6.4269580603
 20
4.0649126977
 30
0.0
 10
6.4269207619
 20
4.0648275304
 30
0.0
 10
6.4268820964
 20
4.0647648618
 30
0.0
 10
6.4268414162
 20
4.06472343
 30
0.0
 10
6.4268088689
 20
4.0647112436
 30
0.0
 10
6.4267942441
 20
4.0647105634
 30
0.0
  0
SPLINE
  5
2B7
100
AcDbEntity
  8
0
100
AcDbSpline
 62
7
  6
CONTINUOUS
 70
0
 71
3
 72
24
 73
20
 74
0
 42
0.0000001
 43
0.0000001
 44
0.0000000001
 40
0.0
 40
0.0
 40
0.0
 40
0.0
 40
0.2066581718
 40
0.3980002117
 40
0.5688246733
 40
0.6452549326
 40
0.7150762484
 40
0.7778748689
 40
0.8332452773
 40
0.8808600355
 40
0.9204976679
 40
0.9372684975
 40
0.9519836435
 40
0.9646438224
 40
0.9752745416
 40
0.9839288614
 40
0.9907171474
 40
0.995885272
 40
1.0
 40
1.0
 40
1.0
 40
1.0
 10
5.8723384222
 20
4.3885540199
 30
0.0
 10
5.8716033251
 20
4.3885361584
 30
0.0
 10
5.8701873827
 20
4.3885102355
 30
0.0
 10
5.8681633939
 20
4.3885010617
 30
0.0
 10
5.8666028174
 20
4.3885198015
 30
0.0
 10
5.865475068
 20
4.3885523373
 30
0.0
 10
5.8647318681
 20
4.3885834472
 30
0.0
 10
5.8640640479
 20
4.3886218422
 30
0.0
 10
5.8634758649
 20
4.3886672386
 30
0.0
 10
5.8629710212
 20
4.388719351
 30
0.0
 10
5.8626042594
 20
4.3887701956
 30
0.0
 10
5.86235524
 20
4.388815491
 30
0.0
 10
5.8622017392
 20
4.3888490054
 30
0.0
 10
5.8620710176
 20
4.3888838897
 30
0.0
 10
5.8619631614
 20
4.3889200471
 30
0.0
 10
5.8618779942
 20
4.3889573456
 30
0.0
 10
5.8618153255
 20
4.3889960111
 30
0.0
 10
5.8617738938
 20
4.3890366914
 30
0.0
 10
5.8617617073
 20
4.3890692387
 30
0.0
 10
5.8617610272
 20
4.3890838636
 30
0.0
  0
SPLINE
  5
2B8
100
AcDbEntity
  8
0
100
AcDbSpline
 62
7
  6
CONTINUOUS
 70
0
 71
3
 72
20
 73
16
 74
0
 42
0.0000001
 43
0.0000001
 44
0.0000000001
 40
0.0
 40
0.0
 40
0.0
 40
0.0
 40
0.1965793348
 40
0.3794228645
 40
0.5438690783
 40
0.6861671265
 40
0.7480050066
 40
0.8032357242
 40
0.8516602414
 40
0.893207142
 40
0.9280203826
 40
0.9565393505
 40
0.9798137384
 40
0.990125842
 40
1.0
 40
1.0
 40
1.0
 40
1.0
 10
5.8950957699
 20
4.8694980432
 30
0.0
 10
5.8943417456
 20
4.8695626015
 30
0.0
 10
5.8928842787
 20
4.8696642272
 30
0.0
 10
5.8907911482
 20
4.8697345859
 30
0.0
 10
5.8889058346
 20
4.8697168631
 30
0.0
 10
5.8874885467
 20
4.8696271392
 30
0.0
 10
5.8864973093
 20
4.8695045077
 30
0.0
 10
5.885869189
 20
4.8693961037
 30
0.0
 10
5.8853246519
 20
4.8692678363
 30
0.0
 10
5.8848667393
 20
4.8691204724
 30
0.0
 10
5.884497244
 20
4.8689546977
 30
0.0
 10
5.8842171121
 20
4.8687706419
 30
0.0
 10
5.8840524412
 20
4.8685913576
 30
0.0
 10
5.8839778856
 20
4.868440418
 30
0.0
 10
5.8839585411
 20
4.8683644195
 30
0.0
 10
5.8839532734
 20
4.8683267731
 30
0.0
  0
SPLINE
  5
2B9
100
AcDbEntity
  8
0
100
AcDbSpline
 62
7
  6
CONTINUOUS
 70
0
 71
3
 72
20
 73
16
 74
0
 42
0.0000001
 43
0.0000001
 44
0.0000000001
 40
0.0
 40
0.0
 40
0.0
 40
0.0
 40
0.1965793375
 40
0.3794228698
 40
0.5438690857
 40
0.6861671353
 40
0.7480050159
 40
0.8032357336
 40
0.8516602504
 40
0.8932071504
 40
0.9280203898
 40
0.956539356
 40
0.9798137415
 40
0.9901258436
 40
1.0
 40
1.0
 40
1.0
 40
1.0
 10
6.666548507
 20
4.9207823378
 30
0.0
 10
6.6666130652
 20
4.9215363621
 30
0.0
 10
6.6667146908
 20
4.922993829
 30
0.0
 10
6.6667850495
 20
4.9250869595
 30
0.0
 10
6.6667673266
 20
4.9269722731
 30
0.0
 10
6.6666776027
 20
4.928389561
 30
0.0
 10
6.6665549712
 20
4.9293807984
 30
0.0
 10
6.6664465673
 20
4.9300089187
 30
0.0
 10
6.6663182999
 20
4.9305534558
 30
0.0
 10
6.666170936
 20
4.9310113684
 30
0.0
 10
6.6660051613
 20
4.9313808637
 30
0.0
 10
6.6658211056
 20
4.9316609955
 30
0.0
 10
6.6656418213
 20
4.9318256665
 30
0.0
 10
6.6654908818
 20
4.931900222
 30
0.0
 10
6.6654148832
 20
4.9319195666
 30
0.0
 10
6.6653772369
 20
4.9319248343
 30
0.0
  0
SPLINE
  5
2BA
100
AcDbEntity
  8
0
100
AcDbSpline
 62
7
  6
CONTINUOUS
 70
0
 71
3
 72
20
 73
16
 74
0
 42
0.0000001
 43
0.0000001
 44
0.0000000001
 40
0.0
 40
0.0
 40
0.0
 40
0.0
 40
0.1965793001
 40
0.3794228016
 40
0.5438689946
 40
0.6861670308
 40
0.7480049087
 40
0.803235627
 40
0.8516601481
 40
0.8932070565
 40
0.9280203096
 40
0.9565392958
 40
0.9798137086
 40
0.9901258268
 40
1.0
 40
1.0
 40
1.0
 40
1.0
 10
5.9463791556
 20
4.0980454356
 30
0.0
 10
5.9463145972
 20
4.0972914111
 30
0.0
 10
5.9462129712
 20
4.0958339441
 30
0.0
 10
5.9461426122
 20
4.0937408133
 30
0.0
 10
5.9461603349
 20
4.0918554995
 30
0.0
 10
5.9462500588
 20
4.0904382113
 30
0.0
 10
5.9463726904
 20
4.0894469736
 30
0.0
 10
5.9464810945
 20
4.0888188532
 30
0.0
 10
5.9466093621
 20
4.0882743159
 30
0.0
 10
5.9467567263
 20
4.0878164031
 30
0.0
 10
5.9469225013
 20
4.0874469076
 30
0.0
 10
5.9471065573
 20
4.0871667756
 30
0.0
 10
5.947285842
 20
4.0870021046
 30
0.0
 10
5.9474367818
 20
4.0869275489
 30
0.0
 10
5.9475127805
 20
4.0869082044
 30
0.0
 10
5.9475504269
 20
4.0869029366
 30
0.0
  0
SPLINE
  5
2BB
100
AcDbEntity
  8
0
100
AcDbSpline
 62
7
  6
CONTINUOUS
 70
0
 71
3
 72
11
 73
7
 74
0
 42
0.0000001
 43
0.0000001
 44
0.0000000001
 40
0.0
 40
0.0
 40
0.0
 40
0.0
 40
0.2480103189
 40
0.4999996884
 40
0.7519893454
 40
1.0
 40
1.0
 40
1.0
 40
1.0
 10
6.7448640268
 20
4.0766974185
 30
0.0
 10
6.7444468663
 20
4.0761787406
 30
0.0
 10
6.7435759604
 20
4.0751567862
 30
0.0
 10
6.7421863438
 20
4.0736919295
 30
0.0
 10
6.7407214909
 20
4.0723023095
 30
0.0
 10
6.739699563
 20
4.0714313694
 30
0.0
 10
6.7391808862
 20
4.0710142061
 30
0.0
  0
SPLINE
  5
2BC
100
AcDbEntity
  8
0
100
AcDbSpline
 62
7
  6
CONTINUOUS
 70
0
 71
3
 72
15
 73
11
 74
0
 42
0.0000001
 43
0.0000001
 44
0.0000000001
 40
0.0
 40
0.0
 40
0.0
 40
0.0
 40
0.1246496856
 40
0.2496820751
 40
0.3747909043
 40
0.4999977935
 40
0.6252039646
 40
0.7503107029
 40
0.8753456677
 40
1.0
 40
1.0
 40
1.0
 40
1.0
 10
6.7104323604
 20
4.0930964894
 30
0.0
 10
6.7111934734
 20
4.0932281251
 30
0.0
 10
6.7127000066
 20
4.0936110313
 30
0.0
 10
6.7148451679
 20
4.0945234378
 30
0.0
 10
6.7168287739
 20
4.0957556989
 30
0.0
 10
6.7186016131
 20
4.0972768909
 30
0.0
 10
6.7201229997
 20
4.0990495356
 30
0.0
 10
6.7213555865
 20
4.1010329465
 30
0.0
 10
6.7222680074
 20
4.1031781581
 30
0.0
 10
6.7226508511
 20
4.1046847452
 30
0.0
 10
6.722782526
 20
4.1054458806
 30
0.0
  0
SPLINE
  5
2BD
100
AcDbEntity
  8
0
100
AcDbSpline
 62
7
  6
CONTINUOUS
 70
0
 71
3
 72
11
 73
7
 74
0
 42
0.0000001
 43
0.0000001
 44
0.0000000001
 40
0.0
 40
0.0
 40
0.0
 40
0.0
 40
0.2480101927
 40
0.4999994316
 40
0.7519892191
 40
1.0
 40
1.0
 40
1.0
 40
1.0
 10
6.7391804756
 20
4.9478137113
 30
0.0
 10
6.7396991582
 20
4.9473965571
 30
0.0
 10
6.7407211221
 20
4.9465256633
 30
0.0
 10
6.7421859944
 20
4.9451360638
 30
0.0
 10
6.7435756315
 20
4.9436712264
 30
0.0
 10
6.7444465837
 20
4.9426493079
 30
0.0
 10
6.7448637533
 20
4.9421306358
 30
0.0
  0
SPLINE
  5
2BE
100
AcDbEntity
  8
0
100
AcDbSpline
 62
7
  6
CONTINUOUS
 70
0
 71
3
 72
15
 73
11
 74
0
 42
0.0000001
 43
0.0000001
 44
0.0000000001
 40
0.0
 40
0.0
 40
0.0
 40
0.0
 40
0.1246496578
 40
0.2496820287
 40
0.374790849
 40
0.4999977382
 40
0.6252039175
 40
0.7503106699
 40
0.8753456507
 40
1.0
 40
1.0
 40
1.0
 40
1.0
 10
6.7227816147
 20
4.9133819235
 30
0.0
 10
6.7226499788
 20
4.9141430359
 30
0.0
 10
6.7222670721
 20
4.9156495682
 30
0.0
 10
6.7213546652
 20
4.917794728
 30
0.0
 10
6.720122404
 20
4.9197783327
 30
0.0
 10
6.718601212
 20
4.9215511708
 30
0.0
 10
6.7168285676
 20
4.9230725567
 30
0.0
 10
6.7148451572
 20
4.924305143
 30
0.0
 10
6.7126999462
 20
4.9252175637
 30
0.0
 10
6.7111933595
 20
4.9256004076
 30
0.0
 10
6.7104322243
 20
4.9257320828
 30
0.0
  0
SPLINE
  5
2BF
100
AcDbEntity
  8
0
100
AcDbSpline
 62
7
  6
CONTINUOUS
 70
0
 71
3
 72
11
 73
7
 74
0
 42
0.0000001
 43
0.0000001
 44
0.0000000001
 40
0.0
 40
0.0
 40
0.0
 40
0.0
 40
0.2480103189
 40
0.4999996884
 40
0.7519893454
 40
1.0
 40
1.0
 40
1.0
 40
1.0
 10
5.8680645446
 20
4.9421302254
 30
0.0
 10
5.8684817051
 20
4.9426489033
 30
0.0
 10
5.8693526111
 20
4.9436708577
 30
0.0
 10
5.8707422276
 20
4.9451357144
 30
0.0
 10
5.8722070806
 20
4.9465253344
 30
0.0
 10
5.8732290084
 20
4.9473962745
 30
0.0
 10
5.8737476852
 20
4.9478134378
 30
0.0
  0
SPLINE
  5
2C0
100
AcDbEntity
  8
0
100
AcDbSpline
 62
7
  6
CONTINUOUS
 70
0
 71
3
 72
15
 73
11
 74
0
 42
0.0000001
 43
0.0000001
 44
0.0000000001
 40
0.0
 40
0.0
 40
0.0
 40
0.0
 40
0.1246496745
 40
0.249682062
 40
0.374790896
 40
0.4999977934
 40
0.6252039726
 40
0.7503107155
 40
0.8753456785
 40
1.0
 40
1.0
 40
1.0
 40
1.0
 10
5.9024961886
 20
4.9257311717
 30
0.0
 10
5.9017350762
 20
4.9255995357
 30
0.0
 10
5.9002285441
 20
4.9252166289
 30
0.0
 10
5.8980833844
 20
4.924304222
 30
0.0
 10
5.8960997798
 20
4.9230719611
 30
0.0
 10
5.8943269417
 20
4.9215507697
 30
0.0
 10
5.8928055556
 20
4.9197781261
 30
0.0
 10
5.891572969
 20
4.9177947166
 30
0.0
 10
5.8906605478
 20
4.9156495065
 30
0.0
 10
5.8902777035
 20
4.9141429206
 30
0.0
 10
5.8901460283
 20
4.9133817857
 30
0.0
  0
SPLINE
  5
2C1
100
AcDbEntity
  8
0
100
AcDbSpline
 62
7
  6
CONTINUOUS
 70
0
 71
3
 72
11
 73
7
 74
0
 42
0.0000001
 43
0.0000001
 44
0.0000000001
 40
0.0
 40
0.0
 40
0.0
 40
0.0
 40
0.2480104286
 40
0.4999999553
 40
0.7519894873
 40
1.0
 40
1.0
 40
1.0
 40
1.0
 10
5.8737476722
 20
4.0710142263
 30
0.0
 10
5.8732289979
 20
4.0714313915
 30
0.0
 10
5.8722070574
 20
4.0723023149
 30
0.0
 10
5.8707422152
 20
4.0736919463
 30
0.0
 10
5.8693526042
 20
4.0751568071
 30
0.0
 10
5.8684816742
 20
4.0761787425
 30
0.0
 10
5.8680645158
 20
4.0766974226
 30
0.0
  0
SPLINE
  5
2C2
100
AcDbEntity
  8
0
100
AcDbSpline
 62
7
  6
CONTINUOUS
 70
0
 71
3
 72
15
 73
11
 74
0
 42
0.0000001
 43
0.0000001
 44
0.0000000001
 40
0.0
 40
0.0
 40
0.0
 40
0.0
 40
0.124650837
 40
0.2496830635
 40
0.3747905176
 40
0.499997258
 40
0.6252044616
 40
0.7503135366
 40
0.8753479118
 40
1.0
 40
1.0
 40
1.0
 40
1.0
 10
5.8901460124
 20
4.1054456898
 30
0.0
 10
5.8902776578
 20
4.1046845455
 30
0.0
 10
5.8906604951
 20
4.1031779408
 30
0.0
 10
5.8915728784
 20
4.1010326761
 30
0.0
 10
5.8928053148
 20
4.0990490951
 30
0.0
 10
5.8943266453
 20
4.0972762818
 30
0.0
 10
5.8960994634
 20
4.0957549392
 30
0.0
 10
5.8980830667
 20
4.0945224941
 30
0.0
 10
5.9002283113
 20
4.093609999
 30
0.0
 10
5.9017349184
 20
4.0932270691
 30
0.0
 10
5.9024960687
 20
4.0930954125
 30
0.0
  0
SPLINE
  5
2C3
100
AcDbEntity
  8
0
100
AcDbSpline
 62
7
  6
CONTINUOUS
 70
0
 71
3
 72
11
 73
7
 74
0
 42
0.0000001
 43
0.0000001
 44
0.0000000001
 40
0.0
 40
0.0
 40
0.0
 40
0.0
 40
0.2499164985
 40
0.4999986791
 40
0.7500824602
 40
1.0
 40
1.0
 40
1.0
 40
1.0
 10
6.7405901492
 20
4.3885540199
 30
0.0
 10
6.743785362
 20
4.4085176528
 30
0.0
 10
6.7486678858
 20
4.4487191662
 30
0.0
 10
6.7511452448
 20
4.5094136296
 30
0.0
 10
6.748667918
 20
4.5701081817
 30
0.0
 10
6.7437853499
 20
4.6103099038
 30
0.0
 10
6.7405901492
 20
4.630273624
 30
0.0
  0
ELLIPSE
  5
2C4
100
AcDbEntity
  8
0
100
AcDbEllipse
 62
7
  6
CONTINUOUS
 10
4.604371465
 20
4.509413822
 30
0.0
 11
0.0
 21
0.0625
 31
0.0
 40
0.75
 41
-3.1415926536
 42
-0.0
  0
ELLIPSE
  5
2C5
100
AcDbEntity
  8
0
100
AcDbEllipse
 62
7
  6
CONTINUOUS
 10
5.4430040286
 20
4.509413822
 30
0.0
 11
0.0
 21
0.03125
 31
0.0
 40
0.5675675676
 41
0.0
 42
6.2831853072
  0
ELLIPSE
  5
2C6
100
AcDbEntity
  8
0
100
AcDbEllipse
 62
7
  6
CONTINUOUS
 10
5.4430040286
 20
4.509413822
 30
0.0
 11
0.0
 21
0.0625
 31
0.0
 40
0.5675675676
 41
0.0
 42
6.2831853072
  0
ENDSEC
  0
SECTION
  2
OBJECTS
  0
DICTIONARY
  5
C
100
AcDbDictionary
280
0
281
1
  3
ACAD_GROUP
350
D
  3
ACAD_MLINESTYLE
350
17
  3
ACAD_LAYOUT
350
1A
  3
ACAD_PLOTSETTINGS
350
19
  3
ACAD_PLOTSTYLENAME
350
E
  0
DICTIONARY
  5
D
102
{ACAD_REACTORS
330
C
102
}
100
AcDbDictionary
280
0
281
1
  0
ACDBDICTIONARYWDFLT
  5
E
102
{ACAD_REACTORS
330
C
102
}
100
AcDbDictionary
281
1
  3
Normal
350
F
100
AcDbDictionaryWithDefault
340
F
  0
DICTIONARY
  5
17
102
{ACAD_REACTORS
330
C
102
}
100
AcDbDictionary
280
0
281
1
  3
Standard
350
18
  0
DICTIONARY
  5
19
102
{ACAD_REACTORS
330
C
102
}
100
AcDbDictionary
281
1
  0
DICTIONARY
  5
1A
102
{ACAD_REACTORS
330
C
102
}
100
AcDbDictionary
281
1
  3
Model
350
2C7
  3
Layout1
350
2C8
  0
ACDBPLACEHOLDER
  5
F
102
{ACAD_REACTORS
330
E
102
}
  0
MLINESTYLE
  5
18
102
{ACAD_REACTORS
330
17
102
}
100
AcDbMlineStyle
  2
STANDARD
 70
0
  3

 62
256
 51
90.0
 52
90.0
 71
2
 49
0.5
 62
256
  6
BYLAYER
 49
-0.5
 62
256
  6
BYLAYER
  0
LAYOUT
  5
2C7
102
{ACAD_REACTORS
330
1A
102
}
100
AcDbPlotSettings
  1

  2
none_device
  4
ANSI_A_(11.00_x_8.50_Inches)
  6

 40
0.0
 41
0.0
 42
0.0
 43
0.0
 44
279.4
 45
215.9
 46
0.0
 47
0.0
 48
0.0
 49
0.0
140
0.0
141
0.0
142
1.0
143
1.0
 70
1024
 72
0
 73
0
 74
0
  7

 75
0
147
1.0
148
0.0
149
0.0
100
AcDbLayout
  1
Model
 70
0
 71
0
 10
0.0
 20
0.0
 11
11.0
 21
8.5
 12
0.0
 22
0.0
 32
0.0
 14
0.0
 24
0.0
 34
0.0
 15
0.0
 25
0.0
 35
0.0
146
0.0
 13
0.0
 23
0.0
 33
0.0
 16
1.0
 26
0.0
 36
0.0
 17
0.0
 27
1.0
 37
0.0
 76
0
330
202
345
0
346
0
  0
LAYOUT
  5
2C8
102
{ACAD_REACTORS
330
1A
102
}
100
AcDbPlotSettings
  1

  2
none_device
  4
ANSI_A_(11.00_x_8.50_Inches)
  6

 40
0.0
 41
0.0
 42
0.0
 43
0.0
 44
279.4
 45
215.9
 46
0.0
 47
0.0
 48
0.0
 49
0.0
140
0.0
141
0.0
142
1.0
143
1.0
 70
0
 72
0
 73
0
 74
0
  7

 75
0
147
1.0
148
0.0
149
0.0
100
AcDbLayout
  1
Layout1
 70
0
 71
1
 10
0.0
 20
0.0
 11
11.0
 21
8.5
 12
0.0
 22
0.0
 32
0.0
 14
0.0
 24
0.0
 34
0.0
 15
0.0
 25
0.0
 35
0.0
146
0.0
 13
0.0
 23
0.0
 33
0.0
 16
1.0
 26
0.0
 36
0.0
 17
0.0
 27
1.0
 37
0.0
 76
0
330
203
345
0
346
0
  0
ENDSEC
  0
EOF
