999
DXF file: E:\BT Custom\CADOUTPUT\_TOP.dxf
999
Pro/ENGINEER 2018400 by Parametric Technology Corporation
  0
SECTION
  2
HEADER
  9
$ACADVER
  1
AC1018
  9
$DWGCODEPAGE
  3
ANSI_1252
  9
$EXTMAX
 10
22.0
 20
17.0
 30
0.0
  9
$EXTMIN
 10
0.0
 20
0.0
 30
0.0
  9
$LIMMIN
 10
0.0
 20
0.0
  9
$LIMMAX
 10
22.0
 20
17.0
  9
$VIEWCTR
 10
11.0
 20
8.5
  9
$VIEWSIZE
 40
17.0
  9
$CLAYER
  8
0
  9
$LTSCALE
 40
1.21
  9
$CELTYPE
  6
BYLAYER
  9
$DIMSCALE
 40
1.0
  9
$DIMASZ
 40
0.1
  9
$DIMEXO
 40
0.0625
  9
$DIMDLI
 40
0.836
  9
$DIMEXE
 40
0.125
  9
$DIMCEN
 40
0.198
  9
$DIMLFAC
 40
1.0
  9
$DIMBLK
  1
_FILLED
  9
$DIMALT
 70
1
  9
$DIMALTD
 70
2
  9
$DIMALTTD
 70
2
  9
$DIMALTF
 40
25.4
  9
$DIMTXT
 40
0.08
  9
$DIMTOL
 70
1
  9
$DIMLIM
 70
0
  9
$DIMTFAC
 40
1.0
  9
$DIMTP
 40
0.001
  9
$DIMTM
 40
0.001
  9
$DIMGAP
 40
0.09
  9
$DIMDSEP
 70
46
  9
$AUNITS
 70
0
  9
$PDMODE
 70
3
  9
$PDSIZE
 40
0.06
  9
$HANDSEED
  5
351
  9
$TILEMODE
 70
1
  9
$MEASUREMENT
 70
0
  9
$INSUNITS
 70
1
  0
ENDSEC
  0
SECTION
  2
CLASSES
  0
CLASS
  1
ACDBDICTIONARYWDFLT
  2
AcDbDictionaryWithDefault
  3
AutoCAD 2000
 90
0
 91
1
280
0
281
0
  0
CLASS
  1
ACDBPLACEHOLDER
  2
AcDbPlaceHolder
  3
AutoCAD 2000
 90
0
 91
1
280
0
281
0
  0
CLASS
  1
LAYOUT
  2
AcDbLayout
  3
AutoCAD 2000
 90
0
 91
0
280
0
281
0
  0
ENDSEC
  0
SECTION
  2
TABLES
  0
TABLE
  2
VPORT
  5
8
100
AcDbSymbolTable
 70
2
  0
VPORT
  5
1F4
100
AcDbSymbolTableRecord
100
AcDbViewportTableRecord
  2
*ACTIVE
 70
0
 10
0.0
 20
0.0
 11
1.0
 21
1.0
 12
11.0
 22
8.5
 13
0.0
 23
0.0
 14
1.0
 24
1.0
 15
0.0
 25
0.0
 16
0.0
 26
0.0
 36
1.0
 17
0.0
 27
0.0
 37
0.0
 40
17.0
 41
1.2941176471
 42
50.0
 43
0.0
 44
0.0
 50
0.0
 51
0.0
 71
0
 72
100
 73
1
 74
1
 75
0
 76
0
 77
0
 78
0
  0
ENDTAB
  0
TABLE
  2
LTYPE
  5
5
100
AcDbSymbolTable
 70
6
  0
LTYPE
  5
14
100
AcDbSymbolTableRecord
100
AcDbLinetypeTableRecord
  2
BYBLOCK
 70
0
  3

 72
65
 73
0
 40
0.0
  0
LTYPE
  5
15
100
AcDbSymbolTableRecord
100
AcDbLinetypeTableRecord
  2
BYLAYER
 70
0
  3

 72
65
 73
0
 40
0.0
  0
LTYPE
  5
16
100
AcDbSymbolTableRecord
100
AcDbLinetypeTableRecord
  2
CONTINUOUS
 70
64
  3
Solid line
 72
65
 73
0
 40
0.0
  0
LTYPE
  5
1F5
100
AcDbSymbolTableRecord
100
AcDbLinetypeTableRecord
  2
CENTER
 70
64
  3
____ _ ____ _ ____ _ ____ _ ____ _ ____ _ ____
 72
65
 73
4
 40
0.6
 49
0.375
 74
0
 49
-0.075
 74
0
 49
0.075
 74
0
 49
-0.075
 74
0
  0
LTYPE
  5
1F6
100
AcDbSymbolTableRecord
100
AcDbLinetypeTableRecord
  2
HIDDEN
 70
64
  3
- - - - - - - - - - - - - - - - - - - -
 72
65
 73
2
 40
0.2
 49
0.1
 74
0
 49
-0.1
 74
0
  0
LTYPE
  5
1F7
100
AcDbSymbolTableRecord
100
AcDbLinetypeTableRecord
  2
PHANTOM
 70
64
  3
_____ _ _ _____ _ _ _____ _ _ _____
 72
65
 73
6
 40
0.8
 49
0.45
 74
0
 49
-0.05
 74
0
 49
0.1
 74
0
 49
-0.05
 74
0
 49
0.1
 74
0
 49
-0.05
 74
0
  0
LTYPE
  5
1F8
100
AcDbSymbolTableRecord
100
AcDbLinetypeTableRecord
  2
DOT
 70
64
  3
. . . . . . . . . . . . . . . . . . . .
 72
65
 73
2
 40
0.2
 49
0.1
 74
0
 49
-0.1
 74
0
  0
LTYPE
  5
1F9
100
AcDbSymbolTableRecord
100
AcDbLinetypeTableRecord
  2
DASHED
 70
64
  3
- - - - - - - - - - - - - - - - - - - -
 72
65
 73
2
 40
0.2
 49
0.1
 74
0
 49
-0.1
 74
0
  0
ENDTAB
  0
TABLE
  2
LAYER
  5
2
100
AcDbSymbolTable
 70
36
  0
LAYER
  5
10
100
AcDbSymbolTableRecord
100
AcDbLayerTableRecord
  2
0
 70
0
 62
7
  6
CONTINUOUS
370
-3
390
F
  0
LAYER
  5
1FA
100
AcDbSymbolTableRecord
100
AcDbLayerTableRecord
  2
DEFAULT_1
 70
0
 62
7
  6
CENTER
370
-3
390
F
  0
LAYER
  5
1FB
100
AcDbSymbolTableRecord
100
AcDbLayerTableRecord
  2
DEFAULT_2
 70
0
 62
8
  6
HIDDEN
370
-3
390
F
  0
LAYER
  5
1FC
100
AcDbSymbolTableRecord
100
AcDbLayerTableRecord
  2
DEFAULT_3
 70
0
 62
7
  6
PHANTOM
370
-3
390
F
  0
LAYER
  5
1FD
100
AcDbSymbolTableRecord
100
AcDbLayerTableRecord
  2
ALL_FEATURES
 70
0
 62
7
  6
CONTINUOUS
370
-3
390
F
  0
LAYER
  5
1FE
100
AcDbSymbolTableRecord
100
AcDbLayerTableRecord
  2
AXES_FEATURES
 70
0
 62
7
  6
CONTINUOUS
370
-3
390
F
  0
LAYER
  5
1FF
100
AcDbSymbolTableRecord
100
AcDbLayerTableRecord
  2
DEFAULT_COORDINATE_SYSTEM
 70
0
 62
7
  6
CONTINUOUS
370
-3
390
F
  0
LAYER
  5
200
100
AcDbSymbolTableRecord
100
AcDbLayerTableRecord
  2
DEFAULT_DATUM_AXES
 70
0
 62
7
  6
CONTINUOUS
370
-3
390
F
  0
LAYER
  5
201
100
AcDbSymbolTableRecord
100
AcDbLayerTableRecord
  2
DEFAULT_DATUM_PLANES
 70
0
 62
7
  6
CONTINUOUS
370
-3
390
F
  0
LAYER
  5
202
100
AcDbSymbolTableRecord
100
AcDbLayerTableRecord
  2
DIMENSIONS
 70
0
 62
7
  6
CONTINUOUS
370
-3
390
F
  0
ENDTAB
  0
TABLE
  2
STYLE
  5
3
100
AcDbSymbolTable
 70
1
  0
STYLE
  5
11
100
AcDbSymbolTableRecord
100
AcDbTextStyleTableRecord
  2
STANDARD
 70
0
 40
0.0
 41
0.8
 50
0.0
 71
0
 42
0.2
  3
txt
  4

  0
STYLE
  5
203
100
AcDbSymbolTableRecord
100
AcDbTextStyleTableRecord
  2
TEXTSTYLE_1
 70
0
 40
0.0
 41
0.8
 50
0.0
 71
0
 42
0.2
  3
gdt
  4

  0
ENDTAB
  0
TABLE
  2
VIEW
  5
6
100
AcDbSymbolTable
 70
0
  0
ENDTAB
  0
TABLE
  2
UCS
  5
7
100
AcDbSymbolTable
 70
0
  0
ENDTAB
  0
TABLE
  2
APPID
  5
9
100
AcDbSymbolTable
 70
1
  0
APPID
  5
204
100
AcDbSymbolTableRecord
100
AcDbRegAppTableRecord
  2
ACAD
 70
0
  0
ENDTAB
  0
TABLE
  2
BLOCK_RECORD
  5
1
100
AcDbSymbolTable
 70
0
  0
BLOCK_RECORD
  5
205
100
AcDbSymbolTableRecord
100
AcDbBlockTableRecord
  2
*Model_Space
  0
BLOCK_RECORD
  5
206
100
AcDbSymbolTableRecord
100
AcDbBlockTableRecord
  2
*Paper_Space
  0
BLOCK_RECORD
  5
207
100
AcDbSymbolTableRecord
100
AcDbBlockTableRecord
  2
_FILLED
  0
ENDTAB
  0
TABLE
  2
DIMSTYLE
  5
A
100
AcDbSymbolTable
 70
1
100
AcDbDimStyleTable
 71
0
  0
DIMSTYLE
105
208
100
AcDbSymbolTableRecord
100
AcDbDimStyleTableRecord
  2
STANDARD
 70
0
  3

  4

 40
1.0
 41
0.1
 42
0.0625
 43
0.38
 44
0.125
 45
0.0
 46
0.0
 47
0.001
 48
0.001
140
0.08
141
0.09
142
0.0
143
25.4
144
1.0
145
0.0
146
1.0
147
0.09
 71
1.0
 72
0.0
 73
1
 74
1
 75
0
 76
0
 77
0
 78
4
 79
1
170
1
171
2
172
0
173
0
174
0
175
0
176
0
177
0
178
0
270
2
179
3
271
3
272
3
273
2
274
2
275
0
280
0
281
0
282
0
283
1
284
4
285
0
286
0
287
3
288
0
340
11
278
46
341
207
342
207
343
207
344
207
  0
ENDTAB
  0
ENDSEC
  0
SECTION
  2
BLOCKS
  0
BLOCK
  5
20
100
AcDbEntity
  8
0
100
AcDbBlockBegin
  2
*Model_Space
 70
0
 10
0.0
 20
0.0
 30
0.0
  3
*Model_Space
  1

  0
ENDBLK
  5
21
100
AcDbEntity
  8
0
100
AcDbBlockEnd
  0
BLOCK
  5
1C
100
AcDbEntity
  8
0
100
AcDbBlockBegin
  2
*Paper_Space
 70
0
 10
0.0
 20
0.0
 30
0.0
  3
*Paper_Space
  1

  0
ENDBLK
  5
1D
100
AcDbEntity
  8
0
100
AcDbBlockEnd
  0
BLOCK
  5
209
100
AcDbEntity
  8
0
100
AcDbBlockBegin
  2
_FILLED
 70
64
 10
0.0
 20
0.0
  3
_FILLED
  1

  0
SOLID
  5
20A
100
AcDbEntity
  8
0
  6
BYBLOCK
 62
0
100
AcDbTrace
 10
0.0
 20
0.0
 11
-1.0
 21
0.2
 12
-1.0
 22
-0.2
 13
-1.0
 23
-0.2
  0
ENDBLK
  5
20B
100
AcDbEntity
  8
0
  6
BYBLOCK
 62
0
100
AcDbBlockEnd
  0
ENDSEC
  0
SECTION
  2
ENTITIES
  0
LWPOLYLINE
  5
20C
100
AcDbEntity
  8
0
100
AcDbPolyline
 62
7
  6
CONTINUOUS
 90
3
 70
0
 10
10.3320634016
 20
10.6225429229
 10
10.3348234998
 20
10.6241776507
 10
10.370894817
 20
10.6485476672
  0
LWPOLYLINE
  5
20D
100
AcDbEntity
  8
0
100
AcDbPolyline
 62
7
  6
CONTINUOUS
 90
7
 70
0
 10
12.8552482796
 20
11.7027011236
 10
12.8546553779
 20
11.7024972796
 10
12.8541865022
 20
11.7023738881
 10
12.8538585175
 20
11.7023073529
 10
12.8536585132
 20
11.7022753908
 10
12.8535569628
 20
11.7022622205
 10
12.8535329187
 20
11.7022595616
  0
LWPOLYLINE
  5
20E
100
AcDbEntity
  8
0
100
AcDbPolyline
 62
7
  6
CONTINUOUS
 90
5
 70
0
 10
8.6934927505
 20
11.7013788315
 10
8.6866581942
 20
11.6404057092
 10
8.6832417891
 20
11.5790696975
 10
8.6832554081
 20
11.5175982822
 10
8.6866985564
 20
11.4562434205
  0
LWPOLYLINE
  5
20F
100
AcDbEntity
  8
0
100
AcDbPolyline
 62
7
  6
CONTINUOUS
 90
7
 70
0
 10
13.4793889626
 20
11.3943944163
 10
13.479981855
 20
11.3945982115
 10
13.4804506821
 20
11.3947215578
 10
13.4807785812
 20
11.3947880561
 10
13.4809785052
 20
11.3948199951
 10
13.4810799817
 20
11.3948331513
 10
13.481103975
 20
11.3948358037
  0
LINE
  5
210
100
AcDbEntity
  8
0
100
AcDbLine
 62
7
  6
CONTINUOUS
 10
8.5523183383
 20
12.7185476672
 11
8.5523183383
 21
10.3785476672
  0
LINE
  5
211
100
AcDbEntity
  8
0
100
AcDbLine
 62
9
  6
CONTINUOUS
 10
8.5923183383
 20
10.3385476672
 11
8.5923183377
 21
12.7585476672
  0
LINE
  5
212
100
AcDbEntity
  8
0
100
AcDbLine
 62
9
  6
CONTINUOUS
 10
8.6123183383
 20
12.5757626071
 11
8.6123183383
 21
10.5213325582
  0
LINE
  5
213
100
AcDbEntity
  8
0
100
AcDbLine
 62
7
  6
CONTINUOUS
 10
8.6323183383
 20
12.5757626075
 11
8.6323183383
 21
10.5213325577
  0
LINE
  5
214
100
AcDbEntity
  8
0
100
AcDbLine
 62
9
  6
CONTINUOUS
 10
8.6723183383
 20
10.408071912
 11
8.6723183383
 21
11.4069036288
  0
LINE
  5
215
100
AcDbEntity
  8
0
100
AcDbLine
 62
9
  6
CONTINUOUS
 10
8.6723183383
 20
11.6901912254
 11
8.6723183383
 21
12.6890224447
  0
LWPOLYLINE
  5
216
100
AcDbEntity
  8
0
100
AcDbPolyline
 62
7
  6
CONTINUOUS
 90
18
 70
0
 10
8.6866985564
 20
11.4562434205
 10
8.6935551733
 20
11.3952642816
 10
8.7038377202
 20
11.3347698147
 10
8.7174423614
 20
11.2749492565
 10
8.7342657514
 20
11.2161023962
 10
8.7544413212
 20
11.1581417412
 10
8.7779736842
 20
11.1012518664
 10
8.8049417061
 20
11.0451458384
 10
8.83532493
 20
10.990136194
 10
8.869088517
 20
10.9365850732
 10
8.9062312598
 20
10.8846400433
 10
8.9466170125
 20
10.8346414592
 10
8.9900892429
 20
10.7868969128
 10
9.036450549
 20
10.7416835386
 10
9.0854276669
 20
10.6993215451
 10
9.1367086071
 20
10.6600490529
 10
9.1899633352
 20
10.6240826262
 10
9.192573275
 20
10.6225374119
  0
LINE
  5
217
100
AcDbEntity
  8
0
100
AcDbLine
 62
7
  6
CONTINUOUS
 10
9.1925733513
 20
11.5488453486
 11
9.192573275
 21
3.4329064542
  0
LINE
  5
218
100
AcDbEntity
  8
0
100
AcDbLine
 62
9
  6
CONTINUOUS
 10
9.7623183383
 20
12.6392753003
 11
9.7623183387
 21
12.5826027853
  0
LINE
  5
219
100
AcDbEntity
  8
0
100
AcDbLine
 62
7
  6
CONTINUOUS
 10
10.3320634016
 20
3.4329064542
 11
10.3320633672
 21
11.5487473617
  0
LINE
  5
21A
100
AcDbEntity
  8
0
100
AcDbLine
 62
9
  6
CONTINUOUS
 10
10.8523183383
 20
12.6890224679
 11
10.8523183383
 21
12.4485476672
  0
LINE
  5
21B
100
AcDbEntity
  8
0
100
AcDbLine
 62
9
  6
CONTINUOUS
 10
10.8523183383
 20
10.408072873
 11
10.8523183383
 21
10.6485476672
  0
LINE
  5
21C
100
AcDbEntity
  8
0
100
AcDbLine
 62
7
  6
CONTINUOUS
 10
10.8923183383
 20
12.5757626706
 11
10.8923183383
 21
12.4485476672
  0
LINE
  5
21D
100
AcDbEntity
  8
0
100
AcDbLine
 62
7
  6
CONTINUOUS
 10
10.8923183383
 20
10.6485476672
 11
10.8923183383
 21
10.5213327786
  0
LINE
  5
21E
100
AcDbEntity
  8
0
100
AcDbLine
 62
9
  6
CONTINUOUS
 10
10.9123183383
 20
10.521332779
 11
10.9123183383
 21
10.6485476672
  0
LINE
  5
21F
100
AcDbEntity
  8
0
100
AcDbLine
 62
9
  6
CONTINUOUS
 10
10.9123183383
 20
12.4485476672
 11
10.9123183383
 21
12.5757626703
  0
LINE
  5
220
100
AcDbEntity
  8
0
100
AcDbLine
 62
9
  6
CONTINUOUS
 10
10.9323183383
 20
12.4485476672
 11
10.9323183383
 21
12.7585476672
  0
LINE
  5
221
100
AcDbEntity
  8
0
100
AcDbLine
 62
9
  6
CONTINUOUS
 10
10.9323183383
 20
10.6485476672
 11
10.9323183389
 21
10.3385476672
  0
LINE
  5
222
100
AcDbEntity
  8
0
100
AcDbLine
 62
7
  6
CONTINUOUS
 10
10.9723183383
 20
10.3785476672
 11
10.9723183383
 21
10.6485476672
  0
LINE
  5
223
100
AcDbEntity
  8
0
100
AcDbLine
 62
7
  6
CONTINUOUS
 10
10.9723183383
 20
12.4485476672
 11
10.9723183383
 21
12.7185476672
  0
LINE
  5
224
100
AcDbEntity
  8
0
100
AcDbLine
 62
7
  6
CONTINUOUS
 10
11.6123183383
 20
10.5635476672
 11
11.6123183383
 21
12.5335476672
  0
LINE
  5
225
100
AcDbEntity
  8
0
100
AcDbLine
 62
9
  6
CONTINUOUS
 10
11.8523183383
 20
10.5635476672
 11
11.8523183383
 21
12.5335476672
  0
LINE
  5
226
100
AcDbEntity
  8
0
100
AcDbLine
 62
9
  6
CONTINUOUS
 10
11.892283601
 20
10.5718810005
 11
11.892283601
 21
12.5252143338
  0
LINE
  5
227
100
AcDbEntity
  8
0
100
AcDbLine
 62
9
  6
CONTINUOUS
 10
11.9145282649
 20
10.5967829613
 11
11.9145282649
 21
12.5003123731
  0
LINE
  5
228
100
AcDbEntity
  8
0
100
AcDbLine
 62
9
  6
CONTINUOUS
 10
11.9354812136
 20
10.6374762386
 11
11.9354812136
 21
12.4596190957
  0
LINE
  5
229
100
AcDbEntity
  8
0
100
AcDbLine
 62
9
  6
CONTINUOUS
 10
12.217056672
 20
10.7961573982
 11
12.217056672
 21
12.3009379361
  0
LINE
  5
22A
100
AcDbEntity
  8
0
100
AcDbLine
 62
7
  6
CONTINUOUS
 10
12.5382152073
 20
11.896509016
 11
12.5383058274
 21
11.8979483551
  0
LWPOLYLINE
  5
22B
100
AcDbEntity
  8
0
100
AcDbPolyline
 62
7
  6
CONTINUOUS
 90
9
 70
0
 10
12.5383058274
 20
11.8979483551
 10
12.5383917826
 20
11.8991685631
 10
12.5384324925
 20
11.8996958664
 10
12.5384712923
 20
11.9001670719
 10
12.5385077723
 20
11.9005810738
 10
12.5385413894
 20
11.9009362626
 10
12.5385714087
 20
11.9012303293
 10
12.5385968122
 20
11.9014599857
 10
12.5386174305
 20
11.9016306217
  0
LINE
  5
22C
100
AcDbEntity
  8
0
100
AcDbLine
 62
7
  6
CONTINUOUS
 10
12.5374576409
 20
11.2187358306
 11
12.5371714398
 21
11.2286207988
  0
LINE
  5
22D
100
AcDbEntity
  8
0
100
AcDbLine
 62
7
  6
CONTINUOUS
 10
12.5371714398
 20
11.2286207988
 11
12.5368246501
 21
11.2431266362
  0
LINE
  5
22E
100
AcDbEntity
  8
0
100
AcDbLine
 62
7
  6
CONTINUOUS
 10
12.5368246501
 20
11.2431266362
 11
12.5364145668
 21
11.2644147693
  0
LINE
  5
22F
100
AcDbEntity
  8
0
100
AcDbLine
 62
7
  6
CONTINUOUS
 10
12.5364145668
 20
11.2644147693
 11
12.5360000653
 21
11.2915581748
  0
LINE
  5
230
100
AcDbEntity
  8
0
100
AcDbLine
 62
7
  6
CONTINUOUS
 10
12.5360000653
 20
11.2915581748
 11
12.5355909513
 21
11.3259147957
  0
LINE
  5
231
100
AcDbEntity
  8
0
100
AcDbLine
 62
7
  6
CONTINUOUS
 10
12.5355909513
 20
11.3259147957
 11
12.5352124769
 21
11.3680829765
  0
LINE
  5
232
100
AcDbEntity
  8
0
100
AcDbLine
 62
7
  6
CONTINUOUS
 10
12.5352124769
 20
11.3680829765
 11
12.5349297563
 21
11.4115477002
  0
LINE
  5
233
100
AcDbEntity
  8
0
100
AcDbLine
 62
7
  6
CONTINUOUS
 10
12.5349297563
 20
11.4115477002
 11
12.5347057332
 21
11.4638811723
  0
LINE
  5
234
100
AcDbEntity
  8
0
100
AcDbLine
 62
7
  6
CONTINUOUS
 10
12.5347057332
 20
11.4638811723
 11
12.5345981811
 21
11.5112467588
  0
LINE
  5
235
100
AcDbEntity
  8
0
100
AcDbLine
 62
9
  6
CONTINUOUS
 10
12.2789968754
 20
10.7762692537
 11
12.2789968754
 21
12.3208260806
  0
LINE
  5
236
100
AcDbEntity
  8
0
100
AcDbLine
 62
9
  6
CONTINUOUS
 10
12.3623135155
 20
10.8128532227
 11
12.3623135155
 21
12.2842421116
  0
LINE
  5
237
100
AcDbEntity
  8
0
100
AcDbLine
 62
9
  6
CONTINUOUS
 10
12.3839891101
 20
10.8829402233
 11
12.3839891101
 21
12.214155111
  0
LINE
  5
238
100
AcDbEntity
  8
0
100
AcDbLine
 62
9
  6
CONTINUOUS
 10
12.6081833376
 20
11.2510476672
 11
12.6081833376
 21
11.8460476672
  0
LINE
  5
239
100
AcDbEntity
  8
0
100
AcDbLine
 62
9
  6
CONTINUOUS
 10
12.628372146
 20
11.2613027692
 11
12.628372146
 21
11.8357925651
  0
LINE
  5
23A
100
AcDbEntity
  8
0
100
AcDbLine
 62
7
  6
CONTINUOUS
 10
12.5345981811
 20
11.5112467588
 11
12.5345784901
 21
11.566416455
  0
LINE
  5
23B
100
AcDbEntity
  8
0
100
AcDbLine
 62
7
  6
CONTINUOUS
 10
12.5345784901
 20
11.566416455
 11
12.5346563306
 21
11.6158819237
  0
LINE
  5
23C
100
AcDbEntity
  8
0
100
AcDbLine
 62
7
  6
CONTINUOUS
 10
12.5346563306
 20
11.6158819237
 11
12.5348391327
 21
11.6675004325
  0
LINE
  5
23D
100
AcDbEntity
  8
0
100
AcDbLine
 62
7
  6
CONTINUOUS
 10
12.5348391327
 20
11.6675004325
 11
12.5350991936
 21
11.7133227615
  0
LINE
  5
23E
100
AcDbEntity
  8
0
100
AcDbLine
 62
7
  6
CONTINUOUS
 10
12.5350991936
 20
11.7133227615
 11
12.5354150075
 21
11.7531736384
  0
LINE
  5
23F
100
AcDbEntity
  8
0
100
AcDbLine
 62
7
  6
CONTINUOUS
 10
12.5354150075
 20
11.7531736384
 11
12.5358209377
 21
11.7915922978
  0
LINE
  5
240
100
AcDbEntity
  8
0
100
AcDbLine
 62
7
  6
CONTINUOUS
 10
12.5358209377
 20
11.7915922978
 11
12.5362543235
 21
11.8229445123
  0
LINE
  5
241
100
AcDbEntity
  8
0
100
AcDbLine
 62
7
  6
CONTINUOUS
 10
12.5362543235
 20
11.8229445123
 11
12.5366972201
 21
11.847868036
  0
LINE
  5
242
100
AcDbEntity
  8
0
100
AcDbLine
 62
7
  6
CONTINUOUS
 10
12.5366972201
 20
11.847868036
 11
12.5370814602
 21
11.8649888371
  0
LINE
  5
243
100
AcDbEntity
  8
0
100
AcDbLine
 62
7
  6
CONTINUOUS
 10
12.5370814602
 20
11.8649888371
 11
12.5373514017
 21
11.8748956693
  0
LINE
  5
244
100
AcDbEntity
  8
0
100
AcDbLine
 62
7
  6
CONTINUOUS
 10
12.5373514017
 20
11.8748956693
 11
12.5375638415
 21
11.8815815205
  0
LINE
  5
245
100
AcDbEntity
  8
0
100
AcDbLine
 62
7
  6
CONTINUOUS
 10
12.5375638415
 20
11.8815815205
 11
12.5377722218
 21
11.8872460751
  0
LINE
  5
246
100
AcDbEntity
  8
0
100
AcDbLine
 62
7
  6
CONTINUOUS
 10
12.5377722218
 20
11.8872460751
 11
12.5379247092
 21
11.8908542657
  0
LINE
  5
247
100
AcDbEntity
  8
0
100
AcDbLine
 62
7
  6
CONTINUOUS
 10
12.5379247092
 20
11.8908542657
 11
12.5380728411
 21
11.8939359211
  0
LWPOLYLINE
  5
248
100
AcDbEntity
  8
0
100
AcDbPolyline
 62
7
  6
CONTINUOUS
 90
3
 70
0
 10
12.5380728411
 20
11.8939359211
 10
12.5381685098
 20
11.8957069018
 10
12.5382152073
 20
11.896509016
  0
LINE
  5
249
100
AcDbEntity
  8
0
100
AcDbLine
 62
7
  6
CONTINUOUS
 10
12.5383663041
 20
11.1982735285
 11
12.53827058
 21
11.1996883384
  0
LINE
  5
24A
100
AcDbEntity
  8
0
100
AcDbLine
 62
7
  6
CONTINUOUS
 10
12.53827058
 20
11.1996883384
 11
12.5381699215
 21
11.2013635948
  0
LINE
  5
24B
100
AcDbEntity
  8
0
100
AcDbLine
 62
7
  6
CONTINUOUS
 10
12.5381699215
 20
11.2013635948
 11
12.5380657983
 21
11.2032966708
  0
LINE
  5
24C
100
AcDbEntity
  8
0
100
AcDbLine
 62
7
  6
CONTINUOUS
 10
12.5380657983
 20
11.2032966708
 11
12.5379590272
 21
11.2054904247
  0
LINE
  5
24D
100
AcDbEntity
  8
0
100
AcDbLine
 62
7
  6
CONTINUOUS
 10
12.5379590272
 20
11.2054904247
 11
12.5377950352
 21
11.2092810369
  0
LINE
  5
24E
100
AcDbEntity
  8
0
100
AcDbLine
 62
7
  6
CONTINUOUS
 10
12.5377950352
 20
11.2092810369
 11
12.5376275437
 21
11.2136894744
  0
LINE
  5
24F
100
AcDbEntity
  8
0
100
AcDbLine
 62
7
  6
CONTINUOUS
 10
12.5376275437
 20
11.2136894744
 11
12.5374576409
 21
11.2187358306
  0
LWPOLYLINE
  5
250
100
AcDbEntity
  8
0
100
AcDbPolyline
 62
7
  6
CONTINUOUS
 90
46
 70
0
 10
12.8602269269
 20
11.3874013942
 10
12.8602504906
 20
11.3859923106
 10
12.8603449682
 20
11.3843803947
 10
12.860518415
 20
11.3828012932
 10
12.8607665898
 20
11.3812579428
 10
12.8610852991
 20
11.3797529015
 10
12.8614704182
 20
11.3782883734
 10
12.8619179103
 20
11.3768662347
 10
12.8624238419
 20
11.375488058
 10
12.862984396
 20
11.3741551367
 10
12.863595882
 20
11.3728685097
 10
12.8642547444
 20
11.3716289836
 10
12.8649575693
 20
11.3704371543
 10
12.8657010886
 20
11.369293428
 10
12.8664821834
 20
11.3681980415
 10
12.8672978849
 20
11.3671510812
 10
12.8681453747
 20
11.3661525013
 10
12.8690219834
 20
11.365202141
 10
12.8699251828
 20
11.3642997453
 10
12.8708523893
 20
11.3634451499
 10
12.8718008761
 20
11.3626382952
 10
12.8727679877
 20
11.3618789953
 10
12.8737511589
 20
11.3611669327
 10
12.8747479216
 20
11.3605016678
 10
12.8757559095
 20
11.3598826478
 10
12.8767728624
 20
11.3593092165
 10
12.8777966241
 20
11.3587806265
 10
12.8788251299
 20
11.3582960545
 10
12.8798563674
 20
11.3578546235
 10
12.8808882833
 20
11.3574554336
 10
12.88191785
 20
11.3570978491
 10
12.8829401749
 20
11.3567815648
 10
12.8839510865
 20
11.3565056157
 10
12.884948088
 20
11.3562683163
 10
12.8859309687
 20
11.3560674323
 10
12.8868978113
 20
11.3559011487
 10
12.8878306912
 20
11.3557695478
 10
12.8887199652
 20
11.355669877
 10
12.8895329198
 20
11.3556000744
 10
12.8902359383
 20
11.3555551634
 10
12.8908358772
 20
11.3555268606
 10
12.8914064559
 20
11.3555067817
 10
12.8920278694
 20
11.355490321
 10
12.8927497571
 20
11.355475861
 10
12.8935890972
 20
11.3554631218
 10
12.9221748578
 20
11.3552277417
  0
LINE
  5
251
100
AcDbEntity
  8
0
100
AcDbLine
 62
9
  6
CONTINUOUS
 10
12.8060336598
 20
11.3515476672
 11
12.8060336598
 21
11.7455476672
  0
LINE
  5
252
100
AcDbEntity
  8
0
100
AcDbLine
 62
7
  6
CONTINUOUS
 10
12.8226453563
 20
11.4195257076
 11
12.8226453563
 21
11.6775696267
  0
LINE
  5
253
100
AcDbEntity
  8
0
100
AcDbLine
 62
9
  6
CONTINUOUS
 10
12.8329814581
 20
11.4195257504
 11
12.8329814581
 21
11.6775696021
  0
LINE
  5
254
100
AcDbEntity
  8
0
100
AcDbLine
 62
9
  6
CONTINUOUS
 10
12.8663183383
 20
11.3515476672
 11
12.8663183383
 21
11.3684278135
  0
LINE
  5
255
100
AcDbEntity
  8
0
100
AcDbLine
 62
9
  6
CONTINUOUS
 10
12.8663183383
 20
11.7286748744
 11
12.8663183383
 21
11.7455476672
  0
LINE
  5
256
100
AcDbEntity
  8
0
100
AcDbLine
 62
7
  6
CONTINUOUS
 10
12.8913183383
 20
11.8188232577
 11
12.8913183383
 21
11.7415855918
  0
LINE
  5
257
100
AcDbEntity
  8
0
100
AcDbLine
 62
7
  6
CONTINUOUS
 10
12.8913183383
 20
11.3555098826
 11
12.8913183383
 21
11.2782720766
  0
LINE
  5
258
100
AcDbEntity
  8
0
100
AcDbLine
 62
9
  6
CONTINUOUS
 10
12.9163183383
 20
11.8438232577
 11
12.9163183383
 21
11.7418201205
  0
LINE
  5
259
100
AcDbEntity
  8
0
100
AcDbLine
 62
9
  6
CONTINUOUS
 10
12.9163183383
 20
11.3552752137
 11
12.9163183383
 21
11.2532720766
  0
LINE
  5
25A
100
AcDbEntity
  8
0
100
AcDbLine
 62
9
  6
CONTINUOUS
 10
12.9510978658
 20
11.3537218424
 11
12.9510978658
 21
11.3550271815
  0
LINE
  5
25B
100
AcDbEntity
  8
0
100
AcDbLine
 62
9
  6
CONTINUOUS
 10
12.9510978658
 20
11.3937676687
 11
12.9510978658
 21
11.3938951168
  0
LINE
  5
25C
100
AcDbEntity
  8
0
100
AcDbLine
 62
9
  6
CONTINUOUS
 10
12.9510978658
 20
11.703200219
 11
12.9510978658
 21
11.7033280475
  0
LINE
  5
25D
100
AcDbEntity
  8
0
100
AcDbLine
 62
9
  6
CONTINUOUS
 10
12.9510978658
 20
11.7420681529
 11
12.9510978658
 21
11.7433734919
  0
LWPOLYLINE
  5
25E
100
AcDbEntity
  8
0
100
AcDbPolyline
 62
7
  6
CONTINUOUS
 90
11
 70
0
 10
12.860233606
 20
11.7100260501
 10
12.8602280249
 20
11.709719527
 10
12.8600907936
 20
11.7085238411
 10
12.8597870352
 20
11.707403308
 10
12.8593416491
 20
11.7063778361
 10
12.8587806986
 20
11.7054614246
 10
12.8581307912
 20
11.704663036
 10
12.8574176616
 20
11.7039861449
 10
12.8566713766
 20
11.7034335354
 10
12.8559341187
 20
11.7030079032
 10
12.8552482796
 20
11.7027011236
  0
LWPOLYLINE
  5
25F
100
AcDbEntity
  8
0
100
AcDbPolyline
 62
7
  6
CONTINUOUS
 90
9
 70
0
 10
12.5386275703
 20
11.1953884952
 10
12.5386150107
 20
11.1954840607
 10
12.5385938331
 20
11.1956613761
 10
12.5385658568
 20
11.1959176709
 10
12.5385326642
 20
11.1962487277
 10
12.538495383
 20
11.1966516196
 10
12.5384548373
 20
11.1971243155
 10
12.5384116499
 20
11.1976653262
 10
12.5383663041
 20
11.1982735285
  0
LINE
  5
260
100
AcDbEntity
  8
0
100
AcDbLine
 62
9
  6
CONTINUOUS
 10
13.3835388107
 20
11.7433734919
 11
13.3835388107
 21
11.742068245
  0
LINE
  5
261
100
AcDbEntity
  8
0
100
AcDbLine
 62
9
  6
CONTINUOUS
 10
13.3835388107
 20
11.703327668
 11
13.3835388107
 21
11.7032002177
  0
LINE
  5
262
100
AcDbEntity
  8
0
100
AcDbLine
 62
9
  6
CONTINUOUS
 10
13.3835388107
 20
11.3938951156
 11
13.3835388107
 21
11.3937672842
  0
LINE
  5
263
100
AcDbEntity
  8
0
100
AcDbLine
 62
9
  6
CONTINUOUS
 10
13.3835388107
 20
11.3550270892
 11
13.3835388107
 21
11.3537218424
  0
LINE
  5
264
100
AcDbEntity
  8
0
100
AcDbLine
 62
9
  6
CONTINUOUS
 10
13.4173183383
 20
11.8438232577
 11
13.4173183383
 21
11.7418283066
  0
LINE
  5
265
100
AcDbEntity
  8
0
100
AcDbLine
 62
9
  6
CONTINUOUS
 10
13.4173183383
 20
11.3552670276
 11
13.4173183383
 21
11.2532720766
  0
LWPOLYLINE
  5
266
100
AcDbEntity
  8
0
100
AcDbPolyline
 62
7
  6
CONTINUOUS
 90
11
 70
0
 10
13.4744031109
 20
11.3870693246
 10
13.4744086974
 20
11.3873759322
 10
13.4745459629
 20
11.388571685
 10
13.4748497724
 20
11.3896922721
 10
13.4752952218
 20
11.390717783
 10
13.4758562434
 20
11.3916342179
 10
13.4765062261
 20
11.3924326144
 10
13.4772194334
 20
11.3931095003
 10
13.4779657888
 20
11.3936620878
 10
13.4787030984
 20
11.394087683
 10
13.4793889626
 20
11.3943944163
  0
LWPOLYLINE
  5
267
100
AcDbEntity
  8
0
100
AcDbPolyline
 62
7
  6
CONTINUOUS
 90
44
 70
0
 10
13.4744096098
 20
11.7096936862
 10
13.4743855219
 20
11.7111196243
 10
13.4742813042
 20
11.7128341334
 10
13.4740879889
 20
11.7145109665
 10
13.4738107149
 20
11.7161466792
 10
13.4734545454
 20
11.7177383112
 10
13.4730244396
 20
11.7192833496
 10
13.4725252285
 20
11.7207796931
 10
13.4719615954
 20
11.7222256179
 10
13.4713380603
 20
11.7236197425
 10
13.4706589678
 20
11.7249609951
 10
13.4699284775
 20
11.7262485828
 10
13.4691505574
 20
11.7274819622
 10
13.4683289803
 20
11.72866081
 10
13.4674673214
 20
11.7297849971
 10
13.4665689595
 20
11.7308545622
 10
13.4656370784
 20
11.7318696884
 10
13.4646746935
 20
11.7328306595
 10
13.4636850142
 20
11.7337375345
 10
13.4626714375
 20
11.7345902736
 10
13.4616372757
 20
11.7353890276
 10
13.4605857378
 20
11.7361341343
 10
13.4595199197
 20
11.7368261065
 10
13.4584427947
 20
11.7374656198
 10
13.4573572094
 20
11.7380534981
 10
13.4562658903
 20
11.7385906947
 10
13.4551714756
 20
11.7390782675
 10
13.4540766032
 20
11.739517342
 10
13.4529845111
 20
11.7399089242
 10
13.4518998543
 20
11.7402537896
 10
13.4508264717
 20
11.7405533384
 10
13.4497663768
 20
11.7408096555
 10
13.448719388
 20
11.7410252625
 10
13.4476890079
 20
11.7412018735
 10
13.4466976014
 20
11.7413392222
 10
13.4457701576
 20
11.7414394883
 10
13.4449590955
 20
11.7415056162
 10
13.4442899374
 20
11.7415460435
 10
13.4437135533
 20
11.7415719285
 10
13.4431393448
 20
11.7415912617
 10
13.4425093089
 20
11.741607258
 10
13.4417970554
 20
11.741621017
 10
13.4409865958
 20
11.7416330059
 10
13.4126298053
 20
11.7418663279
  0
LINE
  5
268
100
AcDbEntity
  8
0
100
AcDbLine
 62
7
  6
CONTINUOUS
 10
13.4423183383
 20
11.8188232577
 11
13.4423183383
 21
11.7416109471
  0
LINE
  5
269
100
AcDbEntity
  8
0
100
AcDbLine
 62
7
  6
CONTINUOUS
 10
13.4423183383
 20
11.3554842403
 11
13.4423183383
 21
11.2782720766
  0
LINE
  5
26A
100
AcDbEntity
  8
0
100
AcDbLine
 62
9
  6
CONTINUOUS
 10
13.5016552185
 20
11.4195257312
 11
13.5016552185
 21
11.6775695833
  0
LINE
  5
26B
100
AcDbEntity
  8
0
100
AcDbLine
 62
7
  6
CONTINUOUS
 10
13.5119913202
 20
11.4195257076
 11
13.5119913202
 21
11.6775696267
  0
LINE
  5
26C
100
AcDbEntity
  8
0
100
AcDbLine
 62
9
  6
CONTINUOUS
 10
13.5173183383
 20
11.7985476672
 11
13.5173183383
 21
11.2985476672
  0
LINE
  5
26D
100
AcDbEntity
  8
0
100
AcDbLine
 62
7
  6
CONTINUOUS
 10
13.5423183383
 20
11.7735476642
 11
13.5423183383
 21
11.3235476701
  0
LINE
  5
26E
100
AcDbEntity
  8
0
100
AcDbLine
 62
7
  6
CONTINUOUS
 10
8.5923183383
 20
10.3385476672
 11
9.192573275
 21
10.3385476672
  0
LINE
  5
26F
100
AcDbEntity
  8
0
100
AcDbLine
 62
7
  6
CONTINUOUS
 10
10.3320634016
 20
10.3385476672
 11
10.9323183383
 21
10.3385476672
  0
LINE
  5
270
100
AcDbEntity
  8
0
100
AcDbLine
 62
9
  6
CONTINUOUS
 10
8.5523183383
 20
10.3785476665
 11
9.192573275
 21
10.3785476672
  0
LINE
  5
271
100
AcDbEntity
  8
0
100
AcDbLine
 62
9
  6
CONTINUOUS
 10
10.3320634016
 20
10.3785476672
 11
10.9723183383
 21
10.3785476672
  0
LINE
  5
272
100
AcDbEntity
  8
0
100
AcDbLine
 62
9
  6
CONTINUOUS
 10
10.3320634016
 20
10.4080729527
 11
10.8523183383
 21
10.408072873
  0
LINE
  5
273
100
AcDbEntity
  8
0
100
AcDbLine
 62
9
  6
CONTINUOUS
 10
8.6723183383
 20
10.408071912
 11
9.192573275
 21
10.408072681
  0
LINE
  5
274
100
AcDbEntity
  8
0
100
AcDbLine
 62
9
  6
CONTINUOUS
 10
10.3320634016
 20
10.419361115
 11
10.8523183383
 21
10.4193611018
  0
LINE
  5
275
100
AcDbEntity
  8
0
100
AcDbLine
 62
9
  6
CONTINUOUS
 10
8.6723183383
 20
10.419360842
 11
9.192573275
 21
10.4193610412
  0
LINE
  5
276
100
AcDbEntity
  8
0
100
AcDbLine
 62
9
  6
CONTINUOUS
 10
10.9123183383
 20
10.521332779
 11
10.8923183383
 21
10.521332779
  0
LINE
  5
277
100
AcDbEntity
  8
0
100
AcDbLine
 62
9
  6
CONTINUOUS
 10
8.6123183383
 20
10.5213325582
 11
8.6323183383
 21
10.5213325582
  0
LINE
  5
278
100
AcDbEntity
  8
0
100
AcDbLine
 62
7
  6
CONTINUOUS
 10
11.8523183383
 20
10.5635476672
 11
11.6123183383
 21
10.5635476672
  0
LINE
  5
279
100
AcDbEntity
  8
0
100
AcDbLine
 62
7
  6
CONTINUOUS
 10
11.6123183383
 20
10.6485476672
 11
10.3320634016
 21
10.6485476672
  0
LWPOLYLINE
  5
27A
100
AcDbEntity
  8
0
100
AcDbPolyline
 62
7
  6
CONTINUOUS
 90
38
 70
0
 10
13.4427267502
 20
11.355493106
 10
13.4432389188
 20
11.3555070471
 10
13.443761315
 20
11.3555252788
 10
13.4443439572
 20
11.3555521155
 10
13.4450429889
 20
11.3555956451
 10
13.4458680747
 20
11.355665137
 10
13.4467680797
 20
11.3557647924
 10
13.4477011273
 20
11.3558952841
 10
13.4486754426
 20
11.3560617669
 10
13.4496888291
 20
11.3562683788
 10
13.450729031
 20
11.3565167464
 10
13.4517926369
 20
11.3568097076
 10
13.4528781389
 20
11.3571505974
 10
13.4539833473
 20
11.3575426917
 10
13.4551052325
 20
11.3579890536
 10
13.4562408365
 20
11.3584928232
 10
13.457387031
 20
11.3590571598
 10
13.4585403595
 20
11.3596851734
 10
13.4596969749
 20
11.3603798717
 10
13.4608523789
 20
11.3611439482
 10
13.4620012015
 20
11.3619794921
 10
13.4631377402
 20
11.362888207
 10
13.4642560458
 20
11.363871414
 10
13.4653499413
 20
11.364930015
 10
13.4664131912
 20
11.3660646188
 10
13.4674396491
 20
11.3672757396
 10
13.468422956
 20
11.3685635106
 10
13.4693565173
 20
11.3699276038
 10
13.4702335273
 20
11.3713671905
 10
13.4710469997
 20
11.3728809018
 10
13.4717898024
 20
11.3744667904
 10
13.4724546986
 20
11.3761222936
 10
13.473034392
 20
11.3778441993
 10
13.4735215782
 20
11.3796286137
 10
13.4739090002
 20
11.3814709302
 10
13.4741895101
 20
11.3833658034
 10
13.4743561359
 20
11.3853071276
 10
13.4744031952
 20
11.3870691547
  0
LINE
  5
27B
100
AcDbEntity
  8
0
100
AcDbLine
 62
7
  6
CONTINUOUS
 10
13.4415866071
 20
11.355470888
 11
13.4427267502
 21
11.355493106
  0
LINE
  5
27C
100
AcDbEntity
  8
0
100
AcDbLine
 62
7
  6
CONTINUOUS
 10
13.4400874137
 20
11.3554521466
 11
13.4415866071
 21
11.355470888
  0
LINE
  5
27D
100
AcDbEntity
  8
0
100
AcDbLine
 62
7
  6
CONTINUOUS
 10
13.4234784816
 20
11.3940130239
 11
13.4872275664
 21
11.3945268246
  0
LINE
  5
27E
100
AcDbEntity
  8
0
100
AcDbLine
 62
7
  6
CONTINUOUS
 10
13.3824416915
 20
11.3550194742
 11
13.4400874137
 21
11.3554521466
  0
LINE
  5
27F
100
AcDbEntity
  8
0
100
AcDbLine
 62
7
  6
CONTINUOUS
 10
13.3528561867
 20
11.3936077991
 11
13.4234784816
 21
11.3940130239
  0
LINE
  5
280
100
AcDbEntity
  8
0
100
AcDbLine
 62
7
  6
CONTINUOUS
 10
13.3190334783
 20
11.3546849268
 11
13.3824416915
 21
11.3550194742
  0
LINE
  5
281
100
AcDbEntity
  8
0
100
AcDbLine
 62
7
  6
CONTINUOUS
 10
13.2785322543
 20
11.3933356298
 11
13.3528561867
 21
11.3936077991
  0
LINE
  5
282
100
AcDbEntity
  8
0
100
AcDbLine
 62
7
  6
CONTINUOUS
 10
13.2526261899
 20
11.3544686243
 11
13.3190334783
 21
11.3546849268
  0
LINE
  5
283
100
AcDbEntity
  8
0
100
AcDbLine
 62
7
  6
CONTINUOUS
 10
13.2020144224
 20
11.3932018703
 11
13.2785322543
 21
11.3933356298
  0
LINE
  5
284
100
AcDbEntity
  8
0
100
AcDbLine
 62
7
  6
CONTINUOUS
 10
13.1845367327
 20
11.3543750078
 11
13.2526261899
 21
11.3544686243
  0
LINE
  5
285
100
AcDbEntity
  8
0
100
AcDbLine
 62
7
  6
CONTINUOUS
 10
12.5366609854
 20
11.2510476672
 11
12.6081833376
 21
11.2510476672
  0
LINE
  5
286
100
AcDbEntity
  8
0
100
AcDbLine
 62
7
  6
CONTINUOUS
 10
13.4173183383
 20
11.2532720766
 11
12.9163183383
 21
11.2532720766
  0
LINE
  5
287
100
AcDbEntity
  8
0
100
AcDbLine
 62
7
  6
CONTINUOUS
 10
13.5173183383
 20
11.2985476672
 11
13.4423183383
 21
11.2985476672
  0
LINE
  5
288
100
AcDbEntity
  8
0
100
AcDbLine
 62
7
  6
CONTINUOUS
 10
12.8060336598
 20
11.3515476672
 11
12.8663183383
 21
11.3515476672
  0
LINE
  5
289
100
AcDbEntity
  8
0
100
AcDbLine
 62
9
  6
CONTINUOUS
 10
13.3835388107
 20
11.3537218424
 11
12.9510978658
 21
11.3537218424
  0
LINE
  5
28A
100
AcDbEntity
  8
0
100
AcDbLine
 62
9
  6
CONTINUOUS
 10
13.5119913202
 20
11.4195257076
 11
13.5016552185
 21
11.4195257076
  0
LINE
  5
28B
100
AcDbEntity
  8
0
100
AcDbLine
 62
9
  6
CONTINUOUS
 10
12.8329814581
 20
11.4195257076
 11
12.8226453563
 21
11.4195257076
  0
LINE
  5
28C
100
AcDbEntity
  8
0
100
AcDbLine
 62
7
  6
CONTINUOUS
 10
13.1296879608
 20
11.393204394
 11
13.2020144224
 21
11.3932018703
  0
LINE
  5
28D
100
AcDbEntity
  8
0
100
AcDbLine
 62
7
  6
CONTINUOUS
 10
13.1161099219
 20
11.3544060385
 11
13.1845367327
 21
11.3543750078
  0
LINE
  5
28E
100
AcDbEntity
  8
0
100
AcDbLine
 62
7
  6
CONTINUOUS
 10
13.0538893362
 20
11.3933416504
 11
13.1296879608
 21
11.393204394
  0
LINE
  5
28F
100
AcDbEntity
  8
0
100
AcDbLine
 62
7
  6
CONTINUOUS
 10
13.0486942885
 20
11.3545610584
 11
13.1161099219
 21
11.3544060385
  0
LINE
  5
290
100
AcDbEntity
  8
0
100
AcDbLine
 62
7
  6
CONTINUOUS
 10
12.9802914938
 20
11.3936147897
 11
13.0538893362
 21
11.3933416504
  0
LINE
  5
291
100
AcDbEntity
  8
0
100
AcDbLine
 62
7
  6
CONTINUOUS
 10
12.9836219889
 20
11.3548368564
 11
13.0486942885
 21
11.3545610584
  0
LINE
  5
292
100
AcDbEntity
  8
0
100
AcDbLine
 62
7
  6
CONTINUOUS
 10
12.9103801717
 20
11.3940183806
 11
12.9802914938
 21
11.3936147897
  0
LINE
  5
293
100
AcDbEntity
  8
0
100
AcDbLine
 62
7
  6
CONTINUOUS
 10
12.9221748578
 20
11.3552277417
 11
12.9836219889
 21
11.3548368564
  0
LINE
  5
294
100
AcDbEntity
  8
0
100
AcDbLine
 62
9
  6
CONTINUOUS
 10
12.5380608421
 20
11.1840020465
 11
12.5379772353
 21
11.1840027761
  0
LINE
  5
295
100
AcDbEntity
  8
0
100
AcDbLine
 62
7
  6
CONTINUOUS
 10
12.8474115935
 20
11.3945268009
 11
12.9103801717
 21
11.3940183806
  0
LWPOLYLINE
  5
296
100
AcDbEntity
  8
0
100
AcDbPolyline
 62
7
  6
CONTINUOUS
 90
12
 70
0
 10
10.3708972802
 20
12.4485476672
 10
10.3347237919
 20
12.4729808136
 10
10.2798370816
 20
12.5054805085
 10
10.2236497479
 20
12.5344183948
 10
10.1665528342
 20
12.5597291764
 10
10.1088804009
 20
12.5814106504
 10
10.0508314387
 20
12.5995103588
 10
9.9925151458
 20
12.6141199132
 10
9.9341299544
 20
12.6253296738
 10
9.875845774
 20
12.6332133696
 10
9.8178855412
 20
12.6378273859
 10
9.7623183383
 20
12.6392753003
  0
LWPOLYLINE
  5
297
100
AcDbEntity
  8
0
100
AcDbPolyline
 62
7
  6
CONTINUOUS
 90
37
 70
0
 10
12.8918923311
 20
11.7416018007
 10
12.8913718619
 20
11.7415874896
 10
12.8908377192
 20
11.7415685495
 10
12.8902322176
 20
11.7415399679
 10
12.8894981157
 20
11.7414926582
 10
12.8886390894
 20
11.7414173795
 10
12.8877026345
 20
11.741309328
 10
12.8867136168
 20
11.741164813
 10
12.8856743745
 20
11.7409785153
 10
12.8845981568
 20
11.7407475421
 10
12.8834919537
 20
11.7404687756
 10
12.8823599487
 20
11.74013884
 10
12.8812071627
 20
11.7397548316
 10
12.8800378059
 20
11.7393138293
 10
12.8788556705
 20
11.738812874
 10
12.8776647208
 20
11.7382491309
 10
12.8764692634
 20
11.7376199825
 10
12.8752739677
 20
11.736923087
 10
12.874083624
 20
11.7361562746
 10
12.8729029629
 20
11.7353174005
 10
12.8717369887
 20
11.7344045319
 10
12.8705910229
 20
11.7334160066
 10
12.869470704
 20
11.7323504745
 10
12.8683819743
 20
11.7312069314
 10
12.8673310433
 20
11.7299847274
 10
12.8663243987
 20
11.728683625
 10
12.8653687973
 20
11.7273038507
 10
12.8644712427
 20
11.72584614
 10
12.8636389563
 20
11.7243117814
 10
12.8628793438
 20
11.7227026606
 10
12.8621999546
 20
11.7210213038
 10
12.8616084361
 20
11.7192709186
 10
12.8611124812
 20
11.7174554336
 10
12.8607197707
 20
11.7155795373
 10
12.8604379083
 20
11.7136487119
 10
12.8602743489
 20
11.7116692634
 10
12.8602335708
 20
11.7100260825
  0
LINE
  5
298
100
AcDbEntity
  8
0
100
AcDbLine
 62
7
  6
CONTINUOUS
 10
12.8930457835
 20
11.7416243795
 11
12.8918923311
 21
11.7416018007
  0
LINE
  5
299
100
AcDbEntity
  8
0
100
AcDbLine
 62
7
  6
CONTINUOUS
 10
12.8945726952
 20
11.7416434157
 11
12.8930457835
 21
11.7416243795
  0
LINE
  5
29A
100
AcDbEntity
  8
0
100
AcDbLine
 62
7
  6
CONTINUOUS
 10
12.9111534745
 20
11.703082278
 11
12.8474091107
 21
11.7025685097
  0
LINE
  5
29B
100
AcDbEntity
  8
0
100
AcDbLine
 62
7
  6
CONTINUOUS
 10
12.9523672367
 20
11.7420769551
 11
12.8945726952
 21
11.7416434157
  0
LINE
  5
29C
100
AcDbEntity
  8
0
100
AcDbLine
 62
7
  6
CONTINUOUS
 10
12.9817703219
 20
11.7034874878
 11
12.9111534745
 21
11.703082278
  0
LINE
  5
29D
100
AcDbEntity
  8
0
100
AcDbLine
 62
7
  6
CONTINUOUS
 10
13.0157805883
 20
11.7424111588
 11
12.9523672367
 21
11.7420769551
  0
LINE
  5
29E
100
AcDbEntity
  8
0
100
AcDbLine
 62
7
  6
CONTINUOUS
 10
13.0560884304
 20
11.7037596615
 11
12.9817703219
 21
11.7034874878
  0
LINE
  5
29F
100
AcDbEntity
  8
0
100
AcDbLine
 62
7
  6
CONTINUOUS
 10
13.0821881305
 20
11.7426271198
 11
13.0157805883
 21
11.7424111588
  0
LINE
  5
2A0
100
AcDbEntity
  8
0
100
AcDbLine
 62
7
  6
CONTINUOUS
 10
13.1326004685
 20
11.7038934461
 11
13.0560884304
 21
11.7037596615
  0
LINE
  5
2A1
100
AcDbEntity
  8
0
100
AcDbLine
 62
7
  6
CONTINUOUS
 10
13.1502771782
 20
11.7427204081
 11
13.0821881305
 21
11.7426271198
  0
LINE
  5
2A2
100
AcDbEntity
  8
0
100
AcDbLine
 62
9
  6
CONTINUOUS
 10
12.8226453563
 20
11.6775696267
 11
12.8329814581
 21
11.6775696267
  0
LINE
  5
2A3
100
AcDbEntity
  8
0
100
AcDbLine
 62
9
  6
CONTINUOUS
 10
13.5016552185
 20
11.6775696267
 11
13.5119913202
 21
11.6775696267
  0
LINE
  5
2A4
100
AcDbEntity
  8
0
100
AcDbLine
 62
9
  6
CONTINUOUS
 10
13.3835388107
 20
11.7433734919
 11
12.9510978658
 21
11.7433734919
  0
LINE
  5
2A5
100
AcDbEntity
  8
0
100
AcDbLine
 62
7
  6
CONTINUOUS
 10
12.8060336598
 20
11.7455476672
 11
12.8663183383
 21
11.7455476672
  0
LINE
  5
2A6
100
AcDbEntity
  8
0
100
AcDbLine
 62
7
  6
CONTINUOUS
 10
13.5173183383
 20
11.7985476672
 11
13.4423183383
 21
11.7985476672
  0
LINE
  5
2A7
100
AcDbEntity
  8
0
100
AcDbLine
 62
7
  6
CONTINUOUS
 10
13.2049269138
 20
11.7038909598
 11
13.1326004685
 21
11.7038934461
  0
LINE
  5
2A8
100
AcDbEntity
  8
0
100
AcDbLine
 62
7
  6
CONTINUOUS
 10
13.2187053864
 20
11.7426890515
 11
13.1502771782
 21
11.7427204081
  0
LINE
  5
2A9
100
AcDbEntity
  8
0
100
AcDbLine
 62
7
  6
CONTINUOUS
 10
13.2807314162
 20
11.7037537276
 11
13.2049269138
 21
11.7038909598
  0
LINE
  5
2AA
100
AcDbEntity
  8
0
100
AcDbLine
 62
7
  6
CONTINUOUS
 10
13.2861226587
 20
11.7425336882
 11
13.2187053864
 21
11.7426890515
  0
LINE
  5
2AB
100
AcDbEntity
  8
0
100
AcDbLine
 62
7
  6
CONTINUOUS
 10
13.3543349518
 20
11.7034805929
 11
13.2807314162
 21
11.7037537276
  0
LINE
  5
2AC
100
AcDbEntity
  8
0
100
AcDbLine
 62
7
  6
CONTINUOUS
 10
13.3511925372
 20
11.7422575407
 11
13.2861226587
 21
11.7425336882
  0
LINE
  5
2AD
100
AcDbEntity
  8
0
100
AcDbLine
 62
7
  6
CONTINUOUS
 10
13.4242514416
 20
11.7030769887
 11
13.3543349518
 21
11.7034805929
  0
LINE
  5
2AE
100
AcDbEntity
  8
0
100
AcDbLine
 62
7
  6
CONTINUOUS
 10
13.4126298053
 20
11.7418663279
 11
13.3511925372
 21
11.7422575407
  0
LINE
  5
2AF
100
AcDbEntity
  8
0
100
AcDbLine
 62
7
  6
CONTINUOUS
 10
13.4872250825
 20
11.7025685334
 11
13.4242514416
 21
11.7030769887
  0
LWPOLYLINE
  5
2B0
100
AcDbEntity
  8
0
100
AcDbPolyline
 62
7
  6
CONTINUOUS
 90
11
 70
0
 10
12.8550618582
 20
11.3944600928
 10
12.8551726897
 20
11.3944232176
 10
12.8558580159
 20
11.3941254167
 10
12.8566000228
 20
11.3937077253
 10
12.8573549608
 20
11.3931609949
 10
12.8580794745
 20
11.3924868656
 10
12.8587414718
 20
11.3916884718
 10
12.8593144145
 20
11.3907690223
 10
12.8597707624
 20
11.3897374949
 10
12.8600835227
 20
11.3886081528
 10
12.8602269269
 20
11.3874013942
  0
LINE
  5
2B1
100
AcDbEntity
  8
0
100
AcDbLine
 62
9
  6
CONTINUOUS
 10
12.5379772353
 20
11.9130925583
 11
12.5380606509
 21
11.9130937956
  0
LINE
  5
2B2
100
AcDbEntity
  8
0
100
AcDbLine
 62
7
  6
CONTINUOUS
 10
13.4173183383
 20
11.8438232577
 11
12.9163183383
 21
11.8438232577
  0
LINE
  5
2B3
100
AcDbEntity
  8
0
100
AcDbLine
 62
7
  6
CONTINUOUS
 10
12.5366610861
 20
11.8460476672
 11
12.6081833376
 21
11.8460476672
  0
LINE
  5
2B4
100
AcDbEntity
  8
0
100
AcDbLine
 62
7
  6
CONTINUOUS
 10
11.6123183383
 20
12.4485476672
 11
10.2705455233
 21
12.4485476672
  0
LINE
  5
2B5
100
AcDbEntity
  8
0
100
AcDbLine
 62
7
  6
CONTINUOUS
 10
11.8523183383
 20
12.5335476672
 11
11.6123183383
 21
12.5335476672
  0
LINE
  5
2B6
100
AcDbEntity
  8
0
100
AcDbLine
 62
9
  6
CONTINUOUS
 10
10.9123183383
 20
12.5757626703
 11
10.8923183383
 21
12.5757626703
  0
LINE
  5
2B7
100
AcDbEntity
  8
0
100
AcDbLine
 62
9
  6
CONTINUOUS
 10
8.6123183383
 20
12.5757626071
 11
8.6323183383
 21
12.5757626071
  0
LWPOLYLINE
  5
2B8
100
AcDbEntity
  8
0
100
AcDbPolyline
 62
7
  6
CONTINUOUS
 90
11
 70
0
 10
13.4795747109
 20
11.7026352421
 10
13.4794631538
 20
11.7026723738
 10
13.4787784484
 20
11.7029699266
 10
13.4780367064
 20
11.7033874436
 10
13.4772818244
 20
11.7039340805
 10
13.4765572936
 20
11.7046081588
 10
13.4758952556
 20
11.7054065239
 10
13.4753222602
 20
11.706325968
 10
13.4748658589
 20
11.7073575082
 10
13.4745530508
 20
11.7084868802
 10
13.4744096098
 20
11.7096936862
  0
LWPOLYLINE
  5
2B9
100
AcDbEntity
  8
0
100
AcDbPolyline
 62
7
  6
CONTINUOUS
 90
26
 70
0
 10
9.7623183383
 20
12.6392753003
 10
9.7065885056
 20
12.6378188856
 10
9.6486285043
 20
12.6331959417
 10
9.5903444792
 20
12.6253031583
 10
9.5319596545
 20
12.6140841681
 10
9.4736444181
 20
12.5994652007
 10
9.4155963913
 20
12.5813557166
 10
9.3579251426
 20
12.5596642434
 10
9.3008305313
 20
12.534343545
 10
9.2446462876
 20
12.5053957472
 10
9.1897635613
 20
12.4728863073
 10
9.1365171322
 20
12.4369086128
 10
9.0852465061
 20
12.397625966
 10
9.0362805955
 20
12.3552555127
 10
8.9899302322
 20
12.3100340043
 10
8.9464663643
 20
12.2622778908
 10
8.9060863736
 20
12.2122649462
 10
8.8689459549
 20
12.1602975633
 10
8.8351793386
 20
12.1067139707
 10
8.8047962275
 20
12.0516696741
 10
8.777826452
 20
11.9955083952
 10
8.7542950926
 20
11.9385599941
 10
8.734126566
 20
11.8805620284
 10
8.7173252695
 20
11.8217002897
 10
8.7037505952
 20
11.7618759909
 10
8.6934927505
 20
11.7013788315
  0
LINE
  5
2BA
100
AcDbEntity
  8
0
100
AcDbLine
 62
9
  6
CONTINUOUS
 10
10.8523183383
 20
12.6777343414
 11
8.6723183383
 21
12.6777342768
  0
LINE
  5
2BB
100
AcDbEntity
  8
0
100
AcDbLine
 62
9
  6
CONTINUOUS
 10
10.8523183383
 20
12.6890224679
 11
8.6723183383
 21
12.6890224447
  0
LINE
  5
2BC
100
AcDbEntity
  8
0
100
AcDbLine
 62
9
  6
CONTINUOUS
 10
8.5523183383
 20
12.7185476672
 11
10.9723183383
 21
12.7185476678
  0
LINE
  5
2BD
100
AcDbEntity
  8
0
100
AcDbLine
 62
7
  6
CONTINUOUS
 10
10.9323183383
 20
12.7585476672
 11
8.5923183383
 21
12.7585476672
  0
ARC
  5
2BE
100
AcDbEntity
  8
0
100
AcDbCircle
 62
9
  6
CONTINUOUS
 10
10.3244266888
 20
11.548553006
 40
1.6581741546
100
AcDbArc
 50
175.0999099021
 51
184.9004721361
  0
ARC
  5
2BF
100
AcDbEntity
  8
0
100
AcDbCircle
 62
9
  6
CONTINUOUS
 10
9.7826090578
 20
11.5401123575
 40
1.0768972748
100
AcDbArc
 50
300.7076604475
 51
304.0366025828
  0
ARC
  5
2C0
100
AcDbEntity
  8
0
100
AcDbCircle
 62
7
  6
CONTINUOUS
 10
9.7623183383
 20
11.5485476672
 40
1.0340551181
100
AcDbArc
 50
303.4496348982
 51
236.5503651018
  0
ARC
  5
2C1
100
AcDbEntity
  8
0
100
AcDbCircle
 62
9
  6
CONTINUOUS
 10
9.7623183383
 20
11.5485476672
 40
0.9845911846
100
AcDbArc
 50
305.3628442041
 51
234.6371557959
  0
ARC
  5
2C2
100
AcDbEntity
  8
0
100
AcDbCircle
 62
9
  6
CONTINUOUS
 10
9.7459210291
 20
3.0216594094
 40
0.8084134752
100
AcDbArc
 50
161.5557004742
 51
163.687137126
  0
ARC
  5
2C3
100
AcDbEntity
  8
0
100
AcDbCircle
 62
9
  6
CONTINUOUS
 10
9.7787536683
 20
3.0216713084
 40
0.8083736428
100
AcDbArc
 50
16.3132864517
 51
18.443735702
  0
ARC
  5
2C4
100
AcDbEntity
  8
0
100
AcDbCircle
 62
9
  6
CONTINUOUS
 10
9.7792066878
 20
3.0218038512
 40
0.8079016319
100
AcDbArc
 50
14.8524177931
 51
16.3132894036
  0
ARC
  5
2C5
100
AcDbEntity
  8
0
100
AcDbCircle
 62
9
  6
CONTINUOUS
 10
9.7454298201
 20
3.0218038984
 40
0.8079014567
100
AcDbArc
 50
163.6871867944
 51
165.1477876273
  0
ARC
  5
2C6
100
AcDbEntity
  8
0
100
AcDbCircle
 62
7
  6
CONTINUOUS
 10
9.7451156885
 20
3.0218093955
 40
0.8076012961
100
AcDbArc
 50
161.5462706235
 51
179.9739687209
  0
ARC
  5
2C7
100
AcDbEntity
  8
0
100
AcDbCircle
 62
7
  6
CONTINUOUS
 10
9.7795210437
 20
3.0218094018
 40
0.8076012404
100
AcDbArc
 50
0.0260308331
 51
18.4530632094
  0
ARC
  5
2C8
100
AcDbEntity
  8
0
100
AcDbCircle
 62
9
  6
CONTINUOUS
 10
9.7806753891
 20
3.0221420859
 40
0.8063948716
100
AcDbArc
 50
0.0023357652
 51
14.8559375892
  0
ARC
  5
2C9
100
AcDbEntity
  8
0
100
AcDbCircle
 62
9
  6
CONTINUOUS
 10
9.7439612725
 20
3.0221420873
 40
0.8063948566
100
AcDbArc
 50
165.1442678704
 51
179.9976643336
  0
ARC
  5
2CA
100
AcDbEntity
  8
0
100
AcDbCircle
 62
9
  6
CONTINUOUS
 10
9.7472050147
 20
3.3433989896
 40
0.654385596
100
AcDbArc
 50
169.3237645246
 51
179.9992174103
  0
ARC
  5
2CB
100
AcDbEntity
  8
0
100
AcDbCircle
 62
9
  6
CONTINUOUS
 10
9.7774316627
 20
3.3433989896
 40
0.6543855951
100
AcDbArc
 50
0.0007825852
 51
10.6762276917
  0
ARC
  5
2CC
100
AcDbEntity
  8
0
100
AcDbCircle
 62
7
  6
CONTINUOUS
 10
9.7623183383
 20
11.5485476672
 40
0.6515748031
100
AcDbArc
 50
330.9912462626
 51
209.0087537374
  0
ARC
  5
2CD
100
AcDbEntity
  8
0
100
AcDbCircle
 62
7
  6
CONTINUOUS
 10
9.7499609543
 20
3.4214559793
 40
0.647099186
100
AcDbArc
 50
149.4898942706
 51
179.9807247014
  0
ARC
  5
2CE
100
AcDbEntity
  8
0
100
AcDbCircle
 62
7
  6
CONTINUOUS
 10
9.7746757351
 20
3.4214559825
 40
0.6470991721
100
AcDbArc
 50
0.0192750162
 51
30.5099768528
  0
ARC
  5
2CF
100
AcDbEntity
  8
0
100
AcDbCircle
 62
9
  6
CONTINUOUS
 10
9.7623183383
 20
11.5485476672
 40
0.6015748031
100
AcDbArc
 50
341.4116239526
 51
198.5883760474
  0
ARC
  5
2D0
100
AcDbEntity
  8
0
100
AcDbCircle
 62
9
  6
CONTINUOUS
 10
9.7754994611
 20
3.4290527152
 40
0.5970561342
100
AcDbArc
 50
0.0066936165
 51
21.1424062551
  0
ARC
  5
2D1
100
AcDbEntity
  8
0
100
AcDbCircle
 62
9
  6
CONTINUOUS
 10
9.7491372153
 20
3.4290527153
 40
0.5970561342
100
AcDbArc
 50
158.8575937414
 51
179.9933063881
  0
ARC
  5
2D2
100
AcDbEntity
  8
0
100
AcDbCircle
 62
7
  6
CONTINUOUS
 10
9.7517427049
 20
11.5485481631
 40
0.5803206965
100
AcDbArc
 50
0.0196859075
 51
1.9706704791
  0
ARC
  5
2D3
100
AcDbEntity
  8
0
100
AcDbCircle
 62
7
  6
CONTINUOUS
 10
9.7728928558
 20
11.5485481849
 40
0.5803195806
100
AcDbArc
 50
178.0293042758
 51
179.9706322139
  0
ARC
  5
2D4
100
AcDbEntity
  8
0
100
AcDbCircle
 62
7
  6
CONTINUOUS
 10
8.5923183383
 20
10.3785476672
 40
0.04
100
AcDbArc
 50
180.0
 51
270.0
  0
ARC
  5
2D5
100
AcDbEntity
  8
0
100
AcDbCircle
 62
7
  6
CONTINUOUS
 10
10.9323183383
 20
10.3785476672
 40
0.04
100
AcDbArc
 50
270.0
 51
360.0
  0
ARC
  5
2D6
100
AcDbEntity
  8
0
100
AcDbCircle
 62
7
  6
CONTINUOUS
 10
10.9323183383
 20
12.7185476672
 40
0.04
100
AcDbArc
 50
0.0
 51
90.0
  0
ARC
  5
2D7
100
AcDbEntity
  8
0
100
AcDbCircle
 62
7
  6
CONTINUOUS
 10
8.5923183383
 20
12.7185476672
 40
0.04
100
AcDbArc
 50
90.0
 51
180.0
  0
ARC
  5
2D8
100
AcDbEntity
  8
0
100
AcDbCircle
 62
9
  6
CONTINUOUS
 10
13.1538136257
 20
-27.0291692342
 40
38.7080746521
100
AcDbArc
 50
89.9776522376
 51
90.4749020126
  0
ARC
  5
2D9
100
AcDbEntity
  8
0
100
AcDbCircle
 62
9
  6
CONTINUOUS
 10
13.1812837631
 20
-26.940099413
 40
38.6190039425
100
AcDbArc
 50
89.5246861953
 51
90.0183558308
  0
ARC
  5
2DA
100
AcDbEntity
  8
0
100
AcDbCircle
 62
9
  6
CONTINUOUS
 10
13.1673183383
 20
-24.7309649385
 40
36.4426506677
100
AcDbArc
 50
89.5447293936
 51
90.4552706064
  0
ARC
  5
2DB
100
AcDbEntity
  8
0
100
AcDbCircle
 62
7
  6
CONTINUOUS
 10
13.1568884481
 20
-23.4274265135
 40
35.1312254136
100
AcDbArc
 50
89.9805027176
 51
90.4623837876
  0
ARC
  5
2DC
100
AcDbEntity
  8
0
100
AcDbCircle
 62
7
  6
CONTINUOUS
 10
13.1781387568
 20
-23.3504568048
 40
35.0542549643
100
AcDbArc
 50
89.5372392463
 51
90.01519329
  0
ARC
  5
2DD
100
AcDbEntity
  8
0
100
AcDbCircle
 62
7
  6
CONTINUOUS
 10
11.1342368071
 20
11.3846256171
 40
1.5
100
AcDbArc
 50
20.6288050341
 51
33.5744221016
  0
ARC
  5
2DE
100
AcDbEntity
  8
0
100
AcDbCircle
 62
9
  6
CONTINUOUS
 10
13.4698879309
 20
11.3694651268
 40
0.6394924528
100
AcDbArc
 50
144.2185179663
 51
144.3595413928
  0
ARC
  5
2DF
100
AcDbEntity
  8
0
100
AcDbCircle
 62
9
  6
CONTINUOUS
 10
12.869483266
 20
11.3728672012
 40
0.6336623822
100
AcDbArc
 50
35.6406569565
 51
35.7822334462
  0
ARC
  5
2E0
100
AcDbEntity
  8
0
100
AcDbCircle
 62
7
  6
CONTINUOUS
 10
12.2612642186
 20
10.3885476672
 40
0.41
100
AcDbArc
 50
96.1898525978
 51
142.6168015821
  0
ARC
  5
2E1
100
AcDbEntity
  8
0
100
AcDbCircle
 62
9
  6
CONTINUOUS
 10
12.9181744458
 20
11.2148089726
 40
0.3818717664
100
AcDbArc
 50
182.9493038297
 51
183.1101774642
  0
ARC
  5
2E2
100
AcDbEntity
  8
0
100
AcDbCircle
 62
7
  6
CONTINUOUS
 10
12.8060336598
 20
11.1315476672
 40
0.22
100
AcDbArc
 50
90.0
 51
143.8574727127
  0
ARC
  5
2E3
100
AcDbEntity
  8
0
100
AcDbCircle
 62
7
  6
CONTINUOUS
 10
12.4923009763
 20
10.8110476672
 40
0.13
100
AcDbArc
 50
146.4255778984
 51
179.204199698
  0
ARC
  5
2E4
100
AcDbEntity
  8
0
100
AcDbCircle
 62
7
  6
CONTINUOUS
 10
12.038778264
 20
10.5585476672
 40
0.13
100
AcDbArc
 50
142.6168015821
 51
162.8953648234
  0
ARC
  5
2E5
100
AcDbEntity
  8
0
100
AcDbCircle
 62
7
  6
CONTINUOUS
 10
11.8523183383
 20
10.6635476672
 40
0.1
100
AcDbArc
 50
270.0
 51
293.5564643091
  0
ARC
  5
2E6
100
AcDbEntity
  8
0
100
AcDbCircle
 62
7
  6
CONTINUOUS
 10
12.2256825348
 20
10.7166237921
 40
0.08
100
AcDbArc
 50
48.2079322135
 51
96.1898525978
  0
ARC
  5
2E7
100
AcDbEntity
  8
0
100
AcDbCircle
 62
7
  6
CONTINUOUS
 10
12.3123183383
 20
10.8135476672
 40
0.05
100
AcDbArc
 50
228.2079322135
 51
359.204199698
  0
ARC
  5
2E8
100
AcDbEntity
  8
0
100
AcDbCircle
 62
7
  6
CONTINUOUS
 10
11.8762974959
 20
10.6085476672
 40
0.04
100
AcDbArc
 50
293.5564643091
 51
342.8953648234
  0
ARC
  5
2E9
100
AcDbEntity
  8
0
100
AcDbCircle
 62
7
  6
CONTINUOUS
 10
13.486991267
 20
11.4195257636
 40
0.0250000533
100
AcDbArc
 50
270.5549941145
 51
359.9998717545
  0
ARC
  5
2EA
100
AcDbEntity
  8
0
100
AcDbCircle
 62
7
  6
CONTINUOUS
 10
12.8476453957
 20
11.4195257146
 40
0.0250000074
100
AcDbArc
 50
180.0000180738
 51
269.4641750554
  0
ARC
  5
2EB
100
AcDbEntity
  8
0
100
AcDbCircle
 62
7
  6
CONTINUOUS
 10
13.5173183383
 20
11.3235476672
 40
0.025
100
AcDbArc
 50
270.0
 51
360.0
  0
ARC
  5
2EC
100
AcDbEntity
  8
0
100
AcDbCircle
 62
7
  6
CONTINUOUS
 10
12.9163183383
 20
11.2782720766
 40
0.025
100
AcDbArc
 50
180.0
 51
270.0
  0
ARC
  5
2ED
100
AcDbEntity
  8
0
100
AcDbCircle
 62
7
  6
CONTINUOUS
 10
13.4173183383
 20
11.2782720766
 40
0.025
100
AcDbArc
 50
270.0
 51
360.0
  0
ARC
  5
2EE
100
AcDbEntity
  8
0
100
AcDbCircle
 62
7
  6
CONTINUOUS
 10
12.8663183383
 20
11.3265476672
 40
0.025
100
AcDbArc
 50
0.0
 51
90.0
  0
ARC
  5
2EF
100
AcDbEntity
  8
0
100
AcDbCircle
 62
7
  6
CONTINUOUS
 10
12.6081833376
 20
11.2760476672
 40
0.025
100
AcDbArc
 50
270.0
 51
323.8574727127
  0
ARC
  5
2F0
100
AcDbEntity
  8
0
100
AcDbCircle
 62
9
  6
CONTINUOUS
 10
12.5192574214
 20
11.1910476609
 40
0.0200015457
100
AcDbArc
 50
339.3770220228
 51
15.321580953
  0
ARC
  5
2F1
100
AcDbEntity
  8
0
100
AcDbCircle
 62
7
  6
CONTINUOUS
 10
12.5193429268
 20
11.1910476672
 40
0.02
100
AcDbArc
 50
339.3711908766
 51
16.5679842852
  0
ARC
  5
2F2
100
AcDbEntity
  8
0
100
AcDbCircle
 62
9
  6
CONTINUOUS
 10
13.1808192638
 20
50.1270269886
 40
38.7088370792
100
AcDbArc
 50
269.9776203061
 51
270.4748982641
  0
ARC
  5
2F3
100
AcDbEntity
  8
0
100
AcDbCircle
 62
9
  6
CONTINUOUS
 10
13.1533492374
 20
50.0365104132
 40
38.618319601
100
AcDbArc
 50
269.5246832263
 51
270.0183235439
  0
ARC
  5
2F4
100
AcDbEntity
  8
0
100
AcDbCircle
 62
9
  6
CONTINUOUS
 10
13.1673183383
 20
47.8280713278
 40
36.4426617226
100
AcDbArc
 50
269.5447295314
 51
270.4552704683
  0
ARC
  5
2F5
100
AcDbEntity
  8
0
100
AcDbCircle
 62
7
  6
CONTINUOUS
 10
13.1777452176
 20
46.5251190607
 40
35.1318226319
100
AcDbArc
 50
269.9804679028
 51
270.4623808378
  0
ARC
  5
2F6
100
AcDbEntity
  8
0
100
AcDbCircle
 62
7
  6
CONTINUOUS
 10
13.1564944691
 20
46.4468559644
 40
35.0535587833
100
AcDbArc
 50
269.5372356958
 51
270.0151590859
  0
ARC
  5
2F7
100
AcDbEntity
  8
0
100
AcDbCircle
 62
7
  6
CONTINUOUS
 10
11.1342368071
 20
11.7124697173
 40
1.5
100
AcDbArc
 50
326.4255778984
 51
339.37119481
  0
ARC
  5
2F8
100
AcDbEntity
  8
0
100
AcDbCircle
 62
9
  6
CONTINUOUS
 10
12.863067246
 20
11.7288420257
 40
0.6415651188
100
AcDbArc
 50
324.2185246134
 51
324.3583537028
  0
ARC
  5
2F9
100
AcDbEntity
  8
0
100
AcDbCircle
 62
9
  6
CONTINUOUS
 10
13.4635451284
 20
11.7230711734
 40
0.6316811895
100
AcDbArc
 50
215.63962975
 51
215.7823962145
  0
ARC
  5
2FA
100
AcDbEntity
  8
0
100
AcDbCircle
 62
7
  6
CONTINUOUS
 10
12.2612642186
 20
12.7085476672
 40
0.41
100
AcDbArc
 50
217.3831984179
 51
263.8101474022
  0
ARC
  5
2FB
100
AcDbEntity
  8
0
100
AcDbCircle
 62
9
  6
CONTINUOUS
 10
12.9291335367
 20
11.8817065658
 40
0.392846129
100
AcDbArc
 50
176.8952689592
 51
177.0589073869
  0
ARC
  5
2FC
100
AcDbEntity
  8
0
100
AcDbCircle
 62
7
  6
CONTINUOUS
 10
12.8060336598
 20
11.9655476672
 40
0.22
100
AcDbArc
 50
216.1425272873
 51
270.0
  0
ARC
  5
2FD
100
AcDbEntity
  8
0
100
AcDbCircle
 62
7
  6
CONTINUOUS
 10
12.4923009763
 20
12.2860476672
 40
0.13
100
AcDbArc
 50
180.795800302
 51
213.5744221016
  0
ARC
  5
2FE
100
AcDbEntity
  8
0
100
AcDbCircle
 62
7
  6
CONTINUOUS
 10
12.038778264
 20
12.5385476672
 40
0.13
100
AcDbArc
 50
197.1046351766
 51
217.3831984179
  0
ARC
  5
2FF
100
AcDbEntity
  8
0
100
AcDbCircle
 62
7
  6
CONTINUOUS
 10
11.8523183383
 20
12.4335476672
 40
0.1
100
AcDbArc
 50
66.4435356909
 51
90.0
  0
ARC
  5
300
100
AcDbEntity
  8
0
100
AcDbCircle
 62
7
  6
CONTINUOUS
 10
12.2256825348
 20
12.3804715422
 40
0.08
100
AcDbArc
 50
263.8101474022
 51
311.7920677865
  0
ARC
  5
301
100
AcDbEntity
  8
0
100
AcDbCircle
 62
7
  6
CONTINUOUS
 10
12.3123183383
 20
12.2835476672
 40
0.05
100
AcDbArc
 50
0.795800302
 51
131.7920677865
  0
ARC
  5
302
100
AcDbEntity
  8
0
100
AcDbCircle
 62
7
  6
CONTINUOUS
 10
11.8762974959
 20
12.4885476672
 40
0.04
100
AcDbArc
 50
17.1046351766
 51
66.4435356909
  0
ARC
  5
303
100
AcDbEntity
  8
0
100
AcDbCircle
 62
7
  6
CONTINUOUS
 10
12.8476454096
 20
11.6775695708
 40
0.0250000533
100
AcDbArc
 50
90.5549935244
 51
179.9998717545
  0
ARC
  5
304
100
AcDbEntity
  8
0
100
AcDbCircle
 62
7
  6
CONTINUOUS
 10
13.4869912809
 20
11.6775696197
 40
0.0250000074
100
AcDbArc
 50
0.0000180738
 51
89.464174816
  0
ARC
  5
305
100
AcDbEntity
  8
0
100
AcDbCircle
 62
7
  6
CONTINUOUS
 10
13.5173183383
 20
11.7735476672
 40
0.025
100
AcDbArc
 50
0.0
 51
90.0
  0
ARC
  5
306
100
AcDbEntity
  8
0
100
AcDbCircle
 62
7
  6
CONTINUOUS
 10
12.9163183383
 20
11.8188232577
 40
0.025
100
AcDbArc
 50
90.0
 51
180.0
  0
ARC
  5
307
100
AcDbEntity
  8
0
100
AcDbCircle
 62
7
  6
CONTINUOUS
 10
13.4173183383
 20
11.8188232577
 40
0.025
100
AcDbArc
 50
0.0
 51
90.0
  0
ARC
  5
308
100
AcDbEntity
  8
0
100
AcDbCircle
 62
7
  6
CONTINUOUS
 10
12.8663183383
 20
11.7705476672
 40
0.025
100
AcDbArc
 50
270.0
 51
360.0
  0
ARC
  5
309
100
AcDbEntity
  8
0
100
AcDbCircle
 62
7
  6
CONTINUOUS
 10
12.6081833376
 20
11.8210476672
 40
0.025
100
AcDbArc
 50
36.1425272873
 51
90.0
  0
ARC
  5
30A
100
AcDbEntity
  8
0
100
AcDbCircle
 62
9
  6
CONTINUOUS
 10
12.5192574217
 20
11.9060476735
 40
0.0200015455
100
AcDbArc
 50
344.6803928151
 51
20.6229781253
  0
ARC
  5
30B
100
AcDbEntity
  8
0
100
AcDbCircle
 62
7
  6
CONTINUOUS
 10
12.5193429369
 20
11.9060476672
 40
0.02
100
AcDbArc
 50
343.4332011053
 51
20.6288076397
  0
SPLINE
  5
30C
100
AcDbEntity
  8
0
100
AcDbSpline
 62
7
  6
CONTINUOUS
 70
0
 71
3
 72
31
 73
27
 74
0
 42
0.0000001
 43
0.0000001
 44
0.0000000001
 40
0.0
 40
0.0
 40
0.0
 40
0.0
 40
0.062456473
 40
0.1249464086
 40
0.1874668439
 40
0.2499932285
 40
0.2812586891
 40
0.3125159006
 40
0.3437637726
 40
0.3750032371
 40
0.4062378138
 40
0.4374736956
 40
0.4687161879
 40
0.4999677294
 40
0.5624780426
 40
0.62500562
 40
0.6875215952
 40
0.7187770089
 40
0.7500230887
 40
0.7812612285
 40
0.7968797225
 40
0.8124980223
 40
0.8437348753
 40
0.8749790292
 40
0.9374761004
 40
1.0
 40
1.0
 40
1.0
 40
1.0
 10
9.7623183383
 20
12.1185476672
 30
0.0
 10
9.7436936516
 20
12.1185476672
 30
0.0
 10
9.706408568
 20
12.1166552389
 30
0.0
 10
9.6510453739
 20
12.1083131197
 30
0.0
 10
9.5967297355
 20
12.0946409364
 30
0.0
 10
9.5527574768
 20
12.078939945
 30
0.0
 10
9.5186287243
 20
12.0638845009
 30
0.0
 10
9.4936132366
 20
12.0513631608
 30
0.0
 10
9.4692486671
 20
12.0376348174
 30
0.0
 10
9.4455989554
 20
12.0227204899
 30
0.0
 10
9.422730328
 20
12.0066396698
 30
0.0
 10
9.4007055571
 20
11.9894201665
 30
0.0
 10
9.3795628001
 20
11.9711203269
 30
0.0
 10
9.3526056901
 20
11.9453564417
 30
0.0
 10
9.3213064242
 20
11.9107157853
 30
0.0
 10
9.2879353681
 20
11.8657311157
 30
0.0
 10
9.263857015
 20
11.8257301194
 30
0.0
 10
9.2470067008
 20
11.7924612162
 30
0.0
 10
9.2356108804
 20
11.7669234359
 30
0.0
 10
9.2271837536
 20
11.7451998647
 30
0.0
 10
9.2211050827
 20
11.7275873946
 30
0.0
 10
9.2154750979
 20
11.7098268897
 30
0.0
 10
9.2092800328
 20
11.6873651149
 30
0.0
 10
9.2011683141
 20
11.6509767899
 30
0.0
 10
9.1943990924
 20
11.6047942009
 30
0.0
 10
9.1925829174
 20
11.5674902505
 30
0.0
 10
9.1925733514
 20
11.5488454595
 30
0.0
  0
SPLINE
  5
30D
100
AcDbEntity
  8
0
100
AcDbSpline
 62
7
  6
CONTINUOUS
 70
0
 71
3
 72
30
 73
26
 74
0
 42
0.0000001
 43
0.0000001
 44
0.0000000001
 40
0.0
 40
0.0
 40
0.0
 40
0.0
 40
0.0628171153
 40
0.1256537917
 40
0.1884941482
 40
0.2513018011
 40
0.3140378906
 40
0.3453801242
 40
0.3766981824
 40
0.4079946305
 40
0.4392749577
 40
0.4705442094
 40
0.5018047484
 40
0.5642800923
 40
0.6267039408
 40
0.6890513733
 40
0.7202000797
 40
0.7513256335
 40
0.7824304868
 40
0.7979779387
 40
0.8135224692
 40
0.8446043462
 40
0.8756850265
 40
0.9378360114
 40
1.0
 40
1.0
 40
1.0
 40
1.0
 10
9.7623183383
 20
2.869473549
 30
0.0
 10
9.7436880004
 20
2.869473549
 30
0.0
 10
9.7063961993
 20
2.8713449933
 30
0.0
 10
9.6510210705
 20
2.8795943758
 30
0.0
 10
9.5966906448
 20
2.8931163932
 30
0.0
 10
9.5439283198
 20
2.9117425385
 30
0.0
 10
9.5016654846
 20
2.9313947858
 30
0.0
 10
9.4691671107
 20
2.9495021449
 30
0.0
 10
9.4455121328
 20
2.9642536571
 30
0.0
 10
9.4226394609
 20
2.9801587002
 30
0.0
 10
9.4006110487
 20
2.9971900451
 30
0.0
 10
9.379465383
 20
3.0152897723
 30
0.0
 10
9.3525130169
 20
3.040764526
 30
0.0
 10
9.3212192122
 20
3.0750152266
 30
0.0
 10
9.2878473644
 20
3.1195061135
 30
0.0
 10
9.2637656412
 20
3.1590777144
 30
0.0
 10
9.246917293
 20
3.1919884407
 30
0.0
 10
9.2355270995
 20
3.2172449876
 30
0.0
 10
9.2271048458
 20
3.2387311658
 30
0.0
 10
9.2210309895
 20
3.2561507616
 30
0.0
 10
9.215407227
 20
3.2737135943
 30
0.0
 10
9.2092201549
 20
3.2959255293
 30
0.0
 10
9.2011225915
 20
3.3319074423
 30
0.0
 10
9.1943719549
 20
3.3775768248
 30
0.0
 10
9.192573275
 20
3.414469821
 30
0.0
 10
9.192573275
 20
3.4329064542
 30
0.0
  0
SPLINE
  5
30E
100
AcDbEntity
  8
0
100
AcDbSpline
 62
7
  6
CONTINUOUS
 70
0
 71
3
 72
47
 73
43
 74
0
 42
0.0000001
 43
0.0000001
 44
0.0000000001
 40
0.0
 40
0.0
 40
0.0
 40
0.0
 40
0.0156231329
 40
0.0312394455
 40
0.0468490469
 40
0.0624520951
 40
0.0936319819
 40
0.1247887541
 40
0.1403630983
 40
0.1559328181
 40
0.1714983743
 40
0.1870602616
 40
0.2181676367
 40
0.2492668604
 40
0.2803626108
 40
0.3114596729
 40
0.3425627916
 40
0.3736765276
 40
0.4048051198
 40
0.4359523563
 40
0.4671214603
 40
0.4983149927
 40
0.529534777
 40
0.5607818421
 40
0.5920563957
 40
0.6233578175
 40
0.6546846778
 40
0.6860347853
 40
0.71740525
 40
0.7487925711
 40
0.7801927458
 40
0.8116013846
 40
0.8273110582
 40
0.8430210941
 40
0.8587308976
 40
0.8744398723
 40
0.9058457391
 40
0.9372413854
 40
0.9529376669
 40
0.9686298326
 40
0.9843174191
 40
1.0
 40
1.0
 40
1.0
 40
1.0
 10
10.3321743029
 20
3.8572452387
 30
0.0
 10
10.3399907375
 20
3.8490841129
 30
0.0
 10
10.3552675811
 20
3.8324233881
 30
0.0
 10
10.3770677962
 20
3.806466893
 30
0.0
 10
10.3977090961
 20
3.7795963075
 30
0.0
 10
10.4236225055
 20
3.7426335742
 30
0.0
 10
10.4529371751
 20
3.6943902301
 30
0.0
 10
10.4779167963
 20
3.6437891097
 30
0.0
 10
10.4951746338
 20
3.6021483883
 30
0.0
 10
10.5067348582
 20
3.5703899602
 30
0.0
 10
10.516889487
 20
3.538163943
 30
0.0
 10
10.5285265054
 20
3.494666371
 30
0.0
 10
10.5394743423
 20
3.4394103769
 30
0.0
 10
10.5467411927
 20
3.3722303479
 30
0.0
 10
10.5480852184
 20
3.304676599
 30
0.0
 10
10.5434950553
 20
3.2372634572
 30
0.0
 10
10.5330060739
 20
3.1705000207
 30
0.0
 10
10.5166978981
 20
3.1048914665
 30
0.0
 10
10.4946943716
 20
3.0409338131
 30
0.0
 10
10.467162835
 20
2.9791103135
 30
0.0
 10
10.4343121925
 20
2.9198878645
 30
0.0
 10
10.3963915738
 20
2.8637134212
 30
0.0
 10
10.3536885484
 20
2.8110104237
 30
0.0
 10
10.306526366
 20
2.7621759851
 30
0.0
 10
10.2552618315
 20
2.7175777032
 30
0.0
 10
10.2002825453
 20
2.6775508319
 30
0.0
 10
10.1420036353
 20
2.6423962631
 30
0.0
 10
10.0808648522
 20
2.6123779251
 30
0.0
 10
10.0173275153
 20
2.5877209144
 30
0.0
 10
9.9518694929
 20
2.5686102694
 30
0.0
 10
9.8849871555
 20
2.5551892355
 30
0.0
 10
9.8284738211
 20
2.5488297517
 30
0.0
 10
9.7830690907
 20
2.5466661378
 30
0.0
 10
9.7489690331
 20
2.5465070088
 30
0.0
 10
9.7148941717
 20
2.5478127045
 30
0.0
 10
9.6695903435
 20
2.5515021424
 30
0.0
 10
9.6133303446
 20
2.5597574708
 30
0.0
 10
9.5579963868
 20
2.5728138192
 30
0.0
 10
9.5145508263
 20
2.5860751338
 30
0.0
 10
9.4824308761
 20
2.5974121911
 30
0.0
 10
9.4508393373
 20
2.6101179231
 30
0.0
 10
9.4301644509
 20
2.6194875348
 30
0.0
 10
9.4199358813
 20
2.6243916833
 30
0.0
  0
SPLINE
  5
30F
100
AcDbEntity
  8
0
100
AcDbSpline
 62
7
  6
CONTINUOUS
 70
0
 71
3
 72
69
 73
65
 74
0
 42
0.0000001
 43
0.0000001
 44
0.0000000001
 40
0.0
 40
0.0
 40
0.0
 40
0.0
 40
0.0155430419
 40
0.0310875557
 40
0.0466330553
 40
0.0621811224
 40
0.077732236
 40
0.0932871484
 40
0.1088465531
 40
0.1244110736
 40
0.1399813005
 40
0.1555577615
 40
0.1711409257
 40
0.1867311993
 40
0.2023289188
 40
0.2179343468
 40
0.233547672
 40
0.2491690087
 40
0.264798394
 40
0.2804357853
 40
0.296081063
 40
0.3117340335
 40
0.3273944298
 40
0.3430619121
 40
0.3587360717
 40
0.3744164377
 40
0.3901024806
 40
0.4057936157
 40
0.4214892082
 40
0.4371885817
 40
0.4528910252
 40
0.4685957977
 40
0.500000006
 40
0.5314042141
 40
0.5471089865
 40
0.5628114298
 40
0.5785108031
 40
0.5942063952
 40
0.60989753
 40
0.6255835725
 40
0.6412639381
 40
0.6569380972
 40
0.672605579
 40
0.6882659748
 40
0.7039189448
 40
0.7195642219
 40
0.7352016126
 40
0.7508309972
 40
0.7664523334
 40
0.782065658
 40
0.7976710855
 40
0.8132688045
 40
0.8288590775
 40
0.8444422412
 40
0.8600187017
 40
0.8755889282
 40
0.8911534483
 40
0.9067128526
 40
0.9222677647
 40
0.937818878
 40
0.953366945
 40
0.9689124444
 40
0.9844569581
 40
1.0
 40
1.0
 40
1.0
 40
1.0
 10
8.9375151887
 20
3.0218700569
 30
0.0
 10
8.9375151887
 20
3.0085201626
 30
0.0
 10
8.9381782889
 20
2.9818143667
 30
0.0
 10
8.9411592154
 20
2.9418566968
 30
0.0
 10
8.9461198266
 20
2.9020908732
 30
0.0
 10
8.9530475122
 20
2.8626147123
 30
0.0
 10
8.9619259314
 20
2.8235226777
 30
0.0
 10
8.9727334227
 20
2.7849093435
 30
0.0
 10
8.9854437855
 20
2.7468677757
 30
0.0
 10
9.0000262784
 20
2.7094897216
 30
0.0
 10
9.0164456577
 20
2.6728653273
 30
0.0
 10
9.0346622124
 20
2.6370828837
 30
0.0
 10
9.0546318239
 20
2.6022285897
 30
0.0
 10
9.0763062101
 20
2.5683864049
 30
0.0
 10
9.0996330205
 20
2.5356378515
 30
0.0
 10
9.1245559324
 20
2.5040618061
 30
0.0
 10
9.1510146883
 20
2.473734219
 30
0.0
 10
9.1789453979
 20
2.4447280425
 30
0.0
 10
9.2082806658
 20
2.4171130492
 30
0.0
 10
9.2389497615
 20
2.3909556893
 30
0.0
 10
9.2708786704
 20
2.3663187874
 30
0.0
 10
9.3039903926
 20
2.3432615113
 30
0.0
 10
9.3382051277
 20
2.3218392459
 30
0.0
 10
9.3734404707
 20
2.3021034936
 30
0.0
 10
9.4096115274
 20
2.284101611
 30
0.0
 10
9.446631167
 20
2.2678767527
 30
0.0
 10
9.4844102727
 20
2.2534678455
 30
0.0
 10
9.5228579081
 20
2.2409095063
 30
0.0
 10
9.5618816289
 20
2.2302318729
 30
0.0
 10
9.6013872139
 20
2.2214604828
 30
0.0
 10
9.6412807669
 20
2.2146163534
 30
0.0
 10
9.6948501768
 20
2.2080831692
 30
0.0
 10
9.7623183536
 20
2.2048047765
 30
0.0
 10
9.8297865302
 20
2.2080831714
 30
0.0
 10
9.8833559394
 20
2.2146163581
 30
0.0
 10
9.9232494917
 20
2.2214604885
 30
0.0
 10
9.9627550759
 20
2.2302318797
 30
0.0
 10
10.0017787956
 20
2.2409095142
 30
0.0
 10
10.0402264295
 20
2.2534678548
 30
0.0
 10
10.0780055339
 20
2.2678767628
 30
0.0
 10
10.115025172
 20
2.2841016216
 30
0.0
 10
10.1511962272
 20
2.3021035046
 30
0.0
 10
10.1864315683
 20
2.3218392577
 30
0.0
 10
10.2206463017
 20
2.3432615231
 30
0.0
 10
10.2537580222
 20
2.3663187992
 30
0.0
 10
10.2856869294
 20
2.3909557008
 30
0.0
 10
10.3163560233
 20
2.4171130606
 30
0.0
 10
10.3456912895
 20
2.4447280534
 30
0.0
 10
10.3736219977
 20
2.4737342293
 30
0.0
 10
10.4000807522
 20
2.5040618156
 30
0.0
 10
10.4250036627
 20
2.5356378603
 30
0.0
 10
10.4483304718
 20
2.5683864129
 30
0.0
 10
10.4700048569
 20
2.6022285967
 30
0.0
 10
10.4899744674
 20
2.6370828897
 30
0.0
 10
10.5081910213
 20
2.6728653324
 30
0.0
 10
10.5246103999
 20
2.7094897258
 30
0.0
 10
10.5391928923
 20
2.7468677791
 30
0.0
 10
10.5519032547
 20
2.7849093461
 30
0.0
 10
10.5627107456
 20
2.8235226796
 30
0.0
 10
10.5715891646
 20
2.8626147135
 30
0.0
 10
10.5785168501
 20
2.902090874
 30
0.0
 10
10.5834774612
 20
2.9418566971
 30
0.0
 10
10.5864583876
 20
2.9818143668
 30
0.0
 10
10.5871214879
 20
3.0085201626
 30
0.0
 10
10.5871214879
 20
3.0218700569
 30
0.0
  0
SPLINE
  5
310
100
AcDbEntity
  8
0
100
AcDbSpline
 62
7
  6
CONTINUOUS
 70
0
 71
3
 72
65
 73
61
 74
0
 42
0.0000001
 43
0.0000001
 44
0.0000000001
 40
0.0
 40
0.0
 40
0.0
 40
0.0
 40
0.015548199
 40
0.0310980104
 40
0.0466485815
 40
0.0622016033
 40
0.0933074352
 40
0.1244301542
 40
0.1400040726
 40
0.1555838696
 40
0.1711699892
 40
0.1867628141
 40
0.2023626609
 40
0.2179697794
 40
0.2335843506
 40
0.2492064817
 40
0.2648362067
 40
0.2804734883
 40
0.2961182162
 40
0.311770207
 40
0.3274292077
 40
0.3430949
 40
0.3587669001
 40
0.3744447622
 40
0.3901279856
 40
0.4058160198
 40
0.4215082662
 40
0.4372040849
 40
0.4529028036
 40
0.4686037235
 40
0.5000000104
 40
0.5313962971
 40
0.5470972168
 40
0.5627959352
 40
0.5784917534
 40
0.5941839993
 40
0.6098720329
 40
0.6255552556
 40
0.641233117
 40
0.6569051163
 40
0.6725708077
 40
0.6882298075
 40
0.7038817972
 40
0.7195265242
 40
0.7351638048
 40
0.7507935287
 40
0.7664156588
 40
0.782030229
 40
0.7976373466
 40
0.8132371923
 40
0.8288300164
 40
0.8444161351
 40
0.8599959313
 40
0.8755698489
 40
0.9066925665
 40
0.9377983975
 40
0.9533514189
 40
0.9689019898
 40
0.984451801
 40
1.0
 40
1.0
 40
1.0
 40
1.0
 10
9.1028695194
 20
3.4216736721
 30
0.0
 10
9.1028695194
 20
3.4109953346
 30
0.0
 10
9.1033998634
 20
3.3896337264
 30
0.0
 10
9.105783757
 20
3.3576724002
 30
0.0
 10
9.1097511296
 20
3.3258639018
 30
0.0
 10
9.1171369729
 20
3.2837675742
 30
0.0
 10
9.1302763257
 20
3.2318928015
 30
0.0
 10
9.1484903288
 20
3.1815600393
 30
0.0
 10
9.1659911244
 20
3.1425176742
 30
0.0
 10
9.1805586008
 20
3.1138977195
 30
0.0
 10
9.1965274544
 20
3.0860212993
 30
0.0
 10
9.2138593656
 20
3.0589547115
 30
0.0
 10
9.2325122702
 20
3.0327633579
 30
0.0
 10
9.2524410097
 20
3.0075101729
 30
0.0
 10
9.2735974084
 20
2.9832559321
 30
0.0
 10
9.2959304025
 20
2.9600590128
 30
0.0
 10
9.3193859812
 20
2.9379751113
 30
0.0
 10
9.3439074908
 20
2.9170572428
 30
0.0
 10
9.3694357877
 20
2.897355659
 30
0.0
 10
9.3959093351
 20
2.8789176952
 30
0.0
 10
9.4232642508
 20
2.8617874989
 30
0.0
 10
9.4514346129
 20
2.8460061232
 30
0.0
 10
9.4803526026
 20
2.8316114494
 30
0.0
 10
9.5099485951
 20
2.8186379842
 30
0.0
 10
9.5401513251
 20
2.8071167144
 30
0.0
 10
9.5708881121
 20
2.7970752198
 30
0.0
 10
9.602085116
 20
2.7885376191
 30
0.0
 10
9.633667058
 20
2.7815243129
 30
0.0
 10
9.6655589087
 20
2.7760520086
 30
0.0
 10
9.7083832155
 20
2.7708283311
 30
0.0
 10
9.7623183597
 20
2.7682070935
 30
0.0
 10
9.8162535035
 20
2.7708283345
 30
0.0
 10
9.8590778093
 20
2.7760520151
 30
0.0
 10
9.8909696591
 20
2.7815243208
 30
0.0
 10
9.9225515999
 20
2.7885376284
 30
0.0
 10
9.953748602
 20
2.7970752314
 30
0.0
 10
9.9844853873
 20
2.8071167273
 30
0.0
 10
10.0146881154
 20
2.8186379979
 30
0.0
 10
10.0442841059
 20
2.8316114641
 30
0.0
 10
10.073202093
 20
2.8460061392
 30
0.0
 10
10.101372453
 20
2.8617875151
 30
0.0
 10
10.1287273664
 20
2.8789177114
 30
0.0
 10
10.1552009113
 20
2.8973556753
 30
0.0
 10
10.1807292056
 20
2.9170572593
 30
0.0
 10
10.205250713
 20
2.9379751271
 30
0.0
 10
10.2287062895
 20
2.9600590278
 30
0.0
 10
10.2510392813
 20
2.9832559465
 30
0.0
 10
10.2721956778
 20
3.0075101864
 30
0.0
 10
10.2921244156
 20
3.0327633702
 30
0.0
 10
10.3107773186
 20
3.0589547225
 30
0.0
 10
10.328109228
 20
3.0860213092
 30
0.0
 10
10.3440780803
 20
3.113897728
 30
0.0
 10
10.3586455556
 20
3.1425176813
 30
0.0
 10
10.3761463499
 20
3.1815600449
 30
0.0
 10
10.3943603519
 20
3.2318928052
 30
0.0
 10
10.4074997041
 20
3.2837675763
 30
0.0
 10
10.4148855471
 20
3.3258639028
 30
0.0
 10
10.4188529196
 20
3.3576724006
 30
0.0
 10
10.4212368131
 20
3.3896337265
 30
0.0
 10
10.4217671572
 20
3.4109953346
 30
0.0
 10
10.4217671572
 20
3.4216736721
 30
0.0
  0
LINE
  5
311
100
AcDbEntity
  8
0
100
AcDbLine
 62
7
  6
CONTINUOUS
 10
8.9375152468
 20
3.0221763139
 11
8.9375151887
 21
3.0218700569
  0
LINE
  5
312
100
AcDbEntity
  8
0
100
AcDbLine
 62
7
  6
CONTINUOUS
 10
10.5871214879
 20
3.0218700569
 11
10.5871214297
 21
3.0221763139
  0
SPLINE
  5
313
100
AcDbEntity
  8
0
100
AcDbSpline
 62
7
  6
CONTINUOUS
 70
0
 71
3
 72
31
 73
27
 74
0
 42
0.0000001
 43
0.0000001
 44
0.0000000001
 40
0.0
 40
0.0
 40
0.0
 40
0.0
 40
0.0625239189
 40
0.1250210407
 40
0.1562652197
 40
0.1875020877
 40
0.2031203887
 40
0.2187388791
 40
0.2499770008
 40
0.2812230564
 40
0.3124784463
 40
0.3749943865
 40
0.437521961
 40
0.5000322956
 40
0.5312838522
 40
0.5625263567
 40
0.5937622442
 40
0.6249968171
 40
0.6562362717
 40
0.6874841321
 40
0.7187413332
 40
0.7500067862
 40
0.8125331612
 40
0.875053596
 40
0.9375435316
 40
1.0
 40
1.0
 40
1.0
 40
1.0
 10
10.3320633672
 20
11.5487474335
 30
0.0
 10
10.3320569494
 20
11.5673942731
 30
0.0
 10
10.3302466783
 20
11.604702639
 30
0.0
 10
10.3234838562
 20
11.650891372
 30
0.0
 10
10.3153766667
 20
11.687284918
 30
0.0
 10
10.3091841831
 20
11.7097500653
 30
0.0
 10
10.3035561217
 20
11.7275133239
 30
0.0
 10
10.2974792467
 20
11.7451285658
 30
0.0
 10
10.2890541117
 20
11.7668556344
 30
0.0
 10
10.2776602942
 20
11.792397643
 30
0.0
 10
10.2608121514
 20
11.8256721987
 30
0.0
 10
10.2367356075
 20
11.8656802514
 30
0.0
 10
10.2033653952
 20
11.9106731986
 30
0.0
 10
10.1720658106
 20
11.9453204906
 30
0.0
 10
10.1451078831
 20
11.9710894536
 30
0.0
 10
10.1239642431
 20
11.9893929694
 30
0.0
 10
10.1019383365
 20
12.0066159999
 30
0.0
 10
10.0790683215
 20
12.0227001687
 30
0.0
 10
10.0554169587
 20
12.0376176085
 30
0.0
 10
10.0310505052
 20
12.0513488317
 30
0.0
 10
10.0060329195
 20
12.0638728096
 30
0.0
 10
9.9719011144
 20
12.0789314394
 30
0.0
 10
9.9279246093
 20
12.0946357769
 30
0.0
 10
9.8736033705
 20
12.108310897
 30
0.0
 10
9.8182342328
 20
12.1166548242
 30
0.0
 10
9.7809450628
 20
12.1185476672
 30
0.0
 10
9.7623183383
 20
12.1185476672
 30
0.0
  0
SPLINE
  5
314
100
AcDbEntity
  8
0
100
AcDbSpline
 62
7
  6
CONTINUOUS
 70
0
 71
3
 72
30
 73
26
 74
0
 42
0.0000001
 43
0.0000001
 44
0.0000000001
 40
0.0
 40
0.0
 40
0.0
 40
0.0
 40
0.0621639886
 40
0.1243149735
 40
0.1553956538
 40
0.1864775308
 40
0.2020220613
 40
0.2175695132
 40
0.2486743665
 40
0.2797999203
 40
0.3109486267
 40
0.3732960592
 40
0.4357199077
 40
0.4981952516
 40
0.5294557906
 40
0.5607250423
 40
0.5920053695
 40
0.6233018176
 40
0.6546198758
 40
0.6859621094
 40
0.7486981989
 40
0.8115058518
 40
0.8743462083
 40
0.9371828847
 40
1.0
 40
1.0
 40
1.0
 40
1.0
 10
10.3320634016
 20
3.4329064542
 30
0.0
 10
10.3320634016
 20
3.414469821
 30
0.0
 10
10.3302647217
 20
3.3775768248
 30
0.0
 10
10.3235140851
 20
3.3319074423
 30
0.0
 10
10.3154165217
 20
3.2959255293
 30
0.0
 10
10.3092294496
 20
3.2737135943
 30
0.0
 10
10.3036056871
 20
3.2561507616
 30
0.0
 10
10.2975318308
 20
3.2387311658
 30
0.0
 10
10.2891095771
 20
3.2172449876
 30
0.0
 10
10.2777193836
 20
3.1919884407
 30
0.0
 10
10.2608710353
 20
3.1590777144
 30
0.0
 10
10.2367893122
 20
3.1195061135
 30
0.0
 10
10.2034174644
 20
3.0750152266
 30
0.0
 10
10.1721236596
 20
3.040764526
 30
0.0
 10
10.1451712936
 20
3.0152897723
 30
0.0
 10
10.1240256279
 20
2.9971900451
 30
0.0
 10
10.1019972156
 20
2.9801587002
 30
0.0
 10
10.0791245438
 20
2.9642536571
 30
0.0
 10
10.0554695659
 20
2.9495021449
 30
0.0
 10
10.0229711919
 20
2.9313947858
 30
0.0
 10
9.9807083567
 20
2.9117425385
 30
0.0
 10
9.9279460317
 20
2.8931163932
 30
0.0
 10
9.873615606
 20
2.8795943758
 30
0.0
 10
9.8182404772
 20
2.8713449933
 30
0.0
 10
9.7809486761
 20
2.869473549
 30
0.0
 10
9.7623183383
 20
2.869473549
 30
0.0
  0
SPLINE
  5
315
100
AcDbEntity
  8
0
100
AcDbSpline
 62
7
  6
CONTINUOUS
 70
0
 71
3
 72
39
 73
35
 74
0
 42
0.0000001
 43
0.0000001
 44
0.0000000001
 40
0.0
 40
0.0
 40
0.0
 40
0.0
 40
0.0314164465
 40
0.0628170354
 40
0.0942007316
 40
0.1255667306
 40
0.1569144713
 40
0.1882436442
 40
0.2195541954
 40
0.2508463251
 40
0.2821204878
 40
0.3133773877
 40
0.3446179651
 40
0.375843385
 40
0.4070550229
 40
0.4382544451
 40
0.4694433873
 40
0.5006237291
 40
0.5317974704
 40
0.5629667028
 40
0.5941335798
 40
0.6253002876
 40
0.6564690149
 40
0.6876419218
 40
0.7188211104
 40
0.7500085968
 40
0.7812062804
 40
0.8124159204
 40
0.8436391111
 40
0.8748772596
 40
0.9061315653
 40
0.9374030042
 40
0.9686923178
 40
1.0
 40
1.0
 40
1.0
 40
1.0
 10
9.4199358813
 20
2.6243916833
 30
0.0
 10
9.4061285279
 20
2.631011701
 30
0.0
 10
9.3788996976
 20
2.6450560829
 30
0.0
 10
9.3393696431
 20
2.6684587667
 30
0.0
 10
9.3012917111
 20
2.6941156439
 30
0.0
 10
9.264798863
 20
2.721937884
 30
0.0
 10
9.2300163275
 20
2.75183031
 30
0.0
 10
9.1970641303
 20
2.7836902943
 30
0.0
 10
9.1660558834
 20
2.8174084818
 30
0.0
 10
9.1370985991
 20
2.8528690544
 30
0.0
 10
9.1102922572
 20
2.8899501509
 30
0.0
 10
9.0857294651
 20
2.9285242714
 30
0.0
 10
9.0634951257
 20
2.9684587146
 30
0.0
 10
9.0436661349
 20
3.0096160299
 30
0.0
 10
9.0263110949
 20
3.0518544884
 30
0.0
 10
9.0114900746
 20
3.0950285773
 30
0.0
 10
8.9992543928
 20
3.138989505
 30
0.0
 10
8.9896464306
 20
3.1835857185
 30
0.0
 10
8.9826994776
 20
3.2286634338
 30
0.0
 10
8.9784376089
 20
3.2740671744
 30
0.0
 10
8.9768755976
 20
3.3196403167
 30
0.0
 10
8.9780188601
 20
3.3652256402
 30
0.0
 10
8.981863436
 20
3.4106658812
 30
0.0
 10
8.9883960025
 20
3.4558042858
 30
0.0
 10
8.9975939244
 20
3.5004851614
 30
0.0
 10
9.0094253278
 20
3.544554425
 30
0.0
 10
9.023849223
 20
3.5878601433
 30
0.0
 10
9.0408156599
 20
3.6302530664
 30
0.0
 10
9.0602658988
 20
3.6715871357
 30
0.0
 10
9.0821326661
 20
3.7117200372
 30
0.0
 10
9.1063402356
 20
3.7505135183
 30
0.0
 10
9.1328053068
 20
3.7878345163
 30
0.0
 10
9.161435038
 20
3.8235531802
 30
0.0
 10
9.1818961835
 20
3.8462126207
 30
0.0
 10
9.1924506852
 20
3.857233033
 30
0.0
  0
SPLINE
  5
316
100
AcDbEntity
  8
0
100
AcDbSpline
 62
9
  6
CONTINUOUS
 70
0
 71
3
 72
23
 73
19
 74
0
 42
0.0000001
 43
0.0000001
 44
0.0000000001
 40
0.0
 40
0.0
 40
0.0
 40
0.0
 40
0.1869991356
 40
0.3673519789
 40
0.5345848542
 40
0.6114950005
 40
0.6830167613
 40
0.7485168701
 40
0.8074482398
 40
0.8592852293
 40
0.9036039103
 40
0.9400400178
 40
0.9552028545
 40
0.9682988038
 40
0.9793151615
 40
0.9882485348
 40
0.995116463
 40
1.0
 40
1.0
 40
1.0
 40
1.0
 10
8.6723183368
 20
11.6901912497
 30
0.0
 10
8.6735475471
 20
11.6900326547
 30
0.0
 10
8.6759637959
 20
11.6897327097
 30
0.0
 10
8.6794841718
 20
11.689331225
 30
0.0
 10
8.682282974
 20
11.6890433462
 30
0.0
 10
8.6843662889
 20
11.6888508375
 30
0.0
 10
8.6857791642
 20
11.688731308
 30
0.0
 10
8.6870742497
 20
11.6886335856
 30
0.0
 10
8.6882401313
 20
11.688558384
 30
0.0
 10
8.6892667505
 20
11.6885063114
 30
0.0
 10
8.6901451257
 20
11.6884777012
 30
0.0
 10
8.6907809672
 20
11.6884727329
 30
0.0
 10
8.6912096665
 20
11.6884828098
 30
0.0
 10
8.6914697042
 20
11.6884958073
 30
0.0
 10
8.6916879459
 20
11.6885145549
 30
0.0
 10
8.6918642411
 20
11.6885388582
 30
0.0
 10
8.6919980585
 20
11.6885684931
 30
0.0
 10
8.6920719294
 20
11.6885958084
 30
0.0
 10
8.6920997706
 20
11.6886123162
 30
0.0
  0
SPLINE
  5
317
100
AcDbEntity
  8
0
100
AcDbSpline
 62
9
  6
CONTINUOUS
 70
0
 71
3
 72
15
 73
11
 74
0
 42
0.0000001
 43
0.0000001
 44
0.0000000001
 40
0.0
 40
0.0
 40
0.0
 40
0.0
 40
0.1239771002
 40
0.2481424037
 40
0.3725594027
 40
0.4972850547
 40
0.6223675068
 40
0.7478382387
 40
0.8737180476
 40
1.0
 40
1.0
 40
1.0
 40
1.0
 10
10.3854191099
 20
12.4493550279
 30
0.0
 10
10.3710140391
 20
12.4590859925
 30
0.0
 10
10.3417049708
 20
12.4778669988
 30
0.0
 10
10.2963910353
 20
12.5038986235
 30
0.0
 10
10.2497790821
 20
12.5277612867
 30
0.0
 10
10.201957421
 20
12.5494089255
 30
0.0
 10
10.1530197202
 20
12.5688035885
 30
0.0
 10
10.1030581335
 20
12.5858921231
 30
0.0
 10
10.0521737299
 20
12.6006099783
 30
0.0
 10
10.0177648719
 20
12.6088133087
 30
0.0
 10
10.0004487951
 20
12.6125135724
 30
0.0
  0
SPLINE
  5
318
100
AcDbEntity
  8
0
100
AcDbSpline
 62
9
  6
CONTINUOUS
 70
0
 71
3
 72
39
 73
35
 74
0
 42
0.0000001
 43
0.0000001
 44
0.0000000001
 40
0.0
 40
0.0
 40
0.0
 40
0.0
 40
0.0315452586
 40
0.0630115071
 40
0.0943961412
 40
0.1257007625
 40
0.1569289907
 40
0.1880858907
 40
0.219178992
 40
0.2502166787
 40
0.2812086345
 40
0.3121649839
 40
0.3430966653
 40
0.3740146825
 40
0.4049293537
 40
0.4358505591
 40
0.4977389043
 40
0.5287343516
 40
0.5597699
 40
0.5908519422
 40
0.6219853924
 40
0.6531735443
 40
0.6844200422
 40
0.7157273397
 40
0.7470962672
 40
0.7785253951
 40
0.8100140053
 40
0.8415596983
 40
0.8573532644
 40
0.8731594551
 40
0.9048075498
 40
0.9365034808
 40
0.9682395373
 40
1.0
 40
1.0
 40
1.0
 40
1.0
 10
9.5251574754
 20
12.6127200899
 30
0.0
 10
9.5113747584
 20
12.6097874834
 30
0.0
 10
9.4839506284
 20
12.6034138507
 30
0.0
 10
9.4432582361
 20
12.5923245392
 30
0.0
 10
9.4031194954
 20
12.5797257116
 30
0.0
 10
9.3635905706
 20
12.5656417967
 30
0.0
 10
9.3247192412
 20
12.5501053168
 30
0.0
 10
9.2865524597
 20
12.5331418152
 30
0.0
 10
9.2491372716
 20
12.5147713941
 30
0.0
 10
9.212518794
 20
12.4950148228
 30
0.0
 10
9.176738964
 20
12.4738969859
 30
0.0
 10
9.1418395457
 20
12.4514413002
 30
0.0
 10
9.1078578657
 20
12.4276771894
 30
0.0
 10
9.0748296355
 20
12.4026360628
 30
0.0
 10
9.0427912817
 20
12.3763462721
 30
0.0
 10
9.0014412669
 20
12.3396609311
 30
0.0
 10
8.9622210508
 20
12.3005767986
 30
0.0
 10
8.9253296223
 20
12.2592936308
 30
0.0
 10
8.8988236578
 20
12.2272253624
 30
0.0
 10
8.8735366002
 20
12.1941109323
 30
0.0
 10
8.8495071615
 20
12.1599891143
 30
0.0
 10
8.8267792676
 20
12.1248992291
 30
0.0
 10
8.8053949759
 20
12.0888844405
 30
0.0
 10
8.7853738927
 20
12.0520028064
 30
0.0
 10
8.7667347706
 20
12.0143128524
 30
0.0
 10
8.7495232683
 20
11.9758607011
 30
0.0
 10
8.7337953184
 20
11.9366932353
 30
0.0
 10
8.7219622049
 20
11.9035182365
 30
0.0
 10
8.7132703862
 20
11.8766821082
 30
0.0
 10
8.7050945743
 20
11.8496364792
 30
0.0
 10
8.6958564218
 20
11.8154984385
 30
0.0
 10
8.6863352961
 20
11.7740968617
 30
0.0
 10
8.6783761736
 20
11.7323159252
 30
0.0
 10
8.6741516612
 20
11.7042596606
 30
0.0
 10
8.6723183383
 20
11.6901912254
 30
0.0
  0
SPLINE
  5
319
100
AcDbEntity
  8
0
100
AcDbSpline
 62
9
  6
CONTINUOUS
 70
0
 71
3
 72
53
 73
49
 74
0
 42
0.0000001
 43
0.0000001
 44
0.0000000001
 40
0.0
 40
0.0
 40
0.0
 40
0.0
 40
0.0155366302
 40
0.0310751031
 40
0.0466145545
 40
0.0621568557
 40
0.0932429185
 40
0.1243487858
 40
0.1399156219
 40
0.1554893532
 40
0.1710704994
 40
0.1866595047
 40
0.2022567369
 40
0.2178624868
 40
0.2334769614
 40
0.2491002821
 40
0.2647324881
 40
0.2803735335
 40
0.3116721571
 40
0.3430034962
 40
0.374364248
 40
0.4057499937
 40
0.437155361
 40
0.4685742384
 40
0.5
 40
0.5314257616
 40
0.562844639
 40
0.5942500063
 40
0.625635752
 40
0.6569965038
 40
0.6883278429
 40
0.7196264665
 40
0.7352675119
 40
0.7508997179
 40
0.7665230386
 40
0.7821375132
 40
0.7977432631
 40
0.8133404953
 40
0.8289295006
 40
0.8445106468
 40
0.8600843781
 40
0.8756512142
 40
0.9067570815
 40
0.9378431443
 40
0.9533854455
 40
0.9689248969
 40
0.9844633698
 40
1.0
 40
1.0
 40
1.0
 40
1.0
 10
10.3725545588
 20
3.4291224666
 30
0.0
 10
10.3725545588
 20
3.4192537355
 30
0.0
 10
10.3720641849
 20
3.3995115644
 30
0.0
 10
10.3698599929
 20
3.3699731034
 30
0.0
 10
10.3661916205
 20
3.3405754806
 30
0.0
 10
10.3593621337
 20
3.3016684029
 30
0.0
 10
10.3472119354
 20
3.2537214481
 30
0.0
 10
10.3303686905
 20
3.2071988198
 30
0.0
 10
10.314184242
 20
3.1711098892
 30
0.0
 10
10.3007114766
 20
3.1446529166
 30
0.0
 10
10.2859418498
 20
3.1188820017
 30
0.0
 10
10.269910666
 20
3.0938584207
 30
0.0
 10
10.2526567152
 20
3.0696426219
 30
0.0
 10
10.2342215657
 20
3.0462928854
 30
0.0
 10
10.2146495028
 20
3.0238655093
 30
0.0
 10
10.1939879481
 20
3.0024146111
 30
0.0
 10
10.1722859419
 20
2.9819913071
 30
0.0
 10
10.1420324355
 20
2.9561952776
 30
0.0
 10
10.101864979
 20
2.9267506896
 30
0.0
 10
10.0504196746
 20
2.8962747029
 30
0.0
 10
9.9961988375
 20
2.8709282446
 30
0.0
 10
9.9397273864
 20
2.8509575336
 30
0.0
 10
9.881548227
 20
2.8365538348
 30
0.0
 10
9.8222215481
 20
2.8278559889
 30
0.0
 10
9.7623183383
 20
2.8249472662
 30
0.0
 10
9.7024151284
 20
2.8278559889
 30
0.0
 10
9.6430884496
 20
2.8365538348
 30
0.0
 10
9.5849092901
 20
2.8509575336
 30
0.0
 10
9.5284378391
 20
2.8709282446
 30
0.0
 10
9.4742170019
 20
2.8962747029
 30
0.0
 10
9.4227716975
 20
2.9267506896
 30
0.0
 10
9.382604241
 20
2.9561952776
 30
0.0
 10
9.3523507346
 20
2.9819913071
 30
0.0
 10
9.3306487284
 20
3.0024146111
 30
0.0
 10
9.3099871738
 20
3.0238655093
 30
0.0
 10
9.2904151109
 20
3.0462928854
 30
0.0
 10
9.2719799614
 20
3.0696426219
 30
0.0
 10
9.2547260106
 20
3.0938584207
 30
0.0
 10
9.2386948267
 20
3.1188820017
 30
0.0
 10
9.2239251999
 20
3.1446529166
 30
0.0
 10
9.2104524345
 20
3.1711098892
 30
0.0
 10
9.1942679861
 20
3.2071988198
 30
0.0
 10
9.1774247412
 20
3.2537214481
 30
0.0
 10
9.1652745429
 20
3.3016684029
 30
0.0
 10
9.1584450561
 20
3.3405754806
 30
0.0
 10
9.1547766836
 20
3.3699731034
 30
0.0
 10
9.1525724917
 20
3.3995115644
 30
0.0
 10
9.1520821178
 20
3.4192537355
 30
0.0
 10
9.1520821178
 20
3.4291224666
 30
0.0
  0
SPLINE
  5
31A
100
AcDbEntity
  8
0
100
AcDbSpline
 62
9
  6
CONTINUOUS
 70
0
 71
3
 72
65
 73
61
 74
0
 42
0.0000001
 43
0.0000001
 44
0.0000000001
 40
0.0
 40
0.0
 40
0.0
 40
0.0
 40
0.0155349746
 40
0.031071705
 40
0.0466094429
 40
0.0621500184
 40
0.093232592
 40
0.1243349773
 40
0.1399000764
 40
0.1554720685
 40
0.1710514723
 40
0.1866387338
 40
0.2022342208
 40
0.2178382236
 40
0.2334509513
 40
0.249072526
 40
0.2647029842
 40
0.2803422791
 40
0.2959902792
 40
0.3116467669
 40
0.3273114436
 40
0.3429839349
 40
0.3586637909
 40
0.374350489
 40
0.3900434431
 40
0.4057420092
 40
0.4214454885
 40
0.4371531338
 40
0.4528641605
 40
0.4685777531
 40
0.5
 40
0.5314222469
 40
0.5471358395
 40
0.5628468662
 40
0.5785545115
 40
0.5942579908
 40
0.6099565569
 40
0.625649511
 40
0.6413362091
 40
0.6570160651
 40
0.6726885564
 40
0.6883532331
 40
0.7040097208
 40
0.7196577209
 40
0.7352970158
 40
0.750927474
 40
0.7665490487
 40
0.7821617764
 40
0.7977657792
 40
0.8133612662
 40
0.8289485277
 40
0.8445279315
 40
0.8600999236
 40
0.8756650227
 40
0.906767408
 40
0.9378499816
 40
0.9533905571
 40
0.968928295
 40
0.9844650254
 40
1.0
 40
1.0
 40
1.0
 40
1.0
 10
10.4318172577
 20
3.3434079277
 30
0.0
 10
10.4318172577
 20
3.3325807461
 30
0.0
 10
10.4312792661
 20
3.3109212768
 30
0.0
 10
10.4288609942
 20
3.2785141438
 30
0.0
 10
10.4248363519
 20
3.2462615762
 30
0.0
 10
10.4173436338
 20
3.203576052
 30
0.0
 10
10.4040134315
 20
3.1509727843
 30
0.0
 10
10.385534493
 20
3.0999321523
 30
0.0
 10
10.3677782882
 20
3.0603384804
 30
0.0
 10
10.3529970885
 20
3.0313121762
 30
0.0
 10
10.3367931339
 20
3.0030385336
 30
0.0
 10
10.3192051153
 20
2.9755847953
 30
0.0
 10
10.3002755328
 20
2.9490173258
 30
0.0
 10
10.2800500298
 20
2.9234000209
 30
0.0
 10
10.2585773261
 20
2.8987946167
 30
0.0
 10
10.2359090922
 20
2.8752604432
 30
0.0
 10
10.2121000125
 20
2.852854134
 30
0.0
 10
10.1872074732
 20
2.8316296286
 30
0.0
 10
10.1612914156
 20
2.8116380805
 30
0.0
 10
10.1344142423
 20
2.7929276956
 30
0.0
 10
10.1066407647
 20
2.7755434577
 30
0.0
 10
10.0780378947
 20
2.7595272184
 30
0.0
 10
10.048674501
 20
2.7449176122
 30
0.0
 10
10.0186213185
 20
2.7317498428
 30
0.0
 10
9.9879507752
 20
2.7200555392
 30
0.0
 10
9.9567367635
 20
2.7098628619
 30
0.0
 10
9.925054379
 20
2.701196444
 30
0.0
 10
9.8929802011
 20
2.6940771256
 30
0.0
 10
9.8605905762
 20
2.6885219802
 30
0.0
 10
9.8170968476
 20
2.6832191029
 30
0.0
 10
9.7623183383
 20
2.680558131
 30
0.0
 10
9.707539829
 20
2.6832191029
 30
0.0
 10
9.6640461004
 20
2.6885219802
 30
0.0
 10
9.6316564755
 20
2.6940771256
 30
0.0
 10
9.5995822976
 20
2.701196444
 30
0.0
 10
9.5678999131
 20
2.7098628619
 30
0.0
 10
9.5366859013
 20
2.7200555392
 30
0.0
 10
9.5060153581
 20
2.7317498428
 30
0.0
 10
9.4759621756
 20
2.7449176122
 30
0.0
 10
9.4465987819
 20
2.7595272184
 30
0.0
 10
9.4179959119
 20
2.7755434577
 30
0.0
 10
9.3902224343
 20
2.7929276956
 30
0.0
 10
9.363345261
 20
2.8116380805
 30
0.0
 10
9.3374292033
 20
2.8316296286
 30
0.0
 10
9.3125366641
 20
2.852854134
 30
0.0
 10
9.2887275844
 20
2.8752604432
 30
0.0
 10
9.2660593505
 20
2.8987946167
 30
0.0
 10
9.2445866468
 20
2.9234000209
 30
0.0
 10
9.2243611438
 20
2.9490173258
 30
0.0
 10
9.2054315612
 20
2.9755847953
 30
0.0
 10
9.1878435427
 20
3.0030385336
 30
0.0
 10
9.1716395881
 20
3.0313121762
 30
0.0
 10
9.1568583884
 20
3.0603384804
 30
0.0
 10
9.1391021836
 20
3.0999321523
 30
0.0
 10
9.1206232451
 20
3.1509727843
 30
0.0
 10
9.1072930428
 20
3.203576052
 30
0.0
 10
9.0998003246
 20
3.2462615762
 30
0.0
 10
9.0957756824
 20
3.2785141438
 30
0.0
 10
9.0933574105
 20
3.3109212768
 30
0.0
 10
9.0928194188
 20
3.3325807461
 30
0.0
 10
9.0928194188
 20
3.3434079277
 30
0.0
  0
LINE
  5
31B
100
AcDbEntity
  8
0
100
AcDbLine
 62
9
  6
CONTINUOUS
 10
10.5870699184
 20
3.02217496
 11
10.5870698615
 21
3.0218720451
  0
SPLINE
  5
31C
100
AcDbEntity
  8
0
100
AcDbSpline
 62
9
  6
CONTINUOUS
 70
0
 71
3
 72
69
 73
65
 74
0
 42
0.0000001
 43
0.0000001
 44
0.0000000001
 40
0.0
 40
0.0
 40
0.0
 40
0.0
 40
0.0155344705
 40
0.0310704754
 40
0.0466076425
 40
0.0621476332
 40
0.0776910025
 40
0.093238579
 40
0.108791127
 40
0.1243493356
 40
0.1399138559
 40
0.1554852701
 40
0.171064095
 40
0.186650777
 40
0.2022456856
 40
0.2178491092
 40
0.233461254
 40
0.2490822434
 40
0.2647121157
 40
0.2803508224
 40
0.2959982292
 40
0.3116541203
 40
0.3273181991
 40
0.3429900894
 40
0.3586693394
 40
0.3743554286
 40
0.3900477722
 40
0.4057457251
 40
0.4214485877
 40
0.4371556144
 40
0.4528660215
 40
0.4685789932
 40
0.5
 40
0.5314210068
 40
0.5471339785
 40
0.5628443856
 40
0.5785514123
 40
0.5942542749
 40
0.6099522278
 40
0.6256445714
 40
0.6413306606
 40
0.6570099106
 40
0.6726818009
 40
0.6883458797
 40
0.7040017708
 40
0.7196491776
 40
0.7352878843
 40
0.7509177566
 40
0.766538746
 40
0.7821508908
 40
0.7977543144
 40
0.813349223
 40
0.828935905
 40
0.8445147299
 40
0.8600861441
 40
0.8756506644
 40
0.891208873
 40
0.906761421
 40
0.9223089975
 40
0.9378523668
 40
0.9533923575
 40
0.9689295246
 40
0.9844655295
 40
1.0
 40
1.0
 40
1.0
 40
1.0
 10
10.5870698615
 20
3.0218720451
 30
0.0
 10
10.5870648456
 20
3.0085371673
 30
0.0
 10
10.5863924317
 20
2.9818616053
 30
0.0
 10
10.5833996721
 20
2.9419497512
 30
0.0
 10
10.5784293705
 20
2.9022298679
 30
0.0
 10
10.5714940946
 20
2.8627994413
 30
0.0
 10
10.5626101143
 20
2.8237526451
 30
0.0
 10
10.5517989957
 20
2.7851837761
 30
0.0
 10
10.5390868202
 20
2.7471856402
 30
0.0
 10
10.5245041892
 20
2.7098497475
 30
0.0
 10
10.5080861884
 20
2.6732660315
 30
0.0
 10
10.4898723563
 20
2.6375225969
 30
0.0
 10
10.4699066297
 20
2.6027054846
 30
0.0
 10
10.4482371028
 20
2.5688985253
 30
0.0
 10
10.4249159355
 20
2.5361831415
 30
0.0
 10
10.3999992624
 20
2.5046381386
 30
0.0
 10
10.3735471578
 20
2.4743394239
 30
0.0
 10
10.3456233383
 20
2.4453599331
 30
0.0
 10
10.3162950373
 20
2.4177694473
 30
0.0
 10
10.2856328388
 20
2.3916344465
 30
0.0
 10
10.253710628
 20
2.3670178043
 30
0.0
 10
10.2206052948
 20
2.343978755
 30
0.0
 10
10.18639655
 20
2.3225727633
 30
0.0
 10
10.1511667309
 20
2.3028514206
 30
0.0
 10
10.1150006859
 20
2.2848621785
 30
0.0
 10
10.0779855223
 20
2.2686482908
 30
0.0
 10
10.0402103541
 20
2.2542487831
 30
0.0
 10
10.0017661353
 20
2.2416983679
 30
0.0
 10
9.9627453468
 20
2.2310272714
 30
0.0
 10
9.9232422626
 20
2.2222611115
 30
0.0
 10
9.8833508485
 20
2.2154209744
 30
0.0
 10
9.8297836758
 20
2.2088915093
 30
0.0
 10
9.7623183383
 20
2.2056149945
 30
0.0
 10
9.6948530007
 20
2.2088915093
 30
0.0
 10
9.6412858281
 20
2.2154209744
 30
0.0
 10
9.6013944139
 20
2.2222611115
 30
0.0
 10
9.5618913298
 20
2.2310272714
 30
0.0
 10
9.5228705413
 20
2.2416983679
 30
0.0
 10
9.4844263225
 20
2.2542487831
 30
0.0
 10
9.4466511543
 20
2.2686482908
 30
0.0
 10
9.4096359906
 20
2.2848621785
 30
0.0
 10
9.3734699457
 20
2.3028514206
 30
0.0
 10
9.3382401265
 20
2.3225727633
 30
0.0
 10
9.3040313818
 20
2.343978755
 30
0.0
 10
9.2709260486
 20
2.3670178043
 30
0.0
 10
9.2390038378
 20
2.3916344465
 30
0.0
 10
9.2083416392
 20
2.4177694473
 30
0.0
 10
9.1790133383
 20
2.4453599331
 30
0.0
 10
9.1510895188
 20
2.4743394239
 30
0.0
 10
9.1246374142
 20
2.5046381386
 30
0.0
 10
9.099720741
 20
2.5361831415
 30
0.0
 10
9.0763995737
 20
2.5688985253
 30
0.0
 10
9.0547300469
 20
2.6027054846
 30
0.0
 10
9.0347643202
 20
2.6375225969
 30
0.0
 10
9.0165504882
 20
2.6732660315
 30
0.0
 10
9.0001324874
 20
2.7098497475
 30
0.0
 10
8.9855498564
 20
2.7471856402
 30
0.0
 10
8.9728376809
 20
2.7851837761
 30
0.0
 10
8.9620265623
 20
2.8237526451
 30
0.0
 10
8.953142582
 20
2.8627994413
 30
0.0
 10
8.9462073061
 20
2.9022298679
 30
0.0
 10
8.9412370045
 20
2.9419497512
 30
0.0
 10
8.9382442449
 20
2.9818616053
 30
0.0
 10
8.937571831
 20
3.0085371673
 30
0.0
 10
8.9375668151
 20
3.0218720451
 30
0.0
  0
LINE
  5
31D
100
AcDbEntity
  8
0
100
AcDbLine
 62
9
  6
CONTINUOUS
 10
8.9375668151
 20
3.0218720451
 11
8.9375667581
 21
3.02217496
  0
SPLINE
  5
31E
100
AcDbEntity
  8
0
100
AcDbSpline
 62
9
  6
CONTINUOUS
 70
0
 71
3
 72
17
 73
13
 74
0
 42
0.0000001
 43
0.0000001
 44
0.0000000001
 40
0.0
 40
0.0
 40
0.0
 40
0.0
 40
0.1286118391
 40
0.1928015933
 40
0.2568380618
 40
0.3842683507
 40
0.5105834433
 40
0.5732383722
 40
0.6355134021
 40
0.7588157189
 40
0.8803452358
 40
1.0
 40
1.0
 40
1.0
 40
1.0
 10
10.8123183383
 20
11.5485476672
 30
0.0
 10
10.8123161135
 20
11.5316717199
 30
0.0
 10
10.8115558381
 20
11.5063648691
 30
0.0
 10
10.8090552476
 20
11.4727530689
 30
0.0
 10
10.805580295
 20
11.4393827165
 30
0.0
 10
10.7994191113
 20
11.3981165018
 30
0.0
 10
10.7909087331
 20
11.3574564168
 30
0.0
 10
10.7827722916
 20
11.3255047924
 30
0.0
 10
10.773840153
 20
11.2941774941
 30
0.0
 10
10.761167456
 20
11.2559006012
 30
0.0
 10
10.7436639805
 20
11.2113688795
 30
0.0
 10
10.7305257589
 20
11.1825585189
 30
0.0
 10
10.7236387774
 20
11.1684489683
 30
0.0
  0
SPLINE
  5
31F
100
AcDbEntity
  8
0
100
AcDbSpline
 62
9
  6
CONTINUOUS
 70
0
 71
3
 72
58
 73
54
 74
0
 42
0.0000001
 43
0.0000001
 44
0.0000000001
 40
0.0
 40
0.0
 40
0.0
 40
0.0
 40
0.0156118434
 40
0.031215511
 40
0.046811231
 40
0.0623992489
 40
0.0935451899
 40
0.1246650697
 40
0.1402207443
 40
0.1557715713
 40
0.1713181985
 40
0.1868613096
 40
0.2024016214
 40
0.2179398739
 40
0.2334768225
 40
0.2490132363
 40
0.2645498901
 40
0.2800875533
 40
0.2956269876
 40
0.3111689419
 40
0.3267141413
 40
0.3422632813
 40
0.3578170265
 40
0.3733760015
 40
0.3889407832
 40
0.4045119003
 40
0.420089829
 40
0.4356749841
 40
0.4512677183
 40
0.4668683225
 40
0.4824770192
 40
0.4980939592
 40
0.5137192262
 40
0.5293528337
 40
0.560636492
 40
0.5919519235
 40
0.6232967502
 40
0.6546676087
 40
0.68606026
 40
0.7174697374
 40
0.7488905126
 40
0.7803166787
 40
0.8117421518
 40
0.8274568064
 40
0.8431690303
 40
0.8588781015
 40
0.8745833251
 40
0.9059714397
 40
0.9373367281
 40
0.9530136235
 40
0.9686833656
 40
0.9843455908
 40
1.0
 40
1.0
 40
1.0
 40
1.0
 10
10.332081594
 20
3.8268912132
 30
0.0
 10
10.3398059259
 20
3.8182417715
 30
0.0
 10
10.3548538254
 20
3.8005882923
 30
0.0
 10
10.3761712216
 20
3.7731032897
 30
0.0
 10
10.3961858012
 20
3.7446753827
 30
0.0
 10
10.4210660272
 20
3.7056139623
 30
0.0
 10
10.4487147821
 20
3.6547212767
 30
0.0
 10
10.4715141894
 20
3.6015050924
 30
0.0
 10
10.4867162541
 20
3.5578400869
 30
0.0
 10
10.4965799288
 20
3.5246059491
 30
0.0
 10
10.5048836853
 20
3.4909584627
 30
0.0
 10
10.5116103719
 20
3.4569683279
 30
0.0
 10
10.5167456475
 20
3.4227079627
 30
0.0
 10
10.520278518
 20
3.3882500649
 30
0.0
 10
10.5222014637
 20
3.3536678516
 30
0.0
 10
10.5225105172
 20
3.3190347821
 30
0.0
 10
10.5212049687
 20
3.2844244162
 30
0.0
 10
10.5182874869
 20
3.2499102827
 30
0.0
 10
10.5137644067
 20
3.215565688
 30
0.0
 10
10.5076453478
 20
3.1814635748
 30
0.0
 10
10.4999431782
 20
3.147676407
 30
0.0
 10
10.4906743393
 20
3.1142759424
 30
0.0
 10
10.479858595
 20
3.0813331007
 30
0.0
 10
10.4675188308
 20
3.0489178813
 30
0.0
 10
10.4536812349
 20
3.0170991539
 30
0.0
 10
10.4383753232
 20
2.9859444501
 30
0.0
 10
10.4216335787
 20
2.9555199476
 30
0.0
 10
10.4034914658
 20
2.9258903289
 30
0.0
 10
10.383987635
 20
2.8971184564
 30
0.0
 10
10.3631635525
 20
2.8692654236
 30
0.0
 10
10.3410632956
 20
2.8423904207
 30
0.0
 10
10.3177340642
 20
2.816550646
 30
0.0
 10
10.2932246938
 20
2.7918003481
 30
0.0
 10
10.2590407875
 20
2.7603214108
 30
0.0
 10
10.2136095369
 20
2.7239439651
 30
0.0
 10
10.1552867556
 20
2.6854567628
 30
0.0
 10
10.0936263738
 20
2.652437855
 30
0.0
 10
10.0291546632
 20
2.6251701197
 30
0.0
 10
9.9624181975
 20
2.6038837904
 30
0.0
 10
9.8939837967
 20
2.5887597951
 30
0.0
 10
9.8244312669
 20
2.579926201
 30
0.0
 10
9.7543546032
 20
2.5774574279
 30
0.0
 10
9.6959987773
 20
2.5807237371
 30
0.0
 10
9.6496588967
 20
2.5865118677
 30
0.0
 10
9.6151376459
 20
2.5924316406
 30
0.0
 10
9.5809290733
 20
2.5999175967
 30
0.0
 10
9.5358467979
 20
2.6119607669
 30
0.0
 10
9.4806208506
 20
2.6308448874
 30
0.0
 10
9.4273687936
 20
2.6546843683
 30
0.0
 10
9.3862463804
 20
2.6765962152
 30
0.0
 10
9.3562031228
 20
2.6944170939
 30
0.0
 10
9.327023533
 20
2.7135865084
 30
0.0
 10
9.3081803129
 20
2.7272431813
 30
0.0
 10
9.2989242723
 20
2.7342815169
 30
0.0
  0
SPLINE
  5
320
100
AcDbEntity
  8
0
100
AcDbSpline
 62
9
  6
CONTINUOUS
 70
0
 71
3
 72
67
 73
63
 74
0
 42
0.0000001
 43
0.0000001
 44
0.0000000001
 40
0.0
 40
0.0
 40
0.0
 40
0.0
 40
0.0158253423
 40
0.0316458664
 40
0.063218807
 40
0.0789668217
 40
0.0946813724
 40
0.110359019
 40
0.125999144
 40
0.1416021618
 40
0.157170202
 40
0.1727064374
 40
0.1882144446
 40
0.203698666
 40
0.2191637563
 40
0.2346149741
 40
0.2500574338
 40
0.2654960926
 40
0.2809358725
 40
0.311830604
 40
0.3427796243
 40
0.3582858357
 40
0.3738144919
 40
0.3893675585
 40
0.4049466005
 40
0.4205522013
 40
0.436184558
 40
0.4518435117
 40
0.4675290658
 40
0.4832400305
 40
0.4911050149
 40
0.4989758544
 40
0.5147331083
 40
0.522619564
 40
0.5305103956
 40
0.5463028026
 40
0.5621086067
 40
0.5779255547
 40
0.5937499217
 40
0.6095777313
 40
0.6254056522
 40
0.6412303412
 40
0.6570478232
 40
0.6728543476
 40
0.6886475837
 40
0.696538872
 40
0.7044258194
 40
0.7201842201
 40
0.7359206273
 40
0.7516331092
 40
0.7673201755
 40
0.7829805858
 40
0.7986144361
 40
0.8142215952
 40
0.8298021643
 40
0.8453566737
 40
0.8608866502
 40
0.8763940879
 40
0.9073450744
 40
0.9382409474
 40
0.9691134216
 40
1.0
 40
1.0
 40
1.0
 40
1.0
 10
9.7623183383
 20
12.6157109807
 30
0.0
 10
9.7478710927
 20
12.6157109765
 30
0.0
 10
9.7189768112
 20
12.6151155197
 30
0.0
 10
9.6613617529
 20
12.6115520817
 30
0.0
 10
9.6040818212
 20
12.6044270938
 30
0.0
 10
9.5475069558
 20
12.5938342099
 30
0.0
 10
9.5055527097
 20
12.58419205
 30
0.0
 10
9.464123987
 20
12.5728683882
 30
0.0
 10
9.4232877914
 20
12.5598974263
 30
0.0
 10
9.3831057467
 20
12.5453144505
 30
0.0
 10
9.343633523
 20
12.5291560691
 30
0.0
 10
9.3049215364
 20
12.5114606076
 30
0.0
 10
9.2670181037
 20
12.4922625684
 30
0.0
 10
9.2299710709
 20
12.4715928488
 30
0.0
 10
9.193826205
 20
12.4494825239
 30
0.0
 10
9.1586243698
 20
12.4259684014
 30
0.0
 10
9.1244055048
 20
12.401086854
 30
0.0
 10
9.091210173
 20
12.3748711983
 30
0.0
 10
9.048368051
 20
12.3381803138
 30
0.0
 10
8.9975538319
 20
12.2891203301
 30
0.0
 10
8.9507512732
 20
12.2361386235
 30
0.0
 10
8.9158717352
 20
12.191564779
 30
0.0
 10
8.8910085616
 20
12.1570436407
 30
0.0
 10
8.8675086191
 20
12.1215013364
 30
0.0
 10
8.845412349
 20
12.0849875305
 30
0.0
 10
8.8247507993
 20
12.0475605933
 30
0.0
 10
8.8055584001
 20
12.0092777702
 30
0.0
 10
8.7878785853
 20
11.9701929043
 30
0.0
 10
8.7717561145
 20
11.9303630947
 30
0.0
 10
8.759656267
 20
11.8966133399
 30
0.0
 10
8.7507954608
 20
11.869304809
 30
0.0
 10
8.7424802902
 20
11.8417812419
 30
0.0
 10
8.7349956951
 20
11.8139921198
 30
0.0
 10
8.7283431802
 20
11.7859813113
 30
0.0
 10
8.7222404824
 20
11.7578125915
 30
0.0
 10
8.7156613517
 20
11.7223570977
 30
0.0
 10
8.7094885441
 20
11.6795014889
 30
0.0
 10
8.7050675093
 20
11.6364002434
 30
0.0
 10
8.7023946755
 20
11.5931355087
 30
0.0
 10
8.7014713933
 20
11.5497881132
 30
0.0
 10
8.7022964146
 20
11.5064384625
 30
0.0
 10
8.7048689227
 20
11.4631667928
 30
0.0
 10
8.7091885306
 20
11.4200538294
 30
0.0
 10
8.7152606151
 20
11.3771818972
 30
0.0
 10
8.7217586939
 20
11.3417095455
 30
0.0
 10
8.7277982221
 20
11.3135255846
 30
0.0
 10
8.7343885112
 20
11.2854979687
 30
0.0
 10
8.7436625269
 20
11.2507515388
 30
0.0
 10
8.7564507661
 20
11.209584081
 30
0.0
 10
8.770880834
 20
11.1690318123
 30
0.0
 10
8.786911027
 20
11.1291600523
 30
0.0
 10
8.8045043941
 20
11.0900317454
 30
0.0
 10
8.8236135645
 20
11.0517027011
 30
0.0
 10
8.8441922997
 20
11.0142254359
 30
0.0
 10
8.8662064575
 20
10.9776572495
 30
0.0
 10
8.8896265849
 20
10.9420576091
 30
0.0
 10
8.9144133972
 20
10.9074770512
 30
0.0
 10
8.9491941387
 20
10.8628211214
 30
0.0
 10
8.9958799508
 20
10.8097290969
 30
0.0
 10
9.0567037303
 20
10.7507359234
 30
0.0
 10
9.1219734362
 20
10.696799208
 30
0.0
 10
9.1682083575
 20
10.6644096608
 30
0.0
 10
9.1919284555
 20
10.6491642189
 30
0.0
  0
SPLINE
  5
321
100
AcDbEntity
  8
0
100
AcDbSpline
 62
9
  6
CONTINUOUS
 70
0
 71
3
 72
25
 73
21
 74
0
 42
0.0000001
 43
0.0000001
 44
0.0000000001
 40
0.0
 40
0.0
 40
0.0
 40
0.0
 40
0.1249603148
 40
0.2499222837
 40
0.3124132778
 40
0.3749063279
 40
0.4374008649
 40
0.4998943076
 40
0.5623923247
 40
0.6248875163
 40
0.6873838948
 40
0.7498826433
 40
0.8123717733
 40
0.8436396688
 40
0.8749168722
 40
0.9061806923
 40
0.9218207657
 40
0.9374622835
 40
0.9687444025
 40
1.0
 40
1.0
 40
1.0
 40
1.0
 10
10.9123183383
 20
12.5757626703
 30
0.0
 10
10.9123183226
 20
12.5815859435
 30
0.0
 10
10.9119038649
 20
12.5932369969
 30
0.0
 10
10.9102597827
 20
12.607720574
 30
0.0
 10
10.908180922
 20
12.6191850558
 30
0.0
 10
10.9062090771
 20
12.6277001906
 30
0.0
 10
10.9037881174
 20
12.6360995906
 30
0.0
 10
10.9008727901
 20
12.6443419759
 30
0.0
 10
10.8974102723
 20
12.6523718717
 30
0.0
 10
10.8933325708
 20
12.6601106454
 30
0.0
 10
10.8885629007
 20
12.6674486689
 30
0.0
 10
10.8830147145
 20
12.6742238144
 30
0.0
 10
10.8776614311
 20
12.6792057331
 30
0.0
 10
10.8729268127
 20
12.6826138115
 30
0.0
 10
10.8691508141
 20
12.6848304116
 30
0.0
 10
10.8658271186
 20
12.6863421025
 30
0.0
 10
10.8630787935
 20
12.6873171143
 30
0.0
 10
10.8602775427
 20
12.6881307044
 30
0.0
 10
10.8566922725
 20
12.6888289255
 30
0.0
 10
10.8537748798
 20
12.6890226995
 30
0.0
 10
10.8523183383
 20
12.6890224679
 30
0.0
  0
SPLINE
  5
322
100
AcDbEntity
  8
0
100
AcDbSpline
 62
9
  6
CONTINUOUS
 70
0
 71
3
 72
20
 73
16
 74
0
 42
0.0000001
 43
0.0000001
 44
0.0000000001
 40
0.0
 40
0.0
 40
0.0
 40
0.0
 40
0.0617410404
 40
0.1235468903
 40
0.2473910995
 40
0.371654273
 40
0.4964120308
 40
0.558996673
 40
0.6217113593
 40
0.6845461289
 40
0.7474892449
 40
0.8105268876
 40
0.8736446263
 40
0.9368172602
 40
1.0
 40
1.0
 40
1.0
 40
1.0
 10
10.3302608465
 20
12.4494994177
 30
0.0
 10
10.3198593221
 20
12.4561444617
 30
0.0
 10
10.2988110709
 20
12.4690794391
 30
0.0
 10
10.2557869863
 20
12.4934865017
 30
0.0
 10
10.2003155787
 20
12.5212070531
 30
0.0
 10
10.1314108065
 20
12.5497947118
 30
0.0
 10
10.0722735423
 20
12.5695576546
 30
0.0
 10
10.0240748089
 20
12.5828526994
 30
0.0
 10
9.9874755006
 20
12.591552953
 30
0.0
 10
9.9505192418
 20
12.5989554243
 30
0.0
 10
9.9132583841
 20
12.6050443412
 30
0.0
 10
9.8757473125
 20
12.6098027096
 30
0.0
 10
9.8380432155
 20
12.6132108391
 30
0.0
 10
9.8002121556
 20
12.6152557833
 30
0.0
 10
9.7749495015
 20
12.6157109759
 30
0.0
 10
9.7623183383
 20
12.6157109807
 30
0.0
  0
SPLINE
  5
323
100
AcDbEntity
  8
0
100
AcDbSpline
 62
9
  6
CONTINUOUS
 70
0
 71
3
 72
24
 73
20
 74
0
 42
0.0000001
 43
0.0000001
 44
0.0000000001
 40
0.0
 40
0.0
 40
0.0
 40
0.0
 40
0.031255125
 40
0.0625396436
 40
0.0938081509
 40
0.125071423
 40
0.1563503786
 40
0.1876196499
 40
0.2501096998
 40
0.3126092049
 40
0.3751060903
 40
0.4376021859
 40
0.500100723
 40
0.562594668
 40
0.6250899057
 40
0.68758351
 40
0.7500751984
 40
0.8750383436
 40
1.0
 40
1.0
 40
1.0
 40
1.0
 10
8.6723183383
 20
12.6890224447
 30
0.0
 10
8.6708618345
 20
12.6890228396
 30
0.0
 10
8.6679442326
 20
12.6888268878
 30
0.0
 10
8.6636435849
 20
12.6879882317
 30
0.0
 10
8.6594725588
 20
12.6866445292
 30
0.0
 10
8.6554847395
 20
12.6848318818
 30
0.0
 10
8.6517090567
 20
12.6826140942
 30
0.0
 10
8.646974846
 20
12.6792054302
 30
0.0
 10
8.6416211111
 20
12.6742239683
 30
0.0
 10
8.6360718249
 20
12.667449654
 30
0.0
 10
8.6313028987
 20
12.6601110767
 30
0.0
 10
8.6272258914
 20
12.6523719671
 30
0.0
 10
8.6237637497
 20
12.6443419188
 30
0.0
 10
8.6208485826
 20
12.6360994946
 30
0.0
 10
8.6184277303
 20
12.6277000782
 30
0.0
 10
8.61645583
 20
12.6191849606
 30
0.0
 10
8.6143769741
 20
12.6077204892
 30
0.0
 10
8.6127328492
 20
12.5932369257
 30
0.0
 10
8.6123183606
 20
12.5815858803
 30
0.0
 10
8.6123183383
 20
12.5757626071
 30
0.0
  0
SPLINE
  5
324
100
AcDbEntity
  8
0
100
AcDbSpline
 62
9
  6
CONTINUOUS
 70
0
 71
3
 72
65
 73
61
 74
0
 42
0.0000001
 43
0.0000001
 44
0.0000000001
 40
0.0
 40
0.0
 40
0.0
 40
0.0
 40
0.0156026744
 40
0.0311972465
 40
0.0467837822
 40
0.0623626015
 40
0.0934898786
 40
0.1245924247
 40
0.1401405946
 40
0.1556845827
 40
0.1712251454
 40
0.1867630735
 40
0.2022991812
 40
0.2178342981
 40
0.2333692646
 40
0.2489049244
 40
0.2644421121
 40
0.2799816472
 40
0.2955243296
 40
0.3110709299
 40
0.3266221792
 40
0.3421787654
 40
0.3577413289
 40
0.3733104531
 40
0.3888866577
 40
0.4044703979
 40
0.4200620603
 40
0.4356619559
 40
0.4512703176
 40
0.466887302
 40
0.4981383345
 40
0.5294237551
 40
0.5450833932
 40
0.5607509164
 40
0.5764259347
 40
0.5921079911
 40
0.6077965624
 40
0.623491064
 40
0.6391908601
 40
0.6548952668
 40
0.6706035559
 40
0.6863149637
 40
0.7020287009
 40
0.717743956
 40
0.7334599014
 40
0.7491757048
 40
0.7648905371
 40
0.7806035758
 40
0.7963140135
 40
0.8120210692
 40
0.8277239927
 40
0.8434220693
 40
0.8591146284
 40
0.8748010527
 40
0.9061443534
 40
0.9374571534
 40
0.9531057481
 40
0.9687458318
 40
0.9843772679
 40
1.0
 40
1.0
 40
1.0
 40
1.0
 10
10.3323635255
 20
3.7895228557
 30
0.0
 10
10.3397832011
 20
3.7804907663
 30
0.0
 10
10.3541857428
 20
3.7620704792
 30
0.0
 10
10.3744241984
 20
3.7334400611
 30
0.0
 10
10.3932472687
 20
3.7038791104
 30
0.0
 10
10.4163879808
 20
3.6633360577
 30
0.0
 10
10.4415773606
 20
3.6106606616
 30
0.0
 10
10.4615361482
 20
3.5558135307
 30
0.0
 10
10.474244313
 20
3.5109703826
 30
0.0
 10
10.4821290511
 20
3.4769216896
 30
0.0
 10
10.4883479982
 20
3.4425382896
 30
0.0
 10
10.4928871569
 20
3.4078988363
 30
0.0
 10
10.4957358298
 20
3.3730837192
 30
0.0
 10
10.4968874432
 20
3.3381734455
 30
0.0
 10
10.4963394176
 20
3.303248822
 30
0.0
 10
10.4940930114
 20
3.2683906557
 30
0.0
 10
10.4901533153
 20
3.2336796238
 30
0.0
 10
10.4845295199
 20
3.1991960489
 30
0.0
 10
10.4772346972
 20
3.1650197155
 30
0.0
 10
10.4682856877
 20
3.1312297132
 30
0.0
 10
10.4577031264
 20
3.0979042598
 30
0.0
 10
10.4455116139
 20
3.0651204407
 30
0.0
 10
10.4317393847
 20
3.0329541011
 30
0.0
 10
10.4164182386
 20
3.001479703
 30
0.0
 10
10.3995836249
 20
2.9707700814
 30
0.0
 10
10.3812746061
 20
2.9408962569
 30
0.0
 10
10.3615334926
 20
2.9119273014
 30
0.0
 10
10.3404060821
 20
2.883930469
 30
0.0
 10
10.3179405871
 20
2.8569698739
 30
0.0
 10
10.2862713066
 20
2.8224856827
 30
0.0
 10
10.2435903898
 20
2.7822656221
 30
0.0
 10
10.1972227674
 20
2.74630668
 30
0.0
 10
10.1581759826
 20
2.720287459
 30
0.0
 10
10.1279609121
 20
2.7021785506
 30
0.0
 10
10.0969005459
 20
2.6855272641
 30
0.0
 10
10.0650659932
 20
2.6703714851
 30
0.0
 10
10.0325310631
 20
2.6567465343
 30
0.0
 10
9.9993710025
 20
2.644683829
 30
0.0
 10
9.9656625604
 20
2.6342112201
 30
0.0
 10
9.9314837005
 20
2.62535296
 30
0.0
 10
9.896913477
 20
2.6181296273
 30
0.0
 10
9.8620318914
 20
2.6125578258
 30
0.0
 10
9.8269196361
 20
2.608650416
 30
0.0
 10
9.7916579286
 20
2.606416511
 30
0.0
 10
9.7563283475
 20
2.6058613062
 30
0.0
 10
9.7210126259
 20
2.6069859851
 30
0.0
 10
9.6857924541
 20
2.6097879511
 30
0.0
 10
9.6507493214
 20
2.6142608287
 30
0.0
 10
9.6159642922
 20
2.6203942257
 30
0.0
 10
9.58151784
 20
2.6281738832
 30
0.0
 10
9.5474895961
 20
2.6375818793
 30
0.0
 10
9.5139585385
 20
2.6485964155
 30
0.0
 10
9.481001379
 20
2.66119241
 30
0.0
 10
9.4379450494
 20
2.680047549
 30
0.0
 10
9.3859206889
 20
2.7074207477
 30
0.0
 10
9.3367738074
 20
2.739625346
 30
0.0
 10
9.2994830779
 20
2.7680906743
 30
0.0
 10
9.2725865555
 20
2.7907434728
 30
0.0
 10
9.2468242611
 20
2.814647529
 30
0.0
 10
9.2304383741
 20
2.8313878235
 30
0.0
 10
9.2224552262
 20
2.8399465081
 30
0.0
  0
SPLINE
  5
325
100
AcDbEntity
  8
0
100
AcDbSpline
 62
9
  6
CONTINUOUS
 70
0
 71
3
 72
24
 73
20
 74
0
 42
0.0000001
 43
0.0000001
 44
0.0000000001
 40
0.0
 40
0.0
 40
0.0
 40
0.0
 40
0.1247459298
 40
0.2494635458
 40
0.374164224
 40
0.4365251308
 40
0.4988931746
 40
0.5612729204
 40
0.6236730358
 40
0.6861058927
 40
0.7485877177
 40
0.7798699893
 40
0.8111788192
 40
0.842525967
 40
0.8739131739
 40
0.9053653316
 40
0.9368625839
 40
0.9684215421
 40
1.0
 40
1.0
 40
1.0
 40
1.0
 10
10.8923183383
 20
12.57576266
 30
0.0
 10
10.8923183334
 20
12.5806411406
 30
0.0
 10
10.8920884932
 20
12.5903989764
 30
0.0
 10
10.8909859201
 20
12.604996619
 30
0.0
 10
10.8893441879
 20
12.6170884416
 30
0.0
 10
10.8875081354
 20
12.6266708088
 30
0.0
 10
10.8858366471
 20
12.6337971334
 30
0.0
 10
10.8838294361
 20
12.6408386018
 30
0.0
 10
10.8814322265
 20
12.6477613357
 30
0.0
 10
10.8785713786
 20
12.6545117589
 30
0.0
 10
10.8757148372
 20
12.6599236545
 30
0.0
 10
10.8730744703
 20
12.6640443806
 30
0.0
 10
10.8708897961
 20
12.6670018503
 30
0.0
 10
10.8684748195
 20
12.6697817627
 30
0.0
 10
10.8657980853
 20
12.6723219643
 30
0.0
 10
10.8628349824
 20
12.6745373284
 30
0.0
 10
10.8595674452
 20
12.6762999044
 30
0.0
 10
10.8560298421
 20
12.6774587203
 30
0.0
 10
10.8535532876
 20
12.6777344661
 30
0.0
 10
10.8523183383
 20
12.6777345202
 30
0.0
  0
SPLINE
  5
326
100
AcDbEntity
  8
0
100
AcDbSpline
 62
9
  6
CONTINUOUS
 70
0
 71
3
 72
24
 73
20
 74
0
 42
0.0000001
 43
0.0000001
 44
0.0000000001
 40
0.0
 40
0.0
 40
0.0
 40
0.0
 40
0.031580862
 40
0.0631438085
 40
0.0946426834
 40
0.1260972969
 40
0.188762343
 40
0.2200722259
 40
0.2513565844
 40
0.3138415664
 40
0.3762778387
 40
0.4386806409
 40
0.5010634026
 40
0.5634348634
 40
0.6257992968
 40
0.6881609151
 40
0.7505233733
 40
0.8752473649
 40
1.0
 40
1.0
 40
1.0
 40
1.0
 10
10.8523183383
 20
10.4193611509
 30
0.0
 10
10.8535533105
 20
10.4193612349
 30
0.0
 10
10.8560298596
 20
10.4196379182
 30
0.0
 10
10.8595676961
 20
10.4207958384
 30
0.0
 10
10.862835716
 20
10.4225584037
 30
0.0
 10
10.8667792937
 20
10.4255089888
 30
0.0
 10
10.8701645165
 20
10.4291094723
 30
0.0
 10
10.8730750483
 20
10.4330508667
 30
0.0
 10
10.8757152765
 20
10.4371724889
 30
0.0
 10
10.8785720562
 20
10.4425838167
 30
0.0
 10
10.8814328436
 20
10.4493343566
 30
0.0
 10
10.8838295215
 20
10.4562571667
 30
0.0
 10
10.8858365193
 20
10.4632986441
 30
0.0
 10
10.8875080348
 20
10.4704248762
 30
0.0
 10
10.8888854736
 20
10.4776123298
 30
0.0
 10
10.89000062
 20
10.4848444513
 30
0.0
 10
10.8911697787
 20
10.494530262
 30
0.0
 10
10.8920884628
 20
10.5066968707
 30
0.0
 10
10.8923183313
 20
10.5164543317
 30
0.0
 10
10.8923183383
 20
10.5213327937
 30
0.0
  0
SPLINE
  5
327
100
AcDbEntity
  8
0
100
AcDbSpline
 62
9
  6
CONTINUOUS
 70
0
 71
3
 72
24
 73
20
 74
0
 42
0.0000001
 43
0.0000001
 44
0.0000000001
 40
0.0
 40
0.0
 40
0.0
 40
0.0
 40
0.1247459976
 40
0.2494637289
 40
0.3741645062
 40
0.4365254465
 40
0.4988935112
 40
0.5612732618
 40
0.6236733737
 40
0.6861062297
 40
0.7485880328
 40
0.7798702936
 40
0.8111790941
 40
0.8425261656
 40
0.8739133312
 40
0.9053653995
 40
0.936862632
 40
0.9684215559
 40
1.0
 40
1.0
 40
1.0
 40
1.0
 10
8.6323183383
 20
10.5213325687
 30
0.0
 10
8.6323183432
 20
10.5164540329
 30
0.0
 10
8.6325481339
 20
10.5066960861
 30
0.0
 10
8.6336504423
 20
10.492098258
 30
0.0
 10
8.6352918299
 20
10.4800062486
 30
0.0
 10
8.6371275825
 20
10.470423711
 30
0.0
 10
8.6387988562
 20
10.4632972525
 30
0.0
 10
8.6408058912
 20
10.4562556501
 30
0.0
 10
8.6432030008
 20
10.4493327965
 30
0.0
 10
8.6460638627
 20
10.4425822899
 30
0.0
 10
8.6489205861
 20
10.4371704108
 30
0.0
 10
8.6515611539
 20
10.4330497533
 30
0.0
 10
8.6537459918
 20
10.4300923597
 30
0.0
 10
8.6561611805
 20
10.4273125836
 30
0.0
 10
8.6588381129
 20
10.4247725502
 30
0.0
 10
8.6618013122
 20
10.4225572631
 30
0.0
 10
8.6650689731
 20
10.4207948299
 30
0.0
 10
8.6686067736
 20
10.4196364057
 30
0.0
 10
8.6710833762
 20
10.4193610805
 30
0.0
 10
8.6723183382
 20
10.4193610505
 30
0.0
  0
SPLINE
  5
328
100
AcDbEntity
  8
0
100
AcDbSpline
 62
9
  6
CONTINUOUS
 70
0
 71
3
 72
24
 73
20
 74
0
 42
0.0000001
 43
0.0000001
 44
0.0000000001
 40
0.0
 40
0.0
 40
0.0
 40
0.0
 40
0.0315808667
 40
0.0631438164
 40
0.0946426974
 40
0.1260973159
 40
0.1887623647
 40
0.2200722423
 40
0.2513565885
 40
0.3138415276
 40
0.3762777369
 40
0.4386804866
 40
0.5010632485
 40
0.5634347493
 40
0.6257992375
 40
0.6881608999
 40
0.7505233856
 40
0.8752473895
 40
1.0
 40
1.0
 40
1.0
 40
1.0
 10
8.6723183383
 20
12.6777343297
 30
0.0
 10
8.6710833661
 20
12.6777342452
 30
0.0
 10
8.6686068171
 20
12.6774575539
 30
0.0
 10
8.6650689875
 20
12.6762996117
 30
0.0
 10
8.66180098
 20
12.6745370236
 30
0.0
 10
8.657857424
 20
12.6715864094
 30
0.0
 10
8.6544722364
 20
12.6679858935
 30
0.0
 10
8.651561736
 20
12.6640444781
 30
0.0
 10
8.6489215363
 20
12.6599228415
 30
0.0
 10
8.6460647808
 20
12.6545115084
 30
0.0
 10
8.6432039839
 20
12.6477609821
 30
0.0
 10
8.640807248
 20
12.6408381989
 30
0.0
 10
8.6388001774
 20
12.6337967438
 30
0.0
 10
8.6371286158
 20
12.6266705193
 30
0.0
 10
8.6357511779
 20
12.6194830609
 30
0.0
 10
8.6346360481
 20
12.612250933
 30
0.0
 10
8.6334669137
 20
12.6025651179
 30
0.0
 10
8.6325482286
 20
12.5903985115
 30
0.0
 10
8.6323183451
 20
12.5806410528
 30
0.0
 10
8.6323183383
 20
12.5757625926
 30
0.0
  0
SPLINE
  5
329
100
AcDbEntity
  8
0
100
AcDbSpline
 62
9
  6
CONTINUOUS
 70
0
 71
3
 72
18
 73
14
 74
0
 42
0.0000001
 43
0.0000001
 44
0.0000000001
 40
0.0
 40
0.0
 40
0.0
 40
0.0
 40
0.0455889052
 40
0.0919990121
 40
0.1399600841
 40
0.1901027691
 40
0.2428889071
 40
0.2986230647
 40
0.4192954412
 40
0.5520539912
 40
0.6951019037
 40
0.8455811498
 40
1.0
 40
1.0
 40
1.0
 40
1.0
 10
12.8474115794
 20
11.3945268095
 30
0.0
 10
12.8469326531
 20
11.3945313216
 30
0.0
 10
12.8459650688
 20
11.3946219255
 30
0.0
 10
12.8445376468
 20
11.3949992586
 30
0.0
 10
12.8431428249
 20
11.3956134298
 30
0.0
 10
12.8417946377
 20
11.3964566351
 30
0.0
 10
12.8405051373
 20
11.3975196821
 30
0.0
 10
12.8388358793
 20
11.3992613769
 30
0.0
 10
12.8369796211
 20
11.4019533279
 30
0.0
 10
12.8352176969
 20
11.4057444422
 30
0.0
 10
12.833920502
 20
11.4100451488
 30
0.0
 10
12.833134841
 20
11.4146960336
 30
0.0
 10
12.8329717967
 20
11.417903444
 30
0.0
 10
12.8329814581
 20
11.4195257076
 30
0.0
  0
SPLINE
  5
32A
100
AcDbEntity
  8
0
100
AcDbSpline
 62
9
  6
CONTINUOUS
 70
0
 71
3
 72
17
 73
13
 74
0
 42
0.0000001
 43
0.0000001
 44
0.0000000001
 40
0.0
 40
0.0
 40
0.0
 40
0.0
 40
0.1196545972
 40
0.2411839943
 40
0.3644862753
 40
0.4267612968
 40
0.4894162199
 40
0.6157313573
 40
0.7431617159
 40
0.8071982346
 40
0.8713880457
 40
1.0
 40
1.0
 40
1.0
 40
1.0
 10
10.7236359148
 20
11.928652317
 30
0.0
 10
10.7305230926
 20
11.9145425937
 30
0.0
 10
10.7436616455
 20
11.8857318391
 30
0.0
 10
10.761165522
 20
11.8411994612
 30
0.0
 10
10.7738387692
 20
11.8029220657
 30
0.0
 10
10.782771378
 20
11.771594339
 30
0.0
 10
10.7909080677
 20
11.7396422004
 30
0.0
 10
10.799418558
 20
11.6989814162
 30
0.0
 10
10.8055801622
 20
11.6577145364
 30
0.0
 10
10.8090552315
 20
11.6243436054
 30
0.0
 10
10.8115558529
 20
11.5907312104
 30
0.0
 10
10.812316071
 20
11.5654239126
 30
0.0
 10
10.8123183383
 20
11.5485476672
 30
0.0
  0
SPLINE
  5
32B
100
AcDbEntity
  8
0
100
AcDbSpline
 62
9
  6
CONTINUOUS
 70
0
 71
3
 72
18
 73
14
 74
0
 42
0.0000001
 43
0.0000001
 44
0.0000000001
 40
0.0
 40
0.0
 40
0.0
 40
0.0
 40
0.045588919
 40
0.0919990378
 40
0.139960119
 40
0.1901028104
 40
0.2428889521
 40
0.2986231109
 40
0.4192954835
 40
0.5520540245
 40
0.6951019252
 40
0.8455811595
 40
1.0
 40
1.0
 40
1.0
 40
1.0
 10
13.4872250972
 20
11.7025685249
 30
0.0
 10
13.4877040237
 20
11.7025640127
 30
0.0
 10
13.4886716082
 20
11.7024734088
 30
0.0
 10
13.4900990307
 20
11.7020960758
 30
0.0
 10
13.491493853
 20
11.7014819046
 30
0.0
 10
13.4928420406
 20
11.7006386993
 30
0.0
 10
13.4941315412
 20
11.6995756524
 30
0.0
 10
13.4958007995
 20
11.6978339575
 30
0.0
 10
13.4976570579
 20
11.6951420065
 30
0.0
 10
13.4994189818
 20
11.6913508922
 30
0.0
 10
13.5007161764
 20
11.6870501855
 30
0.0
 10
13.5015018366
 20
11.6823993007
 30
0.0
 10
13.5016648802
 20
11.6791918903
 30
0.0
 10
13.5016552185
 20
11.6775696267
 30
0.0
  0
SPLINE
  5
32C
100
AcDbEntity
  8
0
100
AcDbSpline
 62
9
  6
CONTINUOUS
 70
0
 71
3
 72
21
 73
17
 74
0
 42
0.0000001
 43
0.0000001
 44
0.0000000001
 40
0.0
 40
0.0
 40
0.0
 40
0.0
 40
0.0079498643
 40
0.0139377508
 40
0.021591875
 40
0.0310146195
 40
0.0422594996
 40
0.0703223228
 40
0.1059175493
 40
0.1491003954
 40
0.199897707
 40
0.2583230195
 40
0.3980754965
 40
0.5683593213
 40
0.7690609205
 40
1.0
 40
1.0
 40
1.0
 40
1.0
 10
12.5379772353
 20
11.1840027761
 30
0.0
 10
12.5379501839
 20
11.1840032582
 30
0.0
 10
12.5379074353
 20
11.1840371791
 30
0.0
 10
12.5378682207
 20
11.1840976322
 30
0.0
 10
12.5378332805
 20
11.1841686721
 30
0.0
 10
12.5377989675
 20
11.1842586384
 30
0.0
 10
12.537748989
 20
11.1844169269
 30
0.0
 10
12.5376889446
 20
11.1846648578
 30
0.0
 10
12.5376203329
 20
11.1850220109
 30
0.0
 10
12.5375514446
 20
11.1854576407
 30
0.0
 10
12.5374822766
 20
11.1859717196
 30
0.0
 10
12.5373839929
 20
11.186813368
 30
0.0
 10
12.5372645599
 20
11.1880617655
 30
0.0
 10
12.5371282259
 20
11.1897946433
 30
0.0
 10
12.5369922648
 20
11.1918386896
 30
0.0
 10
12.5369078144
 20
11.1933052742
 30
0.0
 10
12.536865158
 20
11.1940900684
 30
0.0
  0
SPLINE
  5
32D
100
AcDbEntity
  8
0
100
AcDbSpline
 62
9
  6
CONTINUOUS
 70
0
 71
3
 72
33
 73
29
 74
0
 42
0.0000001
 43
0.0000001
 44
0.0000000001
 40
0.0
 40
0.0
 40
0.0
 40
0.0
 40
0.0056642748
 40
0.0121720537
 40
0.0195124733
 40
0.0276718384
 40
0.0463920794
 40
0.0682088997
 40
0.0929719596
 40
0.1205136177
 40
0.1831616477
 40
0.2544469929
 40
0.3324271215
 40
0.4149767064
 40
0.4998455309
 40
0.5847199944
 40
0.6672862932
 40
0.7452936828
 40
0.81661601
 40
0.8491542067
 40
0.879309963
 40
0.9068770059
 40
0.9316680304
 40
0.9535136771
 40
0.9722652741
 40
0.9877958632
 40
0.9943193732
 40
1.0
 40
1.0
 40
1.0
 40
1.0
 10
12.5368084871
 20
11.1951607792
 30
0.0
 10
12.5367397596
 20
11.1964934564
 30
0.0
 10
12.5366054854
 20
11.1993579631
 30
0.0
 10
12.5364201468
 20
11.2039511961
 30
0.0
 10
12.5362373644
 20
11.2091327602
 30
0.0
 10
12.5359850443
 20
11.217190733
 30
0.0
 10
12.5356840816
 20
11.2286592608
 30
0.0
 10
12.535352147
 20
11.2440397898
 30
0.0
 10
12.535036375
 20
11.2614992808
 30
0.0
 10
12.5346238091
 20
11.2885779191
 30
0.0
 10
12.534179293
 20
11.3266173898
 30
0.0
 10
12.5337627833
 20
11.376540485
 30
0.0
 10
12.5334561445
 20
11.4311530662
 30
0.0
 10
12.5332683299
 20
11.4889663268
 30
0.0
 10
12.5332048673
 20
11.5484040947
 30
0.0
 10
12.5332676237
 20
11.6078458001
 30
0.0
 10
12.5334547452
 20
11.6656707541
 30
0.0
 10
12.5337610152
 20
11.7203024022
 30
0.0
 10
12.5341173737
 20
11.7631473148
 30
0.0
 10
12.5344630356
 20
11.7947183758
 30
0.0
 10
12.534737431
 20
11.8159812374
 30
0.0
 10
12.5350336594
 20
11.8354184588
 30
0.0
 10
12.5353488708
 20
11.8528973188
 30
0.0
 10
12.5356808565
 20
11.8682986299
 30
0.0
 10
12.5360270937
 20
11.8815173155
 30
0.0
 10
12.5363392153
 20
11.8911258005
 30
0.0
 10
12.5366019602
 20
11.8976545774
 30
0.0
 10
12.5367361675
 20
11.9005266537
 30
0.0
 10
12.5368048588
 20
11.9018631903
 30
0.0
  0
SPLINE
  5
32E
100
AcDbEntity
  8
0
100
AcDbSpline
 62
9
  6
CONTINUOUS
 70
0
 71
3
 72
21
 73
17
 74
0
 42
0.0000001
 43
0.0000001
 44
0.0000000001
 40
0.0
 40
0.0
 40
0.0
 40
0.0
 40
0.2309281509
 40
0.431625901
 40
0.6019324939
 40
0.741731398
 40
0.800177431
 40
0.8509873153
 40
0.8941699909
 40
0.9297517513
 40
0.9577931966
 40
0.9690262838
 40
0.9784374828
 40
0.9860810597
 40
0.9920601483
 40
1.0
 40
1.0
 40
1.0
 40
1.0
 10
12.5368640267
 20
11.9029836088
 30
0.0
 10
12.5369067286
 20
11.9037700524
 30
0.0
 10
12.5369912901
 20
11.905239738
 30
0.0
 10
12.5371274241
 20
11.9072882062
 30
0.0
 10
12.5372638207
 20
11.9090250434
 30
0.0
 10
12.5373831705
 20
11.9102764596
 30
0.0
 10
12.5374814201
 20
11.9111202168
 30
0.0
 10
12.5375505951
 20
11.911635532
 30
0.0
 10
12.5376195448
 20
11.9120721075
 30
0.0
 10
12.5376882859
 20
11.9124299097
 30
0.0
 10
12.5377484789
 20
11.912678206
 30
0.0
 10
12.5377985902
 20
11.9128366662
 30
0.0
 10
12.5378329904
 20
11.9129266978
 30
0.0
 10
12.5378680158
 20
11.9129977659
 30
0.0
 10
12.5379073235
 20
11.9130582311
 30
0.0
 10
12.5379501594
 20
11.9130921082
 30
0.0
 10
12.5379772353
 20
11.9130925583
 30
0.0
  0
LINE
  5
32F
100
AcDbEntity
  8
0
100
AcDbLine
 62
9
  6
CONTINUOUS
 10
12.8734461931
 20
11.7026499274
 11
12.8742664653
 21
11.7027973127
  0
SPLINE
  5
330
100
AcDbEntity
  8
0
100
AcDbSpline
 62
9
  6
CONTINUOUS
 70
0
 71
3
 72
15
 73
11
 74
0
 42
0.0000001
 43
0.0000001
 44
0.0000000001
 40
0.0
 40
0.0
 40
0.0
 40
0.0
 40
0.0908324862
 40
0.1910819805
 40
0.3025883802
 40
0.4255527956
 40
0.558959002
 40
0.7008896892
 40
0.8488828682
 40
1.0
 40
1.0
 40
1.0
 40
1.0
 10
12.8742664653
 20
11.7027973127
 30
0.0
 10
12.8745213504
 20
11.7028876166
 30
0.0
 10
12.8750302661
 20
11.7031594011
 30
0.0
 10
12.8757042592
 20
11.7037667656
 30
0.0
 10
12.8763055154
 20
11.7045678237
 30
0.0
 10
12.8768191848
 20
11.7055392316
 30
0.0
 10
12.8772324118
 20
11.706653765
 30
0.0
 10
12.8775339214
 20
11.7078799597
 30
0.0
 10
12.8777149898
 20
11.7091824819
 30
0.0
 10
12.8777519128
 20
11.7100737763
 30
0.0
 10
12.8777492299
 20
11.7105236458
 30
0.0
  0
SPLINE
  5
331
100
AcDbEntity
  8
0
100
AcDbSpline
 62
9
  6
CONTINUOUS
 70
0
 71
3
 72
25
 73
21
 74
0
 42
0.0000001
 43
0.0000001
 44
0.0000000001
 40
0.0
 40
0.0
 40
0.0
 40
0.0
 40
0.1249603145
 40
0.2499222904
 40
0.3124132843
 40
0.3749063394
 40
0.4374008787
 40
0.4998943323
 40
0.5623923702
 40
0.6248875637
 40
0.687383966
 40
0.7498827633
 40
0.8123718597
 40
0.8436397725
 40
0.8749169911
 40
0.90618083
 40
0.9218209441
 40
0.9374624702
 40
0.9687443875
 40
1.0
 40
1.0
 40
1.0
 40
1.0
 10
8.6123183383
 20
10.5213325582
 30
0.0
 10
8.6123183542
 20
10.515509167
 30
0.0
 10
8.6127327433
 20
10.5038578795
 30
0.0
 10
8.6143765232
 20
10.4893739767
 30
0.0
 10
8.6164550555
 20
10.4779091955
 30
0.0
 10
8.6184266291
 20
10.4693938161
 30
0.0
 10
8.620847324
 20
10.4609941544
 30
0.0
 10
8.6237624197
 20
10.4527514968
 30
0.0
 10
8.6272247749
 20
10.4447213343
 30
0.0
 10
8.6313024356
 20
10.4369823308
 30
0.0
 10
8.6360722292
 20
10.4296441677
 30
0.0
 10
8.6416206456
 20
10.4228689662
 30
0.0
 10
8.6469742885
 20
10.4178872044
 30
0.0
 10
8.6517091446
 20
10.4144792604
 30
0.0
 10
8.6554852604
 20
10.4122626845
 30
0.0
 10
8.6588090663
 20
10.4107510395
 30
0.0
 10
8.6615575047
 20
10.4097761573
 30
0.0
 10
8.6643588702
 20
10.4089627693
 30
0.0
 10
8.6679443172
 20
10.4082650478
 30
0.0
 10
8.6708617666
 20
10.4080716588
 30
0.0
 10
8.6723183383
 20
10.408071912
 30
0.0
  0
LINE
  5
332
100
AcDbEntity
  8
0
100
AcDbLine
 62
9
  6
CONTINUOUS
 10
13.4611904729
 20
11.7026499275
 11
13.4603697173
 21
11.7027974878
  0
SPLINE
  5
333
100
AcDbEntity
  8
0
100
AcDbSpline
 62
9
  6
CONTINUOUS
 70
0
 71
3
 72
15
 73
11
 74
0
 42
0.0000001
 43
0.0000001
 44
0.0000000001
 40
0.0
 40
0.0
 40
0.0
 40
0.0
 40
0.0909444663
 40
0.1912382996
 40
0.3027159862
 40
0.4255993678
 40
0.5589072559
 40
0.7007730296
 40
0.8487674285
 40
1.0
 40
1.0
 40
1.0
 40
1.0
 10
13.4603697173
 20
11.7027974878
 30
0.0
 10
13.4601166691
 20
11.7028871958
 30
0.0
 10
13.4596114429
 20
11.7031564226
 30
0.0
 10
13.4589414793
 20
11.7037574026
 30
0.0
 10
13.4583429916
 20
11.7045497774
 30
0.0
 10
13.4578305924
 20
11.7055107378
 30
0.0
 10
13.4574169062
 20
11.7066137058
 30
0.0
 10
13.457113114
 20
11.7078279467
 30
0.0
 10
13.4569278111
 20
11.7091189033
 30
0.0
 10
13.4568868747
 20
11.7100028821
 30
0.0
 10
13.4568871983
 20
11.7104493385
 30
0.0
  0
LINE
  5
334
100
AcDbEntity
  8
0
100
AcDbLine
 62
9
  6
CONTINUOUS
 10
13.4611904323
 20
11.3944454065
 11
13.4603702137
 21
11.3942980225
  0
SPLINE
  5
335
100
AcDbEntity
  8
0
100
AcDbSpline
 62
9
  6
CONTINUOUS
 70
0
 71
3
 72
15
 73
11
 74
0
 42
0.0000001
 43
0.0000001
 44
0.0000000001
 40
0.0
 40
0.0
 40
0.0
 40
0.0
 40
0.0908324736
 40
0.1910819521
 40
0.3025883396
 40
0.4255527497
 40
0.5589589588
 40
0.7008896559
 40
0.8488828501
 40
1.0
 40
1.0
 40
1.0
 40
1.0
 10
13.4603702137
 20
11.3942980225
 30
0.0
 10
13.4601153284
 20
11.3942077188
 30
0.0
 10
13.4596064124
 20
11.3939359346
 30
0.0
 10
13.4589324189
 20
11.3933285705
 30
0.0
 10
13.4583311623
 20
11.3925275125
 30
0.0
 10
13.4578174925
 20
11.3915561044
 30
0.0
 10
13.4574042651
 20
11.3904415707
 30
0.0
 10
13.4571027553
 20
11.3892153756
 30
0.0
 10
13.4569216868
 20
11.387912853
 30
0.0
 10
13.4568847637
 20
11.3870215582
 30
0.0
 10
13.4568874466
 20
11.3865716886
 30
0.0
  0
SPLINE
  5
336
100
AcDbEntity
  8
0
100
AcDbSpline
 62
9
  6
CONTINUOUS
 70
0
 71
3
 72
31
 73
27
 74
0
 42
0.0000001
 43
0.0000001
 44
0.0000000001
 40
0.0
 40
0.0
 40
0.0
 40
0.0
 40
0.0317673061
 40
0.063519688
 40
0.0952486295
 40
0.1269458803
 40
0.158608364
 40
0.1902348782
 40
0.2218245371
 40
0.2533751585
 40
0.2848842303
 40
0.3163499591
 40
0.3791444407
 40
0.4417594495
 40
0.4730031654
 40
0.5042041205
 40
0.5664793794
 40
0.6286066881
 40
0.6906098405
 40
0.7215770921
 40
0.7525251602
 40
0.8143757433
 40
0.8762082119
 40
0.9071339813
 40
0.93807161
 40
1.0
 40
1.0
 40
1.0
 40
1.0
 10
8.6723183383
 20
11.4069036288
 30
0.0
 10
8.6736598267
 20
11.3966024553
 30
0.0
 10
8.6766426752
 20
11.3760428516
 30
0.0
 10
8.6819957827
 20
11.3453552431
 30
0.0
 10
8.6882049523
 20
11.3148526003
 30
0.0
 10
8.6952494651
 20
11.2845622579
 30
0.0
 10
8.7031306361
 20
11.2545132467
 30
0.0
 10
8.7118493458
 20
11.2247330404
 30
0.0
 10
8.7214062726
 20
11.1952495332
 30
0.0
 10
8.7317917964
 20
11.1660884342
 30
0.0
 10
8.7429967637
 20
11.1372754845
 30
0.0
 10
8.7590039773
 20
11.099385679
 30
0.0
 10
8.7809767453
 20
11.0529984875
 30
0.0
 10
8.8054565327
 20
11.0079671833
 30
0.0
 10
8.8264957855
 20
10.9728930638
 30
0.0
 10
8.8484670175
 20
10.938527145
 30
0.0
 10
8.8776954663
 20
10.8968393757
 30
0.0
 10
8.9154706562
 20
10.8489599391
 30
0.0
 10
8.9491018293
 20
10.8109563697
 30
0.0
 10
8.9772219593
 20
10.7817726616
 30
0.0
 10
9.0061194774
 20
10.7534295306
 30
0.0
 10
9.0437097684
 20
10.7195659113
 30
0.0
 10
9.0831445562
 20
10.6878815366
 30
0.0
 10
9.1157214597
 20
10.6638960675
 30
0.0
 10
9.148985551
 20
10.6408199026
 30
0.0
 10
9.1746653165
 20
10.6245703147
 30
0.0
 10
9.192076442
 20
10.6142282518
 30
0.0
  0
SPLINE
  5
337
100
AcDbEntity
  8
0
100
AcDbSpline
 62
9
  6
CONTINUOUS
 70
0
 71
3
 72
24
 73
20
 74
0
 42
0.0000001
 43
0.0000001
 44
0.0000000001
 40
0.0
 40
0.0
 40
0.0
 40
0.0
 40
0.0312551236
 40
0.0625396422
 40
0.09380815
 40
0.1250714192
 40
0.156350377
 40
0.1876196514
 40
0.2501096981
 40
0.3126092063
 40
0.375106094
 40
0.4376021912
 40
0.5001007279
 40
0.5625946687
 40
0.6250899098
 40
0.6875835113
 40
0.7500751957
 40
0.8750383432
 40
1.0
 40
1.0
 40
1.0
 40
1.0
 10
10.8523183383
 20
10.408072873
 30
0.0
 10
10.8537748437
 20
10.4080724777
 30
0.0
 10
10.856692449
 20
10.4082684241
 30
0.0
 10
10.8609931053
 20
10.4091070612
 30
0.0
 10
10.8651641447
 20
10.4104507395
 30
0.0
 10
10.8691519776
 20
10.4122633703
 30
0.0
 10
10.8729276743
 20
10.4144811448
 30
0.0
 10
10.877661911
 20
10.4178897843
 30
0.0
 10
10.8830156839
 20
10.4228712197
 30
0.0
 10
10.888564989
 20
10.429645535
 30
0.0
 10
10.8933338943
 20
10.4369841404
 30
0.0
 10
10.8974108489
 20
10.4447232905
 30
0.0
 10
10.9008729264
 20
10.4527533778
 30
0.0
 10
10.9037880417
 20
10.4609958306
 30
0.0
 10
10.906208888
 20
10.4693952584
 30
0.0
 10
10.9081808246
 20
10.477910378
 30
0.0
 10
10.910259721
 20
10.4893748564
 30
0.0
 10
10.9119038502
 20
10.5038584388
 30
0.0
 10
10.9123183157
 20
10.5155094988
 30
0.0
 10
10.9123183383
 20
10.521332779
 30
0.0
  0
LINE
  5
338
100
AcDbEntity
  8
0
100
AcDbLine
 62
9
  6
CONTINUOUS
 10
12.8734462339
 20
11.3944454066
 11
12.874266962
 21
11.3942978456
  0
SPLINE
  5
339
100
AcDbEntity
  8
0
100
AcDbSpline
 62
9
  6
CONTINUOUS
 70
0
 71
3
 72
15
 73
11
 74
0
 42
0.0000001
 43
0.0000001
 44
0.0000000001
 40
0.0
 40
0.0
 40
0.0
 40
0.0
 40
0.090944477
 40
0.1912383278
 40
0.3027160303
 40
0.4255994209
 40
0.5589073091
 40
0.7007730727
 40
0.8487674531
 40
1.0
 40
1.0
 40
1.0
 40
1.0
 10
12.874266962
 20
11.3942978456
 30
0.0
 10
12.8745200101
 20
11.3942081373
 30
0.0
 10
12.875025236
 20
11.39393891
 30
0.0
 10
12.8756951993
 20
11.3933379295
 30
0.0
 10
12.8762936866
 20
11.3925455543
 30
0.0
 10
12.8768060854
 20
11.3915845937
 30
0.0
 10
12.8772197712
 20
11.3904816256
 30
0.0
 10
12.8775235631
 20
11.3892673848
 30
0.0
 10
12.8777088656
 20
11.3879764284
 30
0.0
 10
12.8777498018
 20
11.3870924498
 30
0.0
 10
12.8777494782
 20
11.3866459935
 30
0.0
  0
SPLINE
  5
33A
100
AcDbEntity
  8
0
100
AcDbSpline
 62
9
  6
CONTINUOUS
 70
0
 71
3
 72
28
 73
24
 74
0
 42
0.0000001
 43
0.0000001
 44
0.0000000001
 40
0.0
 40
0.0
 40
0.0
 40
0.0
 40
0.0005206373
 40
0.0014357204
 40
0.0047414174
 40
0.0101051796
 40
0.0175456705
 40
0.0270656872
 40
0.0386639213
 40
0.0523371278
 40
0.0680804796
 40
0.0858803149
 40
0.105717004
 40
0.1514209064
 40
0.2050146607
 40
0.2662883776
 40
0.3350150238
 40
0.4109387353
 40
0.493783899
 40
0.5832350467
 40
0.678960533
 40
0.7805994475
 40
1.0
 40
1.0
 40
1.0
 40
1.0
 10
13.4744031354
 20
11.3870691662
 30
0.0
 10
13.4744031034
 20
11.3870661237
 30
0.0
 10
13.4743968636
 20
11.3870588409
 30
0.0
 10
13.4743718966
 20
11.3870478039
 30
0.0
 10
13.4743167192
 20
11.3870344668
 30
0.0
 10
13.4742240078
 20
11.3870200172
 30
0.0
 10
13.4740942358
 20
11.3870049785
 30
0.0
 10
13.473928068
 20
11.3869898899
 30
0.0
 10
13.4737252808
 20
11.3869747302
 30
0.0
 10
13.4734860663
 20
11.3869596048
 30
0.0
 10
13.4732105343
 20
11.3869445391
 30
0.0
 10
13.4728989342
 20
11.3869295614
 30
0.0
 10
13.4724123253
 20
11.3869087398
 30
0.0
 10
13.4717165368
 20
11.3868835797
 30
0.0
 10
13.4707785635
 20
11.3868551828
 30
0.0
 10
13.4697059701
 20
11.386827502
 30
0.0
 10
13.4685028209
 20
11.3868006627
 30
0.0
 10
13.4671735583
 20
11.3867747841
 30
0.0
 10
13.4657231395
 20
11.3867499816
 30
0.0
 10
13.4641569631
 20
11.3867263514
 30
0.0
 10
13.4624809246
 20
11.3867039939
 30
0.0
 10
13.4600454657
 20
11.3866752532
 30
0.0
 10
13.4581693555
 20
11.386657049
 30
0.0
 10
13.4568871982
 20
11.3866459921
 30
0.0
  0
LINE
  5
33B
100
AcDbEntity
  8
0
100
AcDbLine
 62
9
  6
CONTINUOUS
 10
13.3835388107
 20
11.3537218424
 11
13.3839540465
 21
11.3550322312
  0
LINE
  5
33C
100
AcDbEntity
  8
0
100
AcDbLine
 62
9
  6
CONTINUOUS
 10
13.4088525805
 20
11.7031531142
 11
13.4087854378
 21
11.7032847807
  0
SPLINE
  5
33D
100
AcDbEntity
  8
0
100
AcDbSpline
 62
9
  6
CONTINUOUS
 70
0
 71
3
 72
20
 73
16
 74
0
 42
0.0000001
 43
0.0000001
 44
0.0000000001
 40
0.0
 40
0.0
 40
0.0
 40
0.0
 40
0.04396685
 40
0.088848626
 40
0.1354556486
 40
0.1844757172
 40
0.2364046982
 40
0.2915613545
 40
0.3501031561
 40
0.412043735
 40
0.4772760587
 40
0.5455945556
 40
0.6901955571
 40
0.8428960681
 40
1.0
 40
1.0
 40
1.0
 40
1.0
 10
13.4396783496
 20
11.3554483651
 30
0.0
 10
13.4402456847
 20
11.3554533458
 30
0.0
 10
13.4413936976
 20
11.3555649693
 30
0.0
 10
13.4430859905
 20
11.3560328637
 30
0.0
 10
13.4447392565
 20
11.3567951851
 30
0.0
 10
13.4463371906
 20
11.3578419704
 30
0.0
 10
13.4478659278
 20
11.3591617548
 30
0.0
 10
13.4493123146
 20
11.3607411259
 30
0.0
 10
13.4506638629
 20
11.3625650284
 30
0.0
 10
13.4519086654
 20
11.3646164109
 30
0.0
 10
13.4530357743
 20
11.3668762504
 30
0.0
 10
13.4543931574
 20
11.3702020031
 30
0.0
 10
13.4557141421
 20
11.3747465228
 30
0.0
 10
13.4566719833
 20
11.3805430822
 30
0.0
 10
13.4568874107
 20
11.3845444339
 30
0.0
 10
13.456888469
 20
11.386571734
 30
0.0
  0
LINE
  5
33E
100
AcDbEntity
  8
0
100
AcDbLine
 62
9
  6
CONTINUOUS
 10
13.4087854319
 20
11.3938105122
 11
13.4088525567
 21
11.3939421414
  0
SPLINE
  5
33F
100
AcDbEntity
  8
0
100
AcDbSpline
 62
9
  6
CONTINUOUS
 70
0
 71
3
 72
20
 73
16
 74
0
 42
0.0000001
 43
0.0000001
 44
0.0000000001
 40
0.0
 40
0.0
 40
0.0
 40
0.0
 40
0.0439495094
 40
0.0888162052
 40
0.1354124047
 40
0.1844269825
 40
0.2363561499
 40
0.2915183503
 40
0.3500701514
 40
0.4120239914
 40
0.4772713101
 40
0.5456047871
 40
0.6902286741
 40
0.8429296859
 40
1.0
 40
1.0
 40
1.0
 40
1.0
 10
12.8949583281
 20
11.3554483651
 30
0.0
 10
12.8943901296
 20
11.3554533533
 30
0.0
 10
12.8932403299
 20
11.3555653075
 30
0.0
 10
12.8915454964
 20
11.3560346183
 30
0.0
 10
12.8898898742
 20
11.3567992315
 30
0.0
 10
12.8882898327
 20
11.3578491206
 30
0.0
 10
12.886759295
 20
11.3591727587
 30
0.0
 10
12.8853114641
 20
11.3607566549
 30
0.0
 10
12.8839588724
 20
11.3625856667
 30
0.0
 10
12.8827134777
 20
11.3646426503
 30
0.0
 10
12.8815862656
 20
11.3669084734
 30
0.0
 10
12.880229472
 20
11.3702426422
 30
0.0
 10
12.878910665
 20
11.3747977698
 30
0.0
 10
12.8779575281
 20
11.3806063996
 30
0.0
 10
12.877746618
 20
11.3846152777
 30
0.0
 10
12.8777482173
 20
11.3866460292
 30
0.0
  0
LINE
  5
340
100
AcDbEntity
  8
0
100
AcDbLine
 62
9
  6
CONTINUOUS
 10
13.3839540563
 20
11.7420631071
 11
13.3835388107
 21
11.7433734919
  0
LINE
  5
341
100
AcDbEntity
  8
0
100
AcDbLine
 62
9
  6
CONTINUOUS
 10
12.9388631096
 20
11.3939525965
 11
12.9388980858
 21
11.3938251252
  0
LINE
  5
342
100
AcDbEntity
  8
0
100
AcDbLine
 62
9
  6
CONTINUOUS
 10
12.9506825866
 20
11.3550323568
 11
12.9510978658
 21
11.3537218424
  0
SPLINE
  5
343
100
AcDbEntity
  8
0
100
AcDbSpline
 62
9
  6
CONTINUOUS
 70
0
 71
3
 72
28
 73
24
 74
0
 42
0.0000001
 43
0.0000001
 44
0.0000000001
 40
0.0
 40
0.0
 40
0.0
 40
0.0
 40
0.0005199381
 40
0.0014344515
 40
0.0047394586
 40
0.0101006676
 40
0.0175339471
 40
0.0270427689
 40
0.0386283115
 40
0.0522898405
 40
0.0680248563
 40
0.0858195974
 40
0.1056526294
 40
0.1513462651
 40
0.2049242578
 40
0.2661923089
 40
0.3349305011
 40
0.4108671447
 40
0.4937166257
 40
0.5831754514
 40
0.6789205103
 40
0.7805790377
 40
1.0
 40
1.0
 40
1.0
 40
1.0
 10
13.4744030564
 20
11.7100260911
 30
0.0
 10
13.4744030374
 20
11.7100291296
 30
0.0
 10
13.474396812
 20
11.7100364243
 30
0.0
 10
13.4743718531
 20
11.7100474495
 30
0.0
 10
13.4743167013
 20
11.7100607929
 30
0.0
 10
13.4742240504
 20
11.710075237
 30
0.0
 10
13.4740944035
 20
11.7100902827
 30
0.0
 10
13.4739284188
 20
11.7101053755
 30
0.0
 10
13.4737258412
 20
11.7101205401
 30
0.0
 10
13.4734868192
 20
11.7101356697
 30
0.0
 10
13.4732114352
 20
11.7101507378
 30
0.0
 10
13.4728999362
 20
11.7101657173
 30
0.0
 10
13.4724134402
 20
11.7101865413
 30
0.0
 10
13.4717178278
 20
11.7102117059
 30
0.0
 10
13.4707800432
 20
11.7102401144
 30
0.0
 10
13.4697075113
 20
11.7102678016
 30
0.0
 10
13.4685042561
 20
11.7102946411
 30
0.0
 10
13.4671748296
 20
11.7103205226
 30
0.0
 10
13.4657242701
 20
11.7103453332
 30
0.0
 10
13.4641579145
 20
11.7103689692
 30
0.0
 10
13.4624816076
 20
11.7103913276
 30
0.0
 10
13.4600458085
 20
11.7104200697
 30
0.0
 10
13.4581694707
 20
11.7104382797
 30
0.0
 10
13.4568871983
 20
11.7104493385
 30
0.0
  0
LINE
  5
344
100
AcDbEntity
  8
0
100
AcDbLine
 62
9
  6
CONTINUOUS
 10
12.9510978658
 20
11.7433734919
 11
12.9506825841
 21
11.742062979
  0
LINE
  5
345
100
AcDbEntity
  8
0
100
AcDbLine
 62
9
  6
CONTINUOUS
 10
12.9388979513
 20
11.7032697806
 11
12.9388630945
 21
11.7031427438
  0
SPLINE
  5
346
100
AcDbEntity
  8
0
100
AcDbSpline
 62
9
  6
CONTINUOUS
 70
0
 71
3
 72
21
 73
17
 74
0
 42
0.0000001
 43
0.0000001
 44
0.0000000001
 40
0.0
 40
0.0
 40
0.0
 40
0.0
 40
0.0774918006
 40
0.1160906644
 40
0.1544945622
 40
0.2304857011
 40
0.305031562
 40
0.4480634778
 40
0.5808612628
 40
0.701645531
 40
0.7573728021
 40
0.8100525009
 40
0.8600105514
 40
0.90782648
 40
0.9541180498
 40
1.0
 40
1.0
 40
1.0
 40
1.0
 10
13.5016552185
 20
11.4195257076
 30
0.0
 10
13.5016537939
 20
11.4187117105
 30
0.0
 10
13.5016253144
 20
11.4174919478
 30
0.0
 10
13.501521215
 20
11.4158722288
 30
0.0
 10
13.5013697351
 20
11.4142720877
 30
0.0
 10
13.5010946151
 20
11.4123051726
 30
0.0
 10
13.5004856406
 20
11.4092808113
 30
0.0
 10
13.4994213505
 20
11.4057450153
 30
0.0
 10
13.4976577102
 20
11.4019535629
 30
0.0
 10
13.495796115
 20
11.3992641254
 30
0.0
 10
13.4941277705
 20
11.3975222933
 30
0.0
 10
13.4928431199
 20
11.3964588559
 30
0.0
 10
13.4915014484
 20
11.395614232
 30
0.0
 10
13.4901118993
 20
11.3950002159
 30
0.0
 10
13.4886847321
 20
11.3946211001
 30
0.0
 10
13.4877152868
 20
11.3945315847
 30
0.0
 10
13.4872333512
 20
11.3945268881
 30
0.0
  0
SPLINE
  5
347
100
AcDbEntity
  8
0
100
AcDbSpline
 62
9
  6
CONTINUOUS
 70
0
 71
3
 72
21
 73
17
 74
0
 42
0.0000001
 43
0.0000001
 44
0.0000000001
 40
0.0
 40
0.0
 40
0.0
 40
0.0
 40
0.0774918087
 40
0.116090677
 40
0.1544945797
 40
0.2304857291
 40
0.3050316009
 40
0.4480635378
 40
0.5808613389
 40
0.7016456134
 40
0.7573728823
 40
0.8100525745
 40
0.8600106138
 40
0.9078265262
 40
0.954118075
 40
1.0
 40
1.0
 40
1.0
 40
1.0
 10
12.8329814581
 20
11.6775696267
 30
0.0
 10
12.832982883
 20
11.6783836238
 30
0.0
 10
12.833011363
 20
11.6796033866
 30
0.0
 10
12.8331154629
 20
11.6812231055
 30
0.0
 10
12.8332669433
 20
11.6828232467
 30
0.0
 10
12.833542064
 20
11.6847901618
 30
0.0
 10
12.8341510392
 20
11.6878145231
 30
0.0
 10
12.83521533
 20
11.6913503191
 30
0.0
 10
12.8369789706
 20
11.6951417714
 30
0.0
 10
12.8388405656
 20
11.697831209
 30
0.0
 10
12.8405089098
 20
11.6995730411
 30
0.0
 10
12.8417935599
 20
11.7006364784
 30
0.0
 10
12.8431352308
 20
11.7014811024
 30
0.0
 10
12.8445247792
 20
11.7020951184
 30
0.0
 10
12.8459519456
 20
11.7024742343
 30
0.0
 10
12.8469213903
 20
11.7025637497
 30
0.0
 10
12.8474033256
 20
11.7025684462
 30
0.0
  0
SPLINE
  5
348
100
AcDbEntity
  8
0
100
AcDbSpline
 62
9
  6
CONTINUOUS
 70
0
 71
3
 72
28
 73
24
 74
0
 42
0.0000001
 43
0.0000001
 44
0.0000000001
 40
0.0
 40
0.0
 40
0.0
 40
0.0
 40
0.2194045668
 40
0.321064119
 40
0.4168162118
 40
0.5062807048
 40
0.5891329649
 40
0.6650700177
 40
0.733807212
 40
0.7950740045
 40
0.8486516611
 40
0.8943470847
 40
0.9141822869
 40
0.931980343
 40
0.9477200245
 40
0.9613870321
 40
0.9729772298
 40
0.9824881629
 40
0.9899193157
 40
0.9952739732
 40
0.9985707886
 40
0.9994817907
 40
1.0
 40
1.0
 40
1.0
 40
1.0
 10
12.8777494783
 20
11.7104493374
 30
0.0
 10
12.8764672946
 20
11.7104382789
 30
0.0
 10
12.874591036
 20
11.7104200639
 30
0.0
 10
12.8721552718
 20
11.7103913231
 30
0.0
 10
12.8704788753
 20
11.710368967
 30
0.0
 10
12.8689124203
 20
11.710345332
 30
0.0
 10
12.8674618008
 20
11.7103205217
 30
0.0
 10
12.8661323541
 20
11.7102946401
 30
0.0
 10
12.8649291028
 20
11.7102678003
 30
0.0
 10
12.86385658
 20
11.7102401125
 30
0.0
 10
12.862918789
 20
11.7102117036
 30
0.0
 10
12.8622231516
 20
11.7101865388
 30
0.0
 10
12.8617366103
 20
11.7101657152
 30
0.0
 10
12.8614250501
 20
11.7101507355
 30
0.0
 10
12.8611495858
 20
11.7101356676
 30
0.0
 10
12.8609104756
 20
11.7101205391
 30
0.0
 10
12.8607078254
 20
11.7101053757
 30
0.0
 10
12.8605418112
 20
11.7100902859
 30
0.0
 10
12.8604122045
 20
11.7100752416
 30
0.0
 10
12.8603196458
 20
11.7100608021
 30
0.0
 10
12.8602646154
 20
11.7100474513
 30
0.0
 10
12.8602397279
 20
11.710036427
 30
0.0
 10
12.8602335652
 20
11.7100291166
 30
0.0
 10
12.8602335662
 20
11.7100260881
 30
0.0
  0
SPLINE
  5
349
100
AcDbEntity
  8
0
100
AcDbSpline
 62
9
  6
CONTINUOUS
 70
0
 71
3
 72
28
 73
24
 74
0
 42
0.0000001
 43
0.0000001
 44
0.0000000001
 40
0.0
 40
0.0
 40
0.0
 40
0.0
 40
0.2193809792
 40
0.3210201295
 40
0.4167501861
 40
0.5062018814
 40
0.5890443447
 40
0.664965539
 40
0.7336907167
 40
0.7949637361
 40
0.8485570016
 40
0.8942603385
 40
0.9140977623
 40
0.931899981
 40
0.94764808
 40
0.9613281461
 40
0.9729335879
 40
0.982459268
 40
0.989902006
 40
0.9952641011
 40
0.9985664031
 40
0.9994800072
 40
1.0
 40
1.0
 40
1.0
 40
1.0
 10
12.8777494782
 20
11.3866459935
 30
0.0
 10
12.8764674311
 20
11.3866570499
 30
0.0
 10
12.8745914278
 20
11.386675257
 30
0.0
 10
12.8721560472
 20
11.3867039939
 30
0.0
 10
12.8704799719
 20
11.3867263477
 30
0.0
 10
12.8689137762
 20
11.3867499764
 30
0.0
 10
12.86746338
 20
11.3867747786
 30
0.0
 10
12.8661341521
 20
11.3868006562
 30
0.0
 10
12.8649310262
 20
11.3868274944
 30
0.0
 10
12.8638584448
 20
11.3868551739
 30
0.0
 10
12.8629204786
 20
11.3868835692
 30
0.0
 10
12.8622246898
 20
11.386908729
 30
0.0
 10
12.8617380643
 20
11.3869295498
 30
0.0
 10
12.8614264171
 20
11.3869445274
 30
0.0
 10
12.8611508023
 20
11.3869595925
 30
0.0
 10
12.8609114768
 20
11.3869747163
 30
0.0
 10
12.8607085733
 20
11.3869898741
 30
0.0
 10
12.8605423156
 20
11.38700496
 30
0.0
 10
12.860412507
 20
11.387019996
 30
0.0
 10
12.8603198092
 20
11.3870344447
 30
0.0
 10
12.8602646758
 20
11.3870477839
 30
0.0
 10
12.8602397385
 20
11.3870588235
 30
0.0
 10
12.8602335243
 20
11.3870661109
 30
0.0
 10
12.8602334986
 20
11.3870691497
 30
0.0
  0
SPLINE
  5
34A
100
AcDbEntity
  8
0
100
AcDbSpline
 62
9
  6
CONTINUOUS
 70
0
 71
3
 72
20
 73
16
 74
0
 42
0.0000001
 43
0.0000001
 44
0.0000000001
 40
0.0
 40
0.0
 40
0.0
 40
0.0
 40
0.1570703524
 40
0.3097714114
 40
0.4543953476
 40
0.5227288471
 40
0.5879761854
 40
0.6499300404
 40
0.7084818491
 40
0.7636440469
 40
0.8155731989
 40
0.8645877472
 40
0.9111839048
 40
0.9560505467
 40
1.0
 40
1.0
 40
1.0
 40
1.0
 10
12.877748218
 20
11.7104493018
 30
0.0
 10
12.8777466201
 20
11.7124800535
 30
0.0
 10
12.8779575327
 20
11.7164889321
 30
0.0
 10
12.8789106728
 20
11.7222975624
 30
0.0
 10
12.8802294817
 20
11.7268526904
 30
0.0
 10
12.8815862763
 20
11.7301868596
 30
0.0
 10
12.8827134888
 20
11.7324526829
 30
0.0
 10
12.8839588837
 20
11.7345096668
 30
0.0
 10
12.885311475
 20
11.7363386787
 30
0.0
 10
12.8867593052
 20
11.737922575
 30
0.0
 10
12.8882898416
 20
11.7392462134
 30
0.0
 10
12.8898898813
 20
11.7402961026
 30
0.0
 10
12.8915455015
 20
11.741060716
 30
0.0
 10
12.8932403327
 20
11.7415300269
 30
0.0
 10
12.8943901308
 20
11.741641981
 30
0.0
 10
12.8949583285
 20
11.7416469693
 30
0.0
  0
SPLINE
  5
34B
100
AcDbEntity
  8
0
100
AcDbSpline
 62
9
  6
CONTINUOUS
 70
0
 71
3
 72
20
 73
16
 74
0
 42
0.0000001
 43
0.0000001
 44
0.0000000001
 40
0.0
 40
0.0
 40
0.0
 40
0.0
 40
0.1571039318
 40
0.3098044428
 40
0.4544054443
 40
0.5227239412
 40
0.5879562649
 40
0.6498968439
 40
0.7084386455
 40
0.7635953018
 40
0.8155242828
 40
0.8645443515
 40
0.9111513741
 40
0.95603315
 40
1.0
 40
1.0
 40
1.0
 40
1.0
 10
13.456888469
 20
11.7105236003
 30
0.0
 10
13.4568874107
 20
11.7125509004
 30
0.0
 10
13.4566719833
 20
11.7165522521
 30
0.0
 10
13.4557141421
 20
11.7223488116
 30
0.0
 10
13.4543931574
 20
11.7268933313
 30
0.0
 10
13.4530357743
 20
11.730219084
 30
0.0
 10
13.4519086654
 20
11.7324789234
 30
0.0
 10
13.4506638629
 20
11.734530306
 30
0.0
 10
13.4493123146
 20
11.7363542084
 30
0.0
 10
13.4478659278
 20
11.7379335795
 30
0.0
 10
13.4463371907
 20
11.7392533639
 30
0.0
 10
13.4447392565
 20
11.7403001492
 30
0.0
 10
13.4430859906
 20
11.7410624706
 30
0.0
 10
13.4413936976
 20
11.7415303651
 30
0.0
 10
13.4402456847
 20
11.7416419885
 30
0.0
 10
13.4396783496
 20
11.7416469692
 30
0.0
  0
SPLINE
  5
34C
100
AcDbEntity
  8
0
100
AcDbSpline
 62
9
  6
CONTINUOUS
 70
0
 71
3
 72
23
 73
19
 74
0
 42
0.0000001
 43
0.0000001
 44
0.0000000001
 40
0.0
 40
0.0
 40
0.0
 40
0.0
 40
0.1876077721
 40
0.3684959285
 40
0.5361272636
 40
0.6131669017
 40
0.6847620963
 40
0.750275749
 40
0.8091558537
 40
0.8608729719
 40
0.9050030295
 40
0.9411786692
 40
0.9561854521
 40
0.9691091366
 40
0.9799375656
 40
0.9886687955
 40
0.9953244357
 40
1.0
 40
1.0
 40
1.0
 40
1.0
 10
8.6723183369
 20
11.4069036357
 30
0.0
 10
8.6735521399
 20
11.4070626933
 30
0.0
 10
8.6759770804
 20
11.407363422
 30
0.0
 10
8.6795093251
 20
11.4077656928
 30
0.0
 10
8.6823165081
 20
11.4080538408
 30
0.0
 10
8.6844048187
 20
11.4082462375
 30
0.0
 10
8.6858198233
 20
11.4083654759
 30
0.0
 10
8.6871157894
 20
11.408462734
 30
0.0
 10
8.6882812116
 20
11.4085372971
 30
0.0
 10
8.689305965
 20
11.4085885581
 30
0.0
 10
8.6901810072
 20
11.4086162014
 30
0.0
 10
8.6908131462
 20
11.4086202118
 30
0.0
 10
8.6912381182
 20
11.4086092228
 30
0.0
 10
8.6914948212
 20
11.4085955635
 30
0.0
 10
8.6917093572
 20
11.4085761363
 30
0.0
 10
8.6918816384
 20
11.4085511385
 30
0.0
 10
8.6920110997
 20
11.408520831
 30
0.0
 10
8.6920819172
 20
11.4084928044
 30
0.0
 10
8.6921078755
 20
11.4084758523
 30
0.0
  0
SPLINE
  5
34D
100
AcDbEntity
  8
0
100
AcDbSpline
 62
9
  6
CONTINUOUS
 70
0
 71
3
 72
39
 73
35
 74
0
 42
0.0000001
 43
0.0000001
 44
0.0000000001
 40
0.0
 40
0.0
 40
0.0
 40
0.0
 40
0.0313964462
 40
0.0627745406
 40
0.0941340729
 40
0.1254750275
 40
0.1567975814
 40
0.1881021027
 40
0.2193891517
 40
0.2506594745
 40
0.2819139934
 40
0.3131537945
 40
0.34438012
 40
0.3755943575
 40
0.4067980238
 40
0.4379927464
 40
0.4691802454
 40
0.5003623194
 40
0.5315408271
 40
0.5627176651
 40
0.5938947453
 40
0.6250739757
 40
0.6562572441
 40
0.6874463969
 40
0.7186432164
 40
0.7498494008
 40
0.7810665492
 40
0.812296147
 40
0.843539548
 40
0.8747979576
 40
0.9060724181
 40
0.937363817
 40
0.9686728256
 40
1.0
 40
1.0
 40
1.0
 40
1.0
 10
9.2989242723
 20
2.7342815169
 30
0.0
 10
9.2886484115
 20
2.7420953283
 30
0.0
 10
9.2684975543
 20
2.7582457021
 30
0.0
 10
9.2395596146
 20
2.783973492
 30
0.0
 10
9.2119906165
 20
2.8111321049
 30
0.0
 10
9.1858638695
 20
2.8396495901
 30
0.0
 10
9.1612476103
 20
2.8694514794
 30
0.0
 10
9.1382064478
 20
2.9004596299
 30
0.0
 10
9.1168007114
 20
2.9325927706
 30
0.0
 10
9.0970865104
 20
2.9657666971
 30
0.0
 10
9.0791155365
 20
2.9998944914
 30
0.0
 10
9.0629349592
 20
3.034886746
 30
0.0
 10
9.0485871562
 20
3.0706517341
 30
0.0
 10
9.0361097119
 20
3.1070957167
 30
0.0
 10
9.0255353389
 20
3.1441231873
 30
0.0
 10
9.0168918051
 20
3.1816371166
 30
0.0
 10
9.0102017991
 20
3.219539185
 30
0.0
 10
9.0054827994
 20
3.2577300409
 30
0.0
 10
9.0027471685
 20
3.2961095911
 30
0.0
 10
9.0020020913
 20
3.3345772488
 30
0.0
 10
9.003249586
 20
3.3730321893
 30
0.0
 10
9.0064863469
 20
3.4113736184
 30
0.0
 10
9.0117038466
 20
3.4495010492
 30
0.0
 10
9.0188884055
 20
3.4873145567
 30
0.0
 10
9.0280212231
 20
3.5247150299
 30
0.0
 10
9.039078393
 20
3.561604432
 30
0.0
 10
9.0520308625
 20
3.5978860978
 30
0.0
 10
9.066844662
 20
3.6334649519
 30
0.0
 10
9.0834809596
 20
3.6682477493
 30
0.0
 10
9.1018962146
 20
3.7021433271
 30
0.0
 10
9.1220420656
 20
3.7350627995
 30
0.0
 10
9.1438659057
 20
3.7669201792
 30
0.0
 10
9.1673096244
 20
3.797631024
 30
0.0
 10
9.1839750745
 20
3.8172836064
 30
0.0
 10
9.1925548693
 20
3.8268909745
 30
0.0
  0
SPLINE
  5
34E
100
AcDbEntity
  8
0
100
AcDbSpline
 62
9
  6
CONTINUOUS
 70
0
 71
3
 72
31
 73
27
 74
0
 42
0.0000001
 43
0.0000001
 44
0.0000000001
 40
0.0
 40
0.0
 40
0.0
 40
0.0
 40
0.0313573494
 40
0.0626987071
 40
0.0940243784
 40
0.1253347861
 40
0.1878963862
 40
0.2504049652
 40
0.2816495449
 40
0.3128837987
 40
0.3441088822
 40
0.3753260326
 40
0.4377259171
 40
0.5001102489
 40
0.5624904911
 40
0.6248782426
 40
0.6560864279
 40
0.6873007068
 40
0.7185223949
 40
0.7497527548
 40
0.8122283765
 40
0.8747519301
 40
0.906041762
 40
0.937346154
 40
0.9686655203
 40
1.0
 40
1.0
 40
1.0
 40
1.0
 10
9.2224552262
 20
2.8399465081
 30
0.0
 10
9.2150594637
 20
2.8478754605
 30
0.0
 10
9.2006233559
 20
2.8640616338
 30
0.0
 10
9.1800819477
 20
2.88927532
 30
0.0
 10
9.1606971442
 20
2.9153701076
 30
0.0
 10
9.1364557039
 20
2.9512518355
 30
0.0
 10
9.1092220917
 20
2.9980559636
 30
0.0
 10
9.0863060605
 20
3.047093862
 30
0.0
 10
9.0706845169
 20
3.0874031579
 30
0.0
 10
9.060343051
 20
3.1181214012
 30
0.0
 10
9.0513972928
 20
3.1492649342
 30
0.0
 10
9.0413564298
 20
3.1912612752
 30
0.0
 10
9.0323716821
 20
3.2445307779
 30
0.0
 10
9.0273944972
 20
3.3091435142
 30
0.0
 10
9.0282581078
 20
3.3739377381
 30
0.0
 10
9.0338422307
 20
3.4276615472
 30
0.0
 10
9.0411963179
 20
3.4701995006
 30
0.0
 10
9.048146615
 20
3.5018367579
 30
0.0
 10
9.0565169486
 20
3.533136155
 30
0.0
 10
9.0695473127
 20
3.5743344225
 30
0.0
 10
9.0893036074
 20
3.6246968314
 30
0.0
 10
9.1135114835
 20
3.6730999519
 30
0.0
 10
9.1354268916
 20
3.7104157794
 30
0.0
 10
9.1531162851
 20
3.7376620731
 30
0.0
 10
9.1720159305
 20
3.7641006283
 30
0.0
 10
9.1853956137
 20
3.7811507201
 30
0.0
 10
9.1922731805
 20
3.7895228907
 30
0.0
  0
ENDSEC
  0
SECTION
  2
OBJECTS
  0
DICTIONARY
  5
C
100
AcDbDictionary
280
0
281
1
  3
ACAD_GROUP
350
D
  3
ACAD_MLINESTYLE
350
17
  3
ACAD_LAYOUT
350
1A
  3
ACAD_PLOTSETTINGS
350
19
  3
ACAD_PLOTSTYLENAME
350
E
  0
DICTIONARY
  5
D
102
{ACAD_REACTORS
330
C
102
}
100
AcDbDictionary
280
0
281
1
  0
ACDBDICTIONARYWDFLT
  5
E
102
{ACAD_REACTORS
330
C
102
}
100
AcDbDictionary
281
1
  3
Normal
350
F
100
AcDbDictionaryWithDefault
340
F
  0
DICTIONARY
  5
17
102
{ACAD_REACTORS
330
C
102
}
100
AcDbDictionary
280
0
281
1
  3
Standard
350
18
  0
DICTIONARY
  5
19
102
{ACAD_REACTORS
330
C
102
}
100
AcDbDictionary
281
1
  0
DICTIONARY
  5
1A
102
{ACAD_REACTORS
330
C
102
}
100
AcDbDictionary
281
1
  3
Model
350
34F
  3
Layout1
350
350
  0
ACDBPLACEHOLDER
  5
F
102
{ACAD_REACTORS
330
E
102
}
  0
MLINESTYLE
  5
18
102
{ACAD_REACTORS
330
17
102
}
100
AcDbMlineStyle
  2
STANDARD
 70
0
  3

 62
256
 51
90.0
 52
90.0
 71
2
 49
0.5
 62
256
  6
BYLAYER
 49
-0.5
 62
256
  6
BYLAYER
  0
LAYOUT
  5
34F
102
{ACAD_REACTORS
330
1A
102
}
100
AcDbPlotSettings
  1

  2
none_device
  4
ANSI_C_(22.00_x_17.00_Inches)
  6

 40
0.0
 41
0.0
 42
0.0
 43
0.0
 44
558.8
 45
431.8
 46
0.0
 47
0.0
 48
0.0
 49
0.0
140
0.0
141
0.0
142
1.0
143
1.0
 70
1024
 72
0
 73
0
 74
0
  7

 75
0
147
1.0
148
0.0
149
0.0
100
AcDbLayout
  1
Model
 70
0
 71
0
 10
0.0
 20
0.0
 11
22.0
 21
17.0
 12
0.0
 22
0.0
 32
0.0
 14
0.0
 24
0.0
 34
0.0
 15
0.0
 25
0.0
 35
0.0
146
0.0
 13
0.0
 23
0.0
 33
0.0
 16
1.0
 26
0.0
 36
0.0
 17
0.0
 27
1.0
 37
0.0
 76
0
330
205
345
0
346
0
  0
LAYOUT
  5
350
102
{ACAD_REACTORS
330
1A
102
}
100
AcDbPlotSettings
  1

  2
none_device
  4
ANSI_C_(22.00_x_17.00_Inches)
  6

 40
0.0
 41
0.0
 42
0.0
 43
0.0
 44
558.8
 45
431.8
 46
0.0
 47
0.0
 48
0.0
 49
0.0
140
0.0
141
0.0
142
1.0
143
1.0
 70
0
 72
0
 73
0
 74
0
  7

 75
0
147
1.0
148
0.0
149
0.0
100
AcDbLayout
  1
Layout1
 70
0
 71
1
 10
0.0
 20
0.0
 11
22.0
 21
17.0
 12
0.0
 22
0.0
 32
0.0
 14
0.0
 24
0.0
 34
0.0
 15
0.0
 25
0.0
 35
0.0
146
0.0
 13
0.0
 23
0.0
 33
0.0
 16
1.0
 26
0.0
 36
0.0
 17
0.0
 27
1.0
 37
0.0
 76
0
330
206
345
0
346
0
  0
ENDSEC
  0
EOF
