999
DXF file: E:\BT Custom\CADOUTPUT\_TOP.dxf
999
Pro/ENGINEER 2018400 by Parametric Technology Corporation
  0
SECTION
  2
HEADER
  9
$ACADVER
  1
AC1018
  9
$DWGCODEPAGE
  3
ANSI_1252
  9
$EXTMAX
 10
22.0
 20
17.0
 30
0.0
  9
$EXTMIN
 10
0.0
 20
0.0
 30
0.0
  9
$LIMMIN
 10
0.0
 20
0.0
  9
$LIMMAX
 10
22.0
 20
17.0
  9
$VIEWCTR
 10
11.0
 20
8.5
  9
$VIEWSIZE
 40
17.0
  9
$CLAYER
  8
0
  9
$LTSCALE
 40
1.21
  9
$CELTYPE
  6
BYLAYER
  9
$DIMSCALE
 40
1.0
  9
$DIMASZ
 40
0.1
  9
$DIMEXO
 40
0.0625
  9
$DIMDLI
 40
0.836
  9
$DIMEXE
 40
0.125
  9
$DIMCEN
 40
0.198
  9
$DIMLFAC
 40
1.0
  9
$DIMBLK
  1
_FILLED
  9
$DIMALT
 70
1
  9
$DIMALTD
 70
2
  9
$DIMALTTD
 70
2
  9
$DIMALTF
 40
25.4
  9
$DIMTXT
 40
0.08
  9
$DIMTOL
 70
1
  9
$DIMLIM
 70
0
  9
$DIMTFAC
 40
1.0
  9
$DIMTP
 40
0.001
  9
$DIMTM
 40
0.001
  9
$DIMGAP
 40
0.09
  9
$DIMDSEP
 70
46
  9
$AUNITS
 70
0
  9
$PDMODE
 70
3
  9
$PDSIZE
 40
0.06
  9
$HANDSEED
  5
2C0
  9
$TILEMODE
 70
1
  9
$MEASUREMENT
 70
0
  9
$INSUNITS
 70
1
  0
ENDSEC
  0
SECTION
  2
CLASSES
  0
CLASS
  1
ACDBDICTIONARYWDFLT
  2
AcDbDictionaryWithDefault
  3
AutoCAD 2000
 90
0
 91
1
280
0
281
0
  0
CLASS
  1
ACDBPLACEHOLDER
  2
AcDbPlaceHolder
  3
AutoCAD 2000
 90
0
 91
1
280
0
281
0
  0
CLASS
  1
LAYOUT
  2
AcDbLayout
  3
AutoCAD 2000
 90
0
 91
0
280
0
281
0
  0
ENDSEC
  0
SECTION
  2
TABLES
  0
TABLE
  2
VPORT
  5
8
100
AcDbSymbolTable
 70
2
  0
VPORT
  5
1F4
100
AcDbSymbolTableRecord
100
AcDbViewportTableRecord
  2
*ACTIVE
 70
0
 10
0.0
 20
0.0
 11
1.0
 21
1.0
 12
11.0
 22
8.5
 13
0.0
 23
0.0
 14
1.0
 24
1.0
 15
0.0
 25
0.0
 16
0.0
 26
0.0
 36
1.0
 17
0.0
 27
0.0
 37
0.0
 40
17.0
 41
1.2941176471
 42
50.0
 43
0.0
 44
0.0
 50
0.0
 51
0.0
 71
0
 72
100
 73
1
 74
1
 75
0
 76
0
 77
0
 78
0
  0
ENDTAB
  0
TABLE
  2
LTYPE
  5
5
100
AcDbSymbolTable
 70
6
  0
LTYPE
  5
14
100
AcDbSymbolTableRecord
100
AcDbLinetypeTableRecord
  2
BYBLOCK
 70
0
  3

 72
65
 73
0
 40
0.0
  0
LTYPE
  5
15
100
AcDbSymbolTableRecord
100
AcDbLinetypeTableRecord
  2
BYLAYER
 70
0
  3

 72
65
 73
0
 40
0.0
  0
LTYPE
  5
16
100
AcDbSymbolTableRecord
100
AcDbLinetypeTableRecord
  2
CONTINUOUS
 70
64
  3
Solid line
 72
65
 73
0
 40
0.0
  0
LTYPE
  5
1F5
100
AcDbSymbolTableRecord
100
AcDbLinetypeTableRecord
  2
CENTER
 70
64
  3
____ _ ____ _ ____ _ ____ _ ____ _ ____ _ ____
 72
65
 73
4
 40
0.6
 49
0.375
 74
0
 49
-0.075
 74
0
 49
0.075
 74
0
 49
-0.075
 74
0
  0
LTYPE
  5
1F6
100
AcDbSymbolTableRecord
100
AcDbLinetypeTableRecord
  2
HIDDEN
 70
64
  3
- - - - - - - - - - - - - - - - - - - -
 72
65
 73
2
 40
0.2
 49
0.1
 74
0
 49
-0.1
 74
0
  0
LTYPE
  5
1F7
100
AcDbSymbolTableRecord
100
AcDbLinetypeTableRecord
  2
PHANTOM
 70
64
  3
_____ _ _ _____ _ _ _____ _ _ _____
 72
65
 73
6
 40
0.8
 49
0.45
 74
0
 49
-0.05
 74
0
 49
0.1
 74
0
 49
-0.05
 74
0
 49
0.1
 74
0
 49
-0.05
 74
0
  0
LTYPE
  5
1F8
100
AcDbSymbolTableRecord
100
AcDbLinetypeTableRecord
  2
DOT
 70
64
  3
. . . . . . . . . . . . . . . . . . . .
 72
65
 73
2
 40
0.2
 49
0.1
 74
0
 49
-0.1
 74
0
  0
LTYPE
  5
1F9
100
AcDbSymbolTableRecord
100
AcDbLinetypeTableRecord
  2
DASHED
 70
64
  3
- - - - - - - - - - - - - - - - - - - -
 72
65
 73
2
 40
0.2
 49
0.1
 74
0
 49
-0.1
 74
0
  0
ENDTAB
  0
TABLE
  2
LAYER
  5
2
100
AcDbSymbolTable
 70
36
  0
LAYER
  5
10
100
AcDbSymbolTableRecord
100
AcDbLayerTableRecord
  2
0
 70
0
 62
7
  6
CONTINUOUS
370
-3
390
F
  0
LAYER
  5
1FA
100
AcDbSymbolTableRecord
100
AcDbLayerTableRecord
  2
DEFAULT_1
 70
0
 62
7
  6
CENTER
370
-3
390
F
  0
LAYER
  5
1FB
100
AcDbSymbolTableRecord
100
AcDbLayerTableRecord
  2
DEFAULT_2
 70
0
 62
8
  6
HIDDEN
370
-3
390
F
  0
LAYER
  5
1FC
100
AcDbSymbolTableRecord
100
AcDbLayerTableRecord
  2
DEFAULT_3
 70
0
 62
7
  6
PHANTOM
370
-3
390
F
  0
LAYER
  5
1FD
100
AcDbSymbolTableRecord
100
AcDbLayerTableRecord
  2
ALL_FEATURES
 70
0
 62
7
  6
CONTINUOUS
370
-3
390
F
  0
LAYER
  5
1FE
100
AcDbSymbolTableRecord
100
AcDbLayerTableRecord
  2
AXES_FEATURES
 70
0
 62
7
  6
CONTINUOUS
370
-3
390
F
  0
LAYER
  5
1FF
100
AcDbSymbolTableRecord
100
AcDbLayerTableRecord
  2
DIMENSIONS
 70
0
 62
7
  6
CONTINUOUS
370
-3
390
F
  0
ENDTAB
  0
TABLE
  2
STYLE
  5
3
100
AcDbSymbolTable
 70
1
  0
STYLE
  5
11
100
AcDbSymbolTableRecord
100
AcDbTextStyleTableRecord
  2
STANDARD
 70
0
 40
0.0
 41
0.8
 50
0.0
 71
0
 42
0.2
  3
txt
  4

  0
STYLE
  5
200
100
AcDbSymbolTableRecord
100
AcDbTextStyleTableRecord
  2
TEXTSTYLE_1
 70
0
 40
0.0
 41
0.8
 50
0.0
 71
0
 42
0.2
  3
gdt
  4

  0
ENDTAB
  0
TABLE
  2
VIEW
  5
6
100
AcDbSymbolTable
 70
0
  0
ENDTAB
  0
TABLE
  2
UCS
  5
7
100
AcDbSymbolTable
 70
0
  0
ENDTAB
  0
TABLE
  2
APPID
  5
9
100
AcDbSymbolTable
 70
1
  0
APPID
  5
201
100
AcDbSymbolTableRecord
100
AcDbRegAppTableRecord
  2
ACAD
 70
0
  0
ENDTAB
  0
TABLE
  2
BLOCK_RECORD
  5
1
100
AcDbSymbolTable
 70
0
  0
BLOCK_RECORD
  5
202
100
AcDbSymbolTableRecord
100
AcDbBlockTableRecord
  2
*Model_Space
  0
BLOCK_RECORD
  5
203
100
AcDbSymbolTableRecord
100
AcDbBlockTableRecord
  2
*Paper_Space
  0
BLOCK_RECORD
  5
204
100
AcDbSymbolTableRecord
100
AcDbBlockTableRecord
  2
_FILLED
  0
ENDTAB
  0
TABLE
  2
DIMSTYLE
  5
A
100
AcDbSymbolTable
 70
1
100
AcDbDimStyleTable
 71
0
  0
DIMSTYLE
105
205
100
AcDbSymbolTableRecord
100
AcDbDimStyleTableRecord
  2
STANDARD
 70
0
  3

  4

 40
1.0
 41
0.1
 42
0.0625
 43
0.38
 44
0.125
 45
0.0
 46
0.0
 47
0.001
 48
0.001
140
0.08
141
0.09
142
0.0
143
25.4
144
1.0
145
0.0
146
1.0
147
0.09
 71
1.0
 72
0.0
 73
1
 74
1
 75
0
 76
0
 77
0
 78
4
 79
1
170
1
171
2
172
0
173
0
174
0
175
0
176
0
177
0
178
0
270
2
179
3
271
3
272
3
273
2
274
2
275
0
280
0
281
0
282
0
283
1
284
4
285
0
286
0
287
3
288
0
340
11
278
46
341
204
342
204
343
204
344
204
  0
ENDTAB
  0
ENDSEC
  0
SECTION
  2
BLOCKS
  0
BLOCK
  5
20
100
AcDbEntity
  8
0
100
AcDbBlockBegin
  2
*Model_Space
 70
0
 10
0.0
 20
0.0
 30
0.0
  3
*Model_Space
  1

  0
ENDBLK
  5
21
100
AcDbEntity
  8
0
100
AcDbBlockEnd
  0
BLOCK
  5
1C
100
AcDbEntity
  8
0
100
AcDbBlockBegin
  2
*Paper_Space
 70
0
 10
0.0
 20
0.0
 30
0.0
  3
*Paper_Space
  1

  0
ENDBLK
  5
1D
100
AcDbEntity
  8
0
100
AcDbBlockEnd
  0
BLOCK
  5
206
100
AcDbEntity
  8
0
100
AcDbBlockBegin
  2
_FILLED
 70
64
 10
0.0
 20
0.0
  3
_FILLED
  1

  0
SOLID
  5
207
100
AcDbEntity
  8
0
  6
BYBLOCK
 62
0
100
AcDbTrace
 10
0.0
 20
0.0
 11
-1.0
 21
0.2
 12
-1.0
 22
-0.2
 13
-1.0
 23
-0.2
  0
ENDBLK
  5
208
100
AcDbEntity
  8
0
  6
BYBLOCK
 62
0
100
AcDbBlockEnd
  0
ENDSEC
  0
SECTION
  2
ENTITIES
  0
LINE
  5
209
100
AcDbEntity
  8
0
100
AcDbLine
 62
7
  6
CONTINUOUS
 10
10.6473183383
 20
-6.2396681396
 11
11.4473183383
 21
-6.2396681396
  0
LINE
  5
20A
100
AcDbEntity
  8
0
100
AcDbLine
 62
7
  6
CONTINUOUS
 10
10.6473183383
 20
-6.1396681396
 11
11.4473183383
 21
-6.1396681396
  0
LINE
  5
20B
100
AcDbEntity
  8
0
100
AcDbLine
 62
9
  6
CONTINUOUS
 10
11.4273183383
 20
-5.1246681396
 11
10.6673183383
 21
-5.1246681396
  0
LINE
  5
20C
100
AcDbEntity
  8
0
100
AcDbLine
 62
7
  6
CONTINUOUS
 10
10.5773183383
 20
-5.0646681396
 11
11.5173183383
 21
-5.0646681396
  0
LINE
  5
20D
100
AcDbEntity
  8
0
100
AcDbLine
 62
9
  6
CONTINUOUS
 10
11.5473183383
 20
-4.9746681396
 11
10.5473183383
 21
-4.9746681396
  0
LINE
  5
20E
100
AcDbEntity
  8
0
100
AcDbLine
 62
9
  6
CONTINUOUS
 10
11.5178309293
 20
-4.9059145171
 11
10.5768057472
 21
-4.9059145171
  0
LINE
  5
20F
100
AcDbEntity
  8
0
100
AcDbLine
 62
9
  6
CONTINUOUS
 10
11.6883104947
 20
-4.5684818716
 11
10.4063261819
 21
-4.5684818716
  0
LINE
  5
210
100
AcDbEntity
  8
0
100
AcDbLine
 62
7
  6
CONTINUOUS
 10
11.6473183383
 20
-4.4646681396
 11
10.4473183383
 21
-4.4646681396
  0
LINE
  5
211
100
AcDbEntity
  8
0
100
AcDbLine
 62
7
  6
CONTINUOUS
 10
11.4351683379
 20
-4.45631814
 11
11.0381589525
 21
-4.45631814
  0
LINE
  5
212
100
AcDbEntity
  8
0
100
AcDbLine
 62
7
  6
CONTINUOUS
 10
10.4973183383
 20
-4.4456681396
 11
11.5973183383
 21
-4.4456681396
  0
LWPOLYLINE
  5
213
100
AcDbEntity
  8
0
100
AcDbPolyline
 62
7
  6
CONTINUOUS
 90
6
 70
0
 10
12.2834580958
 20
20.7362602404
 10
12.2891026401
 20
20.7390679107
 10
12.2991501147
 20
20.7467883891
 10
12.3062788266
 20
20.757264569
 10
12.3097716174
 20
20.7694330735
 10
12.3099752121
 20
20.7768824105
  0
LWPOLYLINE
  5
214
100
AcDbEntity
  8
0
100
AcDbPolyline
 62
7
  6
CONTINUOUS
 90
6
 70
0
 10
12.3290120769
 20
20.8069582267
 10
12.3318554084
 20
20.8081706103
 10
12.3412509834
 20
20.8143644462
 10
12.348549342
 20
20.8229299444
 10
12.3531726098
 20
20.8331875576
 10
12.3547563548
 20
20.8443316764
  0
LINE
  5
215
100
AcDbEntity
  8
0
100
AcDbLine
 62
7
  6
CONTINUOUS
 10
11.5973183383
 20
-2.3456681396
 11
10.4973183383
 21
-2.3456681396
  0
LINE
  5
216
100
AcDbEntity
  8
0
100
AcDbLine
 62
7
  6
CONTINUOUS
 10
10.6488183383
 20
-4.4456681396
 11
10.6678183383
 21
-4.4646681396
  0
LINE
  5
217
100
AcDbEntity
  8
0
100
AcDbLine
 62
7
  6
CONTINUOUS
 10
11.4352200677
 20
-4.4562664102
 11
11.4351914982
 21
-4.4561414102
  0
LWPOLYLINE
  5
218
100
AcDbEntity
  8
0
100
AcDbPolyline
 62
7
  6
CONTINUOUS
 90
5
 70
0
 10
9.7846614254
 20
20.7768815205
 10
9.7848651097
 20
20.7694328258
 10
9.7883580103
 20
20.7572642738
 10
9.7954868614
 20
20.7467880974
 10
9.8055344265
 20
20.7390677148
  0
LINE
  5
219
100
AcDbEntity
  8
0
100
AcDbLine
 62
7
  6
CONTINUOUS
 10
9.6473183383
 20
21.0443318604
 11
9.6473183383
 21
21.2043318604
  0
LINE
  5
21A
100
AcDbEntity
  8
0
100
AcDbLine
 62
9
  6
CONTINUOUS
 10
9.6873183383
 20
21.2043318604
 11
9.6873183383
 21
21.0043318604
  0
LINE
  5
21B
100
AcDbEntity
  8
0
100
AcDbLine
 62
7
  6
CONTINUOUS
 10
9.7398803218
 20
20.9843318605
 11
9.7398803218
 21
20.8443317325
  0
LINE
  5
21C
100
AcDbEntity
  8
0
100
AcDbLine
 62
9
  6
CONTINUOUS
 10
9.7798803216
 20
21.0025581797
 11
9.7798803216
 21
20.8100033711
  0
LINE
  5
21D
100
AcDbEntity
  8
0
100
AcDbLine
 62
7
  6
CONTINUOUS
 10
9.8373183383
 20
20.6923206683
 11
9.8373183383
 21
20.6743318604
  0
LINE
  5
21E
100
AcDbEntity
  8
0
100
AcDbLine
 62
7
  6
CONTINUOUS
 10
10.5773260027
 20
6.0643318604
 11
11.5173106738
 21
6.0643318604
  0
LINE
  5
21F
100
AcDbEntity
  8
0
100
AcDbLine
 62
7
  6
CONTINUOUS
 10
10.3848183383
 20
16.7943318604
 11
10.3848183383
 21
20.6343318604
  0
LINE
  5
220
100
AcDbEntity
  8
0
100
AcDbLine
 62
7
  6
CONTINUOUS
 10
10.4973183383
 20
-4.4456681396
 11
10.4973183383
 21
-2.3456681396
  0
LINE
  5
221
100
AcDbEntity
  8
0
100
AcDbLine
 62
7
  6
CONTINUOUS
 10
10.5748183383
 20
16.7897027808
 11
10.5748183383
 21
16.7945629981
  0
LINE
  5
222
100
AcDbEntity
  8
0
100
AcDbLine
 62
7
  6
CONTINUOUS
 10
10.5773183383
 20
17.3010109994
 11
10.5773183383
 21
16.6343318604
  0
LINE
  5
223
100
AcDbEntity
  8
0
100
AcDbLine
 62
7
  6
CONTINUOUS
 10
10.5773183383
 20
6.7310109994
 11
10.5773183383
 21
6.0643318604
  0
LINE
  5
224
100
AcDbEntity
  8
0
100
AcDbLine
 62
7
  6
CONTINUOUS
 10
10.5773183383
 20
7.5176527216
 11
10.5773183383
 21
8.1843318604
  0
LINE
  5
225
100
AcDbEntity
  8
0
100
AcDbLine
 62
7
  6
CONTINUOUS
 10
10.6673183383
 20
16.1233318604
 11
10.6673183383
 21
15.1083318604
  0
LINE
  5
226
100
AcDbEntity
  8
0
100
AcDbLine
 62
7
  6
CONTINUOUS
 10
10.6673183383
 20
-5.1246681396
 11
10.6673183383
 21
-6.1396681396
  0
LINE
  5
227
100
AcDbEntity
  8
0
100
AcDbLine
 62
7
  6
CONTINUOUS
 10
10.6723183383
 20
-2.3456681396
 11
10.6723183383
 21
6.0643318604
  0
LINE
  5
228
100
AcDbEntity
  8
0
100
AcDbLine
 62
7
  6
CONTINUOUS
 10
10.6723183383
 20
8.1843318604
 11
10.6723183383
 21
16.6343318604
  0
LINE
  5
229
100
AcDbEntity
  8
0
100
AcDbLine
 62
9
  6
CONTINUOUS
 10
11.0473182827
 20
18.2943312999
 11
11.0473183204
 21
18.3543312485
  0
LINE
  5
22A
100
AcDbEntity
  8
0
100
AcDbLine
 62
9
  6
CONTINUOUS
 10
11.0473183167
 20
17.0343318604
 11
11.0473183297
 21
17.0943319775
  0
LINE
  5
22B
100
AcDbEntity
  8
0
100
AcDbLine
 62
9
  6
CONTINUOUS
 10
11.04731836
 20
7.7843318604
 11
11.0473183455
 21
7.7243317293
  0
LINE
  5
22C
100
AcDbEntity
  8
0
100
AcDbLine
 62
9
  6
CONTINUOUS
 10
11.0473183391
 20
20.8537698835
 11
11.0473183213
 21
20.9924471744
  0
LINE
  5
22D
100
AcDbEntity
  8
0
100
AcDbLine
 62
9
  6
CONTINUOUS
 10
11.0473183167
 20
6.4643318604
 11
11.0473183297
 21
6.5243319775
  0
LWPOLYLINE
  5
22E
100
AcDbEntity
  8
0
100
AcDbPolyline
 62
7
  6
CONTINUOUS
 90
4
 70
0
 10
11.5173169688
 20
17.3010110023
 10
11.5181954037
 20
17.3112399011
 10
11.5221871409
 20
17.3246888819
 10
11.5291341724
 20
17.3367638721
  0
LWPOLYLINE
  5
22F
100
AcDbEntity
  8
0
100
AcDbPolyline
 62
7
  6
CONTINUOUS
 90
4
 70
0
 10
10.5773197106
 20
7.5176527216
 10
10.5764193263
 20
7.5072977726
 10
10.572424228
 20
7.4939160072
 10
10.5655025092
 20
7.4818998594
  0
LWPOLYLINE
  5
230
100
AcDbEntity
  8
0
100
AcDbPolyline
 62
7
  6
CONTINUOUS
 90
5
 70
0
 10
12.2573183345
 20
20.6923206323
 10
12.2582166823
 20
20.7017560839
 10
12.263069615
 20
20.7156026174
 10
12.271731198
 20
20.7274426449
 10
12.2834580958
 20
20.7362602404
  0
LWPOLYLINE
  5
231
100
AcDbEntity
  8
0
100
AcDbPolyline
 62
7
  6
CONTINUOUS
 90
4
 70
0
 10
10.5655025088
 20
6.7667638621
 10
10.572449553
 20
6.7546888422
 10
10.576441288
 20
6.7412398254
 10
10.5773197105
 20
6.7310109994
  0
LINE
  5
232
100
AcDbEntity
  8
0
100
AcDbLine
 62
7
  6
CONTINUOUS
 10
11.4223183383
 20
-2.3456681396
 11
11.4223183383
 21
6.0643318604
  0
LINE
  5
233
100
AcDbEntity
  8
0
100
AcDbLine
 62
7
  6
CONTINUOUS
 10
11.4223183383
 20
8.1843318604
 11
11.4223183383
 21
16.6343318604
  0
LINE
  5
234
100
AcDbEntity
  8
0
100
AcDbLine
 62
7
  6
CONTINUOUS
 10
11.4273183383
 20
16.1233318604
 11
11.4273183383
 21
15.1083318604
  0
LINE
  5
235
100
AcDbEntity
  8
0
100
AcDbLine
 62
7
  6
CONTINUOUS
 10
11.4273183383
 20
-5.1246681396
 11
11.4273183383
 21
-6.1396681396
  0
LINE
  5
236
100
AcDbEntity
  8
0
100
AcDbLine
 62
7
  6
CONTINUOUS
 10
11.4351407307
 20
-4.4561482475
 11
11.4351407307
 21
-4.4461763418
  0
LINE
  5
237
100
AcDbEntity
  8
0
100
AcDbLine
 62
7
  6
CONTINUOUS
 10
11.5173183383
 20
17.3010110023
 11
11.5173183383
 21
16.6343318604
  0
LINE
  5
238
100
AcDbEntity
  8
0
100
AcDbLine
 62
7
  6
CONTINUOUS
 10
11.5173183383
 20
6.7310110023
 11
11.5173183383
 21
6.0643318604
  0
LINE
  5
239
100
AcDbEntity
  8
0
100
AcDbLine
 62
7
  6
CONTINUOUS
 10
11.5173183383
 20
7.5176527188
 11
11.5173183383
 21
8.1843318604
  0
LINE
  5
23A
100
AcDbEntity
  8
0
100
AcDbLine
 62
7
  6
CONTINUOUS
 10
11.5973183383
 20
-4.4456681396
 11
11.5973183383
 21
-2.3456681396
  0
LINE
  5
23B
100
AcDbEntity
  8
0
100
AcDbLine
 62
7
  6
CONTINUOUS
 10
11.7098183383
 20
16.7943318604
 11
11.7098183383
 21
20.6343318604
  0
LWPOLYLINE
  5
23C
100
AcDbEntity
  8
0
100
AcDbPolyline
 62
7
  6
CONTINUOUS
 90
4
 70
0
 10
11.5173169688
 20
6.7310110023
 10
11.5181954037
 20
6.7412399011
 10
11.5221871409
 20
6.7546888819
 10
11.5291341724
 20
6.7667638721
  0
LINE
  5
23D
100
AcDbEntity
  8
0
100
AcDbLine
 62
7
  6
CONTINUOUS
 10
11.5173105216
 20
8.1843318604
 11
10.577326155
 21
8.1843318604
  0
LWPOLYLINE
  5
23E
100
AcDbEntity
  8
0
100
AcDbPolyline
 62
7
  6
CONTINUOUS
 90
4
 70
0
 10
11.5291341721
 20
7.4818998494
 10
11.5222124693
 20
7.4939159597
 10
11.5182173675
 20
7.507297685
 10
11.5173169686
 20
7.5176527187
  0
LWPOLYLINE
  5
23F
100
AcDbEntity
  8
0
100
AcDbPolyline
 62
7
  6
CONTINUOUS
 90
6
 70
0
 10
9.7398803218
 20
20.8443317298
 10
9.7414640667
 20
20.8331876117
 10
9.7460873344
 20
20.8229299989
 10
9.7533856928
 20
20.814364501
 10
9.7627812678
 20
20.8081706652
 10
9.7656259359
 20
20.8069577718
  0
LINE
  5
240
100
AcDbEntity
  8
0
100
AcDbLine
 62
7
  6
CONTINUOUS
 10
12.2573183383
 20
20.6923206323
 11
12.2573183383
 21
20.6743318604
  0
LINE
  5
241
100
AcDbEntity
  8
0
100
AcDbLine
 62
9
  6
CONTINUOUS
 10
12.3147563549
 20
20.8100031687
 11
12.3147563548
 21
21.0043318604
  0
LINE
  5
242
100
AcDbEntity
  8
0
100
AcDbLine
 62
7
  6
CONTINUOUS
 10
12.3547563548
 20
20.9843318605
 11
12.3547563548
 21
20.8443317512
  0
LINE
  5
243
100
AcDbEntity
  8
0
100
AcDbLine
 62
9
  6
CONTINUOUS
 10
12.4073183383
 20
21.0043318604
 11
12.4073183383
 21
21.2043318604
  0
LINE
  5
244
100
AcDbEntity
  8
0
100
AcDbLine
 62
7
  6
CONTINUOUS
 10
12.4473183383
 20
21.2043318604
 11
12.4473183383
 21
21.0443318604
  0
LWPOLYLINE
  5
245
100
AcDbEntity
  8
0
100
AcDbPolyline
 62
7
  6
CONTINUOUS
 90
6
 70
0
 10
12.3099697019
 20
20.7769643369
 10
12.3100468921
 20
20.781965255
 10
12.312608572
 20
20.7914597389
 10
12.3181075636
 20
20.7996207667
 10
12.3259301626
 20
20.8055521266
 10
12.3291597832
 20
20.8070148458
  0
LWPOLYLINE
  5
246
100
AcDbEntity
  8
0
100
AcDbPolyline
 62
7
  6
CONTINUOUS
 90
4
 70
0
 10
10.5655025088
 20
17.3367638621
 10
10.572449553
 20
17.3246888422
 10
10.576441288
 20
17.3112398254
 10
10.5773197105
 20
17.3010109994
  0
LINE
  5
247
100
AcDbEntity
  8
0
100
AcDbLine
 62
7
  6
CONTINUOUS
 10
10.5748183383
 20
16.7897018597
 11
10.5749399314
 21
16.7895597042
  0
LINE
  5
248
100
AcDbEntity
  8
0
100
AcDbLine
 62
7
  6
CONTINUOUS
 10
10.6473183383
 20
15.0083318604
 11
10.6723183383
 21
15.0083318604
  0
LINE
  5
249
100
AcDbEntity
  8
0
100
AcDbLine
 62
7
  6
CONTINUOUS
 10
11.4223183383
 20
15.0083318604
 11
11.4473183383
 21
15.0083318604
  0
LINE
  5
24A
100
AcDbEntity
  8
0
100
AcDbLine
 62
7
  6
CONTINUOUS
 10
11.4473183383
 20
15.1083318604
 11
11.4223183383
 21
15.1083318604
  0
LINE
  5
24B
100
AcDbEntity
  8
0
100
AcDbLine
 62
7
  6
CONTINUOUS
 10
10.6473183383
 20
15.1083318604
 11
10.6723183383
 21
15.1083318604
  0
LINE
  5
24C
100
AcDbEntity
  8
0
100
AcDbLine
 62
7
  6
CONTINUOUS
 10
10.5749399322
 20
16.7895621511
 11
10.5773183383
 21
16.7881886069
  0
LINE
  5
24D
100
AcDbEntity
  8
0
100
AcDbLine
 62
7
  6
CONTINUOUS
 10
11.4351683379
 20
-4.45631814
 11
11.4268183383
 21
-4.4646681396
  0
LINE
  5
24E
100
AcDbEntity
  8
0
100
AcDbLine
 62
9
  6
CONTINUOUS
 10
11.4273183383
 20
16.1233318604
 11
11.4223183383
 21
16.1233318604
  0
LINE
  5
24F
100
AcDbEntity
  8
0
100
AcDbLine
 62
9
  6
CONTINUOUS
 10
10.6723183383
 20
16.1233318604
 11
10.6673183383
 21
16.1233318604
  0
LINE
  5
250
100
AcDbEntity
  8
0
100
AcDbLine
 62
7
  6
CONTINUOUS
 10
10.5773183383
 20
16.1833318604
 11
10.6723183383
 21
16.1833318604
  0
LINE
  5
251
100
AcDbEntity
  8
0
100
AcDbLine
 62
7
  6
CONTINUOUS
 10
11.4223183383
 20
16.1833318604
 11
11.5173183383
 21
16.1833318604
  0
LINE
  5
252
100
AcDbEntity
  8
0
100
AcDbLine
 62
9
  6
CONTINUOUS
 10
11.5473183383
 20
16.2733318604
 11
11.4223183383
 21
16.2733318604
  0
LINE
  5
253
100
AcDbEntity
  8
0
100
AcDbLine
 62
9
  6
CONTINUOUS
 10
10.6723183383
 20
16.2733318604
 11
10.5473183383
 21
16.2733318604
  0
LINE
  5
254
100
AcDbEntity
  8
0
100
AcDbLine
 62
9
  6
CONTINUOUS
 10
11.5178309293
 20
16.3420854829
 11
11.4223183383
 21
16.3420854829
  0
LINE
  5
255
100
AcDbEntity
  8
0
100
AcDbLine
 62
9
  6
CONTINUOUS
 10
10.6723183383
 20
16.3420854829
 11
10.5768057472
 21
16.3420854829
  0
LINE
  5
256
100
AcDbEntity
  8
0
100
AcDbLine
 62
7
  6
CONTINUOUS
 10
10.5773260027
 20
16.6343318604
 11
11.5173106738
 21
16.6343318604
  0
LINE
  5
257
100
AcDbEntity
  8
0
100
AcDbLine
 62
9
  6
CONTINUOUS
 10
11.6883104947
 20
16.6795181284
 11
11.5173183383
 21
16.6795181284
  0
LINE
  5
258
100
AcDbEntity
  8
0
100
AcDbLine
 62
9
  6
CONTINUOUS
 10
10.5773183383
 20
16.6795181284
 11
10.4063261819
 21
16.6795181284
  0
LINE
  5
259
100
AcDbEntity
  8
0
100
AcDbLine
 62
7
  6
CONTINUOUS
 10
11.6473183383
 20
16.7833318604
 11
11.5173183383
 21
16.7833318604
  0
LINE
  5
25A
100
AcDbEntity
  8
0
100
AcDbLine
 62
7
  6
CONTINUOUS
 10
10.5773183383
 20
16.7833318604
 11
10.4473183383
 21
16.7833318604
  0
LINE
  5
25B
100
AcDbEntity
  8
0
100
AcDbLine
 62
7
  6
CONTINUOUS
 10
10.3848192629
 20
16.7943318604
 11
10.5773183383
 21
16.7943318604
  0
LINE
  5
25C
100
AcDbEntity
  8
0
100
AcDbLine
 62
7
  6
CONTINUOUS
 10
11.5173183383
 20
16.7943318604
 11
11.7098174136
 21
16.7943318604
  0
LWPOLYLINE
  5
25D
100
AcDbEntity
  8
0
100
AcDbPolyline
 62
7
  6
CONTINUOUS
 90
5
 70
0
 10
9.7686401856
 20
20.8055869657
 10
9.776482377
 20
20.7996701113
 10
9.7820113257
 20
20.7914965211
 10
9.7845886836
 20
20.7819766157
 10
9.7846669994
 20
20.7769643548
  0
LINE
  5
25E
100
AcDbEntity
  8
0
100
AcDbLine
 62
7
  6
CONTINUOUS
 10
11.4349751838
 20
-4.4463686197
 11
11.4361879513
 21
-4.4456681396
  0
LINE
  5
25F
100
AcDbEntity
  8
0
100
AcDbLine
 62
7
  6
CONTINUOUS
 10
9.7654758511
 20
20.8070152839
 11
9.7686401856
 21
20.8055869657
  0
LWPOLYLINE
  5
260
100
AcDbEntity
  8
0
100
AcDbPolyline
 62
7
  6
CONTINUOUS
 90
6
 70
0
 10
9.8055344265
 20
20.7390677148
 10
9.8111803721
 20
20.7362593057
 10
9.8229065526
 20
20.7274415955
 10
9.8315675372
 20
20.7156017544
 10
9.8364200926
 20
20.7017556221
 10
9.8373183447
 20
20.6923206683
  0
LINE
  5
261
100
AcDbEntity
  8
0
100
AcDbLine
 62
7
  6
CONTINUOUS
 10
9.877319133
 20
20.6343318604
 11
12.2173183383
 21
20.6343318604
  0
LINE
  5
262
100
AcDbEntity
  8
0
100
AcDbLine
 62
9
  6
CONTINUOUS
 10
9.8373183383
 20
20.6743318604
 11
12.2573183383
 21
20.6743318604
  0
LINE
  5
263
100
AcDbEntity
  8
0
100
AcDbLine
 62
9
  6
CONTINUOUS
 10
9.7798801309
 20
21.0025584068
 11
12.3147563548
 21
21.0025584068
  0
LINE
  5
264
100
AcDbEntity
  8
0
100
AcDbLine
 62
7
  6
CONTINUOUS
 10
12.4073183383
 20
21.0043318604
 11
9.6873183383
 21
21.0043318604
  0
LINE
  5
265
100
AcDbEntity
  8
0
100
AcDbLine
 62
9
  6
CONTINUOUS
 10
9.6473183383
 20
21.0443318604
 11
12.4473183383
 21
21.0443318604
  0
LINE
  5
266
100
AcDbEntity
  8
0
100
AcDbLine
 62
7
  6
CONTINUOUS
 10
9.6473183383
 20
21.2043318604
 11
12.4473183383
 21
21.2043318604
  0
ARC
  5
267
100
AcDbEntity
  8
0
100
AcDbCircle
 62
9
  6
CONTINUOUS
 10
11.0215246601
 20
7.0413363636
 40
0.5831967526
100
AcDbArc
 50
305.8555481249
 51
306.714923474
  0
ARC
  5
268
100
AcDbEntity
  8
0
100
AcDbCircle
 62
7
  6
CONTINUOUS
 10
10.0305647482
 20
-4.9701077485
 40
0.55
100
AcDbArc
 50
6.7025515627
 51
46.9055842118
  0
ARC
  5
269
100
AcDbEntity
  8
0
100
AcDbCircle
 62
7
  6
CONTINUOUS
 10
10.5023183383
 20
-4.9146681396
 40
0.075
100
AcDbArc
 50
306.8698976458
 51
6.7025515627
  0
ARC
  5
26A
100
AcDbEntity
  8
0
100
AcDbCircle
 62
7
  6
CONTINUOUS
 10
10.4473183383
 20
-4.5246681396
 40
0.06
100
AcDbArc
 50
90.0
 51
226.9055842117
  0
ARC
  5
26B
100
AcDbEntity
  8
0
100
AcDbCircle
 62
7
  6
CONTINUOUS
 10
10.6073183383
 20
-5.1246681396
 40
0.06
100
AcDbArc
 50
0.0
 51
90.0
  0
ARC
  5
26C
100
AcDbEntity
  8
0
100
AcDbCircle
 62
7
  6
CONTINUOUS
 10
10.6473183383
 20
-6.1896681396
 40
0.05
100
AcDbArc
 50
90.0
 51
270.0
  0
ARC
  5
26D
100
AcDbEntity
  8
0
100
AcDbCircle
 62
7
  6
CONTINUOUS
 10
10.5773183383
 20
-5.0146681396
 40
0.05
100
AcDbArc
 50
126.8698976458
 51
270.0
  0
ARC
  5
26E
100
AcDbEntity
  8
0
100
AcDbCircle
 62
9
  6
CONTINUOUS
 10
10.9916138909
 20
17.6695431893
 40
0.6551679821
100
AcDbArc
 50
323.4409031095
 51
324.9293209911
  0
ARC
  5
26F
100
AcDbEntity
  8
0
100
AcDbCircle
 62
9
  6
CONTINUOUS
 10
11.0215246601
 20
17.6113363636
 40
0.5831967526
100
AcDbArc
 50
305.8555481249
 51
306.714923474
  0
ARC
  5
270
100
AcDbEntity
  8
0
100
AcDbCircle
 62
7
  6
CONTINUOUS
 10
10.0305647482
 20
16.2778922515
 40
0.55
100
AcDbArc
 50
6.7025515627
 51
46.9055842118
  0
ARC
  5
271
100
AcDbEntity
  8
0
100
AcDbCircle
 62
9
  6
CONTINUOUS
 10
9.779955553
 20
20.9083686582
 40
0.0941894632
100
AcDbArc
 50
90.0457635463
 51
93.2341964628
  0
ARC
  5
272
100
AcDbEntity
  8
0
100
AcDbCircle
 62
7
  6
CONTINUOUS
 10
10.5023183383
 20
16.3333318604
 40
0.075
100
AcDbArc
 50
306.8698976458
 51
6.7025515627
  0
ARC
  5
273
100
AcDbEntity
  8
0
100
AcDbCircle
 62
7
  6
CONTINUOUS
 10
10.4473183383
 20
16.7233318604
 40
0.06
100
AcDbArc
 50
90.0
 51
226.9055842117
  0
ARC
  5
274
100
AcDbEntity
  8
0
100
AcDbCircle
 62
7
  6
CONTINUOUS
 10
10.6073183383
 20
16.1233318604
 40
0.06
100
AcDbArc
 50
0.0
 51
90.0
  0
ARC
  5
275
100
AcDbEntity
  8
0
100
AcDbCircle
 62
7
  6
CONTINUOUS
 10
10.6473183383
 20
15.0583318604
 40
0.05
100
AcDbArc
 50
90.0
 51
270.0
  0
ARC
  5
276
100
AcDbEntity
  8
0
100
AcDbCircle
 62
7
  6
CONTINUOUS
 10
10.5773183383
 20
16.2333318604
 40
0.05
100
AcDbArc
 50
126.8698976458
 51
270.0
  0
ARC
  5
277
100
AcDbEntity
  8
0
100
AcDbCircle
 62
7
  6
CONTINUOUS
 10
9.8773183383
 20
20.6743318604
 40
0.04
100
AcDbArc
 50
180.0
 51
270.0
  0
ARC
  5
278
100
AcDbEntity
  8
0
100
AcDbCircle
 62
7
  6
CONTINUOUS
 10
9.6873183383
 20
21.0443318604
 40
0.04
100
AcDbArc
 50
180.0
 51
270.0
  0
ARC
  5
279
100
AcDbEntity
  8
0
100
AcDbCircle
 62
7
  6
CONTINUOUS
 10
9.7198803218
 20
20.9843318604
 40
0.02
100
AcDbArc
 50
0.0000003445
 51
90.0
  0
CIRCLE
  5
27A
100
AcDbEntity
  8
0
100
AcDbCircle
 62
7
  6
CONTINUOUS
 10
11.0473183383
 20
7.1243318604
 40
0.6
  0
ARC
  5
27B
100
AcDbEntity
  8
0
100
AcDbCircle
 62
7
  6
CONTINUOUS
 10
11.0473183383
 20
7.1243318604
 40
0.6
100
AcDbArc
 50
314.7903782842
 51
315.0346843262
  0
ARC
  5
27C
100
AcDbEntity
  8
0
100
AcDbCircle
 62
7
  6
CONTINUOUS
 10
11.0473183383
 20
7.1243318604
 40
0.6
100
AcDbArc
 50
305.7120840813
 51
306.1733559328
  0
ARC
  5
27D
100
AcDbEntity
  8
0
100
AcDbCircle
 62
7
  6
CONTINUOUS
 10
11.0473183383
 20
7.1243318604
 40
0.6
100
AcDbArc
 50
224.365702517
 51
224.7016702472
  0
ARC
  5
27E
100
AcDbEntity
  8
0
100
AcDbCircle
 62
7
  6
CONTINUOUS
 10
11.0473183383
 20
7.1243318604
 40
0.6
100
AcDbArc
 50
233.2299247147
 51
233.8188225755
  0
ARC
  5
27F
100
AcDbEntity
  8
0
100
AcDbCircle
 62
7
  6
CONTINUOUS
 10
11.0473183383
 20
7.1243318604
 40
0.6
100
AcDbArc
 50
242.3250093387
 51
251.5134991793
  0
ARC
  5
280
100
AcDbEntity
  8
0
100
AcDbCircle
 62
7
  6
CONTINUOUS
 10
11.0473183383
 20
7.1243318604
 40
0.6
100
AcDbArc
 50
260.2952163464
 51
260.5907167802
  0
ARC
  5
281
100
AcDbEntity
  8
0
100
AcDbCircle
 62
7
  6
CONTINUOUS
 10
11.0473183383
 20
7.1243318604
 40
0.6
100
AcDbArc
 50
269.2628659031
 51
270.0000000001
  0
ARC
  5
282
100
AcDbEntity
  8
0
100
AcDbCircle
 62
9
  6
CONTINUOUS
 10
11.0733751825
 20
7.0416952395
 40
0.5836417631
100
AcDbArc
 50
233.2869746272
 51
234.1483783814
  0
CIRCLE
  5
283
100
AcDbEntity
  8
0
100
AcDbCircle
 62
9
  6
CONTINUOUS
 10
11.0473183383
 20
7.1243318604
 40
0.5799999803
  0
ARC
  5
284
100
AcDbEntity
  8
0
100
AcDbCircle
 62
7
  6
CONTINUOUS
 10
12.0640719284
 20
-4.9701077485
 40
0.55
100
AcDbArc
 50
133.0944157882
 51
173.2974484373
  0
ARC
  5
285
100
AcDbEntity
  8
0
100
AcDbCircle
 62
7
  6
CONTINUOUS
 10
11.5923183383
 20
-4.9146681396
 40
0.075
100
AcDbArc
 50
173.2974484373
 51
233.1301023542
  0
ARC
  5
286
100
AcDbEntity
  8
0
100
AcDbCircle
 62
7
  6
CONTINUOUS
 10
11.6473183383
 20
-4.5246681396
 40
0.06
100
AcDbArc
 50
313.0944157883
 51
90.0
  0
ARC
  5
287
100
AcDbEntity
  8
0
100
AcDbCircle
 62
7
  6
CONTINUOUS
 10
11.4873183383
 20
-5.1246681396
 40
0.06
100
AcDbArc
 50
90.0
 51
180.0
  0
ARC
  5
288
100
AcDbEntity
  8
0
100
AcDbCircle
 62
7
  6
CONTINUOUS
 10
11.4473183383
 20
-6.1896681396
 40
0.05
100
AcDbArc
 50
270.0
 51
90.0
  0
ARC
  5
289
100
AcDbEntity
  8
0
100
AcDbCircle
 62
7
  6
CONTINUOUS
 10
11.5173183383
 20
-5.0146681396
 40
0.05
100
AcDbArc
 50
270.0
 51
53.1301023542
  0
ARC
  5
28A
100
AcDbEntity
  8
0
100
AcDbCircle
 62
9
  6
CONTINUOUS
 10
11.1022683917
 20
17.668997962
 40
0.6542373018
100
AcDbArc
 50
215.0683173208
 51
216.5574207609
  0
CIRCLE
  5
28B
100
AcDbEntity
  8
0
100
AcDbCircle
 62
7
  6
CONTINUOUS
 10
11.0473183383
 20
17.6943318604
 40
0.6
  0
ARC
  5
28C
100
AcDbEntity
  8
0
100
AcDbCircle
 62
7
  6
CONTINUOUS
 10
11.0473183383
 20
17.6943318604
 40
0.6
100
AcDbArc
 50
314.7903782842
 51
323.4205461564
  0
ARC
  5
28D
100
AcDbEntity
  8
0
100
AcDbCircle
 62
7
  6
CONTINUOUS
 10
11.0473183383
 20
17.6943318604
 40
0.6
100
AcDbArc
 50
305.7120840813
 51
306.1733559328
  0
ARC
  5
28E
100
AcDbEntity
  8
0
100
AcDbCircle
 62
7
  6
CONTINUOUS
 10
11.0473183383
 20
17.6943318604
 40
0.6
100
AcDbArc
 50
233.2299247147
 51
233.8188225755
  0
ARC
  5
28F
100
AcDbEntity
  8
0
100
AcDbCircle
 62
7
  6
CONTINUOUS
 10
11.0473183383
 20
17.6943318604
 40
0.6
100
AcDbArc
 50
260.5907167802
 51
270.0000000001
  0
ARC
  5
290
100
AcDbEntity
  8
0
100
AcDbCircle
 62
9
  6
CONTINUOUS
 10
11.0733751825
 20
17.6116952395
 40
0.5836417631
100
AcDbArc
 50
233.2869746272
 51
234.1483783814
  0
CIRCLE
  5
291
100
AcDbEntity
  8
0
100
AcDbCircle
 62
9
  6
CONTINUOUS
 10
11.0473183383
 20
17.6943318604
 40
0.5799999803
  0
ARC
  5
292
100
AcDbEntity
  8
0
100
AcDbCircle
 62
7
  6
CONTINUOUS
 10
11.5923183383
 20
16.3333318604
 40
0.075
100
AcDbArc
 50
173.2974484373
 51
233.1301023542
  0
ARC
  5
293
100
AcDbEntity
  8
0
100
AcDbCircle
 62
7
  6
CONTINUOUS
 10
11.6473183383
 20
16.7233318604
 40
0.06
100
AcDbArc
 50
313.0944157883
 51
90.0
  0
ARC
  5
294
100
AcDbEntity
  8
0
100
AcDbCircle
 62
7
  6
CONTINUOUS
 10
11.4873183383
 20
16.1233318604
 40
0.06
100
AcDbArc
 50
90.0
 51
180.0
  0
ARC
  5
295
100
AcDbEntity
  8
0
100
AcDbCircle
 62
7
  6
CONTINUOUS
 10
11.4473183383
 20
15.0583318604
 40
0.05
100
AcDbArc
 50
270.0
 51
90.0
  0
ARC
  5
296
100
AcDbEntity
  8
0
100
AcDbCircle
 62
7
  6
CONTINUOUS
 10
11.5173183383
 20
16.2333318604
 40
0.05
100
AcDbArc
 50
270.0
 51
53.1301023542
  0
ARC
  5
297
100
AcDbEntity
  8
0
100
AcDbCircle
 62
7
  6
CONTINUOUS
 10
12.0640719284
 20
16.2778922515
 40
0.55
100
AcDbArc
 50
133.0944157882
 51
173.2974484373
  0
ARC
  5
298
100
AcDbEntity
  8
0
100
AcDbCircle
 62
9
  6
CONTINUOUS
 10
12.3147279267
 20
20.909836579
 40
0.0927216577
100
AcDbArc
 50
86.6874191566
 51
89.9824332883
  0
ARC
  5
299
100
AcDbEntity
  8
0
100
AcDbCircle
 62
7
  6
CONTINUOUS
 10
12.2173183383
 20
20.6743318604
 40
0.04
100
AcDbArc
 50
270.0
 51
360.0
  0
ARC
  5
29A
100
AcDbEntity
  8
0
100
AcDbCircle
 62
7
  6
CONTINUOUS
 10
12.4073183383
 20
21.0443318604
 40
0.04
100
AcDbArc
 50
270.0
 51
360.0
  0
ARC
  5
29B
100
AcDbEntity
  8
0
100
AcDbCircle
 62
7
  6
CONTINUOUS
 10
12.3747563548
 20
20.9843318604
 40
0.02
100
AcDbArc
 50
90.0
 51
180.0000000386
  0
SPLINE
  5
29C
100
AcDbEntity
  8
0
100
AcDbSpline
 62
9
  6
CONTINUOUS
 70
0
 71
3
 72
57
 73
53
 74
0
 42
0.0000001
 43
0.0000001
 44
0.0000000001
 40
0.0
 40
0.0
 40
0.0
 40
0.0
 40
0.0000012099
 40
0.0000048425
 40
0.0000108975
 40
0.0000193743
 40
0.0000435916
 40
0.0000774907
 40
0.0001210679
 40
0.0001743193
 40
0.0002372412
 40
0.0003098299
 40
0.0004839924
 40
0.0006967766
 40
0.0009481526
 40
0.0012380902
 40
0.0015665592
 40
0.0019335296
 40
0.0027828542
 40
0.0037858231
 40
0.0049421957
 40
0.0062517312
 40
0.007714189
 40
0.0093293284
 40
0.0110969089
 40
0.0150884309
 40
0.0196868309
 40
0.0248896332
 40
0.0306921546
 40
0.0370891601
 40
0.0440754151
 40
0.051645685
 40
0.0597947355
 40
0.0685173325
 40
0.0778082422
 40
0.0980699229
 40
0.1205172232
 40
0.1450835004
 40
0.1717021798
 40
0.2003039605
 40
0.2308084298
 40
0.2631325124
 40
0.2971932934
 40
0.3329059089
 40
0.3701772708
 40
0.4490173122
 40
0.5329477111
 40
0.6211591344
 40
0.7128317308
 40
0.8071031872
 40
0.9031200093
 40
1.0
 40
1.0
 40
1.0
 40
1.0
 10
9.8373183447
 20
20.6923206688
 30
0.0
 10
9.83731837
 20
20.6923201763
 30
0.0
 10
9.8373214224
 20
20.6923219967
 30
0.0
 10
9.8373246915
 20
20.6923215204
 30
0.0
 10
9.8373325527
 20
20.6923238065
 30
0.0
 10
9.837347643
 20
20.6923265526
 30
0.0
 10
9.837374492
 20
20.6923324495
 30
0.0
 10
9.8374149346
 20
20.6923407514
 30
0.0
 10
9.837467147
 20
20.6923517124
 30
0.0
 10
9.8375308683
 20
20.692365003
 30
0.0
 10
9.8376061904
 20
20.6923807435
 30
0.0
 10
9.8377297472
 20
20.692406547
 30
0.0
 10
9.8379131056
 20
20.6924448356
 30
0.0
 10
9.8381678032
 20
20.692497994
 30
0.0
 10
9.8384687038
 20
20.6925607644
 30
0.0
 10
9.8388157728
 20
20.6926331251
 30
0.0
 10
9.8392089771
 20
20.6927150568
 30
0.0
 10
9.8398254143
 20
20.6928434257
 30
0.0
 10
9.8407110461
 20
20.6930276733
 30
0.0
 10
9.8419117643
 20
20.6932771542
 30
0.0
 10
9.8432962209
 20
20.6935644383
 30
0.0
 10
9.8448641483
 20
20.6938893656
 30
0.0
 10
9.8466152791
 20
20.6942517761
 30
0.0
 10
9.8485493456
 20
20.6946515098
 30
0.0
 10
9.8514931105
 20
20.6952591061
 30
0.0
 10
9.855628137
 20
20.6961107748
 30
0.0
 10
9.8611352192
 20
20.6972419374
 30
0.0
 10
9.8673660802
 20
20.6985182446
 30
0.0
 10
9.8743158659
 20
20.6999382091
 30
0.0
 10
9.8819786245
 20
20.7015000995
 30
0.0
 10
9.890348182
 20
20.703202147
 30
0.0
 10
9.8994183649
 20
20.7050425811
 30
0.0
 10
9.9091829987
 20
20.7070196349
 30
0.0
 10
9.9196359115
 20
20.7091315307
 30
0.0
 10
9.934929521
 20
20.7122149815
 30
0.0
 10
9.9557097879
 20
20.7163908006
 30
0.0
 10
9.982601946
 20
20.7217557321
 30
0.0
 10
10.0120457977
 20
20.7275743092
 30
0.0
 10
10.0439641413
 20
20.7338107813
 30
0.0
 10
10.0782741985
 20
20.74042819
 30
0.0
 10
10.114887688
 20
20.7473819428
 30
0.0
 10
10.1537106851
 20
20.7546264694
 30
0.0
 10
10.1946472798
 20
20.7621158383
 30
0.0
 10
10.2375974371
 20
20.7698030222
 30
0.0
 10
10.2985639257
 20
20.7804267342
 30
0.0
 10
10.3790043646
 20
20.7937782998
 30
0.0
 10
10.4801403783
 20
20.8092099034
 30
0.0
 10
10.5867156035
 20
20.8235836211
 30
0.0
 10
10.6977670855
 20
20.8361387207
 30
0.0
 10
10.8122910694
 20
20.8459965508
 30
0.0
 10
10.9291959926
 20
20.8522748097
 30
0.0
 10
11.0078290803
 20
20.8537699825
 30
0.0
 10
11.0473183383
 20
20.8537698716
 30
0.0
  0
SPLINE
  5
29D
100
AcDbEntity
  8
0
100
AcDbSpline
 62
9
  6
CONTINUOUS
 70
0
 71
3
 72
21
 73
17
 74
0
 42
0.0000001
 43
0.0000001
 44
0.0000000001
 40
0.0
 40
0.0
 40
0.0
 40
0.0
 40
0.0009688243
 40
0.0038679157
 40
0.0086980189
 40
0.0154600567
 40
0.0347844466
 40
0.0618520758
 40
0.0966767364
 40
0.1392750555
 40
0.1896664851
 40
0.2478732897
 40
0.3878302554
 40
0.5594362739
 40
0.7632228264
 40
1.0
 40
1.0
 40
1.0
 40
1.0
 10
9.7846669991
 20
20.776964355
 30
0.0
 10
9.7846750146
 20
20.7769646783
 30
0.0
 10
9.7847070399
 20
20.7769625566
 30
0.0
 10
9.784779038
 20
20.7769623874
 30
0.0
 10
9.7848990186
 20
20.7769598729
 30
0.0
 10
9.7851549974
 20
20.776957885
 30
0.0
 10
9.78559513
 20
20.7769573435
 30
0.0
 10
9.7862675882
 20
20.7769643955
 30
0.0
 10
9.7871326046
 20
20.7769826512
 30
0.0
 10
9.7881903954
 20
20.7770166436
 30
0.0
 10
9.7894411827
 20
20.7770705678
 30
0.0
 10
9.7914962759
 20
20.777181491
 30
0.0
 10
9.7945504917
 20
20.7774022476
 30
0.0
 10
9.7987940115
 20
20.7778612171
 30
0.0
 10
9.8038079102
 20
20.7786157441
 30
0.0
 10
9.8073884667
 20
20.7793216685
 30
0.0
 10
9.8093031702
 20
20.7797431161
 30
0.0
  0
SPLINE
  5
29E
100
AcDbEntity
  8
0
100
AcDbSpline
 62
9
  6
CONTINUOUS
 70
0
 71
3
 72
57
 73
53
 74
0
 42
0.0000001
 43
0.0000001
 44
0.0000000001
 40
0.0
 40
0.0
 40
0.0
 40
0.0
 40
0.0968804549
 40
0.1928978562
 40
0.2871697565
 40
0.37884291
 40
0.4670551639
 40
0.5509860907
 40
0.6298258283
 40
0.6670968255
 40
0.7028090318
 40
0.7368694203
 40
0.7691931441
 40
0.7996972946
 40
0.8282988027
 40
0.8549172592
 40
0.8794833572
 40
0.9019305143
 40
0.92219208
 40
0.9314829401
 40
0.940205492
 40
0.9483545014
 40
0.9559247344
 40
0.9629109562
 40
0.9693079323
 40
0.9751104278
 40
0.9803132077
 40
0.9849115884
 40
0.9889030941
 40
0.9906706678
 40
0.9922858014
 40
0.9937482544
 40
0.9950577863
 40
0.9962141564
 40
0.997217124
 40
0.9980664486
 40
0.9984334196
 40
0.9987618895
 40
0.9990518283
 40
0.9993032058
 40
0.9995159921
 40
0.9996901569
 40
0.9997627469
 40
0.9998256702
 40
0.9998789231
 40
0.9999225019
 40
0.9999564027
 40
0.9999806218
 40
0.9999890996
 40
0.9999951555
 40
0.9999987891
 40
1.0
 40
1.0
 40
1.0
 40
1.0
 10
11.0473183383
 20
20.8537698765
 30
0.0
 10
11.0868077866
 20
20.8537699065
 30
0.0
 10
11.1654412985
 20
20.8522748639
 30
0.0
 10
11.2823468563
 20
20.8459969702
 30
0.0
 10
11.3968714734
 20
20.8361388821
 30
0.0
 10
11.5079236547
 20
20.8235833006
 30
0.0
 10
11.6144996389
 20
20.8092093569
 30
0.0
 10
11.7156360845
 20
20.7937777133
 30
0.0
 10
11.7960764659
 20
20.7804261352
 30
0.0
 10
11.8570425186
 20
20.7698024702
 30
0.0
 10
11.8999922061
 20
20.7621153523
 30
0.0
 10
11.9409283357
 20
20.7546260634
 30
0.0
 10
11.9797509052
 20
20.7473816166
 30
0.0
 10
12.0163640145
 20
20.7404279314
 30
0.0
 10
12.0506737435
 20
20.7338105681
 30
0.0
 10
12.0825918105
 20
20.7275741092
 30
0.0
 10
12.1120354379
 20
20.7217555391
 30
0.0
 10
12.1389274207
 20
20.7163906359
 30
0.0
 10
12.1597075734
 20
20.712214882
 30
0.0
 10
12.1750011152
 20
20.7091315255
 30
0.0
 10
12.1854539884
 20
20.7070197118
 30
0.0
 10
12.1952185894
 20
20.705042747
 30
0.0
 10
12.2042887445
 20
20.7032024025
 30
0.0
 10
12.2126582778
 20
20.7015004388
 30
0.0
 10
12.2203210144
 20
20.6999386198
 30
0.0
 10
12.2272707788
 20
20.6985187079
 30
0.0
 10
12.2335016175
 20
20.6972424283
 30
0.0
 10
12.2390086749
 20
20.6961112617
 30
0.0
 10
12.2431436784
 20
20.6952595662
 30
0.0
 10
12.2460874243
 20
20.6946519358
 30
0.0
 10
12.2480214776
 20
20.6942521725
 30
0.0
 10
12.2497725955
 20
20.6938897284
 30
0.0
 10
12.2513405106
 20
20.6935647638
 30
0.0
 10
12.2527249559
 20
20.6932774396
 30
0.0
 10
12.2539256638
 20
20.6930279162
 30
0.0
 10
12.2548112874
 20
20.6928436304
 30
0.0
 10
12.2554277186
 20
20.6927152299
 30
0.0
 10
12.2558209192
 20
20.6926332753
 30
0.0
 10
12.2561679849
 20
20.6925608917
 30
0.0
 10
12.2564688828
 20
20.6924980984
 30
0.0
 10
12.2567235782
 20
20.6924449172
 30
0.0
 10
12.2569069346
 20
20.6924066088
 30
0.0
 10
12.2570304903
 20
20.6923807893
 30
0.0
 10
12.2571058115
 20
20.6923650375
 30
0.0
 10
12.2571695335
 20
20.6923517358
 30
0.0
 10
12.2572217426
 20
20.6923407636
 30
0.0
 10
12.2572621928
 20
20.6923324513
 30
0.0
 10
12.2572890257
 20
20.6923265443
 30
0.0
 10
12.2573041374
 20
20.6923237913
 30
0.0
 10
12.2573119634
 20
20.6923214982
 30
0.0
 10
12.2573152949
 20
20.6923219734
 30
0.0
 10
12.2573182833
 20
20.6923201451
 30
0.0
 10
12.2573183345
 20
20.692320636
 30
0.0
  0
SPLINE
  5
29F
100
AcDbEntity
  8
0
100
AcDbSpline
 62
9
  6
CONTINUOUS
 70
0
 71
3
 72
22
 73
18
 74
0
 42
0.0000001
 43
0.0000001
 44
0.0000000001
 40
0.0
 40
0.0
 40
0.0
 40
0.0
 40
0.0868373232
 40
0.17306172
 40
0.258054967
 40
0.3412117576
 40
0.4219211575
 40
0.4996107193
 40
0.5737153945
 40
0.6437031599
 40
0.7090559866
 40
0.7692949983
 40
0.8239433664
 40
0.8725617505
 40
0.9148636637
 40
0.9503618841
 40
1.0
 40
1.0
 40
1.0
 40
1.0
 10
11.0473183383
 20
20.9538735633
 30
0.0
 10
11.0835772749
 20
20.9538736708
 30
0.0
 10
11.1558445279
 20
20.9526067729
 30
0.0
 10
11.2634770789
 20
20.947200664
 30
0.0
 10
11.3693567938
 20
20.9385891846
 30
0.0
 10
11.4726751766
 20
20.9274087129
 30
0.0
 10
11.5726874429
 20
20.9142909166
 30
0.0
 10
11.6686952471
 20
20.8998593238
 30
0.0
 10
11.7600594274
 20
20.8847328759
 30
0.0
 10
11.8461582524
 20
20.8693876499
 30
0.0
 10
11.9264164408
 20
20.8542931421
 30
0.0
 10
12.0002673211
 20
20.8397982472
 30
0.0
 10
12.0671813436
 20
20.8262479966
 30
0.0
 10
12.1266902807
 20
20.8138711787
 30
0.0
 10
12.1783351696
 20
20.8029539853
 30
0.0
 10
12.2303582459
 20
20.7917688211
 30
0.0
 10
12.2650915602
 20
20.7841982974
 30
0.0
 10
12.2853334539
 20
20.7797430204
 30
0.0
  0
SPLINE
  5
2A0
100
AcDbEntity
  8
0
100
AcDbSpline
 62
9
  6
CONTINUOUS
 70
0
 71
3
 72
14
 73
10
 74
0
 42
0.0000001
 43
0.0000001
 44
0.0000000001
 40
0.0
 40
0.0
 40
0.0
 40
0.0
 40
0.4404854556
 40
0.6121170725
 40
0.7520973329
 40
0.8607101136
 40
0.9381415628
 40
0.9845378938
 40
1.0
 40
1.0
 40
1.0
 40
1.0
 10
12.2853334538
 20
20.7797430394
 30
0.0
 10
12.2888950592
 20
20.7789591392
 30
0.0
 10
12.2938941011
 20
20.7780719142
 30
0.0
 10
12.3000858531
 20
20.7774023221
 30
0.0
 10
12.303556473
 20
20.7771513471
 30
0.0
 10
12.3062525215
 20
20.7770184832
 30
0.0
 10
12.3081763787
 20
20.776962308
 30
0.0
 10
12.3093295367
 20
20.7769571232
 30
0.0
 10
12.3098417709
 20
20.7769597485
 30
0.0
 10
12.309969702
 20
20.7769643368
 30
0.0
  0
SPLINE
  5
2A1
100
AcDbEntity
  8
0
100
AcDbSpline
 62
9
  6
CONTINUOUS
 70
0
 71
3
 72
30
 73
26
 74
0
 42
0.0000001
 43
0.0000001
 44
0.0000000001
 40
0.0
 40
0.0
 40
0.0
 40
0.0
 40
0.0096639791
 40
0.021212512
 40
0.0345586868
 40
0.0496917725
 40
0.0852586774
 40
0.1276097909
 40
0.1511776575
 40
0.1762972275
 40
0.2310215078
 40
0.2913366732
 40
0.3567422016
 40
0.4267742586
 40
0.5009128611
 40
0.5393436058
 40
0.5785910771
 40
0.6592790263
 40
0.7423532287
 40
0.7846064115
 40
0.8272368917
 40
0.8701662968
 40
0.913318798
 40
0.9566223804
 40
1.0
 40
1.0
 40
1.0
 40
1.0
 10
12.3147563549
 20
20.8100033263
 30
0.0
 10
12.3107245954
 20
20.810914015
 30
0.0
 10
12.3018691317
 20
20.8128875849
 30
0.0
 10
12.287439997
 20
20.8160931329
 30
0.0
 10
12.2707272095
 20
20.8198053156
 30
0.0
 10
12.2439809395
 20
20.8257219386
 30
0.0
 10
12.2051025803
 20
20.8342303988
 30
0.0
 10
12.1626693664
 20
20.8433688561
 30
0.0
 10
12.12458821
 20
20.8514908717
 30
0.0
 10
12.081311014
 20
20.8606207574
 30
0.0
 10
12.0226066026
 20
20.8727633407
 30
0.0
 10
11.9469326661
 20
20.8879246732
 30
0.0
 10
11.8647187348
 20
20.9037620483
 30
0.0
 10
11.7765359431
 20
20.9198512296
 30
0.0
 10
11.6995344488
 20
20.9329177615
 30
0.0
 10
11.6353989118
 20
20.9430659709
 30
0.0
 10
11.568409466
 20
20.953086824
 30
0.0
 10
11.4823473315
 20
20.9646442541
 30
0.0
 10
11.3947645239
 20
20.9743956098
 30
0.0
 10
11.3232179547
 20
20.9808677057
 30
0.0
 10
11.268704408
 20
20.9849802136
 30
0.0
 10
11.2137494849
 20
20.9882692369
 30
0.0
 10
11.1584598364
 20
20.990664166
 30
0.0
 10
11.102946145
 20
20.9921279632
 30
0.0
 10
11.0658711575
 20
20.9924635607
 30
0.0
 10
11.0473183383
 20
20.9924471744
 30
0.0
  0
SPLINE
  5
2A2
100
AcDbEntity
  8
0
100
AcDbSpline
 62
9
  6
CONTINUOUS
 70
0
 71
3
 72
15
 73
11
 74
0
 42
0.0000001
 43
0.0000001
 44
0.0000000001
 40
0.0
 40
0.0
 40
0.0
 40
0.0
 40
0.1174415376
 40
0.2417171841
 40
0.3712010146
 40
0.5029289783
 40
0.6341596134
 40
0.7622936379
 40
0.8846576249
 40
1.0
 40
1.0
 40
1.0
 40
1.0
 10
9.8093031674
 20
20.7797431159
 30
0.0
 10
9.8093048263
 20
20.7815724578
 30
0.0
 10
9.808964122
 20
20.7853453989
 30
0.0
 10
9.8074000506
 20
20.7909478695
 30
0.0
 10
9.8046556953
 20
20.7963323779
 30
0.0
 10
9.800857252
 20
20.8011764817
 30
0.0
 10
9.7961388958
 20
20.8050978809
 30
0.0
 10
9.7908760801
 20
20.8079509738
 30
0.0
 10
9.7853841897
 20
20.8096027216
 30
0.0
 10
9.7816768947
 20
20.8099873506
 30
0.0
 10
9.7798803217
 20
20.8100033992
 30
0.0
  0
SPLINE
  5
2A3
100
AcDbEntity
  8
0
100
AcDbSpline
 62
9
  6
CONTINUOUS
 70
0
 71
3
 72
28
 73
24
 74
0
 42
0.0000001
 43
0.0000001
 44
0.0000000001
 40
0.0
 40
0.0
 40
0.0
 40
0.0
 40
0.021208782
 40
0.0345664259
 40
0.0496932567
 40
0.0665960666
 40
0.0852627707
 40
0.1056221602
 40
0.1276108875
 40
0.1511800724
 40
0.1763005434
 40
0.2310246768
 40
0.2913413798
 40
0.3567453939
 40
0.4267796724
 40
0.5009160656
 40
0.5786030175
 40
0.659280884
 40
0.7423585163
 40
0.8272399528
 40
0.9133189437
 40
0.9566223966
 40
1.0
 40
1.0
 40
1.0
 40
1.0
 10
9.7798803217
 20
20.8100033992
 30
0.0
 10
9.7887316292
 20
20.8119879097
 30
0.0
 10
9.8031622076
 20
20.8152019081
 30
0.0
 10
9.8239124631
 20
20.8198015083
 30
0.0
 10
9.8428654625
 20
20.8239990707
 30
0.0
 10
9.8640424902
 20
20.8286557331
 30
0.0
 10
9.8874153791
 20
20.8337468618
 30
0.0
 10
9.9129215305
 20
20.839264815
 30
0.0
 10
9.9404855509
 20
20.8451868248
 30
0.0
 10
9.970050258
 20
20.8514908737
 30
0.0
 10
10.0133280632
 20
20.8606208669
 30
0.0
 10
10.0720329445
 20
20.8727642756
 30
0.0
 10
10.1477067323
 20
20.8879237215
 30
0.0
 10
10.2299204797
 20
20.903764422
 30
0.0
 10
10.3181030048
 20
20.9198489854
 30
0.0
 10
10.411656221
 20
20.9357322466
 30
0.0
 10
10.5099419404
 20
20.9508802116
 30
0.0
 10
10.6122916561
 20
20.9646592885
 30
0.0
 10
10.7179945122
 20
20.9764112821
 30
0.0
 10
10.8262871099
 20
20.9854362325
 30
0.0
 10
10.9178235649
 20
20.9901843534
 30
0.0
 10
10.9916909571
 20
20.9921253737
 30
0.0
 10
11.0287656125
 20
20.9924483777
 30
0.0
 10
11.0473183213
 20
20.9924471744
 30
0.0
  0
SPLINE
  5
2A4
100
AcDbEntity
  8
0
100
AcDbSpline
 62
9
  6
CONTINUOUS
 70
0
 71
3
 72
22
 73
18
 74
0
 42
0.0000001
 43
0.0000001
 44
0.0000000001
 40
0.0
 40
0.0
 40
0.0
 40
0.0
 40
0.0496323582
 40
0.0851308714
 40
0.1274321567
 40
0.1760502454
 40
0.2306992949
 40
0.2909384156
 40
0.3562914276
 40
0.4262803507
 40
0.5003862611
 40
0.5780761257
 40
0.658785201
 40
0.7419416742
 40
0.8269352771
 40
0.9131610787
 40
1.0
 40
1.0
 40
1.0
 40
1.0
 10
9.8093031702
 20
20.7797431165
 30
0.0
 10
9.8295427017
 20
20.7841979439
 30
0.0
 10
9.8642737824
 20
20.7917680075
 30
0.0
 10
9.9162944652
 20
20.8029522046
 30
0.0
 10
9.9679390067
 20
20.8138697725
 30
0.0
 10
10.0274478612
 20
20.826246502
 30
0.0
 10
10.0943620777
 20
20.839796842
 30
0.0
 10
10.1682133594
 20
20.8542918179
 30
0.0
 10
10.2484721418
 20
20.8693864566
 30
0.0
 10
10.3345720072
 20
20.8847319906
 30
0.0
 10
10.4259372792
 20
20.899858752
 30
0.0
 10
10.5219455913
 20
20.9142903953
 30
0.0
 10
10.6219577214
 20
20.9274081514
 30
0.0
 10
10.7252759678
 20
20.9385887855
 30
0.0
 10
10.8311562734
 20
20.9472004809
 30
0.0
 10
10.9387902253
 20
20.9526067238
 30
0.0
 10
11.0110587336
 20
20.953873684
 30
0.0
 10
11.0473183383
 20
20.9538735814
 30
0.0
  0
SPLINE
  5
2A5
100
AcDbEntity
  8
0
100
AcDbSpline
 62
9
  6
CONTINUOUS
 70
0
 71
3
 72
52
 73
48
 74
0
 42
0.0000001
 43
0.0000001
 44
0.0000000001
 40
0.0
 40
0.0
 40
0.0
 40
0.0
 40
0.0488584369
 40
0.0976162622
 40
0.1942808505
 40
0.2419539386
 40
0.2890350417
 40
0.3809828979
 40
0.4256449874
 40
0.4692996423
 40
0.5531802468
 40
0.631859155
 40
0.704584282
 40
0.7385064653
 40
0.7706801846
 40
0.801017985
 40
0.8294436713
 40
0.8558916895
 40
0.8803127881
 40
0.9026323615
 40
0.9227512638
 40
0.9406279668
 40
0.9487163852
 40
0.9562316141
 40
0.9631683533
 40
0.9695204349
 40
0.9752815067
 40
0.9804453606
 40
0.9850084102
 40
0.9889693415
 40
0.9923269159
 40
0.9937790574
 40
0.9950798925
 40
0.9962291694
 40
0.9972265294
 40
0.9980716076
 40
0.9987640392
 40
0.9990528985
 40
0.9993034592
 40
0.9995156758
 40
0.9996895026
 40
0.999824894
 40
0.9999218043
 40
0.9999558148
 40
0.9999801879
 40
0.9999949181
 40
1.0
 40
1.0
 40
1.0
 40
1.0
 10
11.0473183383
 20
20.9012793795
 30
0.0
 10
11.0269245637
 20
20.9012782578
 30
0.0
 10
10.9861780135
 20
20.9009071353
 30
0.0
 10
10.905109882
 20
20.8987418229
 30
0.0
 10
10.8246052842
 20
20.8944900283
 30
0.0
 10
10.7449357329
 20
20.8884091564
 30
0.0
 10
10.6673232617
 20
20.8813499915
 30
0.0
 10
10.5911079442
 20
20.8728988654
 30
0.0
 10
10.5164682672
 20
20.8633799777
 30
0.0
 10
10.4452599219
 20
20.8535975849
 30
0.0
 10
10.3601409053
 20
20.8407795857
 30
0.0
 10
10.2632313749
 20
20.8248427752
 30
0.0
 10
10.1870359963
 20
20.8114848706
 30
0.0
 10
10.1300285329
 20
20.801104911
 30
0.0
 10
10.090454172
 20
20.7937499217
 30
0.0
 10
10.0531572932
 20
20.7866978147
 30
0.0
 10
10.018226897
 20
20.7799945155
 30
0.0
 10
9.9857367234
 20
20.7736799637
 30
0.0
 10
9.9557639819
 20
20.7677723323
 30
0.0
 10
9.9283963364
 20
20.7623093899
 30
0.0
 10
9.9037108437
 20
20.7573645511
 30
0.0
 10
9.8848541693
 20
20.7535646779
 30
0.0
 10
9.8711580401
 20
20.7507873938
 30
0.0
 10
9.8619384636
 20
20.7489115228
 30
0.0
 10
9.8534301462
 20
20.7471749812
 30
0.0
 10
9.845640018
 20
20.7455810238
 30
0.0
 10
9.8385754099
 20
20.7441328269
 30
0.0
 10
9.8322425307
 20
20.742833666
 30
0.0
 10
9.8266457923
 20
20.741685109
 30
0.0
 10
9.8217878076
 20
20.7406871699
 30
0.0
 10
9.8182020155
 20
20.7399493367
 30
0.0
 10
9.8157040107
 20
20.7394341524
 30
0.0
 10
9.8141088944
 20
20.73910451
 30
0.0
 10
9.8126998173
 20
20.7388126133
 30
0.0
 10
9.8114771407
 20
20.738558726
 30
0.0
 10
9.8104412775
 20
20.7383430972
 30
0.0
 10
9.8096950188
 20
20.7381873566
 30
0.0
 10
9.8091917305
 20
20.7380820816
 30
0.0
 10
9.8088846556
 20
20.7380177618
 30
0.0
 10
9.8086246072
 20
20.737963168
 30
0.0
 10
9.8084115875
 20
20.7379184508
 30
0.0
 10
9.8082457795
 20
20.7378833279
 30
0.0
 10
9.8081368815
 20
20.737860674
 30
0.0
 10
9.8080736676
 20
20.737846745
 30
0.0
 10
9.8080435062
 20
20.7378411276
 30
0.0
 10
9.8080260411
 20
20.7378358936
 30
0.0
 10
9.8080173689
 20
20.7378355393
 30
0.0
 10
9.8080155591
 20
20.7378344328
 30
0.0
  0
SPLINE
  5
2A6
100
AcDbEntity
  8
0
100
AcDbSpline
 62
9
  6
CONTINUOUS
 70
0
 71
3
 72
16
 73
12
 74
0
 42
0.0000001
 43
0.0000001
 44
0.0000000001
 40
0.0
 40
0.0
 40
0.0
 40
0.0
 40
0.3033926491
 40
0.4110386504
 40
0.4997040434
 40
0.6378169826
 40
0.741535933
 40
0.8229993191
 40
0.8898305926
 40
0.9474502108
 40
1.0
 40
1.0
 40
1.0
 40
1.0
 10
12.3200856843
 20
21.0024033129
 30
0.0
 10
12.3243386823
 20
21.0021592557
 30
0.0
 10
12.3300985055
 20
21.0014368049
 30
0.0
 10
12.3369038167
 20
20.9997079706
 30
0.0
 10
12.3413630949
 20
20.9982275518
 30
0.0
 10
12.3456123728
 20
20.9963172973
 30
0.0
 10
12.3494259597
 20
20.9938170578
 30
0.0
 10
12.3520045676
 20
20.991361774
 30
0.0
 10
12.353655803
 20
20.9889604701
 30
0.0
 10
12.3545683216
 20
20.9866234934
 30
0.0
 10
12.3547563533
 20
20.9850697205
 30
0.0
 10
12.3547563548
 20
20.9843318588
 30
0.0
  0
SPLINE
  5
2A7
100
AcDbEntity
  8
0
100
AcDbSpline
 62
9
  6
CONTINUOUS
 70
0
 71
3
 72
19
 73
15
 74
0
 42
0.0000001
 43
0.0000001
 44
0.0000000001
 40
0.0
 40
0.0
 40
0.0
 40
0.0
 40
0.2433233801
 40
0.4466968438
 40
0.6169723151
 40
0.755367151
 40
0.81261275
 40
0.8620204945
 40
0.903722606
 40
0.9378367182
 40
0.9644667149
 40
0.9836986769
 40
0.995549274
 40
1.0
 40
1.0
 40
1.0
 40
1.0
 10
12.3147564062
 20
20.8100032299
 30
0.0
 10
12.3158735146
 20
20.80957327
 30
0.0
 10
12.317948071
 20
20.8088427616
 30
0.0
 10
12.3208764107
 20
20.8080357499
 30
0.0
 10
12.3233465767
 20
20.8075334943
 30
0.0
 10
12.3251295491
 20
20.807279838
 30
0.0
 10
12.3263283603
 20
20.8071525421
 30
0.0
 10
12.3270556507
 20
20.8070911984
 30
0.0
 10
12.3276704352
 20
20.807051691
 30
0.0
 10
12.3281739127
 20
20.8070285228
 30
0.0
 10
12.3285670514
 20
20.8070147897
 30
0.0
 10
12.328851006
 20
20.8070075642
 30
0.0
 10
12.3290253464
 20
20.80699792
 30
0.0
 10
12.3291058445
 20
20.8069979816
 30
0.0
 10
12.3291275248
 20
20.8069949253
 30
0.0
  0
SPLINE
  5
2A8
100
AcDbEntity
  8
0
100
AcDbSpline
 62
9
  6
CONTINUOUS
 70
0
 71
3
 72
15
 73
11
 74
0
 42
0.0000001
 43
0.0000001
 44
0.0000000001
 40
0.0
 40
0.0
 40
0.0
 40
0.0
 40
0.1174413251
 40
0.2417167576
 40
0.3712004097
 40
0.5029282704
 40
0.6341589153
 40
0.7622930671
 40
0.8846572966
 40
1.0
 40
1.0
 40
1.0
 40
1.0
 10
12.2853335319
 20
20.7797430222
 30
0.0
 10
12.2853318757
 20
20.7815723591
 30
0.0
 10
12.2856725843
 20
20.7853452896
 30
0.0
 10
12.2872366589
 20
20.7909477438
 30
0.0
 10
12.2899810146
 20
20.796332237
 30
0.0
 10
12.2937794574
 20
20.8011763284
 30
0.0
 10
12.2984978138
 20
20.8050977194
 30
0.0
 10
12.3037606324
 20
20.8079508077
 30
0.0
 10
12.3092525292
 20
20.8096025534
 30
0.0
 10
12.3129598297
 20
20.8099871816
 30
0.0
 10
12.3147564062
 20
20.8100032299
 30
0.0
  0
SPLINE
  5
2A9
100
AcDbEntity
  8
0
100
AcDbSpline
 62
9
  6
CONTINUOUS
 70
0
 71
3
 72
18
 73
14
 74
0
 42
0.0000001
 43
0.0000001
 44
0.0000000001
 40
0.0
 40
0.0
 40
0.0
 40
0.0
 40
0.0524409264
 40
0.1099432411
 40
0.1766513054
 40
0.2579675706
 40
0.3615224239
 40
0.4994639037
 40
0.5880478756
 40
0.6956639969
 40
0.75892829
 40
0.8300200479
 40
1.0
 40
1.0
 40
1.0
 40
1.0
 10
9.7398803218
 20
20.9843316302
 30
0.0
 10
9.7398803281
 20
20.9850697414
 30
0.0
 10
9.7400684731
 20
20.9866240809
 30
0.0
 10
9.7409818077
 20
20.9889619282
 30
0.0
 10
9.7426343066
 20
20.9913642238
 30
0.0
 10
9.7452152128
 20
20.9938206822
 30
0.0
 10
9.7490331243
 20
20.9963219306
 30
0.0
 10
9.7532879653
 20
20.9982331821
 30
0.0
 10
9.7577544645
 20
20.9997141176
 30
0.0
 10
9.7612977719
 20
21.0006138778
 30
0.0
 10
9.764639165
 20
21.0012758998
 30
0.0
 10
9.7688693371
 20
21.001955402
 30
0.0
 10
9.7722529402
 20
21.0022733706
 30
0.0
 10
9.7746416279
 20
21.002408103
 30
0.0
  0
SPLINE
  5
2AA
100
AcDbEntity
  8
0
100
AcDbSpline
 62
9
  6
CONTINUOUS
 70
0
 71
3
 72
55
 73
51
 74
0
 42
0.0000001
 43
0.0000001
 44
0.0000000001
 40
0.0
 40
0.0
 40
0.0
 40
0.0
 40
0.0000047845
 40
0.0000107851
 40
0.0000191912
 40
0.0000432204
 40
0.0000768723
 40
0.0001201471
 40
0.0001730448
 40
0.0003077101
 40
0.0004808695
 40
0.0006925241
 40
0.0009426548
 40
0.0012312114
 40
0.0015581412
 40
0.0019233917
 40
0.0027686437
 40
0.0037665463
 40
0.0049166783
 40
0.0062186205
 40
0.0076719881
 40
0.0092764295
 40
0.0110315947
 40
0.0149926959
 40
0.0195528306
 40
0.0247112608
 40
0.0304677931
 40
0.0368202434
 40
0.0437600625
 40
0.0512774513
 40
0.0593650481
 40
0.077242232
 40
0.0973668089
 40
0.1196859695
 40
0.1441118566
 40
0.1705645252
 40
0.1989958528
 40
0.2293409331
 40
0.261521573
 40
0.2954502902
 40
0.3681858793
 40
0.4468705509
 40
0.5307616213
 40
0.6190820944
 40
0.7110329538
 40
0.8057676798
 40
0.8539056198
 40
0.9024014459
 40
0.9511413198
 40
1.0
 40
1.0
 40
1.0
 40
1.0
 10
12.2866220336
 20
20.7378322383
 30
0.0
 10
12.286623604
 20
20.7378334721
 30
0.0
 10
12.2866136417
 20
20.7378331494
 30
0.0
 10
12.2866086899
 20
20.7378354662
 30
0.0
 10
12.2865913451
 20
20.7378384093
 30
0.0
 10
12.2865655797
 20
20.737844376
 30
0.0
 10
12.286523751
 20
20.7378529179
 30
0.0
 10
12.2864709498
 20
20.7378641168
 30
0.0
 10
12.2863765453
 20
20.7378838997
 30
0.0
 10
12.286229261
 20
20.7379148479
 30
0.0
 10
12.2860170165
 20
20.7379593651
 30
0.0
 10
12.2857576423
 20
20.7380137719
 30
0.0
 10
12.2854511064
 20
20.7380780401
 30
0.0
 10
12.2850974733
 20
20.7381521365
 30
0.0
 10
12.2846967948
 20
20.7382360231
 30
0.0
 10
12.2840686563
 20
20.7383674126
 30
0.0
 10
12.2831663243
 20
20.7385558651
 30
0.0
 10
12.2819431874
 20
20.7388107656
 30
0.0
 10
12.2805333008
 20
20.7391039138
 30
0.0
 10
12.2789371227
 20
20.7394349995
 30
0.0
 10
12.2771550962
 20
20.7398037817
 30
0.0
 10
12.2751876472
 20
20.7402100791
 30
0.0
 10
12.2721948423
 20
20.7408268909
 30
0.0
 10
12.2679932079
 20
20.7416902994
 30
0.0
 10
12.2623993138
 20
20.7428357803
 30
0.0
 10
12.2560709037
 20
20.7441300011
 30
0.0
 10
12.2490096531
 20
20.7455746641
 30
0.0
 10
12.2412202949
 20
20.747170148
 30
0.0
 10
12.2327102455
 20
20.7489099479
 30
0.0
 10
12.2234890948
 20
20.7507873797
 30
0.0
 10
12.2097915368
 20
20.7535615047
 30
0.0
 10
12.1909323357
 20
20.7573601825
 30
0.0
 10
12.1662454496
 20
20.7623103912
 30
0.0
 10
12.1388730443
 20
20.7677710459
 30
0.0
 10
12.1088971759
 20
20.7736824374
 30
0.0
 10
12.0764002307
 20
20.7799953168
 30
0.0
 10
12.0414627689
 20
20.7867008692
 30
0.0
 10
12.0041577419
 20
20.7937546696
 30
0.0
 10
11.9645745208
 20
20.801109535
 30
0.0
 10
11.907557672
 20
20.8114940052
 30
0.0
 10
11.8313523244
 20
20.8248502847
 30
0.0
 10
11.7344321641
 20
20.840792607
 30
0.0
 10
11.6308690997
 20
20.8563805785
 30
0.0
 10
11.5215592378
 20
20.8708998003
 30
0.0
 10
11.4074585223
 20
20.883547718
 30
0.0
 10
11.3097715236
 20
20.8917654333
 30
0.0
 10
11.2300367861
 20
20.8966025461
 30
0.0
 10
11.1694131034
 20
20.8992806033
 30
0.0
 10
11.1084514135
 20
20.9009165595
 30
0.0
 10
11.0677122333
 20
20.9012803871
 30
0.0
 10
11.0473183383
 20
20.9012793795
 30
0.0
  0
SPLINE
  5
2AB
100
AcDbEntity
  8
0
100
AcDbSpline
 62
9
  6
CONTINUOUS
 70
0
 71
3
 72
27
 73
23
 74
0
 42
0.0000001
 43
0.0000001
 44
0.0000000001
 40
0.0
 40
0.0
 40
0.0
 40
0.0
 40
0.0002215882
 40
0.0009114303
 40
0.0020705474
 40
0.003699349
 40
0.0057981806
 40
0.0083673713
 40
0.0149181173
 40
0.0233541547
 40
0.0336780417
 40
0.0458923417
 40
0.0599996269
 40
0.0939078782
 40
0.1354567915
 40
0.1847243094
 40
0.2418093869
 40
0.3068339318
 40
0.3799433619
 40
0.5510929578
 40
0.7569575889
 40
1.0
 40
1.0
 40
1.0
 40
1.0
 10
9.765509176
 20
20.8069946387
 30
0.0
 10
9.7655086535
 20
20.8069936819
 30
0.0
 10
9.7655171332
 20
20.8069954776
 30
0.0
 10
9.7655233758
 20
20.8069936909
 30
0.0
 10
9.7655427574
 20
20.8069950696
 30
0.0
 10
9.7655657812
 20
20.8069951632
 30
0.0
 10
9.7655971411
 20
20.806996198
 30
0.0
 10
9.7656521214
 20
20.8069977722
 30
0.0
 10
9.7657385672
 20
20.8070007177
 30
0.0
 10
9.7658629527
 20
20.8070052131
 30
0.0
 10
9.7660152426
 20
20.8070111241
 30
0.0
 10
9.7661953711
 20
20.807018485
 30
0.0
 10
9.7664914162
 20
20.8070311692
 30
0.0
 10
9.7669315922
 20
20.8070512902
 30
0.0
 10
9.7675441365
 20
20.8070879917
 30
0.0
 10
9.7682695143
 20
20.8071459894
 30
0.0
 10
9.7691082381
 20
20.8072328677
 30
0.0
 10
9.7700608321
 20
20.8073561852
 30
0.0
 10
9.7715641308
 20
20.8075923257
 30
0.0
 10
9.7737365216
 20
20.8080294802
 30
0.0
 10
9.7766829512
 20
20.8088288037
 30
0.0
 10
9.7787677715
 20
20.8095652927
 30
0.0
 10
9.7798803197
 20
20.8100033987
 30
0.0
  0
LINE
  5
2AC
100
AcDbEntity
  8
0
100
AcDbLine
 62
7
  6
CONTINUOUS
 10
10.5758904775
 20
16.7901235929
 11
10.574926912
 21
16.7898360923
  0
LINE
  5
2AD
100
AcDbEntity
  8
0
100
AcDbLine
 62
7
  6
CONTINUOUS
 10
10.574926912
 20
16.7898360923
 11
10.5748199539
 21
16.789701848
  0
SPLINE
  5
2AE
100
AcDbEntity
  8
0
100
AcDbSpline
 62
7
  6
CONTINUOUS
 70
0
 71
3
 72
14
 73
10
 74
0
 42
0.0000001
 43
0.0000001
 44
0.0000000001
 40
0.0
 40
0.0
 40
0.0
 40
0.0
 40
0.1098905703
 40
0.2259587365
 40
0.3473269773
 40
0.4730707565
 40
0.6022172954
 40
0.7337868001
 40
1.0
 40
1.0
 40
1.0
 40
1.0
 10
11.2989774295
 20
-4.4456664446
 30
0.0
 10
11.2894262764
 20
-4.4461180049
 30
0.0
 10
11.2697856696
 20
-4.4470175297
 30
0.0
 10
11.2395926429
 20
-4.448333841
 30
0.0
 10
11.2080190076
 20
-4.4496517015
 30
0.0
 10
11.1753065003
 20
-4.450970885
 30
0.0
 10
11.1417060279
 20
-4.4522993967
 30
0.0
 10
11.0958916596
 20
-4.4540883038
 30
0.0
 10
11.0613052623
 20
-4.4554181714
 30
0.0
 10
11.0381589525
 20
-4.45631814
 30
0.0
  0
SPLINE
  5
2AF
100
AcDbEntity
  8
0
100
AcDbSpline
 62
7
  6
CONTINUOUS
 70
0
 71
3
 72
35
 73
31
 74
0
 42
0.0000001
 43
0.0000001
 44
0.0000000001
 40
0.0
 40
0.0
 40
0.0
 40
0.0
 40
0.0004573375
 40
0.0010511287
 40
0.0026630648
 40
0.004850127
 40
0.0076142501
 40
0.0109544763
 40
0.0148686744
 40
0.019354147
 40
0.0244078901
 40
0.0362072799
 40
0.0502403203
 40
0.0664795074
 40
0.0848969001
 40
0.1054633766
 40
0.1281301718
 40
0.1528299929
 40
0.1794947543
 40
0.2080563229
 40
0.2384465319
 40
0.3044400763
 40
0.3769060524
 40
0.4551213344
 40
0.5383012905
 40
0.62566105
 40
0.7164001779
 40
0.809639315
 40
0.9044740629
 40
1.0
 40
1.0
 40
1.0
 40
1.0
 10
11.4350062673
 20
-4.4463506661
 30
0.0
 10
11.4349538497
 20
-4.4463809388
 30
0.0
 10
11.434826545
 20
-4.4464384165
 30
0.0
 10
11.4344925842
 20
-4.4465516772
 30
0.0
 10
11.4339254478
 20
-4.4466844372
 30
0.0
 10
11.4330700707
 20
-4.4468357125
 30
0.0
 10
11.4319830186
 20
-4.4469880282
 30
0.0
 10
11.4306658832
 20
-4.4471415599
 30
0.0
 10
11.4291196267
 20
-4.447295601
 30
0.0
 10
11.4273456726
 20
-4.4474500826
 30
0.0
 10
11.4245297524
 20
-4.4476678022
 30
0.0
 10
11.4204503714
 20
-4.4479345198
 30
0.0
 10
11.414890392
 20
-4.4482420357
 30
0.0
 10
11.4084533741
 20
-4.4485504488
 30
0.0
 10
11.4011507944
 20
-4.4488595996
 30
0.0
 10
11.3929968194
 20
-4.4491690632
 30
0.0
 10
11.3840108011
 20
-4.4494787981
 30
0.0
 10
11.3742172133
 20
-4.4497888496
 30
0.0
 10
11.3636430651
 20
-4.450099125
 30
0.0
 10
11.3523154653
 20
-4.4504095898
 30
0.0
 10
11.3357837042
 20
-4.4508355188
 30
0.0
 10
11.3134416663
 20
-4.4513632818
 30
0.0
 10
11.284770133
 20
-4.4519809493
 30
0.0
 10
11.2538234077
 20
-4.4525993575
 30
0.0
 10
11.2209050511
 20
-4.4532184769
 30
0.0
 10
11.1863288215
 20
-4.4538380439
 30
0.0
 10
11.1504209974
 20
-4.4544576549
 30
0.0
 10
11.1135236759
 20
-4.4550774605
 30
0.0
 10
11.0759927076
 20
-4.4556974221
 30
0.0
 10
11.05080075
 20
-4.4561105787
 30
0.0
 10
11.0381590397
 20
-4.4563181385
 30
0.0
  0
SPLINE
  5
2B0
100
AcDbEntity
  8
0
100
AcDbSpline
 62
9
  6
CONTINUOUS
 70
0
 71
3
 72
19
 73
15
 74
0
 42
0.0000001
 43
0.0000001
 44
0.0000000001
 40
0.0
 40
0.0
 40
0.0
 40
0.0
 40
0.1345107642
 40
0.201453418
 40
0.267971253
 40
0.3339101283
 40
0.3991702921
 40
0.4636828728
 40
0.5273680027
 40
0.590135598
 40
0.6519150323
 40
0.7723839052
 40
0.8885105925
 40
1.0
 40
1.0
 40
1.0
 40
1.0
 10
11.0473183383
 20
17.0343318954
 30
0.0
 10
11.0624762779
 20
17.0343329528
 30
0.0
 10
11.0851937523
 20
17.0353466917
 30
0.0
 10
11.1152172168
 20
17.0386387671
 30
0.0
 10
11.137435816
 20
17.0420423997
 30
0.0
 10
11.1593001758
 20
17.0463636517
 30
0.0
 10
11.180741378
 20
17.0515567105
 30
0.0
 10
11.2017055153
 20
17.0575597999
 30
0.0
 10
11.2221432444
 20
17.0643158308
 30
0.0
 10
11.2420086325
 20
17.0717689596
 30
0.0
 10
11.2674667991
 20
17.0824714534
 30
0.0
 10
11.2977109988
 20
17.0972399669
 30
0.0
 10
11.3316633273
 20
17.1169425345
 30
0.0
 10
11.352945663
 20
17.1312984753
 30
0.0
 10
11.3631284981
 20
17.1386575401
 30
0.0
  0
SPLINE
  5
2B1
100
AcDbEntity
  8
0
100
AcDbSpline
 62
9
  6
CONTINUOUS
 70
0
 71
3
 72
28
 73
24
 74
0
 42
0.0000001
 43
0.0000001
 44
0.0000000001
 40
0.0
 40
0.0
 40
0.0
 40
0.0
 40
0.1900203186
 40
0.2807627413
 40
0.3684041789
 40
0.4527309786
 40
0.5334285137
 40
0.6100338654
 40
0.6820522856
 40
0.7489611619
 40
0.8100436967
 40
0.8644041552
 40
0.9110428498
 40
0.9311339313
 40
0.9488970088
 40
0.9642031889
 40
0.9769232324
 40
0.9869332073
 40
0.9941542133
 40
0.9967009269
 40
0.9985289045
 40
0.9996309843
 40
1.0
 40
1.0
 40
1.0
 40
1.0
 10
11.3701794843
 20
17.1438342076
 30
0.0
 10
11.3811658636
 20
17.152027508
 30
0.0
 10
11.3969792872
 20
17.1647110402
 30
0.0
 10
11.4168397322
 20
17.1823670274
 30
0.0
 10
11.4305958403
 20
17.195402412
 30
0.0
 10
11.4434363634
 20
17.2083372304
 30
0.0
 10
11.4553517338
 20
17.2210580729
 30
0.0
 10
11.4663305121
 20
17.2334310085
 30
0.0
 10
11.4763529244
 20
17.2453160017
 30
0.0
 10
11.4853883806
 20
17.2565630263
 30
0.0
 10
11.493401107
 20
17.2669936094
 30
0.0
 10
11.5003432569
 20
17.2763999375
 30
0.0
 10
11.5054111748
 20
17.2835131716
 30
0.0
 10
11.5088928916
 20
17.2885146748
 30
0.0
 10
11.5110638527
 20
17.2916750459
 30
0.0
 10
11.5129185885
 20
17.2944075869
 30
0.0
 10
11.5144484677
 20
17.2966847463
 30
0.0
 10
11.5156472228
 20
17.2984818196
 30
0.0
 10
11.5164359582
 20
17.2996703881
 30
0.0
 10
11.5168964
 20
17.3003685586
 30
0.0
 10
11.5171140614
 20
17.3006981978
 30
0.0
 10
11.5172437562
 20
17.300897679
 30
0.0
 10
11.5173027808
 20
17.3009858663
 30
0.0
 10
11.5173169688
 20
17.3010083844
 30
0.0
  0
SPLINE
  5
2B2
100
AcDbEntity
  8
0
100
AcDbSpline
 62
9
  6
CONTINUOUS
 70
0
 71
3
 72
40
 73
36
 74
0
 42
0.0000001
 43
0.0000001
 44
0.0000000001
 40
0.0
 40
0.0
 40
0.0
 40
0.0
 40
0.0000231129
 40
0.0000923794
 40
0.0002076874
 40
0.0003689249
 40
0.0008287404
 40
0.0014709297
 40
0.0022945969
 40
0.0032988466
 40
0.0044827834
 40
0.0058455122
 40
0.0091037669
 40
0.0130664555
 40
0.0177264271
 40
0.0230764007
 40
0.0291050595
 40
0.0357964524
 40
0.0511027048
 40
0.068865967
 40
0.0889573844
 40
0.1112457724
 40
0.1355973284
 40
0.1618788221
 40
0.1899587812
 40
0.2197172089
 40
0.2510418354
 40
0.3179504629
 40
0.3899690503
 40
0.4665747188
 40
0.547272414
 40
0.6315989653
 40
0.7192397996
 40
0.8099814075
 40
1.0
 40
1.0
 40
1.0
 40
1.0
 10
10.5773197104
 20
17.3010083767
 30
0.0
 10
10.5773191333
 20
17.3010099408
 30
0.0
 10
10.5773264022
 20
17.3009971608
 30
0.0
 10
10.5773311064
 20
17.3009915714
 30
0.0
 10
10.5773467421
 20
17.3009667713
 30
0.0
 10
10.577374642
 20
17.3009247239
 30
0.0
 10
10.5774254956
 20
17.3008467548
 30
0.0
 10
10.577501305
 20
17.3007315009
 30
0.0
 10
10.5775993632
 20
17.300582303
 30
0.0
 10
10.5777187862
 20
17.300400986
 30
0.0
 10
10.5778598194
 20
17.300187131
 30
0.0
 10
10.5780905722
 20
17.2998377689
 30
0.0
 10
10.5784323624
 20
17.299321505
 30
0.0
 10
10.5789064152
 20
17.2986075981
 30
0.0
 10
10.5794651101
 20
17.2977687798
 30
0.0
 10
10.5801077344
 20
17.2968068198
 30
0.0
 10
10.580833508
 20
17.2957241932
 30
0.0
 10
10.5819626282
 20
17.294047381
 30
0.0
 10
10.5835732734
 20
17.2916743978
 30
0.0
 10
10.5857444351
 20
17.2885137684
 30
0.0
 10
10.5882229597
 20
17.2849533701
 30
0.0
 10
10.5910002738
 20
17.2810220754
 30
0.0
 10
10.5940682082
 20
17.2767495968
 30
0.0
 10
10.5974183361
 20
17.2721656894
 30
0.0
 10
10.6010428216
 20
17.2672995333
 30
0.0
 10
10.6049342925
 20
17.2621790048
 30
0.0
 10
10.6105953074
 20
17.2548861401
 30
0.0
 10
10.6182872569
 20
17.2453118449
 30
0.0
 10
10.628310479
 20
17.23342604
 30
0.0
 10
10.6392902405
 20
17.221052255
 30
0.0
 10
10.6512066522
 20
17.2083305904
 30
0.0
 10
10.6640482927
 20
17.1953950373
 30
0.0
 10
10.6778055774
 20
17.1823590173
 30
0.0
 10
10.6976677106
 20
17.1647022915
 30
0.0
 10
10.7134824934
 20
17.1520183304
 30
0.0
 10
10.7244698154
 20
17.1438247955
 30
0.0
  0
SPLINE
  5
2B3
100
AcDbEntity
  8
0
100
AcDbSpline
 62
9
  6
CONTINUOUS
 70
0
 71
3
 72
19
 73
15
 74
0
 42
0.0000001
 43
0.0000001
 44
0.0000000001
 40
0.0
 40
0.0
 40
0.0
 40
0.0
 40
0.1114929392
 40
0.2276222333
 40
0.3480927847
 40
0.4098727977
 40
0.4726408064
 40
0.5363260657
 40
0.6008384131
 40
0.6660979001
 40
0.7320355685
 40
0.7985516964
 40
0.8654924324
 40
1.0
 40
1.0
 40
1.0
 40
1.0
 10
10.7315431009
 20
17.1386323097
 30
0.0
 10
10.7417255081
 20
17.1312747063
 30
0.0
 10
10.7630067329
 20
17.1169217356
 30
0.0
 10
10.7969568031
 20
17.0972234949
 30
0.0
 10
10.8271985219
 20
17.0824584379
 30
0.0
 10
10.8526543069
 20
17.0717585842
 30
0.0
 10
10.872517658
 20
17.064307366
 30
0.0
 10
10.8929531204
 20
17.0575531102
 30
0.0
 10
10.9139147401
 20
17.0515516466
 30
0.0
 10
10.9353531553
 20
17.0463600424
 30
0.0
 10
10.9572144559
 20
17.0420400535
 30
0.0
 10
10.9794297615
 20
17.0386374451
 30
0.0
 10
11.0094486916
 20
17.0353463848
 30
0.0
 10
11.0321626901
 20
17.0343329846
 30
0.0
 10
11.0473183383
 20
17.0343319103
 30
0.0
  0
SPLINE
  5
2B4
100
AcDbEntity
  8
0
100
AcDbSpline
 62
9
  6
CONTINUOUS
 70
0
 71
3
 72
40
 73
36
 74
0
 42
0.0000001
 43
0.0000001
 44
0.0000000001
 40
0.0
 40
0.0
 40
0.0
 40
0.0
 40
0.0000231059
 40
0.0000923523
 40
0.0002076272
 40
0.0003688186
 40
0.0008285036
 40
0.001470512
 40
0.0022939488
 40
0.0032979195
 40
0.0044815295
 40
0.0058438846
 40
0.0091012548
 40
0.0130628818
 40
0.0177216219
 40
0.0230702052
 40
0.0290973593
 40
0.035787154
 40
0.051089988
 40
0.068849631
 40
0.0889373463
 40
0.111222094
 40
0.135570205
 40
0.1618485767
 40
0.1899258308
 40
0.2196819759
 40
0.2510048252
 40
0.317911591
 40
0.3899298058
 40
0.4665367455
 40
0.5472377233
 40
0.6315695104
 40
0.719216494
 40
0.8099650936
 40
1.0
 40
1.0
 40
1.0
 40
1.0
 10
11.5173169686
 20
7.5176553623
 30
0.0
 10
11.5173175383
 20
7.5176537979
 30
0.0
 10
11.5173102951
 20
7.517666567
 30
0.0
 10
11.5173055816
 20
7.5176721433
 30
0.0
 10
11.5172899751
 20
7.5176969142
 30
0.0
 10
11.5172621064
 20
7.5177389046
 30
0.0
 10
11.5172113232
 20
7.5178167734
 30
0.0
 10
11.517135611
 20
7.5179318763
 30
0.0
 10
11.5170376816
 20
7.5180808803
 30
0.0
 10
11.516918414
 20
7.5182619616
 30
0.0
 10
11.5167775647
 20
7.5184755393
 30
0.0
 10
11.5165471121
 20
7.5188244494
 30
0.0
 10
11.5162057661
 20
7.519340047
 30
0.0
 10
11.5157323287
 20
7.5200530351
 30
0.0
 10
11.515174358
 20
7.5208907775
 30
0.0
 10
11.5145325633
 20
7.5218515104
 30
0.0
 10
11.5138077243
 20
7.5229327679
 30
0.0
 10
11.5126800456
 20
7.5246074902
 30
0.0
 10
11.5110714434
 20
7.526977561
 30
0.0
 10
11.5089030226
 20
7.5301343736
 30
0.0
 10
11.5064276003
 20
7.5336905598
 30
0.0
 10
11.5036537376
 20
7.53761731
 30
0.0
 10
11.5005895856
 20
7.5418849722
 30
0.0
 10
11.4972435552
 20
7.54646385
 30
0.0
 10
11.493623472
 20
7.5513248138
 30
0.0
 10
11.4897366961
 20
7.5564400313
 30
0.0
 10
11.4840824161
 20
7.5637256231
 30
0.0
 10
11.4763996075
 20
7.5732907662
 30
0.0
 10
11.4663883038
 20
7.585165714
 30
0.0
 10
11.4554215847
 20
7.5975288362
 30
0.0
 10
11.4435193276
 20
7.6102402767
 30
0.0
 10
11.4306930064
 20
7.6231662353
 30
0.0
 10
11.416952163
 20
7.6361933236
 30
0.0
 10
11.3971138485
 20
7.6538390933
 30
0.0
 10
11.3813183103
 20
7.6665165022
 30
0.0
 10
11.3703443915
 20
7.6747065126
 30
0.0
  0
SPLINE
  5
2B5
100
AcDbEntity
  8
0
100
AcDbSpline
 62
9
  6
CONTINUOUS
 70
0
 71
3
 72
16
 73
12
 74
0
 42
0.0000001
 43
0.0000001
 44
0.0000000001
 40
0.0
 40
0.0
 40
0.0
 40
0.0
 40
0.1108600061
 40
0.2265712935
 40
0.346839812
 40
0.4085879524
 40
0.4713675989
 40
0.7309955364
 40
0.7977382733
 40
0.8649353779
 40
1.0
 40
1.0
 40
1.0
 40
1.0
 10
11.3703443915
 20
7.6747065126
 30
0.0
 10
11.3600704918
 20
7.6823740875
 30
0.0
 10
11.3385509932
 20
7.6973595561
 30
0.0
 10
11.3041134871
 20
7.7179810693
 30
0.0
 10
11.2733322157
 20
7.7334820877
 30
0.0
 10
11.2473526289
 20
7.7447443607
 30
0.0
 10
11.2059205779
 20
7.7607733441
 30
0.0
 10
11.1622223249
 20
7.7726660669
 30
0.0
 10
11.1172618196
 20
7.7797620996
 30
0.0
 10
11.0863428883
 20
7.7832550319
 30
0.0
 10
11.0629370276
 20
7.7843307864
 30
0.0
 10
11.0473183383
 20
7.7843318537
 30
0.0
  0
SPLINE
  5
2B6
100
AcDbEntity
  8
0
100
AcDbSpline
 62
9
  6
CONTINUOUS
 70
0
 71
3
 72
16
 73
12
 74
0
 42
0.0000001
 43
0.0000001
 44
0.0000000001
 40
0.0
 40
0.0
 40
0.0
 40
0.0
 40
0.1350678677
 40
0.2022660273
 40
0.2690094495
 40
0.5286373096
 40
0.591416555
 40
0.6531642428
 40
0.7734316793
 40
0.8891416055
 40
1.0
 40
1.0
 40
1.0
 40
1.0
 10
11.0473183383
 20
7.7843318255
 30
0.0
 10
11.0316986075
 20
7.7843306788
 30
0.0
 10
11.0082912548
 20
7.7832547719
 30
0.0
 10
10.9773704488
 20
7.7797614652
 30
0.0
 10
10.9324078857
 20
7.7726647784
 30
0.0
 10
10.8887078895
 20
7.7607708882
 30
0.0
 10
10.8472744823
 20
7.7447404597
 30
0.0
 10
10.8212942178
 20
7.7334772757
 30
0.0
 10
10.7905122601
 20
7.7179750936
 30
0.0
 10
10.756074162
 20
7.6973521471
 30
0.0
 10
10.7345543978
 20
7.6823657029
 30
0.0
 10
10.7242804061
 20
7.6746976487
 30
0.0
  0
SPLINE
  5
2B7
100
AcDbEntity
  8
0
100
AcDbSpline
 62
9
  6
CONTINUOUS
 70
0
 71
3
 72
28
 73
24
 74
0
 42
0.0000001
 43
0.0000001
 44
0.0000000001
 40
0.0
 40
0.0
 40
0.0
 40
0.0
 40
0.1900365281
 40
0.2807858576
 40
0.3684333933
 40
0.4527654565
 40
0.5334663878
 40
0.6100731414
 40
0.6820912574
 40
0.748998206
 40
0.8100765714
 40
0.8644312525
 40
0.9110630128
 40
0.9311504317
 40
0.9489098898
 40
0.9642126262
 40
0.9769295324
 40
0.9869368559
 40
0.994155892
 40
0.9967018937
 40
0.9985293501
 40
0.9996311054
 40
1.0
 40
1.0
 40
1.0
 40
1.0
 10
10.7242804061
 20
7.6746976487
 30
0.0
 10
10.7133073753
 20
7.6665078627
 30
0.0
 10
10.6975131177
 20
7.6538308667
 30
0.0
 10
10.677676394
 20
7.6361858036
 30
0.0
 10
10.6639366597
 20
7.6231593178
 30
0.0
 10
10.6511113881
 20
7.610234044
 30
0.0
 10
10.6392101057
 20
7.5975233605
 30
0.0
 10
10.6282443065
 20
7.5851610205
 30
0.0
 10
10.6182337608
 20
7.5732868302
 30
0.0
 10
10.6092090706
 20
7.5620506133
 30
0.0
 10
10.6012059312
 20
7.5516306518
 30
0.0
 10
10.5942721948
 20
7.5422344368
 30
0.0
 10
10.5892104552
 20
7.5351291806
 30
0.0
 10
10.5857330335
 20
7.5301335036
 30
0.0
 10
10.5835648026
 20
7.5269769357
 30
0.0
 10
10.5817124194
 20
7.5242477542
 30
0.0
 10
10.5801844996
 20
7.5219734485
 30
0.0
 10
10.5789872801
 20
7.5201786692
 30
0.0
 10
10.5781995796
 20
7.5189916204
 30
0.0
 10
10.5777397184
 20
7.518294364
 30
0.0
 10
10.5775223708
 20
7.5179651354
 30
0.0
 10
10.577392794
 20
7.5177659489
 30
0.0
 10
10.577333902
 20
7.5176778437
 30
0.0
 10
10.5773197106
 20
7.5176553701
 30
0.0
  0
SPLINE
  5
2B8
100
AcDbEntity
  8
0
100
AcDbSpline
 62
9
  6
CONTINUOUS
 70
0
 71
3
 72
19
 73
15
 74
0
 42
0.0000001
 43
0.0000001
 44
0.0000000001
 40
0.0
 40
0.0
 40
0.0
 40
0.0
 40
0.1345107642
 40
0.201453418
 40
0.267971253
 40
0.3339101283
 40
0.3991702921
 40
0.4636828728
 40
0.5273680027
 40
0.590135598
 40
0.6519150323
 40
0.7723839052
 40
0.8885105925
 40
1.0
 40
1.0
 40
1.0
 40
1.0
 10
11.0473183383
 20
6.4643318954
 30
0.0
 10
11.0624762779
 20
6.4643329528
 30
0.0
 10
11.0851937523
 20
6.4653466917
 30
0.0
 10
11.1152172168
 20
6.4686387671
 30
0.0
 10
11.137435816
 20
6.4720423997
 30
0.0
 10
11.1593001758
 20
6.4763636517
 30
0.0
 10
11.180741378
 20
6.4815567105
 30
0.0
 10
11.2017055153
 20
6.4875597999
 30
0.0
 10
11.2221432444
 20
6.4943158308
 30
0.0
 10
11.2420086325
 20
6.5017689596
 30
0.0
 10
11.2674667991
 20
6.5124714534
 30
0.0
 10
11.2977109988
 20
6.5272399669
 30
0.0
 10
11.3316633273
 20
6.5469425345
 30
0.0
 10
11.352945663
 20
6.5612984753
 30
0.0
 10
11.3631284981
 20
6.5686575401
 30
0.0
  0
SPLINE
  5
2B9
100
AcDbEntity
  8
0
100
AcDbSpline
 62
9
  6
CONTINUOUS
 70
0
 71
3
 72
28
 73
24
 74
0
 42
0.0000001
 43
0.0000001
 44
0.0000000001
 40
0.0
 40
0.0
 40
0.0
 40
0.0
 40
0.1900203186
 40
0.2807627413
 40
0.3684041789
 40
0.4527309786
 40
0.5334285137
 40
0.6100338654
 40
0.6820522856
 40
0.7489611619
 40
0.8100436967
 40
0.8644041552
 40
0.9110428498
 40
0.9311339313
 40
0.9488970088
 40
0.9642031889
 40
0.9769232324
 40
0.9869332073
 40
0.9941542133
 40
0.9967009269
 40
0.9985289045
 40
0.9996309843
 40
1.0
 40
1.0
 40
1.0
 40
1.0
 10
11.3701794843
 20
6.5738342076
 30
0.0
 10
11.3811658636
 20
6.582027508
 30
0.0
 10
11.3969792872
 20
6.5947110402
 30
0.0
 10
11.4168397322
 20
6.6123670274
 30
0.0
 10
11.4305958403
 20
6.625402412
 30
0.0
 10
11.4434363634
 20
6.6383372304
 30
0.0
 10
11.4553517338
 20
6.6510580729
 30
0.0
 10
11.4663305121
 20
6.6634310085
 30
0.0
 10
11.4763529244
 20
6.6753160017
 30
0.0
 10
11.4853883806
 20
6.6865630263
 30
0.0
 10
11.493401107
 20
6.6969936094
 30
0.0
 10
11.5003432569
 20
6.7063999375
 30
0.0
 10
11.5054111748
 20
6.7135131716
 30
0.0
 10
11.5088928916
 20
6.7185146748
 30
0.0
 10
11.5110638527
 20
6.7216750459
 30
0.0
 10
11.5129185885
 20
6.7244075869
 30
0.0
 10
11.5144484677
 20
6.7266847463
 30
0.0
 10
11.5156472228
 20
6.7284818196
 30
0.0
 10
11.5164359582
 20
6.7296703881
 30
0.0
 10
11.5168964
 20
6.7303685586
 30
0.0
 10
11.5171140614
 20
6.7306981978
 30
0.0
 10
11.5172437562
 20
6.730897679
 30
0.0
 10
11.5173027808
 20
6.7309858663
 30
0.0
 10
11.5173169688
 20
6.7310083844
 30
0.0
  0
SPLINE
  5
2BA
100
AcDbEntity
  8
0
100
AcDbSpline
 62
9
  6
CONTINUOUS
 70
0
 71
3
 72
40
 73
36
 74
0
 42
0.0000001
 43
0.0000001
 44
0.0000000001
 40
0.0
 40
0.0
 40
0.0
 40
0.0
 40
0.0000231129
 40
0.0000923794
 40
0.0002076874
 40
0.0003689249
 40
0.0008287404
 40
0.0014709297
 40
0.0022945969
 40
0.0032988466
 40
0.0044827834
 40
0.0058455122
 40
0.0091037669
 40
0.0130664555
 40
0.0177264271
 40
0.0230764007
 40
0.0291050595
 40
0.0357964524
 40
0.0511027048
 40
0.068865967
 40
0.0889573844
 40
0.1112457724
 40
0.1355973284
 40
0.1618788221
 40
0.1899587812
 40
0.2197172089
 40
0.2510418354
 40
0.3179504629
 40
0.3899690503
 40
0.4665747188
 40
0.547272414
 40
0.6315989653
 40
0.7192397996
 40
0.8099814075
 40
1.0
 40
1.0
 40
1.0
 40
1.0
 10
10.5773197104
 20
6.7310083767
 30
0.0
 10
10.5773191333
 20
6.7310099408
 30
0.0
 10
10.5773264022
 20
6.7309971608
 30
0.0
 10
10.5773311064
 20
6.7309915714
 30
0.0
 10
10.5773467421
 20
6.7309667713
 30
0.0
 10
10.577374642
 20
6.7309247239
 30
0.0
 10
10.5774254956
 20
6.7308467548
 30
0.0
 10
10.577501305
 20
6.7307315009
 30
0.0
 10
10.5775993632
 20
6.730582303
 30
0.0
 10
10.5777187862
 20
6.730400986
 30
0.0
 10
10.5778598194
 20
6.730187131
 30
0.0
 10
10.5780905722
 20
6.7298377689
 30
0.0
 10
10.5784323624
 20
6.729321505
 30
0.0
 10
10.5789064152
 20
6.7286075981
 30
0.0
 10
10.5794651101
 20
6.7277687798
 30
0.0
 10
10.5801077344
 20
6.7268068198
 30
0.0
 10
10.580833508
 20
6.7257241932
 30
0.0
 10
10.5819626282
 20
6.724047381
 30
0.0
 10
10.5835732734
 20
6.7216743978
 30
0.0
 10
10.5857444351
 20
6.7185137684
 30
0.0
 10
10.5882229597
 20
6.7149533701
 30
0.0
 10
10.5910002738
 20
6.7110220754
 30
0.0
 10
10.5940682082
 20
6.7067495968
 30
0.0
 10
10.5974183361
 20
6.7021656894
 30
0.0
 10
10.6010428216
 20
6.6972995333
 30
0.0
 10
10.6049342925
 20
6.6921790048
 30
0.0
 10
10.6105953074
 20
6.6848861401
 30
0.0
 10
10.6182872569
 20
6.6753118449
 30
0.0
 10
10.628310479
 20
6.66342604
 30
0.0
 10
10.6392902405
 20
6.651052255
 30
0.0
 10
10.6512066522
 20
6.6383305904
 30
0.0
 10
10.6640482927
 20
6.6253950373
 30
0.0
 10
10.6778055774
 20
6.6123590173
 30
0.0
 10
10.6976677106
 20
6.5947022915
 30
0.0
 10
10.7134824934
 20
6.5820183304
 30
0.0
 10
10.7244698154
 20
6.5738247955
 30
0.0
  0
SPLINE
  5
2BB
100
AcDbEntity
  8
0
100
AcDbSpline
 62
9
  6
CONTINUOUS
 70
0
 71
3
 72
19
 73
15
 74
0
 42
0.0000001
 43
0.0000001
 44
0.0000000001
 40
0.0
 40
0.0
 40
0.0
 40
0.0
 40
0.1114929392
 40
0.2276222333
 40
0.3480927847
 40
0.4098727977
 40
0.4726408064
 40
0.5363260657
 40
0.6008384131
 40
0.6660979001
 40
0.7320355685
 40
0.7985516964
 40
0.8654924324
 40
1.0
 40
1.0
 40
1.0
 40
1.0
 10
10.7315431009
 20
6.5686323097
 30
0.0
 10
10.7417255081
 20
6.5612747063
 30
0.0
 10
10.7630067329
 20
6.5469217356
 30
0.0
 10
10.7969568031
 20
6.5272234949
 30
0.0
 10
10.8271985219
 20
6.5124584379
 30
0.0
 10
10.8526543069
 20
6.5017585842
 30
0.0
 10
10.872517658
 20
6.494307366
 30
0.0
 10
10.8929531204
 20
6.4875531102
 30
0.0
 10
10.9139147401
 20
6.4815516466
 30
0.0
 10
10.9353531553
 20
6.4763600424
 30
0.0
 10
10.9572144559
 20
6.4720400535
 30
0.0
 10
10.9794297615
 20
6.4686374451
 30
0.0
 10
11.0094486916
 20
6.4653463848
 30
0.0
 10
11.0321626901
 20
6.4643329846
 30
0.0
 10
11.0473183383
 20
6.4643319103
 30
0.0
  0
SPLINE
  5
2BC
100
AcDbEntity
  8
0
100
AcDbSpline
 62
9
  6
CONTINUOUS
 70
0
 71
3
 72
36
 73
32
 74
0
 42
0.0000001
 43
0.0000001
 44
0.0000000001
 40
0.0
 40
0.0
 40
0.0
 40
0.0
 40
0.0292146927
 40
0.0584287939
 40
0.0877736001
 40
0.1174043831
 40
0.1475066544
 40
0.1782910857
 40
0.2099670839
 40
0.2426775248
 40
0.2763360987
 40
0.3104913756
 40
0.3775190766
 40
0.4096081662
 40
0.4407330314
 40
0.4710871889
 40
0.50088669
 40
0.5595507987
 40
0.6179919293
 40
0.6474372668
 40
0.6771523888
 40
0.7072216772
 40
0.7377191289
 40
0.7687077875
 40
0.8002363159
 40
0.8323325394
 40
0.8649969837
 40
0.8981940499
 40
0.9318469543
 40
0.9658340043
 40
1.0
 40
1.0
 40
1.0
 40
1.0
 10
10.5667963894
 20
17.2931041183
 30
0.0
 10
10.5588483589
 20
17.3044256772
 30
0.0
 10
10.5436627942
 20
17.3275766485
 30
0.0
 10
10.5230609359
 20
17.3636997672
 30
0.0
 10
10.5046264767
 20
17.4011966734
 30
0.0
 10
10.4883494524
 20
17.4401350413
 30
0.0
 10
10.4742571524
 20
17.4806397549
 30
0.0
 10
10.4624308392
 20
17.5228706153
 30
0.0
 10
10.453002262
 20
17.5669666811
 30
0.0
 10
10.4462314073
 20
17.6129261567
 30
0.0
 10
10.4423912809
 20
17.6604059582
 30
0.0
 10
10.4415167812
 20
17.7242823817
 30
0.0
 10
10.4469523474
 20
17.7873745671
 30
0.0
 10
10.4582826936
 20
17.8480247597
 30
0.0
 10
10.4691500211
 20
17.8910062756
 30
0.0
 10
10.4823319804
 20
17.9321959891
 30
0.0
 10
10.5027395144
 20
17.9846544622
 30
0.0
 10
10.5338299053
 20
18.0470825983
 30
0.0
 10
10.5723123144
 20
18.1050598449
 30
0.0
 10
10.6074306119
 20
18.1483152355
 30
0.0
 10
10.636176034
 20
18.1793224761
 30
0.0
 10
10.6673097531
 20
18.2086632778
 30
0.0
 10
10.7008777161
 20
18.2361517494
 30
0.0
 10
10.7369022614
 20
18.2615554911
 30
0.0
 10
10.7753669318
 20
18.2846036355
 30
0.0
 10
10.816204711
 20
18.3049792843
 30
0.0
 10
10.8592699157
 20
18.3223397429
 30
0.0
 10
10.9043201054
 20
18.3363327493
 30
0.0
 10
10.9510040619
 20
18.3466211323
 30
0.0
 10
10.9988536721
 20
18.3529146336
 30
0.0
 10
11.0311410501
 20
18.3543293116
 30
0.0
 10
11.0473183383
 20
18.3543312484
 30
0.0
  0
SPLINE
  5
2BD
100
AcDbEntity
  8
0
100
AcDbSpline
 62
9
  6
CONTINUOUS
 70
0
 71
3
 72
38
 73
34
 74
0
 42
0.0000001
 43
0.0000001
 44
0.0000000001
 40
0.0
 40
0.0
 40
0.0
 40
0.0
 40
0.0341657965
 40
0.0681525682
 40
0.1018051475
 40
0.1350018801
 40
0.1676660245
 40
0.1997619759
 40
0.2312902261
 40
0.2622785665
 40
0.2927756696
 40
0.3228446274
 40
0.3525595014
 40
0.3820047212
 40
0.4404454378
 40
0.4991088252
 40
0.528907967
 40
0.5592619486
 40
0.5903864994
 40
0.6224755454
 40
0.6895028899
 40
0.7066024787
 40
0.723662727
 40
0.757320744
 40
0.7900307034
 40
0.8059937213
 40
0.8217102804
 40
0.8524943969
 40
0.8825963328
 40
0.9122269538
 40
0.9415716376
 40
0.9707855733
 40
1.0
 40
1.0
 40
1.0
 40
1.0
 10
11.0473183383
 20
18.3543312484
 30
0.0
 10
11.0634958357
 20
18.3543292596
 30
0.0
 10
11.0957835923
 20
18.3529146097
 30
0.0
 10
11.1436337202
 20
18.3466209715
 30
0.0
 10
11.190318084
 20
18.3363323354
 30
0.0
 10
11.2353686496
 20
18.3223390867
 30
0.0
 10
11.278434199
 20
18.304978296
 30
0.0
 10
11.3192722856
 20
18.2846022465
 30
0.0
 10
11.3577372067
 20
18.2615536845
 30
0.0
 10
11.3937619231
 20
18.2361495242
 30
0.0
 10
11.4273299526
 20
18.2086605957
 30
0.0
 10
11.4584637713
 20
18.1793193694
 30
0.0
 10
11.4872092537
 20
18.1483115502
 30
0.0
 10
11.522327673
 20
18.1050553947
 30
0.0
 10
11.5608101118
 20
18.0470772813
 30
0.0
 10
11.5918998547
 20
17.9846481855
 30
0.0
 10
11.6123073068
 20
17.9321891434
 30
0.0
 10
11.6254883644
 20
17.8909988129
 30
0.0
 10
11.6363561997
 20
17.8480164814
 30
0.0
 10
11.6476846926
 20
17.7873668937
 30
0.0
 10
11.6524271757
 20
17.7323386035
 30
0.0
 10
11.6525723937
 20
17.6844239429
 30
0.0
 10
11.6515929113
 20
17.6523209643
 30
0.0
 10
11.6484032369
 20
17.6129159785
 30
0.0
 10
11.6427184682
 20
17.5743194667
 30
0.0
 10
11.6368083205
 20
17.5444047086
 30
0.0
 10
11.6301653139
 20
17.5155796083
 30
0.0
 10
11.6203758794
 20
17.4806279998
 30
0.0
 10
11.6062828409
 20
17.4401238558
 30
0.0
 10
11.5900049854
 20
17.4011850963
 30
0.0
 10
11.5715695845
 20
17.3636880639
 30
0.0
 10
11.5509666237
 20
17.3275649659
 30
0.0
 10
11.5357804822
 20
17.3044139989
 30
0.0
 10
11.5278321084
 20
17.2930925178
 30
0.0
  0
ENDSEC
  0
SECTION
  2
OBJECTS
  0
DICTIONARY
  5
C
100
AcDbDictionary
280
0
281
1
  3
ACAD_GROUP
350
D
  3
ACAD_MLINESTYLE
350
17
  3
ACAD_LAYOUT
350
1A
  3
ACAD_PLOTSETTINGS
350
19
  3
ACAD_PLOTSTYLENAME
350
E
  0
DICTIONARY
  5
D
102
{ACAD_REACTORS
330
C
102
}
100
AcDbDictionary
280
0
281
1
  0
ACDBDICTIONARYWDFLT
  5
E
102
{ACAD_REACTORS
330
C
102
}
100
AcDbDictionary
281
1
  3
Normal
350
F
100
AcDbDictionaryWithDefault
340
F
  0
DICTIONARY
  5
17
102
{ACAD_REACTORS
330
C
102
}
100
AcDbDictionary
280
0
281
1
  3
Standard
350
18
  0
DICTIONARY
  5
19
102
{ACAD_REACTORS
330
C
102
}
100
AcDbDictionary
281
1
  0
DICTIONARY
  5
1A
102
{ACAD_REACTORS
330
C
102
}
100
AcDbDictionary
281
1
  3
Model
350
2BE
  3
Layout1
350
2BF
  0
ACDBPLACEHOLDER
  5
F
102
{ACAD_REACTORS
330
E
102
}
  0
MLINESTYLE
  5
18
102
{ACAD_REACTORS
330
17
102
}
100
AcDbMlineStyle
  2
STANDARD
 70
0
  3

 62
256
 51
90.0
 52
90.0
 71
2
 49
0.5
 62
256
  6
BYLAYER
 49
-0.5
 62
256
  6
BYLAYER
  0
LAYOUT
  5
2BE
102
{ACAD_REACTORS
330
1A
102
}
100
AcDbPlotSettings
  1

  2
none_device
  4
ANSI_C_(22.00_x_17.00_Inches)
  6

 40
0.0
 41
0.0
 42
0.0
 43
0.0
 44
558.8
 45
431.8
 46
0.0
 47
0.0
 48
0.0
 49
0.0
140
0.0
141
0.0
142
1.0
143
1.0
 70
1024
 72
0
 73
0
 74
0
  7

 75
0
147
1.0
148
0.0
149
0.0
100
AcDbLayout
  1
Model
 70
0
 71
0
 10
0.0
 20
0.0
 11
22.0
 21
17.0
 12
0.0
 22
0.0
 32
0.0
 14
0.0
 24
0.0
 34
0.0
 15
0.0
 25
0.0
 35
0.0
146
0.0
 13
0.0
 23
0.0
 33
0.0
 16
1.0
 26
0.0
 36
0.0
 17
0.0
 27
1.0
 37
0.0
 76
0
330
202
345
0
346
0
  0
LAYOUT
  5
2BF
102
{ACAD_REACTORS
330
1A
102
}
100
AcDbPlotSettings
  1

  2
none_device
  4
ANSI_C_(22.00_x_17.00_Inches)
  6

 40
0.0
 41
0.0
 42
0.0
 43
0.0
 44
558.8
 45
431.8
 46
0.0
 47
0.0
 48
0.0
 49
0.0
140
0.0
141
0.0
142
1.0
143
1.0
 70
0
 72
0
 73
0
 74
0
  7

 75
0
147
1.0
148
0.0
149
0.0
100
AcDbLayout
  1
Layout1
 70
0
 71
1
 10
0.0
 20
0.0
 11
22.0
 21
17.0
 12
0.0
 22
0.0
 32
0.0
 14
0.0
 24
0.0
 34
0.0
 15
0.0
 25
0.0
 35
0.0
146
0.0
 13
0.0
 23
0.0
 33
0.0
 16
1.0
 26
0.0
 36
0.0
 17
0.0
 27
1.0
 37
0.0
 76
0
330
203
345
0
346
0
  0
ENDSEC
  0
EOF
