999
DXF file: E:\BT Custom\CADOUTPUT\_FRONT.dxf
999
Pro/ENGINEER 2018400 by Parametric Technology Corporation
  0
SECTION
  2
HEADER
  9
$ACADVER
  1
AC1018
  9
$DWGCODEPAGE
  3
ANSI_1252
  9
$EXTMAX
 10
22.0
 20
17.0
 30
0.0
  9
$EXTMIN
 10
0.0
 20
0.0
 30
0.0
  9
$LIMMIN
 10
0.0
 20
0.0
  9
$LIMMAX
 10
22.0
 20
17.0
  9
$VIEWCTR
 10
11.0
 20
8.5
  9
$VIEWSIZE
 40
17.0
  9
$CLAYER
  8
0
  9
$LTSCALE
 40
1.21
  9
$CELTYPE
  6
BYLAYER
  9
$DIMSCALE
 40
1.0
  9
$DIMASZ
 40
0.1
  9
$DIMEXO
 40
0.0625
  9
$DIMDLI
 40
0.836
  9
$DIMEXE
 40
0.125
  9
$DIMCEN
 40
0.198
  9
$DIMLFAC
 40
1.0
  9
$DIMBLK
  1
_FILLED
  9
$DIMALT
 70
1
  9
$DIMALTD
 70
2
  9
$DIMALTTD
 70
2
  9
$DIMALTF
 40
25.4
  9
$DIMTXT
 40
0.08
  9
$DIMTOL
 70
1
  9
$DIMLIM
 70
0
  9
$DIMTFAC
 40
1.0
  9
$DIMTP
 40
0.001
  9
$DIMTM
 40
0.001
  9
$DIMGAP
 40
0.09
  9
$DIMDSEP
 70
46
  9
$AUNITS
 70
0
  9
$PDMODE
 70
3
  9
$PDSIZE
 40
0.06
  9
$HANDSEED
  5
3BF
  9
$TILEMODE
 70
1
  9
$MEASUREMENT
 70
0
  9
$INSUNITS
 70
1
  0
ENDSEC
  0
SECTION
  2
CLASSES
  0
CLASS
  1
ACDBDICTIONARYWDFLT
  2
AcDbDictionaryWithDefault
  3
AutoCAD 2000
 90
0
 91
1
280
0
281
0
  0
CLASS
  1
ACDBPLACEHOLDER
  2
AcDbPlaceHolder
  3
AutoCAD 2000
 90
0
 91
1
280
0
281
0
  0
CLASS
  1
LAYOUT
  2
AcDbLayout
  3
AutoCAD 2000
 90
0
 91
0
280
0
281
0
  0
ENDSEC
  0
SECTION
  2
TABLES
  0
TABLE
  2
VPORT
  5
8
100
AcDbSymbolTable
 70
2
  0
VPORT
  5
1F4
100
AcDbSymbolTableRecord
100
AcDbViewportTableRecord
  2
*ACTIVE
 70
0
 10
0.0
 20
0.0
 11
1.0
 21
1.0
 12
11.0
 22
8.5
 13
0.0
 23
0.0
 14
1.0
 24
1.0
 15
0.0
 25
0.0
 16
0.0
 26
0.0
 36
1.0
 17
0.0
 27
0.0
 37
0.0
 40
17.0
 41
1.2941176471
 42
50.0
 43
0.0
 44
0.0
 50
0.0
 51
0.0
 71
0
 72
100
 73
1
 74
1
 75
0
 76
0
 77
0
 78
0
  0
ENDTAB
  0
TABLE
  2
LTYPE
  5
5
100
AcDbSymbolTable
 70
6
  0
LTYPE
  5
14
100
AcDbSymbolTableRecord
100
AcDbLinetypeTableRecord
  2
BYBLOCK
 70
0
  3

 72
65
 73
0
 40
0.0
  0
LTYPE
  5
15
100
AcDbSymbolTableRecord
100
AcDbLinetypeTableRecord
  2
BYLAYER
 70
0
  3

 72
65
 73
0
 40
0.0
  0
LTYPE
  5
16
100
AcDbSymbolTableRecord
100
AcDbLinetypeTableRecord
  2
CONTINUOUS
 70
64
  3
Solid line
 72
65
 73
0
 40
0.0
  0
LTYPE
  5
1F5
100
AcDbSymbolTableRecord
100
AcDbLinetypeTableRecord
  2
CENTER
 70
64
  3
____ _ ____ _ ____ _ ____ _ ____ _ ____ _ ____
 72
65
 73
4
 40
0.6
 49
0.375
 74
0
 49
-0.075
 74
0
 49
0.075
 74
0
 49
-0.075
 74
0
  0
LTYPE
  5
1F6
100
AcDbSymbolTableRecord
100
AcDbLinetypeTableRecord
  2
HIDDEN
 70
64
  3
- - - - - - - - - - - - - - - - - - - -
 72
65
 73
2
 40
0.2
 49
0.1
 74
0
 49
-0.1
 74
0
  0
LTYPE
  5
1F7
100
AcDbSymbolTableRecord
100
AcDbLinetypeTableRecord
  2
PHANTOM
 70
64
  3
_____ _ _ _____ _ _ _____ _ _ _____
 72
65
 73
6
 40
0.8
 49
0.45
 74
0
 49
-0.05
 74
0
 49
0.1
 74
0
 49
-0.05
 74
0
 49
0.1
 74
0
 49
-0.05
 74
0
  0
LTYPE
  5
1F8
100
AcDbSymbolTableRecord
100
AcDbLinetypeTableRecord
  2
DOT
 70
64
  3
. . . . . . . . . . . . . . . . . . . .
 72
65
 73
2
 40
0.2
 49
0.1
 74
0
 49
-0.1
 74
0
  0
LTYPE
  5
1F9
100
AcDbSymbolTableRecord
100
AcDbLinetypeTableRecord
  2
DASHED
 70
64
  3
- - - - - - - - - - - - - - - - - - - -
 72
65
 73
2
 40
0.2
 49
0.1
 74
0
 49
-0.1
 74
0
  0
ENDTAB
  0
TABLE
  2
LAYER
  5
2
100
AcDbSymbolTable
 70
36
  0
LAYER
  5
10
100
AcDbSymbolTableRecord
100
AcDbLayerTableRecord
  2
0
 70
0
 62
7
  6
CONTINUOUS
370
-3
390
F
  0
LAYER
  5
1FA
100
AcDbSymbolTableRecord
100
AcDbLayerTableRecord
  2
DEFAULT_1
 70
0
 62
7
  6
CENTER
370
-3
390
F
  0
LAYER
  5
1FB
100
AcDbSymbolTableRecord
100
AcDbLayerTableRecord
  2
DEFAULT_2
 70
0
 62
8
  6
HIDDEN
370
-3
390
F
  0
LAYER
  5
1FC
100
AcDbSymbolTableRecord
100
AcDbLayerTableRecord
  2
DEFAULT_3
 70
0
 62
7
  6
PHANTOM
370
-3
390
F
  0
LAYER
  5
1FD
100
AcDbSymbolTableRecord
100
AcDbLayerTableRecord
  2
ALL_FEATURES
 70
0
 62
7
  6
CONTINUOUS
370
-3
390
F
  0
LAYER
  5
1FE
100
AcDbSymbolTableRecord
100
AcDbLayerTableRecord
  2
AXES_FEATURES
 70
0
 62
7
  6
CONTINUOUS
370
-3
390
F
  0
LAYER
  5
1FF
100
AcDbSymbolTableRecord
100
AcDbLayerTableRecord
  2
DEFAULT_COORDINATE_SYSTEM
 70
0
 62
7
  6
CONTINUOUS
370
-3
390
F
  0
LAYER
  5
200
100
AcDbSymbolTableRecord
100
AcDbLayerTableRecord
  2
DEFAULT_DATUM_AXES
 70
0
 62
7
  6
CONTINUOUS
370
-3
390
F
  0
LAYER
  5
201
100
AcDbSymbolTableRecord
100
AcDbLayerTableRecord
  2
DEFAULT_DATUM_PLANES
 70
0
 62
7
  6
CONTINUOUS
370
-3
390
F
  0
LAYER
  5
202
100
AcDbSymbolTableRecord
100
AcDbLayerTableRecord
  2
DIMENSIONS
 70
0
 62
7
  6
CONTINUOUS
370
-3
390
F
  0
ENDTAB
  0
TABLE
  2
STYLE
  5
3
100
AcDbSymbolTable
 70
1
  0
STYLE
  5
11
100
AcDbSymbolTableRecord
100
AcDbTextStyleTableRecord
  2
STANDARD
 70
0
 40
0.0
 41
0.8
 50
0.0
 71
0
 42
0.2
  3
txt
  4

  0
STYLE
  5
203
100
AcDbSymbolTableRecord
100
AcDbTextStyleTableRecord
  2
TEXTSTYLE_1
 70
0
 40
0.0
 41
0.8
 50
0.0
 71
0
 42
0.2
  3
gdt
  4

  0
ENDTAB
  0
TABLE
  2
VIEW
  5
6
100
AcDbSymbolTable
 70
0
  0
ENDTAB
  0
TABLE
  2
UCS
  5
7
100
AcDbSymbolTable
 70
0
  0
ENDTAB
  0
TABLE
  2
APPID
  5
9
100
AcDbSymbolTable
 70
1
  0
APPID
  5
204
100
AcDbSymbolTableRecord
100
AcDbRegAppTableRecord
  2
ACAD
 70
0
  0
ENDTAB
  0
TABLE
  2
BLOCK_RECORD
  5
1
100
AcDbSymbolTable
 70
0
  0
BLOCK_RECORD
  5
205
100
AcDbSymbolTableRecord
100
AcDbBlockTableRecord
  2
*Model_Space
  0
BLOCK_RECORD
  5
206
100
AcDbSymbolTableRecord
100
AcDbBlockTableRecord
  2
*Paper_Space
  0
BLOCK_RECORD
  5
207
100
AcDbSymbolTableRecord
100
AcDbBlockTableRecord
  2
_FILLED
  0
ENDTAB
  0
TABLE
  2
DIMSTYLE
  5
A
100
AcDbSymbolTable
 70
1
100
AcDbDimStyleTable
 71
0
  0
DIMSTYLE
105
208
100
AcDbSymbolTableRecord
100
AcDbDimStyleTableRecord
  2
STANDARD
 70
0
  3

  4

 40
1.0
 41
0.1
 42
0.0625
 43
0.38
 44
0.125
 45
0.0
 46
0.0
 47
0.001
 48
0.001
140
0.08
141
0.09
142
0.0
143
25.4
144
1.0
145
0.0
146
1.0
147
0.09
 71
1.0
 72
0.0
 73
1
 74
1
 75
0
 76
0
 77
0
 78
4
 79
1
170
1
171
2
172
0
173
0
174
0
175
0
176
0
177
0
178
0
270
2
179
3
271
3
272
3
273
2
274
2
275
0
280
0
281
0
282
0
283
1
284
4
285
0
286
0
287
3
288
0
340
11
278
46
341
207
342
207
343
207
344
207
  0
ENDTAB
  0
ENDSEC
  0
SECTION
  2
BLOCKS
  0
BLOCK
  5
20
100
AcDbEntity
  8
0
100
AcDbBlockBegin
  2
*Model_Space
 70
0
 10
0.0
 20
0.0
 30
0.0
  3
*Model_Space
  1

  0
ENDBLK
  5
21
100
AcDbEntity
  8
0
100
AcDbBlockEnd
  0
BLOCK
  5
1C
100
AcDbEntity
  8
0
100
AcDbBlockBegin
  2
*Paper_Space
 70
0
 10
0.0
 20
0.0
 30
0.0
  3
*Paper_Space
  1

  0
ENDBLK
  5
1D
100
AcDbEntity
  8
0
100
AcDbBlockEnd
  0
BLOCK
  5
209
100
AcDbEntity
  8
0
100
AcDbBlockBegin
  2
_FILLED
 70
64
 10
0.0
 20
0.0
  3
_FILLED
  1

  0
SOLID
  5
20A
100
AcDbEntity
  8
0
  6
BYBLOCK
 62
0
100
AcDbTrace
 10
0.0
 20
0.0
 11
-1.0
 21
0.2
 12
-1.0
 22
-0.2
 13
-1.0
 23
-0.2
  0
ENDBLK
  5
20B
100
AcDbEntity
  8
0
  6
BYBLOCK
 62
0
100
AcDbBlockEnd
  0
ENDSEC
  0
SECTION
  2
ENTITIES
  0
LINE
  5
20C
100
AcDbEntity
  8
0
100
AcDbLine
 62
7
  6
CONTINUOUS
 10
9.9101923427
 20
4.5552187254
 11
11.9601923427
 21
4.5552187254
  0
LINE
  5
20D
100
AcDbEntity
  8
0
100
AcDbLine
 62
9
  6
CONTINUOUS
 10
9.9101923427
 20
4.6652187254
 11
11.9601923427
 21
4.6652187254
  0
LINE
  5
20E
100
AcDbEntity
  8
0
100
AcDbLine
 62
7
  6
CONTINUOUS
 10
9.9501923427
 20
4.7052187254
 11
11.9201923427
 21
4.7052187254
  0
LINE
  5
20F
100
AcDbEntity
  8
0
100
AcDbLine
 62
9
  6
CONTINUOUS
 10
10.0176660269
 20
4.7069483785
 11
11.8527186585
 21
4.706948309
  0
LINE
  5
210
100
AcDbEntity
  8
0
100
AcDbLine
 62
9
  6
CONTINUOUS
 10
10.0601923428
 20
4.9402187254
 11
11.8101923427
 21
4.9402187254
  0
LINE
  5
211
100
AcDbEntity
  8
0
100
AcDbLine
 62
7
  6
CONTINUOUS
 10
10.1001923427
 20
4.9802187254
 11
11.7701923427
 21
4.9802187254
  0
LWPOLYLINE
  5
212
100
AcDbEntity
  8
0
100
AcDbPolyline
 62
7
  6
CONTINUOUS
 90
10
 70
0
 10
11.8680036831
 20
4.8521843689
 10
11.8663041199
 20
4.852949788
 10
11.862663029
 20
4.8550558034
 10
11.8593426614
 20
4.8576590676
 10
11.8564193125
 20
4.8607036394
 10
11.853953946
 20
4.8641254968
 10
11.8519936024
 20
4.867857423
 10
11.8505758044
 20
4.8718268996
 10
11.8497281696
 20
4.875957116
 10
11.8494962312
 20
4.878580499
  0
LINE
  5
213
100
AcDbEntity
  8
0
100
AcDbLine
 62
7
  6
CONTINUOUS
 10
10.1394207732
 20
5.9062187254
 11
9.8651923427
 21
5.9062187254
  0
LINE
  5
214
100
AcDbEntity
  8
0
100
AcDbLine
 62
7
  6
CONTINUOUS
 10
11.7309639122
 20
5.9062187254
 11
12.0101923427
 21
5.9062187254
  0
LINE
  5
215
100
AcDbEntity
  8
0
100
AcDbLine
 62
7
  6
CONTINUOUS
 10
13.4001923427
 20
6.0112187254
 11
12.6701923427
 21
6.0112187254
  0
LINE
  5
216
100
AcDbEntity
  8
0
100
AcDbLine
 62
7
  6
CONTINUOUS
 10
8.4751923427
 20
6.0112187254
 11
9.2051923427
 21
6.0112187254
  0
LWPOLYLINE
  5
217
100
AcDbEntity
  8
0
100
AcDbPolyline
 62
7
  6
CONTINUOUS
 90
10
 70
0
 10
11.8326683037
 20
4.904219293
 10
11.8286717579
 20
4.9064589031
 10
11.8244731661
 20
4.9095409848
 10
11.820710633
 20
4.9131424775
 10
11.8174479512
 20
4.9172023191
 10
11.8147404384
 20
4.9216516764
 10
11.8126339995
 20
4.9264151122
 10
11.8111643484
 20
4.9314118642
 10
11.8103564023
 20
4.9365572144
 10
11.8101923414
 20
4.9401763241
  0
LINE
  5
218
100
AcDbEntity
  8
0
100
AcDbLine
 62
7
  6
CONTINUOUS
 10
8.6286552108
 20
7.081702061
 11
8.6284902151
 21
7.0817772576
  0
LINE
  5
219
100
AcDbEntity
  8
0
100
AcDbLine
 62
7
  6
CONTINUOUS
 10
8.3751923427
 20
6.7486783923
 11
8.3751923427
 21
6.0337590585
  0
LINE
  5
21A
100
AcDbEntity
  8
0
100
AcDbLine
 62
7
  6
CONTINUOUS
 10
8.4751923427
 20
6.7712187254
 11
8.4751923427
 21
6.0112187254
  0
LINE
  5
21B
100
AcDbEntity
  8
0
100
AcDbLine
 62
9
  6
CONTINUOUS
 10
8.6701923427
 20
6.7159375071
 11
8.9601923427
 21
6.7159375071
  0
LINE
  5
21C
100
AcDbEntity
  8
0
100
AcDbLine
 62
9
  6
CONTINUOUS
 10
12.9151923427
 20
6.7159375071
 11
13.2051923427
 21
6.7159375071
  0
LINE
  5
21D
100
AcDbEntity
  8
0
100
AcDbLine
 62
9
  6
CONTINUOUS
 10
8.6701923427
 20
6.7193967196
 11
8.9601923427
 21
6.7193967196
  0
LINE
  5
21E
100
AcDbEntity
  8
0
100
AcDbLine
 62
9
  6
CONTINUOUS
 10
12.9151923427
 20
6.7193967196
 11
13.2051923427
 21
6.7193967196
  0
LINE
  5
21F
100
AcDbEntity
  8
0
100
AcDbLine
 62
7
  6
CONTINUOUS
 10
13.4001923427
 20
6.7712187254
 11
13.2651923427
 21
6.7712187254
  0
LINE
  5
220
100
AcDbEntity
  8
0
100
AcDbLine
 62
7
  6
CONTINUOUS
 10
12.8551923427
 20
6.7712187254
 11
12.6701923427
 21
6.7712187254
  0
LINE
  5
221
100
AcDbEntity
  8
0
100
AcDbLine
 62
7
  6
CONTINUOUS
 10
8.4751923427
 20
6.7712187254
 11
8.6101923427
 21
6.7712187254
  0
LINE
  5
222
100
AcDbEntity
  8
0
100
AcDbLine
 62
7
  6
CONTINUOUS
 10
9.0201923427
 20
6.7712187254
 11
9.2051923427
 21
6.7712187254
  0
LINE
  5
223
100
AcDbEntity
  8
0
100
AcDbLine
 62
9
  6
CONTINUOUS
 10
8.9547430004
 20
7.0685515917
 11
8.9601923427
 21
7.0518644189
  0
LINE
  5
224
100
AcDbEntity
  8
0
100
AcDbLine
 62
7
  6
CONTINUOUS
 10
8.5763643272
 20
7.1316162551
 11
8.5308308335
 21
8.8704702268
  0
LINE
  5
225
100
AcDbEntity
  8
0
100
AcDbLine
 62
9
  6
CONTINUOUS
 10
8.6035888743
 20
7.1560875188
 11
8.5593474212
 21
8.8456004489
  0
LINE
  5
226
100
AcDbEntity
  8
0
100
AcDbLine
 62
9
  6
CONTINUOUS
 10
8.6168940029
 20
7.156143715
 11
8.5726525357
 21
8.8456571848
  0
LINE
  5
227
100
AcDbEntity
  8
0
100
AcDbLine
 62
9
  6
CONTINUOUS
 10
8.6527188999
 20
7.1565054424
 11
8.6084774326
 21
8.8460189131
  0
LINE
  5
228
100
AcDbEntity
  8
0
100
AcDbLine
 62
9
  6
CONTINUOUS
 10
8.6101923427
 20
6.7712187254
 11
8.6101923427
 21
6.7597100469
  0
LINE
  5
229
100
AcDbEntity
  8
0
100
AcDbLine
 62
7
  6
CONTINUOUS
 10
8.6401923427
 20
6.7888014672
 11
8.6401923427
 21
7.0635798591
  0
LINE
  5
22A
100
AcDbEntity
  8
0
100
AcDbLine
 62
9
  6
CONTINUOUS
 10
8.6701923427
 20
6.7159375071
 11
8.6701923427
 21
7.051864513
  0
LINE
  5
22B
100
AcDbEntity
  8
0
100
AcDbLine
 62
9
  6
CONTINUOUS
 10
8.8151979993
 20
7.0822441763
 11
8.8151984737
 21
7.0689386601
  0
LINE
  5
22C
100
AcDbEntity
  8
0
100
AcDbLine
 62
9
  6
CONTINUOUS
 10
8.8151869214
 20
8.9299151744
 11
8.8151865427
 21
8.9432131918
  0
LINE
  5
22D
100
AcDbEntity
  8
0
100
AcDbLine
 62
9
  6
CONTINUOUS
 10
8.8151865162
 20
7.0462679638
 11
8.8151855711
 21
7.0287922836
  0
LINE
  5
22E
100
AcDbEntity
  8
0
100
AcDbLine
 62
7
  6
CONTINUOUS
 10
10.1394207741
 20
6.8762187254
 11
9.8651923427
 21
6.8762187254
  0
LINE
  5
22F
100
AcDbEntity
  8
0
100
AcDbLine
 62
7
  6
CONTINUOUS
 10
11.7309639116
 20
6.8762187254
 11
12.0101923427
 21
6.8762187254
  0
LINE
  5
230
100
AcDbEntity
  8
0
100
AcDbLine
 62
9
  6
CONTINUOUS
 10
8.6401923427
 20
6.9633380081
 11
8.9901923427
 21
6.9633380081
  0
LINE
  5
231
100
AcDbEntity
  8
0
100
AcDbLine
 62
9
  6
CONTINUOUS
 10
12.8851923427
 20
6.9633380081
 11
13.2351923427
 21
6.9633380081
  0
LINE
  5
232
100
AcDbEntity
  8
0
100
AcDbLine
 62
9
  6
CONTINUOUS
 10
8.9601923427
 20
6.7159375071
 11
8.9601923427
 21
7.0518644189
  0
LINE
  5
233
100
AcDbEntity
  8
0
100
AcDbLine
 62
7
  6
CONTINUOUS
 10
8.9901923427
 20
7.0635798591
 11
8.9901923427
 21
6.7888014672
  0
LINE
  5
234
100
AcDbEntity
  8
0
100
AcDbLine
 62
9
  6
CONTINUOUS
 10
9.0201923427
 20
6.7597100469
 11
9.0201923427
 21
6.7712187254
  0
LINE
  5
235
100
AcDbEntity
  8
0
100
AcDbLine
 62
9
  6
CONTINUOUS
 10
9.0219072528
 20
8.8460189131
 11
8.9776657856
 21
7.1565054424
  0
LINE
  5
236
100
AcDbEntity
  8
0
100
AcDbLine
 62
9
  6
CONTINUOUS
 10
9.0577321498
 20
8.8456571858
 11
9.0134906826
 21
7.156143716
  0
LINE
  5
237
100
AcDbEntity
  8
0
100
AcDbLine
 62
9
  6
CONTINUOUS
 10
9.071037266
 20
8.8456005169
 11
9.026795813
 21
7.1560875862
  0
LINE
  5
238
100
AcDbEntity
  8
0
100
AcDbLine
 62
7
  6
CONTINUOUS
 10
9.099553852
 20
8.8704702268
 11
9.0540203582
 21
7.1316162551
  0
LINE
  5
239
100
AcDbEntity
  8
0
100
AcDbLine
 62
7
  6
CONTINUOUS
 10
10.1051926227
 20
7.3302187254
 11
11.7651920627
 21
7.3302187254
  0
LINE
  5
23A
100
AcDbEntity
  8
0
100
AcDbLine
 62
9
  6
CONTINUOUS
 10
10.0943806399
 20
7.4473308332
 11
11.7760040456
 21
7.4473308332
  0
LINE
  5
23B
100
AcDbEntity
  8
0
100
AcDbLine
 62
9
  6
CONTINUOUS
 10
9.2051923427
 20
6.0112187254
 11
9.2051923427
 21
6.7712187254
  0
LINE
  5
23C
100
AcDbEntity
  8
0
100
AcDbLine
 62
7
  6
CONTINUOUS
 10
9.2651923427
 20
6.8612187254
 11
9.2651923427
 21
5.9212187254
  0
LINE
  5
23D
100
AcDbEntity
  8
0
100
AcDbLine
 62
9
  6
CONTINUOUS
 10
9.3551923427
 20
5.8912187254
 11
9.3551923427
 21
6.8912187254
  0
LINE
  5
23E
100
AcDbEntity
  8
0
100
AcDbLine
 62
9
  6
CONTINUOUS
 10
9.4239459652
 20
5.9207061344
 11
9.4239459652
 21
6.8617313164
  0
LINE
  5
23F
100
AcDbEntity
  8
0
100
AcDbLine
 62
9
  6
CONTINUOUS
 10
10.4747525646
 20
7.8609589135
 11
11.3956321209
 21
7.8609589135
  0
LINE
  5
240
100
AcDbEntity
  8
0
100
AcDbLine
 62
9
  6
CONTINUOUS
 10
9.7613786107
 20
5.750226569
 11
9.7613786107
 21
7.0322108818
  0
LINE
  5
241
100
AcDbEntity
  8
0
100
AcDbLine
 62
7
  6
CONTINUOUS
 10
9.8651923427
 20
6.9912187254
 11
9.8651923427
 21
5.7912190081
  0
LINE
  5
242
100
AcDbEntity
  8
0
100
AcDbLine
 62
7
  6
CONTINUOUS
 10
9.9101923427
 20
4.6652187254
 11
9.9101923427
 21
4.5552187254
  0
LINE
  5
243
100
AcDbEntity
  8
0
100
AcDbLine
 62
9
  6
CONTINUOUS
 10
11.246247299
 20
11.4960245568
 11
11.246245185
 21
11.4960220121
  0
LINE
  5
244
100
AcDbEntity
  8
0
100
AcDbLine
 62
7
  6
CONTINUOUS
 10
11.2495023293
 20
11.4996946841
 11
11.246245185
 21
11.4960220121
  0
LINE
  5
245
100
AcDbEntity
  8
0
100
AcDbLine
 62
7
  6
CONTINUOUS
 10
11.249504901
 20
11.4996973894
 11
11.2530859984
 21
11.503575755
  0
LINE
  5
246
100
AcDbEntity
  8
0
100
AcDbLine
 62
9
  6
CONTINUOUS
 10
11.2495092515
 20
11.4997019635
 11
11.2494979793
 21
11.4996901099
  0
LINE
  5
247
100
AcDbEntity
  8
0
100
AcDbLine
 62
7
  6
CONTINUOUS
 10
11.222913299
 20
11.1847191644
 11
11.2228083955
 21
11.1846133306
  0
LINE
  5
248
100
AcDbEntity
  8
0
100
AcDbLine
 62
9
  6
CONTINUOUS
 10
10.4404477274
 20
7.933622616
 11
11.4299369581
 21
7.933622616
  0
LINE
  5
249
100
AcDbEntity
  8
0
100
AcDbLine
 62
7
  6
CONTINUOUS
 10
10.4681923427
 20
8.0252187254
 11
11.4021923427
 21
8.0252187254
  0
LINE
  5
24A
100
AcDbEntity
  8
0
100
AcDbLine
 62
9
  6
CONTINUOUS
 10
9.9501923427
 20
4.7052187254
 11
9.9501923427
 21
4.5552187254
  0
LINE
  5
24B
100
AcDbEntity
  8
0
100
AcDbLine
 62
7
  6
CONTINUOUS
 10
9.9776660269
 20
4.8152187445
 11
9.9776660269
 21
4.7252187254
  0
LINE
  5
24C
100
AcDbEntity
  8
0
100
AcDbLine
 62
9
  6
CONTINUOUS
 10
10.0176660269
 20
4.7052187254
 11
10.0176660269
 21
4.8491079326
  0
LINE
  5
24D
100
AcDbEntity
  8
0
100
AcDbLine
 62
7
  6
CONTINUOUS
 10
10.1301923427
 20
4.9802187254
 11
10.1301923427
 21
5.8912187254
  0
LINE
  5
24E
100
AcDbEntity
  8
0
100
AcDbLine
 62
7
  6
CONTINUOUS
 10
10.1301923427
 20
6.8912187254
 11
10.1301923427
 21
7.3302187254
  0
LWPOLYLINE
  5
24F
100
AcDbEntity
  8
0
100
AcDbPolyline
 62
7
  6
CONTINUOUS
 90
10
 70
0
 10
10.0601923436
 20
4.940176319
 10
10.0600282827
 20
4.9365572093
 10
10.0592203366
 20
4.9314118589
 10
10.0577506853
 20
4.9264151067
 10
10.0556442462
 20
4.9216516707
 10
10.0529367333
 20
4.9172023133
 10
10.0496740512
 20
4.9131424715
 10
10.0459115179
 20
4.9095409788
 10
10.041712926
 20
4.9064588973
 10
10.0377163894
 20
4.9042192917
  0
LINE
  5
250
100
AcDbEntity
  8
0
100
AcDbLine
 62
7
  6
CONTINUOUS
 10
10.5906654269
 20
11.5930965852
 11
10.5903819504
 21
11.5916195198
  0
LINE
  5
251
100
AcDbEntity
  8
0
100
AcDbLine
 62
7
  6
CONTINUOUS
 10
10.6512812401
 20
11.3384317673
 11
10.6517649521
 21
11.361669716
  0
LWPOLYLINE
  5
252
100
AcDbEntity
  8
0
100
AcDbPolyline
 62
7
  6
CONTINUOUS
 90
9
 70
0
 10
10.0208884868
 20
4.8785805009
 10
10.0206555869
 20
4.8759498925
 10
10.0198053726
 20
4.8718142594
 10
10.0183837363
 20
4.867840624
 10
10.016418245
 20
4.8641052763
 10
10.0139460063
 20
4.8606803949
 10
10.0110134867
 20
4.8576332736
 10
10.0076837615
 20
4.8550302161
 10
10.0040390805
 20
4.8529295725
  0
LINE
  5
253
100
AcDbEntity
  8
0
100
AcDbLine
 62
9
  6
CONTINUOUS
 10
10.6466791604
 20
11.4410793304
 11
10.6463997968
 21
11.4454228276
  0
LINE
  5
254
100
AcDbEntity
  8
0
100
AcDbLine
 62
7
  6
CONTINUOUS
 10
10.6851923427
 20
13.7301301235
 11
10.6851923427
 21
11.6832067672
  0
LINE
  5
255
100
AcDbEntity
  8
0
100
AcDbLine
 62
7
  6
CONTINUOUS
 10
10.6851923427
 20
8.0252187254
 11
10.6851923427
 21
11.157769172
  0
LINE
  5
256
100
AcDbEntity
  8
0
100
AcDbLine
 62
9
  6
CONTINUOUS
 10
10.9351923427
 20
4.7154610243
 11
10.9351923427
 21
4.8226759173
  0
LINE
  5
257
100
AcDbEntity
  8
0
100
AcDbLine
 62
7
  6
CONTINUOUS
 10
11.2186197334
 20
11.361669716
 11
11.2191034532
 21
11.338431581
  0
LINE
  5
258
100
AcDbEntity
  8
0
100
AcDbLine
 62
7
  6
CONTINUOUS
 10
11.1851923427
 20
13.7301301235
 11
11.1851923427
 21
11.6831692197
  0
LINE
  5
259
100
AcDbEntity
  8
0
100
AcDbLine
 62
7
  6
CONTINUOUS
 10
11.1851923427
 20
8.0252187254
 11
11.1851923427
 21
11.1577491787
  0
LINE
  5
25A
100
AcDbEntity
  8
0
100
AcDbLine
 62
9
  6
CONTINUOUS
 10
11.2239848888
 20
11.4454228276
 11
11.2237055066
 21
11.4410791862
  0
LWPOLYLINE
  5
25B
100
AcDbEntity
  8
0
100
AcDbPolyline
 62
7
  6
CONTINUOUS
 90
10
 70
0
 10
11.8494953362
 20
4.878580459
 10
11.8493045949
 20
4.8808802477
 10
11.8485480305
 20
4.884845114
 10
11.8472660302
 20
4.88867253
 10
11.8454818006
 20
4.8922932044
 10
11.8432276394
 20
4.8956415884
 10
11.8405443507
 20
4.8986570615
 10
11.837480509
 20
4.901285027
 10
11.8340915868
 20
4.9034778977
 10
11.8326683064
 20
4.9042192986
  0
LINE
  5
25C
100
AcDbEntity
  8
0
100
AcDbLine
 62
7
  6
CONTINUOUS
 10
11.7401923427
 20
4.9802187254
 11
11.7401923427
 21
5.8912187254
  0
LINE
  5
25D
100
AcDbEntity
  8
0
100
AcDbLine
 62
7
  6
CONTINUOUS
 10
11.7401923427
 20
6.8912187254
 11
11.7401923427
 21
7.3302187254
  0
LINE
  5
25E
100
AcDbEntity
  8
0
100
AcDbLine
 62
9
  6
CONTINUOUS
 10
11.8527186585
 20
4.7052187254
 11
11.8527186585
 21
4.8491079639
  0
LINE
  5
25F
100
AcDbEntity
  8
0
100
AcDbLine
 62
7
  6
CONTINUOUS
 10
11.8927186585
 20
4.8152187246
 11
11.8927186585
 21
4.7252187254
  0
LINE
  5
260
100
AcDbEntity
  8
0
100
AcDbLine
 62
9
  6
CONTINUOUS
 10
11.9201923427
 20
4.7052187254
 11
11.9201923427
 21
4.5552187254
  0
LINE
  5
261
100
AcDbEntity
  8
0
100
AcDbLine
 62
7
  6
CONTINUOUS
 10
11.9601923427
 20
4.6652187254
 11
11.9601923427
 21
4.5552187254
  0
LINE
  5
262
100
AcDbEntity
  8
0
100
AcDbLine
 62
7
  6
CONTINUOUS
 10
12.0101923427
 20
5.7912187254
 11
12.0101923427
 21
6.9912187254
  0
LINE
  5
263
100
AcDbEntity
  8
0
100
AcDbLine
 62
7
  6
CONTINUOUS
 10
11.2800027351
 20
11.5916195198
 11
11.2797194833
 21
11.5930954548
  0
LINE
  5
264
100
AcDbEntity
  8
0
100
AcDbLine
 62
9
  6
CONTINUOUS
 10
12.1140060748
 20
5.750226569
 11
12.1140060748
 21
7.0322108818
  0
LINE
  5
265
100
AcDbEntity
  8
0
100
AcDbLine
 62
7
  6
CONTINUOUS
 10
10.6475762163
 20
11.1846134048
 11
10.6474736454
 21
11.1847168815
  0
LINE
  5
266
100
AcDbEntity
  8
0
100
AcDbLine
 62
9
  6
CONTINUOUS
 10
10.6208868373
 20
11.499689972
 11
10.6208694063
 21
11.4997083039
  0
LINE
  5
267
100
AcDbEntity
  8
0
100
AcDbLine
 62
7
  6
CONTINUOUS
 10
10.6172986574
 20
11.5035757882
 11
10.6208737569
 21
11.4997037298
  0
LINE
  5
268
100
AcDbEntity
  8
0
100
AcDbLine
 62
9
  6
CONTINUOUS
 10
10.617292884
 20
11.5035822298
 11
10.617274033
 21
11.5036032701
  0
LINE
  5
269
100
AcDbEntity
  8
0
100
AcDbLine
 62
7
  6
CONTINUOUS
 10
10.6241395005
 20
11.4960220121
 11
10.6208824873
 21
11.4996945462
  0
LINE
  5
26A
100
AcDbEntity
  8
0
100
AcDbLine
 62
9
  6
CONTINUOUS
 10
11.232142352
 20
11.2981238295
 11
11.2321402138
 21
11.2981267691
  0
LINE
  5
26B
100
AcDbEntity
  8
0
100
AcDbLine
 62
9
  6
CONTINUOUS
 10
13.1997430022
 20
7.0685515921
 11
13.2051923427
 21
7.0518644187
  0
LINE
  5
26C
100
AcDbEntity
  8
0
100
AcDbLine
 62
7
  6
CONTINUOUS
 10
12.8213643272
 20
7.1316162551
 11
12.7758308335
 21
8.8704702268
  0
LINE
  5
26D
100
AcDbEntity
  8
0
100
AcDbLine
 62
9
  6
CONTINUOUS
 10
12.4514387203
 20
5.9207061344
 11
12.4514387203
 21
6.8617313164
  0
LINE
  5
26E
100
AcDbEntity
  8
0
100
AcDbLine
 62
9
  6
CONTINUOUS
 10
12.5201923427
 20
5.8912187254
 11
12.5201923427
 21
6.8912187254
  0
LINE
  5
26F
100
AcDbEntity
  8
0
100
AcDbLine
 62
7
  6
CONTINUOUS
 10
12.6101923427
 20
5.9212189881
 11
12.6101923427
 21
6.8612184627
  0
LINE
  5
270
100
AcDbEntity
  8
0
100
AcDbLine
 62
9
  6
CONTINUOUS
 10
12.6701923427
 20
6.7712187254
 11
12.6701923427
 21
6.0112187254
  0
LINE
  5
271
100
AcDbEntity
  8
0
100
AcDbLine
 62
9
  6
CONTINUOUS
 10
12.8485888742
 20
7.1560875212
 11
12.8043474206
 21
8.8456004726
  0
LINE
  5
272
100
AcDbEntity
  8
0
100
AcDbLine
 62
9
  6
CONTINUOUS
 10
12.8618940029
 20
7.1561437151
 11
12.8176525357
 21
8.8456571841
  0
LINE
  5
273
100
AcDbEntity
  8
0
100
AcDbLine
 62
9
  6
CONTINUOUS
 10
12.8977188999
 20
7.1565054424
 11
12.8534774326
 21
8.8460189131
  0
LINE
  5
274
100
AcDbEntity
  8
0
100
AcDbLine
 62
9
  6
CONTINUOUS
 10
12.8551923427
 20
6.7712187254
 11
12.8551923427
 21
6.7597100469
  0
LINE
  5
275
100
AcDbEntity
  8
0
100
AcDbLine
 62
7
  6
CONTINUOUS
 10
12.8851923427
 20
6.7888014672
 11
12.8851923427
 21
7.0635798591
  0
LINE
  5
276
100
AcDbEntity
  8
0
100
AcDbLine
 62
9
  6
CONTINUOUS
 10
12.9151923427
 20
6.7159375071
 11
12.9151923427
 21
7.0518645133
  0
LINE
  5
277
100
AcDbEntity
  8
0
100
AcDbLine
 62
9
  6
CONTINUOUS
 10
13.0602061014
 20
7.0822441767
 11
13.0602068452
 21
7.0689386614
  0
LINE
  5
278
100
AcDbEntity
  8
0
100
AcDbLine
 62
9
  6
CONTINUOUS
 10
13.0601853724
 20
8.9299151741
 11
13.0601849552
 21
8.9432131908
  0
LINE
  5
279
100
AcDbEntity
  8
0
100
AcDbLine
 62
9
  6
CONTINUOUS
 10
13.0601946692
 20
7.0462679667
 11
13.0601940388
 21
7.0287922857
  0
LINE
  5
27A
100
AcDbEntity
  8
0
100
AcDbLine
 62
9
  6
CONTINUOUS
 10
13.2051923427
 20
6.7159375071
 11
13.2051923427
 21
7.0518644187
  0
LINE
  5
27B
100
AcDbEntity
  8
0
100
AcDbLine
 62
7
  6
CONTINUOUS
 10
13.2351923427
 20
7.0635798591
 11
13.2351923427
 21
6.7888014673
  0
LINE
  5
27C
100
AcDbEntity
  8
0
100
AcDbLine
 62
9
  6
CONTINUOUS
 10
13.2651923427
 20
6.7597100469
 11
13.2651923427
 21
6.7712187254
  0
LINE
  5
27D
100
AcDbEntity
  8
0
100
AcDbLine
 62
7
  6
CONTINUOUS
 10
13.4001923427
 20
6.0112187254
 11
13.4001923427
 21
6.7712187254
  0
LINE
  5
27E
100
AcDbEntity
  8
0
100
AcDbLine
 62
9
  6
CONTINUOUS
 10
13.2669072528
 20
8.8460189131
 11
13.2226657856
 21
7.1565054424
  0
LINE
  5
27F
100
AcDbEntity
  8
0
100
AcDbLine
 62
9
  6
CONTINUOUS
 10
13.3027321498
 20
8.8456571858
 11
13.2584906826
 21
7.1561437165
  0
LINE
  5
280
100
AcDbEntity
  8
0
100
AcDbLine
 62
9
  6
CONTINUOUS
 10
13.316037266
 20
8.8456005135
 11
13.2717958125
 21
7.1560875677
  0
LINE
  5
281
100
AcDbEntity
  8
0
100
AcDbLine
 62
7
  6
CONTINUOUS
 10
13.344553852
 20
8.8704702268
 11
13.2990203582
 21
7.1316162551
  0
LINE
  5
282
100
AcDbEntity
  8
0
100
AcDbLine
 62
7
  6
CONTINUOUS
 10
13.5001923427
 20
6.7486783923
 11
13.5001923427
 21
6.0337590585
  0
LINE
  5
283
100
AcDbEntity
  8
0
100
AcDbLine
 62
7
  6
CONTINUOUS
 10
13.2468944704
 20
7.0817772576
 11
13.2467680367
 21
7.0817190726
  0
LWPOLYLINE
  5
284
100
AcDbEntity
  8
0
100
AcDbPolyline
 62
7
  6
CONTINUOUS
 90
10
 70
0
 10
10.0377163883
 20
4.9042192938
 10
10.0362932262
 20
4.9034779582
 10
10.032904281
 20
4.9012850919
 10
10.0298404151
 20
4.8986571236
 10
10.0271571067
 20
4.8956416451
 10
10.0249029302
 20
4.8922932546
 10
10.0231186886
 20
4.8886725725
 10
10.021836679
 20
4.8848451465
 10
10.021080108
 20
4.8808802672
 10
10.0208893642
 20
4.8785804615
  0
LINE
  5
285
100
AcDbEntity
  8
0
100
AcDbLine
 62
7
  6
CONTINUOUS
 10
10.0040390805
 20
4.8529295725
 11
10.00238103
 21
4.8521843844
  0
ARC
  5
286
100
AcDbEntity
  8
0
100
AcDbCircle
 62
7
  6
CONTINUOUS
 10
9.3597527339
 20
5.3744651353
 40
0.55
100
AcDbArc
 50
43.0944157882
 51
83.2974484373
  0
ARC
  5
287
100
AcDbEntity
  8
0
100
AcDbCircle
 62
7
  6
CONTINUOUS
 10
9.4151923427
 20
5.8462187254
 40
0.075
100
AcDbArc
 50
83.2974484373
 51
143.1301023542
  0
ARC
  5
288
100
AcDbEntity
  8
0
100
AcDbCircle
 62
7
  6
CONTINUOUS
 10
9.2051923427
 20
5.9512187254
 40
0.06
100
AcDbArc
 50
0.0
 51
90.0
  0
ARC
  5
289
100
AcDbEntity
  8
0
100
AcDbCircle
 62
7
  6
CONTINUOUS
 10
8.4277326758
 20
6.7486783923
 40
0.0525403331
100
AcDbArc
 50
25.4047544257
 51
180.0
  0
ARC
  5
28A
100
AcDbEntity
  8
0
100
AcDbCircle
 62
7
  6
CONTINUOUS
 10
8.4277326758
 20
6.0337590585
 40
0.0525403331
100
AcDbArc
 50
180.0
 51
334.5952455743
  0
ARC
  5
28B
100
AcDbEntity
  8
0
100
AcDbCircle
 62
7
  6
CONTINUOUS
 10
9.3151923427
 20
5.9212187254
 40
0.05
100
AcDbArc
 50
180.0
 51
323.1301023542
  0
ARC
  5
28C
100
AcDbEntity
  8
0
100
AcDbCircle
 62
7
  6
CONTINUOUS
 10
8.6163506202
 20
7.132663333
 40
0.04
100
AcDbArc
 50
181.5
 51
240.988850311
  0
ARC
  5
28D
100
AcDbEntity
  8
0
100
AcDbCircle
 62
7
  6
CONTINUOUS
 10
8.6101923427
 20
6.8012187254
 40
0.03
100
AcDbArc
 50
270.0
 51
360.0
  0
ARC
  5
28E
100
AcDbEntity
  8
0
100
AcDbCircle
 62
7
  6
CONTINUOUS
 10
8.6201923427
 20
7.0635798591
 40
0.02
100
AcDbArc
 50
0.0
 51
65.4873827805
  0
ARC
  5
28F
100
AcDbEntity
  8
0
100
AcDbCircle
 62
9
  6
CONTINUOUS
 10
8.6524957885
 20
7.1553461637
 40
0.0502781216
100
AcDbArc
 50
208.1347848319
 51
217.2798993341
  0
ARC
  5
290
100
AcDbEntity
  8
0
100
AcDbCircle
 62
9
  6
CONTINUOUS
 10
8.665290036
 20
7.1633668042
 40
0.0499265264
100
AcDbArc
 50
208.0929429812
 51
217.3138885696
  0
ARC
  5
291
100
AcDbEntity
  8
0
100
AcDbCircle
 62
9
  6
CONTINUOUS
 10
8.6557180399
 20
7.1565840947
 40
0.0030001817
100
AcDbArc
 50
181.5022340365
 51
244.46629639
  0
ARC
  5
292
100
AcDbEntity
  8
0
100
AcDbCircle
 62
9
  6
CONTINUOUS
 10
8.815185505
 20
7.4959307029
 40
0.4671378848
100
AcDbArc
 50
251.9174923384
 51
288.0821388605
  0
ARC
  5
293
100
AcDbEntity
  8
0
100
AcDbCircle
 62
7
  6
CONTINUOUS
 10
8.8151923427
 20
7.4912187254
 40
0.45
100
AcDbArc
 50
240.988850311
 51
246.139573518
  0
ARC
  5
294
100
AcDbEntity
  8
0
100
AcDbCircle
 62
7
  6
CONTINUOUS
 10
8.8151923427
 20
7.4912187254
 40
0.45
100
AcDbArc
 50
293.8604264921
 51
299.011149689
  0
ARC
  5
295
100
AcDbEntity
  8
0
100
AcDbCircle
 62
9
  6
CONTINUOUS
 10
8.8151864467
 20
7.4943462475
 40
0.4480778048
100
AcDbArc
 50
251.8546117246
 51
288.1448683915
  0
ARC
  5
296
100
AcDbEntity
  8
0
100
AcDbCircle
 62
9
  6
CONTINUOUS
 10
8.815189786
 20
7.4910655828
 40
0.4221267841
100
AcDbArc
 50
244.4534273038
 51
295.5462352408
  0
ARC
  5
297
100
AcDbEntity
  8
0
100
AcDbCircle
 62
9
  6
CONTINUOUS
 10
8.8151919789
 20
7.491088303
 40
0.4088441267
100
AcDbArc
 50
244.4712078944
 51
295.528834735
  0
ARC
  5
298
100
AcDbEntity
  8
0
100
AcDbCircle
 62
9
  6
CONTINUOUS
 10
8.8151923427
 20
7.4904522684
 40
0.3730001965
100
AcDbArc
 50
244.4682077512
 51
295.5317922488
  0
ARC
  5
299
100
AcDbEntity
  8
0
100
AcDbCircle
 62
9
  6
CONTINUOUS
 10
8.9778652302
 20
7.15536307
 40
0.0503070597
100
AcDbArc
 50
322.7212445543
 51
331.8610022616
  0
ARC
  5
29A
100
AcDbEntity
  8
0
100
AcDbCircle
 62
9
  6
CONTINUOUS
 10
8.9650773173
 20
7.1633809666
 40
0.0499486658
100
AcDbArc
 50
322.6838677053
 51
331.9005457515
  0
ARC
  5
29B
100
AcDbEntity
  8
0
100
AcDbCircle
 62
9
  6
CONTINUOUS
 10
8.974666634
 20
7.1565840775
 40
0.0030001816
100
AcDbArc
 50
295.5340436833
 51
358.4980991411
  0
ARC
  5
29C
100
AcDbEntity
  8
0
100
AcDbCircle
 62
7
  6
CONTINUOUS
 10
8.8151923427
 20
8.4012187254
 40
0.57
100
AcDbArc
 50
62.5428369926
 51
117.4571630074
  0
ARC
  5
29D
100
AcDbEntity
  8
0
100
AcDbCircle
 62
9
  6
CONTINUOUS
 10
8.8151950057
 20
8.401087066
 40
0.5421259588
100
AcDbArc
 50
65.4430182891
 51
114.5567108371
  0
ARC
  5
29E
100
AcDbEntity
  8
0
100
AcDbCircle
 62
9
  6
CONTINUOUS
 10
8.8151918811
 20
8.4010702233
 40
0.5288449511
100
AcDbArc
 50
65.4312462027
 51
114.5687423011
  0
ARC
  5
29F
100
AcDbEntity
  8
0
100
AcDbCircle
 62
9
  6
CONTINUOUS
 10
8.8151923427
 20
8.400451647
 40
0.4930003672
100
AcDbArc
 50
65.4336638754
 51
114.5663361246
  0
ARC
  5
2A0
100
AcDbEntity
  8
0
100
AcDbCircle
 62
9
  6
CONTINUOUS
 10
8.6091525766
 20
8.8482894349
 40
0.0514696362
100
AcDbArc
 50
144.8524424346
 51
154.4432686825
  0
ARC
  5
2A1
100
AcDbEntity
  8
0
100
AcDbCircle
 62
9
  6
CONTINUOUS
 10
8.6223040713
 20
8.8403113379
 40
0.0510454481
100
AcDbArc
 50
144.8043889927
 51
154.4867789525
  0
ARC
  5
2A2
100
AcDbEntity
  8
0
100
AcDbCircle
 62
7
  6
CONTINUOUS
 10
8.5708171265
 20
8.8715173047
 40
0.04
100
AcDbArc
 50
117.4571630074
 51
181.5
  0
ARC
  5
2A3
100
AcDbEntity
  8
0
100
AcDbCircle
 62
9
  6
CONTINUOUS
 10
8.611476609
 20
8.8460973294
 40
0.0030002017
100
AcDbArc
 50
114.5689964363
 51
181.4977105937
  0
ARC
  5
2A4
100
AcDbEntity
  8
0
100
AcDbCircle
 62
7
  6
CONTINUOUS
 10
9.3597527339
 20
7.4079723155
 40
0.55
100
AcDbArc
 50
276.7025515627
 51
316.9055842118
  0
ARC
  5
2A5
100
AcDbEntity
  8
0
100
AcDbCircle
 62
7
  6
CONTINUOUS
 10
9.4151923427
 20
6.9362187254
 40
0.075
100
AcDbArc
 50
216.8698976458
 51
276.7025515627
  0
ARC
  5
2A6
100
AcDbEntity
  8
0
100
AcDbCircle
 62
7
  6
CONTINUOUS
 10
9.2051923427
 20
6.8312187254
 40
0.06
100
AcDbArc
 50
270.0
 51
360.0
  0
ARC
  5
2A7
100
AcDbEntity
  8
0
100
AcDbCircle
 62
7
  6
CONTINUOUS
 10
9.3151923427
 20
6.8612187254
 40
0.05
100
AcDbArc
 50
36.8698976458
 51
180.0
  0
ARC
  5
2A8
100
AcDbEntity
  8
0
100
AcDbCircle
 62
7
  6
CONTINUOUS
 10
9.0140340652
 20
7.132663333
 40
0.04
100
AcDbArc
 50
299.011149689
 51
358.5
  0
ARC
  5
2A9
100
AcDbEntity
  8
0
100
AcDbCircle
 62
7
  6
CONTINUOUS
 10
9.0201923427
 20
6.8012187254
 40
0.03
100
AcDbArc
 50
180.0
 51
270.0
  0
ARC
  5
2AA
100
AcDbEntity
  8
0
100
AcDbCircle
 62
7
  6
CONTINUOUS
 10
9.0101923427
 20
7.0635798591
 40
0.02
100
AcDbArc
 50
114.5126172195
 51
179.9999999978
  0
ARC
  5
2AB
100
AcDbEntity
  8
0
100
AcDbCircle
 62
9
  6
CONTINUOUS
 10
9.0210864192
 20
8.8482058973
 40
0.0516370723
100
AcDbArc
 50
25.5706402918
 51
35.1304544286
  0
ARC
  5
2AC
100
AcDbEntity
  8
0
100
AcDbCircle
 62
9
  6
CONTINUOUS
 10
9.0079027481
 20
8.8402102223
 40
0.0512494325
100
AcDbArc
 50
25.5283195998
 51
35.1725579486
  0
ARC
  5
2AD
100
AcDbEntity
  8
0
100
AcDbCircle
 62
7
  6
CONTINUOUS
 10
9.059567559
 20
8.8715173047
 40
0.04
100
AcDbArc
 50
358.5
 51
62.5428369926
  0
ARC
  5
2AE
100
AcDbEntity
  8
0
100
AcDbCircle
 62
9
  6
CONTINUOUS
 10
9.0189080884
 20
8.8460973108
 40
0.0030002018
100
AcDbArc
 50
358.5026377327
 51
65.4313580725
  0
ARC
  5
2AF
100
AcDbEntity
  8
0
100
AcDbCircle
 62
7
  6
CONTINUOUS
 10
9.8051923427
 20
5.7912187254
 40
0.06
100
AcDbArc
 50
223.0944157882
 51
360.0
  0
ARC
  5
2B0
100
AcDbEntity
  8
0
100
AcDbCircle
 62
7
  6
CONTINUOUS
 10
9.9501923427
 20
4.6652187254
 40
0.04
100
AcDbArc
 50
90.0
 51
180.0
  0
ARC
  5
2B1
100
AcDbEntity
  8
0
100
AcDbCircle
 62
7
  6
CONTINUOUS
 10
10.1001923427
 20
4.9402187254
 40
0.04
100
AcDbArc
 50
90.0
 51
180.0
  0
ARC
  5
2B2
100
AcDbEntity
  8
0
100
AcDbCircle
 62
7
  6
CONTINUOUS
 10
10.0176660269
 20
4.8152187465
 40
0.04
100
AcDbArc
 50
112.4647273761
 51
180.0
  0
ARC
  5
2B3
100
AcDbEntity
  8
0
100
AcDbCircle
 62
7
  6
CONTINUOUS
 10
9.9576660269
 20
4.7252187254
 40
0.02
100
AcDbArc
 50
270.0
 51
360.0
  0
ARC
  5
2B4
100
AcDbEntity
  8
0
100
AcDbCircle
 62
7
  6
CONTINUOUS
 10
10.0086077971
 20
7.9079162851
 40
0.468503937
100
AcDbArc
 50
280.5491060217
 51
354.247680581
  0
ARC
  5
2B5
100
AcDbEntity
  8
0
100
AcDbCircle
 62
7
  6
CONTINUOUS
 10
10.3971923427
 20
7.8687719888
 40
0.0779527559
100
AcDbArc
 50
354.247680581
 51
56.2967024761
  0
ARC
  5
2B6
100
AcDbEntity
  8
0
100
AcDbCircle
 62
7
  6
CONTINUOUS
 10
9.8051923427
 20
6.9912187254
 40
0.06
100
AcDbArc
 50
0.0
 51
136.9055842118
  0
ARC
  5
2B7
100
AcDbEntity
  8
0
100
AcDbCircle
 62
7
  6
CONTINUOUS
 10
10.1051923427
 20
7.3892738435
 40
0.0590551181
100
AcDbArc
 50
100.5491060217
 51
270.0
  0
ARC
  5
2B8
100
AcDbEntity
  8
0
100
AcDbCircle
 62
7
  6
CONTINUOUS
 10
10.4681923427
 20
7.9752187254
 40
0.05
100
AcDbArc
 50
90.0
 51
236.2967024761
  0
ARC
  5
2B9
100
AcDbEntity
  8
0
100
AcDbCircle
 62
7
  6
CONTINUOUS
 10
10.0296063644
 20
11.3616909155
 40
0.62215859
100
AcDbArc
 50
359.9980477836
 51
7.3309566672
  0
ARC
  5
2BA
100
AcDbEntity
  8
0
100
AcDbCircle
 62
7
  6
CONTINUOUS
 10
10.9351923427
 20
13.7302187254
 40
0.25
100
AcDbArc
 50
0.0
 51
180.0
  0
ARC
  5
2BB
100
AcDbEntity
  8
0
100
AcDbCircle
 62
7
  6
CONTINUOUS
 10
10.5248846536
 20
11.4254029922
 40
0.1227992242
100
AcDbArc
 50
7.3341170077
 51
9.3808617919
  0
ARC
  5
2BC
100
AcDbEntity
  8
0
100
AcDbCircle
 62
7
  6
CONTINUOUS
 10
10.6852571039
 20
11.5740260916
 40
0.096492142
100
AcDbArc
 50
169.4950477777
 51
179.9936056041
  0
ARC
  5
2BD
100
AcDbEntity
  8
0
100
AcDbCircle
 62
9
  6
CONTINUOUS
 10
10.6804328345
 20
11.5563729865
 40
0.0822112414
100
AcDbArc
 50
219.7772798715
 51
223.5713312783
  0
ARC
  5
2BE
100
AcDbEntity
  8
0
100
AcDbCircle
 62
7
  6
CONTINUOUS
 10
10.6971320036
 20
11.2459793003
 40
0.076939677
100
AcDbArc
 50
168.8791297223
 51
179.9912899704
  0
ARC
  5
2BF
100
AcDbEntity
  8
0
100
AcDbCircle
 62
9
  6
CONTINUOUS
 10
10.6778694313
 20
11.540697243
 40
0.0698768819
100
AcDbArc
 50
215.7149301735
 51
219.7410510976
  0
ARC
  5
2C0
100
AcDbEntity
  8
0
100
AcDbCircle
 62
9
  6
CONTINUOUS
 10
10.6731940888
 20
11.5372402354
 40
0.0640628335
100
AcDbArc
 50
215.0678657661
 51
215.6455192219
  0
ARC
  5
2C1
100
AcDbEntity
  8
0
100
AcDbCircle
 62
9
  6
CONTINUOUS
 10
10.669946154
 20
11.5349883147
 40
0.0601106612
100
AcDbArc
 50
210.6905836511
 51
215.0897455216
  0
ARC
  5
2C2
100
AcDbEntity
  8
0
100
AcDbCircle
 62
9
  6
CONTINUOUS
 10
10.6324101531
 20
11.5838407704
 40
0.042741969
100
AcDbArc
 50
167.3474999668
 51
169.5136097522
  0
ARC
  5
2C3
100
AcDbEntity
  8
0
100
AcDbCircle
 62
7
  6
CONTINUOUS
 10
12.0701923427
 20
5.7912187254
 40
0.06
100
AcDbArc
 50
180.0
 51
316.9055842118
  0
ARC
  5
2C4
100
AcDbEntity
  8
0
100
AcDbCircle
 62
7
  6
CONTINUOUS
 10
11.9201923427
 20
4.6652187254
 40
0.04
100
AcDbArc
 50
0.0
 51
90.0
  0
ARC
  5
2C5
100
AcDbEntity
  8
0
100
AcDbCircle
 62
7
  6
CONTINUOUS
 10
11.7701923427
 20
4.9402187254
 40
0.04
100
AcDbArc
 50
0.0
 51
90.0
  0
ARC
  5
2C6
100
AcDbEntity
  8
0
100
AcDbCircle
 62
7
  6
CONTINUOUS
 10
11.8527186585
 20
4.8152187253
 40
0.04
100
AcDbArc
 50
0.0
 51
67.5352437206
  0
ARC
  5
2C7
100
AcDbEntity
  8
0
100
AcDbCircle
 62
7
  6
CONTINUOUS
 10
11.9127186585
 20
4.7252187254
 40
0.02
100
AcDbArc
 50
180.0
 51
270.0
  0
ARC
  5
2C8
100
AcDbEntity
  8
0
100
AcDbCircle
 62
7
  6
CONTINUOUS
 10
11.8617768884
 20
7.9079162851
 40
0.468503937
100
AcDbArc
 50
185.752319419
 51
259.4508939783
  0
ARC
  5
2C9
100
AcDbEntity
  8
0
100
AcDbCircle
 62
7
  6
CONTINUOUS
 10
11.4731923427
 20
7.8687719888
 40
0.0779527559
100
AcDbArc
 50
123.7032975239
 51
185.752319419
  0
ARC
  5
2CA
100
AcDbEntity
  8
0
100
AcDbCircle
 62
7
  6
CONTINUOUS
 10
12.0701923427
 20
6.9912187254
 40
0.06
100
AcDbArc
 50
43.0944157883
 51
180.0
  0
ARC
  5
2CB
100
AcDbEntity
  8
0
100
AcDbCircle
 62
7
  6
CONTINUOUS
 10
11.7651923427
 20
7.3892738435
 40
0.0590551181
100
AcDbArc
 50
270.0
 51
79.4508939783
  0
ARC
  5
2CC
100
AcDbEntity
  8
0
100
AcDbCircle
 62
7
  6
CONTINUOUS
 10
11.4021923427
 20
7.9752187254
 40
0.05
100
AcDbArc
 50
303.7032975239
 51
90.0
  0
ARC
  5
2CD
100
AcDbEntity
  8
0
100
AcDbCircle
 62
7
  6
CONTINUOUS
 10
12.5156319516
 20
5.3744651353
 40
0.55
100
AcDbArc
 50
96.7025515627
 51
136.9055842118
  0
ARC
  5
2CE
100
AcDbEntity
  8
0
100
AcDbCircle
 62
7
  6
CONTINUOUS
 10
12.4601923427
 20
5.8462187254
 40
0.075
100
AcDbArc
 50
36.8698976458
 51
96.7025515627
  0
ARC
  5
2CF
100
AcDbEntity
  8
0
100
AcDbCircle
 62
7
  6
CONTINUOUS
 10
12.6701923427
 20
5.9512187254
 40
0.06
100
AcDbArc
 50
90.0
 51
180.0
  0
ARC
  5
2D0
100
AcDbEntity
  8
0
100
AcDbCircle
 62
7
  6
CONTINUOUS
 10
13.4476520097
 20
6.0337590585
 40
0.0525403331
100
AcDbArc
 50
205.4047544257
 51
360.0
  0
ARC
  5
2D1
100
AcDbEntity
  8
0
100
AcDbCircle
 62
7
  6
CONTINUOUS
 10
13.4476520097
 20
6.7486783923
 40
0.0525403331
100
AcDbArc
 50
0.0
 51
154.5952455743
  0
ARC
  5
2D2
100
AcDbEntity
  8
0
100
AcDbCircle
 62
7
  6
CONTINUOUS
 10
12.5601923427
 20
5.9212187254
 40
0.05
100
AcDbArc
 50
216.8698976459
 51
360.0
  0
ARC
  5
2D3
100
AcDbEntity
  8
0
100
AcDbCircle
 62
7
  6
CONTINUOUS
 10
12.5156319516
 20
7.4079723155
 40
0.55
100
AcDbArc
 50
223.0944157882
 51
263.2974484373
  0
ARC
  5
2D4
100
AcDbEntity
  8
0
100
AcDbCircle
 62
7
  6
CONTINUOUS
 10
12.4601923427
 20
6.9362187254
 40
0.075
100
AcDbArc
 50
263.2974484373
 51
323.1301023542
  0
ARC
  5
2D5
100
AcDbEntity
  8
0
100
AcDbCircle
 62
7
  6
CONTINUOUS
 10
12.6701923427
 20
6.8312187254
 40
0.06
100
AcDbArc
 50
180.0
 51
270.0
  0
ARC
  5
2D6
100
AcDbEntity
  8
0
100
AcDbCircle
 62
7
  6
CONTINUOUS
 10
12.5601923427
 20
6.8612187254
 40
0.05
100
AcDbArc
 50
0.0
 51
143.1301023542
  0
ARC
  5
2D7
100
AcDbEntity
  8
0
100
AcDbCircle
 62
7
  6
CONTINUOUS
 10
12.8613506202
 20
7.132663333
 40
0.04
100
AcDbArc
 50
181.5
 51
240.988850311
  0
ARC
  5
2D8
100
AcDbEntity
  8
0
100
AcDbCircle
 62
7
  6
CONTINUOUS
 10
12.8551923427
 20
6.8012187254
 40
0.03
100
AcDbArc
 50
270.0
 51
360.0
  0
ARC
  5
2D9
100
AcDbEntity
  8
0
100
AcDbCircle
 62
7
  6
CONTINUOUS
 10
12.8651923427
 20
7.0635798591
 40
0.02
100
AcDbArc
 50
0.0
 51
65.4873827799
  0
ARC
  5
2DA
100
AcDbEntity
  8
0
100
AcDbCircle
 62
9
  6
CONTINUOUS
 10
12.8541565334
 20
8.8482872945
 40
0.0514741198
100
AcDbArc
 50
144.8530210201
 51
154.4430135454
  0
ARC
  5
2DB
100
AcDbEntity
  8
0
100
AcDbCircle
 62
9
  6
CONTINUOUS
 10
12.8673107515
 20
8.8403076508
 40
0.0510530536
100
AcDbArc
 50
144.8052009898
 51
154.4861543446
  0
ARC
  5
2DC
100
AcDbEntity
  8
0
100
AcDbCircle
 62
7
  6
CONTINUOUS
 10
12.8158171265
 20
8.8715173047
 40
0.04
100
AcDbArc
 50
117.4571630074
 51
181.5
  0
ARC
  5
2DD
100
AcDbEntity
  8
0
100
AcDbCircle
 62
9
  6
CONTINUOUS
 10
12.8564766071
 20
8.8460973273
 40
0.0030002026
100
AcDbArc
 50
114.5689472741
 51
181.497671948
  0
ARC
  5
2DE
100
AcDbEntity
  8
0
100
AcDbCircle
 62
9
  6
CONTINUOUS
 10
13.0601852175
 20
7.4959286977
 40
0.4671358805
100
AcDbArc
 50
251.9174495113
 51
288.082135649
  0
ARC
  5
2DF
100
AcDbEntity
  8
0
100
AcDbCircle
 62
7
  6
CONTINUOUS
 10
13.0601923427
 20
7.4912187254
 40
0.45
100
AcDbArc
 50
240.988850311
 51
246.1395735079
  0
ARC
  5
2E0
100
AcDbEntity
  8
0
100
AcDbCircle
 62
7
  6
CONTINUOUS
 10
13.0601923427
 20
7.4912187254
 40
0.45
100
AcDbArc
 50
293.8604113022
 51
299.011149689
  0
ARC
  5
2E1
100
AcDbEntity
  8
0
100
AcDbCircle
 62
9
  6
CONTINUOUS
 10
13.0601863783
 20
7.4943458725
 40
0.4480774265
100
AcDbArc
 50
251.8546050767
 51
288.1448675636
  0
ARC
  5
2E2
100
AcDbEntity
  8
0
100
AcDbCircle
 62
9
  6
CONTINUOUS
 10
13.0601897796
 20
7.4910655654
 40
0.4221267656
100
AcDbArc
 50
244.4534244126
 51
295.5462341444
  0
ARC
  5
2E3
100
AcDbEntity
  8
0
100
AcDbCircle
 62
9
  6
CONTINUOUS
 10
13.0601927364
 20
7.491088554
 40
0.4088443775
100
AcDbArc
 50
244.4711767896
 51
295.5288134224
  0
ARC
  5
2E4
100
AcDbEntity
  8
0
100
AcDbCircle
 62
9
  6
CONTINUOUS
 10
13.0601923427
 20
7.4904522713
 40
0.3730001991
100
AcDbArc
 50
244.4682079426
 51
295.5317920574
  0
ARC
  5
2E5
100
AcDbEntity
  8
0
100
AcDbCircle
 62
9
  6
CONTINUOUS
 10
12.8975008416
 20
7.1553495523
 40
0.0502841896
100
AcDbArc
 50
208.1354665074
 51
217.2794814124
  0
ARC
  5
2E6
100
AcDbEntity
  8
0
100
AcDbCircle
 62
9
  6
CONTINUOUS
 10
12.9102976825
 20
7.1633719409
 40
0.0499357133
100
AcDbArc
 50
208.0940514951
 51
217.3132851022
  0
ARC
  5
2E7
100
AcDbEntity
  8
0
100
AcDbCircle
 62
9
  6
CONTINUOUS
 10
12.9007180412
 20
7.1565840925
 40
0.0030001827
100
AcDbArc
 50
181.5021921801
 51
244.4662571125
  0
ARC
  5
2E8
100
AcDbEntity
  8
0
100
AcDbCircle
 62
7
  6
CONTINUOUS
 10
13.2590340652
 20
7.132663333
 40
0.04
100
AcDbArc
 50
299.011149689
 51
358.5
  0
ARC
  5
2E9
100
AcDbEntity
  8
0
100
AcDbCircle
 62
7
  6
CONTINUOUS
 10
13.2651923427
 20
6.8012187254
 40
0.03
100
AcDbArc
 50
180.0
 51
270.0
  0
ARC
  5
2EA
100
AcDbEntity
  8
0
100
AcDbCircle
 62
7
  6
CONTINUOUS
 10
13.2551923427
 20
7.0635798591
 40
0.02
100
AcDbArc
 50
114.5126172195
 51
179.9999999979
  0
ARC
  5
2EB
100
AcDbEntity
  8
0
100
AcDbCircle
 62
9
  6
CONTINUOUS
 10
13.2228602218
 20
7.1553661405
 40
0.0503129191
100
AcDbArc
 50
322.7219101404
 51
331.8606056681
  0
ARC
  5
2EC
100
AcDbEntity
  8
0
100
AcDbCircle
 62
9
  6
CONTINUOUS
 10
13.2100695867
 20
7.1633857219
 40
0.049957718
100
AcDbArc
 50
322.6848778819
 51
331.8998521202
  0
ARC
  5
2ED
100
AcDbEntity
  8
0
100
AcDbCircle
 62
9
  6
CONTINUOUS
 10
13.2196666357
 20
7.1565840794
 40
0.0030001826
100
AcDbArc
 50
295.5339995424
 51
358.4980622348
  0
ARC
  5
2EE
100
AcDbEntity
  8
0
100
AcDbCircle
 62
7
  6
CONTINUOUS
 10
13.0601923427
 20
8.4012187254
 40
0.57
100
AcDbArc
 50
62.5428369926
 51
117.4571630074
  0
ARC
  5
2EF
100
AcDbEntity
  8
0
100
AcDbCircle
 62
9
  6
CONTINUOUS
 10
13.0601950122
 20
8.4010870835
 40
0.5421259403
100
AcDbArc
 50
65.4430155032
 51
114.5567100538
  0
ARC
  5
2F0
100
AcDbEntity
  8
0
100
AcDbCircle
 62
9
  6
CONTINUOUS
 10
13.0601918845
 20
8.4010702368
 40
0.5288449374
100
AcDbArc
 50
65.4312459875
 51
114.5687424422
  0
ARC
  5
2F1
100
AcDbEntity
  8
0
100
AcDbCircle
 62
9
  6
CONTINUOUS
 10
13.0601923427
 20
8.4004516504
 40
0.493000364
100
AcDbArc
 50
65.4336637094
 51
114.5663362907
  0
ARC
  5
2F2
100
AcDbEntity
  8
0
100
AcDbCircle
 62
9
  6
CONTINUOUS
 10
13.2660853405
 20
8.8482051047
 40
0.0516383994
100
AcDbArc
 50
25.57091024
 51
35.1304786756
  0
ARC
  5
2F3
100
AcDbEntity
  8
0
100
AcDbCircle
 62
9
  6
CONTINUOUS
 10
13.2529011273
 20
8.8402089649
 40
0.0512514597
100
AcDbArc
 50
25.5289958839
 51
35.1728578399
  0
ARC
  5
2F4
100
AcDbEntity
  8
0
100
AcDbCircle
 62
7
  6
CONTINUOUS
 10
13.304567559
 20
8.8715173047
 40
0.04
100
AcDbArc
 50
358.5
 51
62.5428369926
  0
ARC
  5
2F5
100
AcDbEntity
  8
0
100
AcDbCircle
 62
9
  6
CONTINUOUS
 10
13.2639080874
 20
8.8460973134
 40
0.0030002027
100
AcDbArc
 50
358.5025886237
 51
65.431319892
  0
ARC
  5
2F6
100
AcDbEntity
  8
0
100
AcDbCircle
 62
7
  6
CONTINUOUS
 10
11.8407829435
 20
11.3616907465
 40
0.6221632124
100
AcDbArc
 50
172.6690723088
 51
180.0019366447
  0
ARC
  5
2F7
100
AcDbEntity
  8
0
100
AcDbCircle
 62
7
  6
CONTINUOUS
 10
11.3454406219
 20
11.4254104023
 40
0.1227393543
100
AcDbArc
 50
170.6204574292
 51
172.6657735269
  0
ARC
  5
2F8
100
AcDbEntity
  8
0
100
AcDbCircle
 62
7
  6
CONTINUOUS
 10
11.1851439882
 20
11.574027255
 40
0.0964757353
100
AcDbArc
 50
0.0057045372
 51
10.5058744696
  0
ARC
  5
2F9
100
AcDbEntity
  8
0
100
AcDbCircle
 62
9
  6
CONTINUOUS
 10
11.1913877496
 20
11.5550947108
 40
0.0802898837
100
AcDbArc
 50
316.3770607263
 51
320.2581626255
  0
ARC
  5
2FA
100
AcDbEntity
  8
0
100
AcDbCircle
 62
7
  6
CONTINUOUS
 10
11.1732661665
 20
11.2459803379
 40
0.0769261923
100
AcDbArc
 50
0.0079387354
 51
11.1218837022
  0
ARC
  5
2FB
100
AcDbEntity
  8
0
100
AcDbCircle
 62
9
  6
CONTINUOUS
 10
11.1937611539
 20
11.539733354
 40
0.0683026463
100
AcDbArc
 50
320.2135239495
 51
324.3316205286
  0
ARC
  5
2FC
100
AcDbEntity
  8
0
100
AcDbCircle
 62
9
  6
CONTINUOUS
 10
11.1973480971
 20
11.5371284853
 40
0.0638697182
100
AcDbArc
 50
324.3537676817
 51
324.9330071699
  0
ARC
  5
2FD
100
AcDbEntity
  8
0
100
AcDbCircle
 62
9
  6
CONTINUOUS
 10
11.2014750783
 20
11.5343180826
 40
0.0588772344
100
AcDbArc
 50
324.8640800496
 51
329.3418104241
  0
ARC
  5
2FE
100
AcDbEntity
  8
0
100
AcDbCircle
 62
9
  6
CONTINUOUS
 10
11.2381114374
 20
11.5838687969
 40
0.0426022498
100
AcDbArc
 50
10.4828136377
 51
12.6560524478
  0
SPLINE
  5
2FF
100
AcDbEntity
  8
0
100
AcDbSpline
 62
7
  6
CONTINUOUS
 70
0
 71
3
 72
41
 73
37
 74
0
 42
0.0000001
 43
0.0000001
 44
0.0000000001
 40
0.0
 40
0.0
 40
0.0
 40
0.0
 40
0.0110985195
 40
0.043138621
 40
0.0930399582
 40
0.1235608176
 40
0.1572252634
 40
0.1936554433
 40
0.2325155552
 40
0.2735046102
 40
0.3163417624
 40
0.3607447872
 40
0.3834415836
 40
0.4064102804
 40
0.4296037371
 40
0.4529701481
 40
0.4647018452
 40
0.4764557852
 40
0.4999999979
 40
0.5235442105
 40
0.5352981506
 40
0.5470298478
 40
0.5703962595
 40
0.5935897167
 40
0.6165584133
 40
0.6392552097
 40
0.6836582348
 40
0.7264953873
 40
0.7674844432
 40
0.8063445559
 40
0.8427747363
 40
0.8764391821
 40
0.9069600417
 40
0.9568613789
 40
0.9889014804
 40
1.0
 40
1.0
 40
1.0
 40
1.0
 10
11.7401923427
 20
5.8912187254
 30
0.0
 10
11.7380981165
 20
5.8945904025
 30
0.0
 10
11.7299945539
 20
5.907718379
 30
0.0
 10
11.7128347399
 20
5.9362274429
 30
0.0
 10
11.692902785
 20
5.9711691026
 30
0.0
 10
11.6736457076
 20
6.0071422917
 30
0.0
 10
11.6574171398
 20
6.0392623027
 30
0.0
 10
11.6408493234
 20
6.0745368293
 30
0.0
 10
11.6244795531
 20
6.1127746589
 30
0.0
 10
11.6088886239
 20
6.153803158
 30
0.0
 10
11.5947094343
 20
6.1974358821
 30
0.0
 10
11.5847094664
 20
6.2354878478
 30
0.0
 10
11.5780513888
 20
6.2670085618
 30
0.0
 10
11.5738000414
 20
6.2912701485
 30
0.0
 10
11.570404845
 20
6.3159081727
 30
0.0
 10
11.5683436428
 20
6.3366583594
 30
0.0
 10
11.5671774802
 20
6.3533742291
 30
0.0
 10
11.566337434
 20
6.3701733477
 30
0.0
 10
11.5659164018
 20
6.3912187231
 30
0.0
 10
11.566337434
 20
6.4122640985
 30
0.0
 10
11.56717748
 20
6.4290632172
 30
0.0
 10
11.5683436422
 20
6.4457790872
 30
0.0
 10
11.5704048448
 20
6.4665292744
 30
0.0
 10
11.5738000409
 20
6.4911672989
 30
0.0
 10
11.578051388
 20
6.5154288857
 30
0.0
 10
11.5847094659
 20
6.5469495997
 30
0.0
 10
11.5947094333
 20
6.5850015658
 30
0.0
 10
11.6088886231
 20
6.6286342905
 30
0.0
 10
11.6244795524
 20
6.6696627903
 30
0.0
 10
11.640849323
 20
6.7079006206
 30
0.0
 10
11.6574171396
 20
6.7431751477
 30
0.0
 10
11.6736457075
 20
6.7752951589
 30
0.0
 10
11.6929027849
 20
6.811268348
 30
0.0
 10
11.7128347398
 20
6.8462100078
 30
0.0
 10
11.7299945538
 20
6.8747190717
 30
0.0
 10
11.7380981165
 20
6.8878470483
 30
0.0
 10
11.7401923427
 20
6.8912187254
 30
0.0
  0
SPLINE
  5
300
100
AcDbEntity
  8
0
100
AcDbSpline
 62
7
  6
CONTINUOUS
 70
0
 71
3
 72
41
 73
37
 74
0
 42
0.0000001
 43
0.0000001
 44
0.0000000001
 40
0.0
 40
0.0
 40
0.0
 40
0.0
 40
0.0110985197
 40
0.043138621
 40
0.093039958
 40
0.1235608176
 40
0.1572252634
 40
0.1936554438
 40
0.2325155566
 40
0.2735046127
 40
0.3163417652
 40
0.3607447903
 40
0.3834415867
 40
0.406410283
 40
0.4296037403
 40
0.4529701522
 40
0.4647018495
 40
0.4764557897
 40
0.5000000026
 40
0.5235442156
 40
0.5352981558
 40
0.5470298529
 40
0.5703962641
 40
0.5935897208
 40
0.6165584175
 40
0.6392552138
 40
0.6836582383
 40
0.7264953907
 40
0.7674844459
 40
0.8063445576
 40
0.8427747373
 40
0.8764391827
 40
0.9069600419
 40
0.9568613791
 40
0.9889014805
 40
1.0
 40
1.0
 40
1.0
 40
1.0
 10
10.1301923427
 20
6.8912187254
 30
0.0
 10
10.132286569
 20
6.8878470483
 30
0.0
 10
10.1403901316
 20
6.8747190717
 30
0.0
 10
10.1575499456
 20
6.8462100079
 30
0.0
 10
10.1774819004
 20
6.8112683482
 30
0.0
 10
10.1967389779
 20
6.7752951592
 30
0.0
 10
10.2129675458
 20
6.743175148
 30
0.0
 10
10.2295353623
 20
6.7079006209
 30
0.0
 10
10.245905133
 20
6.6696627904
 30
0.0
 10
10.2614960623
 20
6.6286342905
 30
0.0
 10
10.2756752522
 20
6.5850015658
 30
0.0
 10
10.2856752195
 20
6.5469495998
 30
0.0
 10
10.2923332975
 20
6.5154288859
 30
0.0
 10
10.2965846446
 20
6.4911672991
 30
0.0
 10
10.2999798406
 20
6.4665292745
 30
0.0
 10
10.3020410433
 20
6.4457790872
 30
0.0
 10
10.3032072055
 20
6.4290632171
 30
0.0
 10
10.3040472515
 20
6.4122640983
 30
0.0
 10
10.3044682836
 20
6.3912187226
 30
0.0
 10
10.3040472515
 20
6.3701733469
 30
0.0
 10
10.3032072051
 20
6.3533742281
 30
0.0
 10
10.3020410425
 20
6.3366583583
 30
0.0
 10
10.2999798404
 20
6.3159081715
 30
0.0
 10
10.2965846439
 20
6.2912701473
 30
0.0
 10
10.2923332964
 20
6.2670085607
 30
0.0
 10
10.2856752189
 20
6.2354878469
 30
0.0
 10
10.2756752509
 20
6.1974358813
 30
0.0
 10
10.2614960613
 20
6.1538031571
 30
0.0
 10
10.245905132
 20
6.1127746579
 30
0.0
 10
10.2295353617
 20
6.0745368284
 30
0.0
 10
10.2129675454
 20
6.0392623021
 30
0.0
 10
10.1967389777
 20
6.0071422914
 30
0.0
 10
10.1774819004
 20
5.9711691025
 30
0.0
 10
10.1575499456
 20
5.9362274429
 30
0.0
 10
10.1403901316
 20
5.907718379
 30
0.0
 10
10.132286569
 20
5.8945904025
 30
0.0
 10
10.1301923427
 20
5.8912187254
 30
0.0
  0
SPLINE
  5
301
100
AcDbEntity
  8
0
100
AcDbSpline
 62
7
  6
CONTINUOUS
 70
0
 71
3
 72
15
 73
11
 74
0
 42
0.0000001
 43
0.0000001
 44
0.0000000001
 40
0.0
 40
0.0
 40
0.0
 40
0.0
 40
0.1119165523
 40
0.2252424374
 40
0.3412839239
 40
0.461266679
 40
0.5862815771
 40
0.7172536052
 40
0.8549530494
 40
1.0
 40
1.0
 40
1.0
 40
1.0
 10
11.2389422856
 20
11.2180212481
 30
0.0
 10
11.2389422856
 20
11.2166067267
 30
0.0
 10
11.2387712004
 20
11.2137570277
 30
0.0
 10
11.2380045993
 20
11.2095027624
 30
0.0
 10
11.2367294596
 20
11.2052658306
 30
0.0
 10
11.2349500633
 20
11.2010550368
 30
0.0
 10
11.2326708557
 20
11.1968772162
 30
0.0
 10
11.2298971569
 20
11.1927386214
 30
0.0
 10
11.226634387
 20
11.1886458313
 30
0.0
 10
11.2242027236
 20
11.1860223216
 30
0.0
 10
11.2229132974
 20
11.1847191646
 30
0.0
  0
SPLINE
  5
302
100
AcDbEntity
  8
0
100
AcDbSpline
 62
7
  6
CONTINUOUS
 70
0
 71
3
 72
14
 73
10
 74
0
 42
0.0000001
 43
0.0000001
 44
0.0000000001
 40
0.0
 40
0.0
 40
0.0
 40
0.0
 40
0.0840948666
 40
0.1835577325
 40
0.2965935931
 40
0.4213022736
 40
0.6980724057
 40
0.8467294068
 40
1.0
 40
1.0
 40
1.0
 40
1.0
 10
11.2462440385
 20
11.4960206218
 30
0.0
 10
11.2452455156
 20
11.4948187247
 30
0.0
 10
11.2431500529
 20
11.4921246455
 30
0.0
 10
11.2400341894
 20
11.4875750357
 30
0.0
 10
11.2368238232
 20
11.4821889555
 30
0.0
 10
11.2324708673
 20
11.4736712323
 30
0.0
 10
11.2287682752
 20
11.464102204
 30
0.0
 10
11.2259135104
 20
11.4537293621
 30
0.0
 10
11.2248063836
 20
11.4482235269
 30
0.0
 10
11.2243422419
 20
11.4454136886
 30
0.0
  0
SPLINE
  5
303
100
AcDbEntity
  8
0
100
AcDbSpline
 62
7
  6
CONTINUOUS
 70
0
 71
3
 72
14
 73
10
 74
0
 42
0.0000001
 43
0.0000001
 44
0.0000000001
 40
0.0
 40
0.0
 40
0.0
 40
0.0
 40
0.1532469656
 40
0.3018806728
 40
0.5786744728
 40
0.7033848445
 40
0.8164320143
 40
0.915903759
 40
1.0
 40
1.0
 40
1.0
 40
1.0
 10
10.6460416422
 20
11.4454188253
 30
0.0
 10
10.6455775288
 20
11.4482279791
 30
0.0
 10
10.6444705379
 20
11.4537324792
 30
0.0
 10
10.6416152843
 20
11.464103763
 30
0.0
 10
10.6379137518
 20
11.4736723463
 30
0.0
 10
10.6335599443
 20
11.4821894811
 30
0.0
 10
10.6303502979
 20
11.4875758356
 30
0.0
 10
10.6272342257
 20
11.492125247
 30
0.0
 10
10.6251386967
 20
11.4948191386
 30
0.0
 10
10.624140276
 20
11.4960209818
 30
0.0
  0
SPLINE
  5
304
100
AcDbEntity
  8
0
100
AcDbSpline
 62
7
  6
CONTINUOUS
 70
0
 71
3
 72
16
 73
12
 74
0
 42
0.0000001
 43
0.0000001
 44
0.0000000001
 40
0.0
 40
0.0
 40
0.0
 40
0.0
 40
0.1225870565
 40
0.2452239049
 40
0.368443144
 40
0.4926496498
 40
0.6180182946
 40
0.6811746497
 40
0.7446214526
 40
0.8720112247
 40
1.0
 40
1.0
 40
1.0
 40
1.0
 10
11.2229322938
 20
11.1847383507
 30
0.0
 10
11.2249095837
 20
11.1867366721
 30
0.0
 10
11.2287260122
 20
11.1908751737
 30
0.0
 10
11.2339586343
 20
11.1975206487
 30
0.0
 10
11.2386277156
 20
11.2046208692
 30
0.0
 10
11.2426481079
 20
11.2121802152
 30
0.0
 10
11.2453721456
 20
11.2188295073
 30
0.0
 10
11.2471325825
 20
11.2243357432
 30
0.0
 10
11.2486015747
 20
11.2299747826
 30
0.0
 10
11.2498553405
 20
11.2371940947
 30
0.0
 10
11.250192358
 20
11.2430559009
 30
0.0
 10
11.250192358
 20
11.2459909966
 30
0.0
  0
SPLINE
  5
305
100
AcDbEntity
  8
0
100
AcDbSpline
 62
7
  6
CONTINUOUS
 70
0
 71
3
 72
15
 73
11
 74
0
 42
0.0000001
 43
0.0000001
 44
0.0000000001
 40
0.0
 40
0.0
 40
0.0
 40
0.0
 40
0.1450490459
 40
0.2827498879
 40
0.4137226321
 40
0.5387376036
 40
0.6587198567
 40
0.7747603664
 40
0.8880849375
 40
1.0
 40
1.0
 40
1.0
 40
1.0
 10
10.6474736471
 20
11.1847168817
 30
0.0
 10
10.6461840433
 20
11.1860201185
 30
0.0
 10
10.6437520446
 20
11.1886437906
 30
0.0
 10
10.6404888157
 20
11.1927368497
 30
0.0
 10
10.6377147248
 20
11.1968757231
 30
0.0
 10
10.6354351936
 20
11.2010538307
 30
0.0
 10
10.6336555435
 20
11.2052649188
 30
0.0
 10
10.6323802211
 20
11.209502151
 30
0.0
 10
10.6316135098
 20
11.2137567207
 30
0.0
 10
10.6314423999
 20
11.2166066258
 30
0.0
 10
10.6314423999
 20
11.2180212481
 30
0.0
  0
SPLINE
  5
306
100
AcDbEntity
  8
0
100
AcDbSpline
 62
7
  6
CONTINUOUS
 70
0
 71
3
 72
16
 73
12
 74
0
 42
0.0000001
 43
0.0000001
 44
0.0000000001
 40
0.0
 40
0.0
 40
0.0
 40
0.0
 40
0.1279913991
 40
0.2553736031
 40
0.3188231722
 40
0.3819811941
 40
0.507350664
 40
0.6315562532
 40
0.7547759828
 40
0.877417226
 40
1.0
 40
1.0
 40
1.0
 40
1.0
 10
10.6201923275
 20
11.2459909966
 30
0.0
 10
10.6201923275
 20
11.2430556614
 30
0.0
 10
10.6205292874
 20
11.2371935957
 30
0.0
 10
10.6217834193
 20
11.2299739469
 30
0.0
 10
10.6232524198
 20
11.2243346179
 30
0.0
 10
10.6250130813
 20
11.2188279551
 30
0.0
 10
10.6277374011
 20
11.2121782552
 30
0.0
 10
10.6317584383
 20
11.2046186592
 30
0.0
 10
10.6364278111
 20
11.1975178908
 30
0.0
 10
10.641661277
 20
11.1908724121
 30
0.0
 10
10.6454777874
 20
11.1867335146
 30
0.0
 10
10.6474552807
 20
11.184735291
 30
0.0
  0
SPLINE
  5
307
100
AcDbEntity
  8
0
100
AcDbSpline
 62
7
  6
CONTINUOUS
 70
0
 71
3
 72
16
 73
12
 74
0
 42
0.0000001
 43
0.0000001
 44
0.0000000001
 40
0.0
 40
0.0
 40
0.0
 40
0.0
 40
0.120849327
 40
0.2426836561
 40
0.3658004237
 40
0.4903440747
 40
0.6162703834
 40
0.6797294356
 40
0.7434733736
 40
0.871463581
 40
1.0
 40
1.0
 40
1.0
 40
1.0
 10
11.2531045977
 20
11.5035964263
 30
0.0
 10
11.2551937227
 20
11.5059283869
 30
0.0
 10
11.2592257579
 20
11.5107611713
 30
0.0
 10
11.2647282582
 20
11.5184888114
 30
0.0
 10
11.269625461
 20
11.5267277425
 30
0.0
 10
11.2738230308
 20
11.5354632151
 30
0.0
 10
11.2766504731
 20
11.5431035202
 30
0.0
 10
11.2784711726
 20
11.5494060822
 30
0.0
 10
11.2799867399
 20
11.5558439334
 30
0.0
 10
11.2812742283
 20
11.5640559403
 30
0.0
 10
11.281619723
 20
11.570706816
 30
0.0
 10
11.281619723
 20
11.5740368605
 30
0.0
  0
SPLINE
  5
308
100
AcDbEntity
  8
0
100
AcDbSpline
 62
7
  6
CONTINUOUS
 70
0
 71
3
 72
16
 73
12
 74
0
 42
0.0000001
 43
0.0000001
 44
0.0000000001
 40
0.0
 40
0.0
 40
0.0
 40
0.0
 40
0.1285367449
 40
0.2565171537
 40
0.320263058
 40
0.3837234004
 40
0.5096496557
 40
0.6341945788
 40
0.7573116454
 40
0.8791510944
 40
1.0
 40
1.0
 40
1.0
 40
1.0
 10
10.5887649625
 20
11.5740368605
 30
0.0
 10
10.5887649625
 20
11.5707077149
 30
0.0
 10
10.5891101495
 20
11.5640588858
 30
0.0
 10
10.590397126
 20
11.5558493018
 30
0.0
 10
10.5919116561
 20
11.5494132353
 30
0.0
 10
10.5937313678
 20
11.5431121619
 30
0.0
 10
10.5965572681
 20
11.5354735862
 30
0.0
 10
10.6007528328
 20
11.526740044
 30
0.0
 10
10.6056475496
 20
11.5185024804
 30
0.0
 10
10.6111474852
 20
11.5107760308
 30
0.0
 10
10.615177718
 20
11.5059438101
 30
0.0
 10
10.617266004
 20
11.5036122577
 30
0.0
  0
SPLINE
  5
309
100
AcDbEntity
  8
0
100
AcDbSpline
 62
7
  6
CONTINUOUS
 70
0
 71
3
 72
45
 73
41
 74
0
 42
0.0000001
 43
0.0000001
 44
0.0000000001
 40
0.0
 40
0.0
 40
0.0
 40
0.0
 40
0.0225843179
 40
0.0460072882
 40
0.0581182461
 40
0.0705300621
 40
0.0832624542
 40
0.0963309464
 40
0.1097466373
 40
0.1235176065
 40
0.1521339675
 40
0.1821762133
 40
0.2135957158
 40
0.2463097451
 40
0.2802080665
 40
0.3151582365
 40
0.3510099735
 40
0.3875989207
 40
0.4247498957
 40
0.4622798368
 40
0.5000005271
 40
0.5377212118
 40
0.5752511367
 40
0.6124020853
 40
0.648990995
 40
0.6848426842
 40
0.7197927976
 40
0.7536910552
 40
0.7864050109
 40
0.8178244336
 40
0.847866592
 40
0.8764828705
 40
0.8902537862
 40
0.9036694259
 40
0.9167378285
 40
0.9294702357
 40
0.9418820224
 40
0.9539927865
 40
0.9774157406
 40
1.0
 40
1.0
 40
1.0
 40
1.0
 10
10.6475946841
 20
11.184594782
 30
0.0
 10
10.650809717
 20
11.1813569341
 30
0.0
 10
10.6577712433
 20
11.1751626625
 30
0.0
 10
10.6673049901
 20
11.1682802016
 30
0.0
 10
10.6755039129
 20
11.163117466
 30
0.0
 10
10.6820273936
 20
11.1593586913
 30
0.0
 10
10.6888533998
 20
11.1557483869
 30
0.0
 10
10.695978358
 20
11.1522792758
 30
0.0
 10
10.7033989066
 20
11.1489471799
 30
0.0
 10
10.7138140347
 20
11.1446267975
 30
0.0
 10
10.7275551305
 20
11.1395743072
 30
0.0
 10
10.7449197926
 20
11.1341070449
 30
0.0
 10
10.7632992335
 20
11.1291647456
 30
0.0
 10
10.7826134868
 20
11.1247578333
 30
0.0
 10
10.8027710908
 20
11.1208997946
 30
0.0
 10
10.8236700143
 20
11.1176051056
 30
0.0
 10
10.8451995641
 20
11.114887753
 30
0.0
 10
10.8672419232
 20
11.1127602337
 30
0.0
 10
10.889673694
 20
11.111232861
 30
0.0
 10
10.912367343
 20
11.1103132971
 30
0.0
 10
10.935192608
 20
11.1100062515
 30
0.0
 10
10.9580178695
 20
11.1103133118
 30
0.0
 10
10.9807115082
 20
11.1112328899
 30
0.0
 10
11.0031432619
 20
11.112760276
 30
0.0
 10
11.0251855971
 20
11.1148878074
 30
0.0
 10
11.0467151167
 20
11.1176051703
 30
0.0
 10
11.0676140045
 20
11.1208998675
 30
0.0
 10
11.0877715675
 20
11.1247579118
 30
0.0
 10
11.1070857753
 20
11.1291648261
 30
0.0
 10
11.125465166
 20
11.1341071244
 30
0.0
 10
11.1428297772
 20
11.1395743804
 30
0.0
 10
11.1565708272
 20
11.1446268646
 30
0.0
 10
11.1669859167
 20
11.1489472417
 30
0.0
 10
11.174406426
 20
11.1522793284
 30
0.0
 10
11.1815313733
 20
11.155748405
 30
0.0
 10
11.1883573348
 20
11.1593587487
 30
0.0
 10
11.194880794
 20
11.1631174759
 30
0.0
 10
11.2030796652
 20
11.1682802036
 30
0.0
 10
11.2126133774
 20
11.1751626177
 30
0.0
 10
11.2195748982
 20
11.181356873
 30
0.0
 10
11.2227899276
 20
11.1845947078
 30
0.0
  0
SPLINE
  5
30A
100
AcDbEntity
  8
0
100
AcDbSpline
 62
7
  6
CONTINUOUS
 70
0
 71
3
 72
48
 73
44
 74
0
 42
0.0000001
 43
0.0000001
 44
0.0000000001
 40
0.0
 40
0.0
 40
0.0
 40
0.0
 40
0.0120406946
 40
0.0240812206
 40
0.0362094764
 40
0.0484681926
 40
0.0608891628
 40
0.0735115757
 40
0.0863727151
 40
0.0995009603
 40
0.1129189477
 40
0.1266443735
 40
0.1406903791
 40
0.155066351
 40
0.1848202685
 40
0.215905213
 40
0.2482702076
 40
0.2818259106
 40
0.3164522619
 40
0.3520047595
 40
0.3883197134
 40
0.4252187731
 40
0.4625129657
 40
0.5000064262
 40
0.5374998766
 40
0.5747940381
 40
0.6116930444
 40
0.6480079298
 40
0.6835603394
 40
0.7181865814
 40
0.7517421623
 40
0.7841070261
 40
0.8151918282
 40
0.8449455826
 40
0.873364695
 40
0.9005043454
 40
0.92648921
 40
0.9391117286
 40
0.9515319297
 40
0.9637894679
 40
0.9759187036
 40
0.987962861
 40
1.0
 40
1.0
 40
1.0
 40
1.0
 10
11.2592647488
 20
11.6335990119
 30
0.0
 10
11.2574647502
 20
11.6357025251
 30
0.0
 10
11.253721502
 20
11.6397889995
 30
0.0
 10
11.2477184969
 20
11.6455647081
 30
0.0
 10
11.2413584746
 20
11.6510213981
 30
0.0
 10
11.2346517588
 20
11.6561892866
 30
0.0
 10
11.227612268
 20
11.6610944921
 30
0.0
 10
11.2202456947
 20
11.6657568551
 30
0.0
 10
11.2125564251
 20
11.6701991858
 30
0.0
 10
11.2045454181
 20
11.6744371489
 30
0.0
 10
11.1962145895
 20
11.6784832407
 30
0.0
 10
11.1875664823
 20
11.6823475778
 30
0.0
 10
11.1786037715
 20
11.6860369807
 30
0.0
 10
11.1660968252
 20
11.6907849954
 30
0.0
 10
11.1496925611
 20
11.696285518
 30
0.0
 10
11.1290769707
 20
11.7021623389
 30
0.0
 10
11.1073873703
 20
11.707388897
 30
0.0
 10
11.0847191973
 20
11.7119570547
 30
0.0
 10
11.0611834078
 20
11.7158543908
 30
0.0
 10
11.0369047138
 20
11.7190670296
 30
0.0
 10
11.0120188259
 20
11.7215816118
 30
0.0
 10
10.986670132
 20
11.7233866216
 30
0.0
 10
10.9610094033
 20
11.7244732778
 30
0.0
 10
10.9351916181
 20
11.7248361027
 30
0.0
 10
10.9093738406
 20
11.7244732369
 30
0.0
 10
10.8837131354
 20
11.7233865407
 30
0.0
 10
10.8583644794
 20
11.7215814926
 30
0.0
 10
10.8334786442
 20
11.7190668743
 30
0.0
 10
10.8092000141
 20
11.7158542028
 30
0.0
 10
10.7856643112
 20
11.7119568384
 30
0.0
 10
10.7629962016
 20
11.7073886556
 30
0.0
 10
10.7413067924
 20
11.7021620822
 30
0.0
 10
10.7206909827
 20
11.6962852362
 30
0.0
 10
10.7012251544
 20
11.6897577413
 30
0.0
 10
10.6829647902
 20
11.6825644956
 30
0.0
 10
10.6659462122
 20
11.6746678584
 30
0.0
 10
10.6526888825
 20
11.6673705336
 30
0.0
 10
10.6427721769
 20
11.6610942095
 30
0.0
 10
10.6357329153
 20
11.6561893007
 30
0.0
 10
10.6290263071
 20
11.6510216659
 30
0.0
 10
10.6226657148
 20
11.6455644062
 30
0.0
 10
10.6166628363
 20
11.6397882255
 30
0.0
 10
10.6129194037
 20
11.635701904
 30
0.0
 10
10.6111199367
 20
11.6335990119
 30
0.0
  0
SPLINE
  5
30B
100
AcDbEntity
  8
0
100
AcDbSpline
 62
7
  6
CONTINUOUS
 70
0
 71
3
 72
14
 73
10
 74
0
 42
0.0000001
 43
0.0000001
 44
0.0000000001
 40
0.0
 40
0.0
 40
0.0
 40
0.0
 40
0.2484540276
 40
0.3726889523
 40
0.4971971477
 40
0.6221744169
 40
0.7475514758
 40
0.8733299656
 40
1.0
 40
1.0
 40
1.0
 40
1.0
 10
10.6110640616
 20
11.6335336587
 30
0.0
 10
10.6086013091
 20
11.6306512616
 30
0.0
 10
10.6051226651
 20
11.6261335737
 30
0.0
 10
10.6010283331
 20
11.6197423369
 30
0.0
 10
10.5982494398
 20
11.6147579604
 30
0.0
 10
10.5957905418
 20
11.6095888152
 30
0.0
 10
10.593676514
 20
11.6042478823
 30
0.0
 10
10.591935242
 20
11.5987468628
 30
0.0
 10
10.5910429993
 20
11.5949951551
 30
0.0
 10
10.5906659908
 20
11.5930993897
 30
0.0
  0
SPLINE
  5
30C
100
AcDbEntity
  8
0
100
AcDbSpline
 62
7
  6
CONTINUOUS
 70
0
 71
3
 72
14
 73
10
 74
0
 42
0.0000001
 43
0.0000001
 44
0.0000000001
 40
0.0
 40
0.0
 40
0.0
 40
0.0
 40
0.1266965457
 40
0.2524468227
 40
0.3778136097
 40
0.502799975
 40
0.627314172
 40
0.751548563
 40
1.0
 40
1.0
 40
1.0
 40
1.0
 10
11.2797186948
 20
11.5930993897
 30
0.0
 10
11.2793415904
 20
11.5949956371
 30
0.0
 10
11.2784494313
 20
11.5987475193
 30
0.0
 10
11.2767079138
 20
11.6042485472
 30
0.0
 10
11.2745937924
 20
11.6095892318
 30
0.0
 10
11.2721348196
 20
11.6147587033
 30
0.0
 10
11.2693557722
 20
11.6197435473
 30
0.0
 10
11.2652610218
 20
11.6261349758
 30
0.0
 10
11.2617822044
 20
11.6306527883
 30
0.0
 10
11.2593193062
 20
11.6335352329
 30
0.0
  0
SPLINE
  5
30D
100
AcDbEntity
  8
0
100
AcDbSpline
 62
7
  6
CONTINUOUS
 70
0
 71
3
 72
17
 73
13
 74
0
 42
0.0000001
 43
0.0000001
 44
0.0000000001
 40
0.0
 40
0.0
 40
0.0
 40
0.0
 40
0.0817622584
 40
0.180250039
 40
0.2351588308
 40
0.2934599644
 40
0.4191019721
 40
0.4858964231
 40
0.5549616862
 40
0.6259804124
 40
0.6986170527
 40
1.0
 40
1.0
 40
1.0
 40
1.0
 10
10.6382427362
 20
11.2981244012
 30
0.0
 10
10.6389309247
 20
11.2990706256
 30
0.0
 10
10.6403738881
 20
11.301211176
 30
0.0
 10
10.6420668448
 20
11.3041225836
 30
0.0
 10
10.6434553673
 20
11.3068156377
 30
0.0
 10
10.6449137301
 20
11.3099075375
 30
0.0
 10
10.6462621775
 20
11.3132367467
 30
0.0
 10
10.6474768859
 20
11.3167768854
 30
0.0
 10
10.6483305993
 20
11.3196123121
 30
0.0
 10
10.6490974055
 20
11.3225590974
 30
0.0
 10
10.6504671054
 20
11.3287787146
 30
0.0
 10
10.6511018132
 20
11.3341239594
 30
0.0
 10
10.6512812864
 20
11.3384330169
 30
0.0
  0
SPLINE
  5
30E
100
AcDbEntity
  8
0
100
AcDbSpline
 62
7
  6
CONTINUOUS
 70
0
 71
3
 72
17
 73
13
 74
0
 42
0.0000001
 43
0.0000001
 44
0.0000000001
 40
0.0
 40
0.0
 40
0.0
 40
0.0
 40
0.1527196218
 40
0.3015517496
 40
0.3741533844
 40
0.4451552229
 40
0.5142188598
 40
0.5810101629
 40
0.7066294051
 40
0.8197829362
 40
0.9182585303
 40
1.0
 40
1.0
 40
1.0
 40
1.0
 10
11.2191033991
 20
11.3384330169
 30
0.0
 10
11.2191943668
 20
11.3362489306
 30
0.0
 10
11.2195422727
 20
11.3319415731
 30
0.0
 10
11.2203867595
 20
11.3266473855
 30
0.0
 10
11.2212875557
 20
11.3225587164
 30
0.0
 10
11.2220546507
 20
11.319612152
 30
0.0
 10
11.2229080884
 20
11.3167761509
 30
0.0
 10
11.2241228799
 20
11.3132353797
 30
0.0
 10
11.2257666908
 20
11.3091776651
 30
0.0
 10
11.2278998918
 20
11.3048428411
 30
0.0
 10
11.2300113774
 20
11.3012094657
 30
0.0
 10
11.231454983
 20
11.2990690528
 30
0.0
 10
11.232143128
 20
11.2981227936
 30
0.0
  0
SPLINE
  5
30F
100
AcDbEntity
  8
0
100
AcDbSpline
 62
7
  6
CONTINUOUS
 70
0
 71
3
 72
14
 73
10
 74
0
 42
0.0000001
 43
0.0000001
 44
0.0000000001
 40
0.0
 40
0.0
 40
0.0
 40
0.0
 40
0.245242004
 40
0.3690489147
 40
0.4937063502
 40
0.6192002419
 40
0.7453885776
 40
0.8722465231
 40
1.0
 40
1.0
 40
1.0
 40
1.0
 10
10.638242671
 20
11.298124225
 30
0.0
 10
10.6362638982
 20
11.2954036535
 30
0.0
 10
10.6334759197
 20
11.2911653799
 30
0.0
 10
10.6301942219
 20
11.2852387033
 30
0.0
 10
10.6279495887
 20
11.2806231656
 30
0.0
 10
10.6259488467
 20
11.2758614125
 30
0.0
 10
10.6242092129
 20
11.2709658321
 30
0.0
 10
10.622748812
 20
11.2659475642
 30
0.0
 10
10.6219735549
 20
11.2625395321
 30
0.0
 10
10.6216365589
 20
11.2608197942
 30
0.0
  0
SPLINE
  5
310
100
AcDbEntity
  8
0
100
AcDbSpline
 62
7
  6
CONTINUOUS
 70
0
 71
3
 72
14
 73
10
 74
0
 42
0.0000001
 43
0.0000001
 44
0.0000000001
 40
0.0
 40
0.0
 40
0.0
 40
0.0
 40
0.1277968462
 40
0.2546164525
 40
0.3807811663
 40
0.506281749
 40
0.6309526089
 40
0.7547606754
 40
1.0
 40
1.0
 40
1.0
 40
1.0
 10
11.2487481266
 20
11.2608197942
 30
0.0
 10
11.248410974
 20
11.2625403313
 30
0.0
 10
11.2476357281
 20
11.2659488879
 30
0.0
 10
11.246174987
 20
11.2709674788
 30
0.0
 10
11.2444351117
 20
11.2758628556
 30
0.0
 10
11.2424340707
 20
11.2806251265
 30
0.0
 10
11.2401891106
 20
11.2852415472
 30
0.0
 10
11.2369066465
 20
11.2911689611
 30
0.0
 10
11.234118122
 20
11.2954076088
 30
0.0
 10
11.2321389914
 20
11.2981283952
 30
0.0
  0
SPLINE
  5
311
100
AcDbEntity
  8
0
100
AcDbSpline
 62
9
  6
CONTINUOUS
 70
0
 71
3
 72
59
 73
55
 74
0
 42
0.0000001
 43
0.0000001
 44
0.0000000001
 40
0.0
 40
0.0
 40
0.0
 40
0.0
 40
0.0075598929
 40
0.0153993841
 40
0.0236151481
 40
0.0322875738
 40
0.0414814395
 40
0.0512470499
 40
0.0616216791
 40
0.0726316431
 40
0.0842936602
 40
0.0966166158
 40
0.1096026344
 40
0.1232480177
 40
0.1375443191
 40
0.1524786441
 40
0.168034519
 40
0.1841921634
 40
0.2009288312
 40
0.2182193365
 40
0.2360360173
 40
0.2543492595
 40
0.2923356348
 40
0.3319094676
 40
0.3727779688
 40
0.4146316956
 40
0.4571489583
 40
0.4999999968
 40
0.5428510354
 40
0.5853682982
 40
0.6272220251
 40
0.6680905267
 40
0.7076643598
 40
0.7456507355
 40
0.7639639779
 40
0.7817806589
 40
0.7990711645
 40
0.8158078325
 40
0.8319654772
 40
0.8475213524
 40
0.8624556776
 40
0.8767519793
 40
0.8903973629
 40
0.9033833818
 40
0.9157063377
 40
0.9273683551
 40
0.9383783194
 40
0.9487529489
 40
0.9585185596
 40
0.9677124255
 40
0.9763848514
 40
0.9846006157
 40
0.992440107
 40
1.0
 40
1.0
 40
1.0
 40
1.0
 10
11.2487478887
 20
11.2608208649
 30
0.0
 10
11.2484142979
 20
11.2625231944
 30
0.0
 10
11.2474991
 20
11.2659484106
 30
0.0
 10
11.2454500509
 20
11.2709782073
 30
0.0
 10
11.2427136053
 20
11.275961992
 30
0.0
 10
11.2392989146
 20
11.2808886996
 30
0.0
 10
11.2352150677
 20
11.2857493429
 30
0.0
 10
11.2304719425
 20
11.2905347231
 30
0.0
 10
11.2250802962
 20
11.2952358514
 30
0.0
 10
11.2190517702
 20
11.299843286
 30
0.0
 10
11.2123994585
 20
11.3043477972
 30
0.0
 10
11.2051376333
 20
11.3087399393
 30
0.0
 10
11.197281956
 20
11.3130103712
 30
0.0
 10
11.1888494726
 20
11.3171500128
 30
0.0
 10
11.1798584572
 20
11.3211497477
 30
0.0
 10
11.1703285523
 20
11.325000961
 30
0.0
 10
11.1602805677
 20
11.3286951427
 30
0.0
 10
11.1497365109
 20
11.3322241471
 30
0.0
 10
11.1387195287
 20
11.335580275
 30
0.0
 10
11.1272538108
 20
11.3387559833
 30
0.0
 10
11.1153645502
 20
11.3417444149
 30
0.0
 10
11.0987799699
 20
11.345516161
 30
0.0
 10
11.0771744946
 20
11.3496962676
 30
0.0
 10
11.0503071702
 20
11.3538138126
 30
0.0
 10
11.0224267803
 20
11.3570551105
 30
0.0
 10
10.9937787877
 20
11.3593912542
 30
0.0
 10
10.9646150737
 20
11.360801348
 30
0.0
 10
10.9351923461
 20
11.3612727883
 30
0.0
 10
10.9057696185
 20
11.3608013483
 30
0.0
 10
10.8766059044
 20
11.3593912546
 30
0.0
 10
10.8479579116
 20
11.3570551111
 30
0.0
 10
10.8200775215
 20
11.3538138134
 30
0.0
 10
10.7932101968
 20
11.3496962686
 30
0.0
 10
10.7716047213
 20
11.3455161622
 30
0.0
 10
10.7550201408
 20
11.3417444163
 30
0.0
 10
10.74313088
 20
11.3387559847
 30
0.0
 10
10.731665162
 20
11.3355802765
 30
0.0
 10
10.7206481795
 20
11.3322241487
 30
0.0
 10
10.7101041225
 20
11.3286951443
 30
0.0
 10
10.7000561377
 20
11.3250009627
 30
0.0
 10
10.6905262325
 20
11.3211497494
 30
0.0
 10
10.6815352169
 20
11.3171500146
 30
0.0
 10
10.6731027332
 20
11.3130103732
 30
0.0
 10
10.6652470556
 20
11.3087399413
 30
0.0
 10
10.6579852302
 20
11.3043477992
 30
0.0
 10
10.6513329182
 20
11.2998432881
 30
0.0
 10
10.6453043919
 20
11.2952358536
 30
0.0
 10
10.6399127453
 20
11.2905347252
 30
0.0
 10
10.6351696198
 20
11.2857493451
 30
0.0
 10
10.6310857726
 20
11.2808887018
 30
0.0
 10
10.6276710816
 20
11.2759619942
 30
0.0
 10
10.6249346357
 20
11.2709782096
 30
0.0
 10
10.6228855863
 20
11.2659484128
 30
0.0
 10
10.6219703881
 20
11.2625231967
 30
0.0
 10
10.6216367972
 20
11.2608208672
 30
0.0
  0
SPLINE
  5
312
100
AcDbEntity
  8
0
100
AcDbSpline
 62
9
  6
CONTINUOUS
 70
0
 71
3
 72
61
 73
57
 74
0
 42
0.0000001
 43
0.0000001
 44
0.0000000001
 40
0.0
 40
0.0
 40
0.0
 40
0.0
 40
0.0075225775
 40
0.01518096
 40
0.0231000719
 40
0.0313928111
 40
0.0401539299
 40
0.0494595668
 40
0.0593685163
 40
0.0699244005
 40
0.0811575092
 40
0.0930870203
 40
0.1057229237
 40
0.1190671569
 40
0.133115271
 40
0.1478570037
 40
0.1632772901
 40
0.1793569204
 40
0.1960728066
 40
0.2133988054
 40
0.2313056925
 40
0.2497617484
 40
0.268732959
 40
0.2881831355
 40
0.3283650541
 40
0.3699874215
 40
0.4127074801
 40
0.4561675218
 40
0.5
 40
0.5438324782
 40
0.5872925199
 40
0.6300125785
 40
0.6716349459
 40
0.7118168645
 40
0.731267041
 40
0.7502382516
 40
0.7686943075
 40
0.7866011946
 40
0.8039271934
 40
0.8206430796
 40
0.8367227099
 40
0.8521429963
 40
0.866884729
 40
0.8809328431
 40
0.8942770763
 40
0.9069129797
 40
0.9188424908
 40
0.9300755995
 40
0.9406314837
 40
0.9505404332
 40
0.9598460701
 40
0.9686071889
 40
0.9768999281
 40
0.98481904
 40
0.9924774225
 40
1.0
 40
1.0
 40
1.0
 40
1.0
 10
11.2051923423
 20
11.2067052388
 30
0.0
 10
11.2051923423
 20
11.2051910622
 30
0.0
 10
11.2049706908
 20
11.2021309973
 30
0.0
 10
11.2039791066
 20
11.1975737859
 30
0.0
 10
11.2023326164
 20
11.1930455188
 30
0.0
 10
11.200039439
 20
11.1885594594
 30
0.0
 10
11.197108471
 20
11.1841250074
 30
0.0
 10
11.193548598
 20
11.1797514823
 30
0.0
 10
11.1893696453
 20
11.1754474464
 30
0.0
 10
11.1845818515
 20
11.1712218176
 30
0.0
 10
11.1791966648
 20
11.1670835171
 30
0.0
 10
11.1732267425
 20
11.1630415959
 30
0.0
 10
11.1666860077
 20
11.1591053085
 30
0.0
 10
11.1595898994
 20
11.1552835804
 30
0.0
 10
11.1519550952
 20
11.1515854977
 30
0.0
 10
11.1437997105
 20
11.1480197343
 30
0.0
 10
11.1351431275
 20
11.1445947769
 30
0.0
 10
11.1260059594
 20
11.1413189094
 30
0.0
 10
11.1164100648
 20
11.1381998738
 30
0.0
 10
11.1063783841
 20
11.135245304
 30
0.0
 10
11.0959349723
 20
11.132462237
 30
0.0
 10
11.0851048906
 20
11.1298574175
 30
0.0
 10
11.0739140961
 20
11.1274371388
 30
0.0
 10
11.0583795448
 20
11.1244314551
 30
0.0
 10
11.0382515803
 20
11.1211921321
 30
0.0
 10
11.0133651725
 20
11.1181608661
 30
0.0
 10
10.9877282183
 20
11.1159743274
 30
0.0
 10
10.9615870031
 20
11.1146537931
 30
0.0
 10
10.9351923428
 20
11.1142121767
 30
0.0
 10
10.9087976824
 20
11.1146537931
 30
0.0
 10
10.8826564673
 20
11.1159743274
 30
0.0
 10
10.857019513
 20
11.1181608661
 30
0.0
 10
10.8321331052
 20
11.1211921321
 30
0.0
 10
10.8120051407
 20
11.1244314551
 30
0.0
 10
10.7964705894
 20
11.1274371388
 30
0.0
 10
10.7852797949
 20
11.1298574175
 30
0.0
 10
10.7744497132
 20
11.132462237
 30
0.0
 10
10.7640063014
 20
11.135245304
 30
0.0
 10
10.7539746207
 20
11.1381998738
 30
0.0
 10
10.7443787261
 20
11.1413189094
 30
0.0
 10
10.735241558
 20
11.1445947769
 30
0.0
 10
10.726584975
 20
11.1480197343
 30
0.0
 10
10.7184295903
 20
11.1515854977
 30
0.0
 10
10.7107947861
 20
11.1552835804
 30
0.0
 10
10.7036986778
 20
11.1591053085
 30
0.0
 10
10.6971579431
 20
11.1630415959
 30
0.0
 10
10.6911880207
 20
11.1670835171
 30
0.0
 10
10.685802834
 20
11.1712218176
 30
0.0
 10
10.6810150402
 20
11.1754474464
 30
0.0
 10
10.6768360875
 20
11.1797514823
 30
0.0
 10
10.6732762145
 20
11.1841250074
 30
0.0
 10
10.6703452465
 20
11.1885594594
 30
0.0
 10
10.6680520691
 20
11.1930455188
 30
0.0
 10
10.6664055789
 20
11.1975737859
 30
0.0
 10
10.6654139947
 20
11.2021309973
 30
0.0
 10
10.6651923432
 20
11.2051910622
 30
0.0
 10
10.6651923432
 20
11.2067052388
 30
0.0
  0
SPLINE
  5
313
100
AcDbEntity
  8
0
100
AcDbSpline
 62
9
  6
CONTINUOUS
 70
0
 71
3
 72
61
 73
57
 74
0
 42
0.0000001
 43
0.0000001
 44
0.0000000001
 40
0.0
 40
0.0
 40
0.0
 40
0.0
 40
0.0075226437
 40
0.0151810088
 40
0.023100109
 40
0.0313928716
 40
0.0401539905
 40
0.0494596137
 40
0.0593685804
 40
0.0699244479
 40
0.0811575761
 40
0.0930870871
 40
0.1057229766
 40
0.1190672375
 40
0.133115314
 40
0.1478570728
 40
0.1632773548
 40
0.1793569669
 40
0.1960728861
 40
0.213398841
 40
0.2313057547
 40
0.2497618028
 40
0.2687329948
 40
0.2881831991
 40
0.3283650984
 40
0.3699874428
 40
0.4127074916
 40
0.4561675308
 40
0.5
 40
0.5438324692
 40
0.5872925084
 40
0.6300125572
 40
0.6716349016
 40
0.7118168009
 40
0.7312670052
 40
0.7502381972
 40
0.7686942453
 40
0.786601159
 40
0.8039271139
 40
0.8206430331
 40
0.8367226452
 40
0.8521429272
 40
0.866884686
 40
0.8809327625
 40
0.8942770234
 40
0.9069129129
 40
0.9188424239
 40
0.9300755521
 40
0.9406314196
 40
0.9505403863
 40
0.9598460095
 40
0.9686071284
 40
0.976899891
 40
0.9848189912
 40
0.9924773563
 40
1.0
 40
1.0
 40
1.0
 40
1.0
 10
11.2205114903
 20
11.2080963852
 30
0.0
 10
11.2205114903
 20
11.2064962838
 30
0.0
 10
11.220277272
 20
11.2032625865
 30
0.0
 10
11.2192294046
 20
11.1984468063
 30
0.0
 10
11.2174894998
 20
11.1936616175
 30
0.0
 10
11.2150662094
 20
11.188921028
 30
0.0
 10
11.2119689374
 20
11.1842349794
 30
0.0
 10
11.2082070939
 20
11.1796133026
 30
0.0
 10
11.2037910153
 20
11.175065092
 30
0.0
 10
11.198731595
 20
11.1705996813
 30
0.0
 10
11.193040846
 20
11.1662266065
 30
0.0
 10
11.1867322051
 20
11.1619553558
 30
0.0
 10
11.1798203718
 20
11.157795714
 30
0.0
 10
11.1723216318
 20
11.1537571906
 30
0.0
 10
11.1642536643
 20
11.149849245
 30
0.0
 10
11.1556355515
 20
11.1460812011
 30
0.0
 10
11.146487816
 20
11.1424619172
 30
0.0
 10
11.1368322319
 20
11.1390001625
 30
0.0
 10
11.1266918813
 20
11.135704206
 30
0.0
 10
11.1160910383
 20
11.1325819524
 30
0.0
 10
11.105055088
 20
11.1296410163
 30
0.0
 10
11.0936105349
 20
11.126888402
 30
0.0
 10
11.0817848058
 20
11.1243307808
 30
0.0
 10
11.0653688546
 20
11.1211546081
 30
0.0
 10
11.0440988864
 20
11.1177314655
 30
0.0
 10
11.017800495
 20
11.1145282077
 30
0.0
 10
10.9907089695
 20
11.112217607
 30
0.0
 10
10.9630845682
 20
11.1108221665
 30
0.0
 10
10.9351923428
 20
11.1103555044
 30
0.0
 10
10.9073001173
 20
11.1108221665
 30
0.0
 10
10.8796757161
 20
11.112217607
 30
0.0
 10
10.8525841905
 20
11.1145282077
 30
0.0
 10
10.8262857991
 20
11.1177314655
 30
0.0
 10
10.8050158309
 20
11.1211546081
 30
0.0
 10
10.7885998798
 20
11.1243307808
 30
0.0
 10
10.7767741506
 20
11.126888402
 30
0.0
 10
10.7653295975
 20
11.1296410163
 30
0.0
 10
10.7542936473
 20
11.1325819524
 30
0.0
 10
10.7436928042
 20
11.135704206
 30
0.0
 10
10.7335524536
 20
11.1390001625
 30
0.0
 10
10.7238968696
 20
11.1424619172
 30
0.0
 10
10.714749134
 20
11.1460812011
 30
0.0
 10
10.7061310212
 20
11.149849245
 30
0.0
 10
10.6980630537
 20
11.1537571906
 30
0.0
 10
10.6905643137
 20
11.157795714
 30
0.0
 10
10.6836524804
 20
11.1619553558
 30
0.0
 10
10.6773438395
 20
11.1662266065
 30
0.0
 10
10.6716530905
 20
11.1705996813
 30
0.0
 10
10.6665936702
 20
11.175065092
 30
0.0
 10
10.6621775917
 20
11.1796133026
 30
0.0
 10
10.6584157481
 20
11.1842349794
 30
0.0
 10
10.6553184761
 20
11.188921028
 30
0.0
 10
10.6528951857
 20
11.1936616175
 30
0.0
 10
10.6511552809
 20
11.1984468063
 30
0.0
 10
10.6501074136
 20
11.2032625865
 30
0.0
 10
10.6498731952
 20
11.2064962838
 30
0.0
 10
10.6498731952
 20
11.2080963852
 30
0.0
  0
SPLINE
  5
314
100
AcDbEntity
  8
0
100
AcDbSpline
 62
9
  6
CONTINUOUS
 70
0
 71
3
 72
14
 73
10
 74
0
 42
0.0000001
 43
0.0000001
 44
0.0000000001
 40
0.0
 40
0.0
 40
0.0
 40
0.0
 40
0.1424565763
 40
0.2784486004
 40
0.5332991461
 40
0.653944672
 40
0.7712306566
 40
0.8862124727
 40
1.0
 40
1.0
 40
1.0
 40
1.0
 10
10.6172740448
 20
11.5036032714
 30
0.0
 10
10.6160962294
 20
11.5049183429
 30
0.0
 10
10.613875482
 20
11.5075643468
 30
0.0
 10
10.6100016244
 20
11.5129228147
 30
0.0
 10
10.6068919775
 20
11.5184899508
 30
0.0
 10
10.6046992158
 20
11.5241984119
 30
0.0
 10
10.6035423804
 20
11.5284244048
 30
0.0
 10
10.6028473661
 20
11.5326639938
 30
0.0
 10
10.6026923426
 20
11.5355014111
 30
0.0
 10
10.6026923426
 20
11.5369115342
 30
0.0
  0
SPLINE
  5
315
100
AcDbEntity
  8
0
100
AcDbSpline
 62
9
  6
CONTINUOUS
 70
0
 71
3
 72
14
 73
10
 74
0
 42
0.0000001
 43
0.0000001
 44
0.0000000001
 40
0.0
 40
0.0
 40
0.0
 40
0.0
 40
0.2752130477
 40
0.4047280572
 40
0.5296454335
 40
0.650733447
 40
0.7688577801
 40
0.8849543708
 40
1.0
 40
1.0
 40
1.0
 40
1.0
 10
10.6172504296
 20
11.5037738237
 30
0.0
 10
10.6152563153
 20
11.5061750756
 30
0.0
 10
10.6125346398
 20
11.5098968581
 30
0.0
 10
10.6095768237
 20
11.5151309721
 30
0.0
 10
10.6077926918
 20
11.5190041709
 30
0.0
 10
10.6064016187
 20
11.5228985708
 30
0.0
 10
10.6054059183
 20
11.5268098126
 30
0.0
 10
10.6048077857
 20
11.5307318334
 30
0.0
 10
10.6046744362
 20
11.5333552046
 30
0.0
 10
10.6046744362
 20
11.5346599818
 30
0.0
  0
SPLINE
  5
316
100
AcDbEntity
  8
0
100
AcDbSpline
 62
9
  6
CONTINUOUS
 70
0
 71
3
 72
27
 73
23
 74
0
 42
0.0000001
 43
0.0000001
 44
0.0000000001
 40
0.0
 40
0.0
 40
0.0
 40
0.0
 40
0.0110799747
 40
0.0238938356
 40
0.0383883506
 40
0.0545671332
 40
0.0724329085
 40
0.0919246818
 40
0.1129721394
 40
0.1355348123
 40
0.1850714999
 40
0.2402278558
 40
0.3005698376
 40
0.3656526123
 40
0.4350625251
 40
0.5083198886
 40
0.5849375667
 40
0.664414022
 40
0.7462212931
 40
0.8298108497
 40
0.9146008528
 40
1.0
 40
1.0
 40
1.0
 40
1.0
 10
10.0465849756
 20
4.8754570147
 30
0.0
 10
10.0498246926
 20
4.8747251789
 30
0.0
 10
10.0568121001
 20
4.8731513906
 30
0.0
 10
10.0680402506
 20
4.8706319527
 30
0.0
 10
10.0807615567
 20
4.8677859648
 30
0.0
 10
10.0949651112
 20
4.8646291154
 30
0.0
 10
10.110637472
 20
4.8611766418
 30
0.0
 10
10.1277415306
 20
4.8574395152
 30
0.0
 10
10.1462276747
 20
4.853432101
 30
0.0
 10
10.1735272035
 20
4.8475700168
 30
0.0
 10
10.2108510588
 20
4.8396904759
 30
0.0
 10
10.2593162927
 20
4.8297633744
 30
0.0
 10
10.3124228886
 20
4.8192782649
 30
0.0
 10
10.3698171999
 20
4.808460896
 30
0.0
 10
10.4311392096
 20
4.7975969295
 30
0.0
 10
10.4960121241
 20
4.7869831237
 30
0.0
 10
10.5640337682
 20
4.776972905
 30
0.0
 10
10.6347801475
 20
4.7679545514
 30
0.0
 10
10.7077947018
 20
4.7603356049
 30
0.0
 10
10.7825764076
 20
4.7545350889
 30
0.0
 10
10.8585729919
 20
4.7508803667
 30
0.0
 10
10.9095929832
 20
4.7500528243
 30
0.0
 10
10.9351923427
 20
4.7500527925
 30
0.0
  0
SPLINE
  5
317
100
AcDbEntity
  8
0
100
AcDbSpline
 62
9
  6
CONTINUOUS
 70
0
 71
3
 72
68
 73
64
 74
0
 42
0.0000001
 43
0.0000001
 44
0.0000000001
 40
0.0
 40
0.0
 40
0.0
 40
0.0
 40
0.0487558291
 40
0.0731010676
 40
0.0974008081
 40
0.1458048606
 40
0.19385701
 40
0.2414446686
 40
0.2884549362
 40
0.3803102093
 40
0.4685835032
 40
0.5111234969
 40
0.5524675207
 40
0.5925191395
 40
0.6311837771
 40
0.6683693253
 40
0.7039859584
 40
0.7379460762
 40
0.7701639092
 40
0.8005567385
 40
0.8290457595
 40
0.8555567576
 40
0.8800209282
 40
0.9023717427
 40
0.9127334497
 40
0.9225415381
 40
0.9317897374
 40
0.9404728481
 40
0.9485856811
 40
0.9561226902
 40
0.963077801
 40
0.9694448854
 40
0.9752183679
 40
0.9803947588
 40
0.9849710541
 40
0.9870332283
 40
0.9889443065
 40
0.9907040433
 40
0.9923122
 40
0.9937685389
 40
0.995072824
 40
0.9962248214
 40
0.997224296
 40
0.9976667485
 40
0.9980709554
 40
0.9984368742
 40
0.9987644624
 40
0.9990536766
 40
0.9993044733
 40
0.9995168087
 40
0.9996085396
 40
0.9996906384
 40
0.9997630997
 40
0.9998259177
 40
0.9998790868
 40
0.9999226014
 40
0.9999564558
 40
0.9999697586
 40
0.9999806441
 40
0.9999891118
 40
0.9999951608
 40
0.9999987905
 40
1.0
 40
1.0
 40
1.0
 40
1.0
 10
10.9351923427
 20
4.8226759173
 30
0.0
 10
10.9495670184
 20
4.8226759374
 30
0.0
 10
10.9711200395
 20
4.8228710429
 30
0.0
 10
10.9998297638
 20
4.8235144684
 30
0.0
 10
11.0284290542
 20
4.8244096052
 30
0.0
 10
11.0639984419
 20
4.825986983
 30
0.0
 10
11.1063897097
 20
4.8285757142
 30
0.0
 10
11.1483252035
 20
4.8317989669
 30
0.0
 10
11.2030692667
 20
4.8368174039
 30
0.0
 10
11.2696282111
 20
4.8442696216
 30
0.0
 10
11.334695734
 20
4.8530232995
 30
0.0
 10
11.3849034095
 20
4.860474555
 30
0.0
 10
11.4210035337
 20
4.8661292227
 30
0.0
 10
11.4559347422
 20
4.8718564816
 30
0.0
 10
11.4896213032
 20
4.8775929869
 30
0.0
 10
11.521987882
 20
4.8832886747
 30
0.0
 10
11.5529599192
 20
4.8889033327
 30
0.0
 10
11.5824664142
 20
4.8943894248
 30
0.0
 10
11.610438592
 20
4.8997009764
 30
0.0
 10
11.63681014
 20
4.904794544
 30
0.0
 10
11.6615165817
 20
4.9096362959
 30
0.0
 10
11.6844954852
 20
4.9142037966
 30
0.0
 10
11.7056873218
 20
4.9184787841
 30
0.0
 10
11.7222012733
 20
4.921864306
 30
0.0
 10
11.7344804072
 20
4.9243907315
 30
0.0
 10
11.7429764505
 20
4.926135283
 30
0.0
 10
11.750987988
 20
4.9277789228
 30
0.0
 10
11.758509155
 20
4.9293258011
 30
0.0
 10
11.7655342176
 20
4.9307804469
 30
0.0
 10
11.7720580036
 20
4.9321432938
 30
0.0
 10
11.7780767408
 20
4.9334067335
 30
0.0
 10
11.7835863895
 20
4.9345644942
 30
0.0
 10
11.7885837579
 20
4.9356099727
 30
0.0
 10
11.7930648234
 20
4.9365450004
 30
0.0
 10
11.7964747524
 20
4.9372565338
 30
0.0
 10
11.798941946
 20
4.9377729582
 30
0.0
 10
11.8005961223
 20
4.9381203317
 30
0.0
 10
11.802119035
 20
4.9384414457
 30
0.0
 10
11.8035104484
 20
4.9387363802
 30
0.0
 10
11.8047701322
 20
4.9390051991
 30
0.0
 10
11.8058978525
 20
4.9392479836
 30
0.0
 10
11.8068933878
 20
4.9394647524
 30
0.0
 10
11.8076401019
 20
4.9396299455
 30
0.0
 10
11.808171201
 20
4.9397490739
 30
0.0
 10
11.8085198943
 20
4.9398279561
 30
0.0
 10
11.8088354255
 20
4.9398999446
 30
0.0
 10
11.8091177845
 20
4.9399649075
 30
0.0
 10
11.8093669614
 20
4.9400227141
 30
0.0
 10
11.809582946
 20
4.9400732338
 30
0.0
 10
11.8097421693
 20
4.94011078
 30
0.0
 10
11.809852946
 20
4.9401370677
 30
0.0
 10
11.8099235826
 20
4.940153897
 30
0.0
 10
11.8099859142
 20
4.9401688072
 30
0.0
 10
11.8100399373
 20
4.9401817789
 30
0.0
 10
11.8100856572
 20
4.9401928047
 30
0.0
 10
11.8101230541
 20
4.9402018429
 30
0.0
 10
11.8101490543
 20
4.9402081837
 30
0.0
 10
11.8101656464
 20
4.9402121852
 30
0.0
 10
11.8101750726
 20
4.9402145677
 30
0.0
 10
11.8101821607
 20
4.9402160855
 30
0.0
 10
11.8101877814
 20
4.940217944
 30
0.0
 10
11.8101901563
 20
4.9402176764
 30
0.0
 10
11.8101923117
 20
4.940219081
 30
0.0
 10
11.8101923427
 20
4.9402187257
 30
0.0
  0
SPLINE
  5
318
100
AcDbEntity
  8
0
100
AcDbSpline
 62
9
  6
CONTINUOUS
 70
0
 71
3
 72
17
 73
13
 74
0
 42
0.0000001
 43
0.0000001
 44
0.0000000001
 40
0.0
 40
0.0
 40
0.0
 40
0.0
 40
0.0245671172
 40
0.0557576638
 40
0.0933538334
 40
0.1371089234
 40
0.2418701165
 40
0.3672061522
 40
0.5097213882
 40
0.6655523397
 40
0.8304644322
 40
1.0
 40
1.0
 40
1.0
 40
1.0
 10
9.0577321498
 20
8.8456571858
 30
0.0
 10
9.0574391657
 20
8.8456412061
 30
0.0
 10
9.05677369
 20
8.8456146531
 30
0.0
 10
9.0556590524
 20
8.8455864826
 30
0.0
 10
9.0543150346
 20
8.8455660416
 30
0.0
 10
9.0520922418
 20
8.8455483859
 30
0.0
 10
9.0488214101
 20
8.8455504321
 30
0.0
 10
9.0443711885
 20
8.8455842499
 30
0.0
 10
9.0393113042
 20
8.8456497
 30
0.0
 10
9.0337791466
 20
8.8457451322
 30
0.0
 10
9.0279247405
 20
8.8458681562
 30
0.0
 10
9.0239314227
 20
8.8459659311
 30
0.0
 10
9.0219072528
 20
8.8460189131
 30
0.0
  0
LINE
  5
319
100
AcDbEntity
  8
0
100
AcDbLine
 62
9
  6
CONTINUOUS
 10
9.0350776157
 20
8.882035136
 11
9.0201555213
 21
8.8488258851
  0
SPLINE
  5
31A
100
AcDbEntity
  8
0
100
AcDbSpline
 62
9
  6
CONTINUOUS
 70
0
 71
3
 72
12
 73
8
 74
0
 42
0.0000001
 43
0.0000001
 44
0.0000000001
 40
0.0
 40
0.0
 40
0.0
 40
0.0
 40
0.2503271762
 40
0.5004364115
 40
0.6254256683
 40
0.7503676251
 40
1.0
 40
1.0
 40
1.0
 40
1.0
 10
9.0350776157
 20
8.882035136
 30
0.0
 10
9.0365495984
 20
8.8813622078
 30
0.0
 10
9.0394032665
 20
8.8798129983
 30
0.0
 10
9.0426775148
 20
8.8774189765
 30
0.0
 10
9.0450851587
 20
8.8752579526
 30
0.0
 10
9.0473433971
 20
8.8729462682
 30
0.0
 10
9.0488651176
 20
8.8710511445
 30
0.0
 10
9.0497951048
 20
8.8697319902
 30
0.0
  0
SPLINE
  5
31B
100
AcDbEntity
  8
0
100
AcDbSpline
 62
9
  6
CONTINUOUS
 70
0
 71
3
 72
11
 73
7
 74
0
 42
0.0000001
 43
0.0000001
 44
0.0000000001
 40
0.0
 40
0.0
 40
0.0
 40
0.0
 40
0.2494031051
 40
0.4991056486
 40
0.7493211346
 40
1.0
 40
1.0
 40
1.0
 40
1.0
 10
9.0541488207
 20
8.8622965324
 30
0.0
 10
9.0547634601
 20
8.8610082027
 30
0.0
 10
9.0558499238
 20
8.858358456
 30
0.0
 10
9.0570094932
 20
8.8542194978
 30
0.0
 10
9.0576703854
 20
8.8499647229
 30
0.0
 10
9.0577697684
 20
8.8470914308
 30
0.0
 10
9.057732151
 20
8.8456571858
 30
0.0
  0
LINE
  5
31C
100
AcDbEntity
  8
0
100
AcDbLine
 62
9
  6
CONTINUOUS
 10
8.5953070734
 20
8.8820351242
 11
8.6102291642
 21
8.8488258851
  0
SPLINE
  5
31D
100
AcDbEntity
  8
0
100
AcDbSpline
 62
9
  6
CONTINUOUS
 70
0
 71
3
 72
17
 73
13
 74
0
 42
0.0000001
 43
0.0000001
 44
0.0000000001
 40
0.0
 40
0.0
 40
0.0
 40
0.0
 40
0.0245671176
 40
0.0557576644
 40
0.0933538342
 40
0.1371089242
 40
0.2418701173
 40
0.3672061529
 40
0.5097213888
 40
0.66555234
 40
0.8304644323
 40
1.0
 40
1.0
 40
1.0
 40
1.0
 10
8.5726525357
 20
8.8456571848
 30
0.0
 10
8.5729455198
 20
8.8456412051
 30
0.0
 10
8.5736109955
 20
8.8456146519
 30
0.0
 10
8.5747256331
 20
8.8455864812
 30
0.0
 10
8.5760696509
 20
8.8455660401
 30
0.0
 10
8.5782924437
 20
8.8455483842
 30
0.0
 10
8.5815632754
 20
8.8455504304
 30
0.0
 10
8.586013497
 20
8.8455842483
 30
0.0
 10
8.5910733813
 20
8.8456496986
 30
0.0
 10
8.5966055389
 20
8.8457451311
 30
0.0
 10
8.602459945
 20
8.8458681556
 30
0.0
 10
8.6064532627
 20
8.8459659309
 30
0.0
 10
8.6084774326
 20
8.8460189131
 30
0.0
  0
SPLINE
  5
31E
100
AcDbEntity
  8
0
100
AcDbSpline
 62
9
  6
CONTINUOUS
 70
0
 71
3
 72
11
 73
7
 74
0
 42
0.0000001
 43
0.0000001
 44
0.0000000001
 40
0.0
 40
0.0
 40
0.0
 40
0.0
 40
0.2506794908
 40
0.5008953822
 40
0.7505965201
 40
1.0
 40
1.0
 40
1.0
 40
1.0
 10
8.5726525342
 20
8.8456571849
 30
0.0
 10
8.572614869
 20
8.8470915193
 30
0.0
 10
8.5727147859
 20
8.8499650014
 30
0.0
 10
8.5733760238
 20
8.8542199136
 30
0.0
 10
8.5745347237
 20
8.8583594131
 30
0.0
 10
8.5756217591
 20
8.8610091127
 30
0.0
 10
8.5762362732
 20
8.8622976005
 30
0.0
  0
SPLINE
  5
31F
100
AcDbEntity
  8
0
100
AcDbSpline
 62
9
  6
CONTINUOUS
 70
0
 71
3
 72
11
 73
7
 74
0
 42
0.0000001
 43
0.0000001
 44
0.0000000001
 40
0.0
 40
0.0
 40
0.0
 40
0.0
 40
0.2496663499
 40
0.4994973191
 40
0.749639464
 40
1.0
 40
1.0
 40
1.0
 40
1.0
 10
8.58059029
 20
8.8697323885
 30
0.0
 10
8.5815202152
 20
8.871051522
 30
0.0
 10
8.5835480274
 20
8.87357745
 30
0.0
 10
8.5870544573
 20
8.8769421944
 30
0.0
 10
8.5909810634
 20
8.8798135863
 30
0.0
 10
8.5938351407
 20
8.8813622248
 30
0.0
 10
8.5953070731
 20
8.882035125
 30
0.0
  0
SPLINE
  5
320
100
AcDbEntity
  8
0
100
AcDbSpline
 62
9
  6
CONTINUOUS
 70
0
 71
3
 72
17
 73
13
 74
0
 42
0.0000001
 43
0.0000001
 44
0.0000000001
 40
0.0
 40
0.0
 40
0.0
 40
0.0
 40
0.0245671172
 40
0.0557576638
 40
0.0933538335
 40
0.1371089234
 40
0.2418701165
 40
0.3672061522
 40
0.5097213883
 40
0.6655523397
 40
0.8304644322
 40
1.0
 40
1.0
 40
1.0
 40
1.0
 10
8.6168940029
 20
7.156143715
 30
0.0
 10
8.617186987
 20
7.1561277354
 30
0.0
 10
8.6178524627
 20
7.1561011824
 30
0.0
 10
8.6189671003
 20
7.1560730119
 30
0.0
 10
8.6203111181
 20
7.1560525709
 30
0.0
 10
8.6225339109
 20
7.1560349151
 30
0.0
 10
8.6258047426
 20
7.1560369614
 30
0.0
 10
8.6302549642
 20
7.1560707792
 30
0.0
 10
8.6353148485
 20
7.1561362293
 30
0.0
 10
8.6408470061
 20
7.1562316615
 30
0.0
 10
8.6467014122
 20
7.1563546855
 30
0.0
 10
8.65069473
 20
7.1564524604
 30
0.0
 10
8.6527188999
 20
7.1565054424
 30
0.0
  0
SPLINE
  5
321
100
AcDbEntity
  8
0
100
AcDbSpline
 62
9
  6
CONTINUOUS
 70
0
 71
3
 72
11
 73
7
 74
0
 42
0.0000001
 43
0.0000001
 44
0.0000000001
 40
0.0
 40
0.0
 40
0.0
 40
0.0
 40
0.2504987261
 40
0.5006930926
 40
0.7504929887
 40
1.0
 40
1.0
 40
1.0
 40
1.0
 10
8.638995079
 20
7.122160226
 30
0.0
 10
8.6376792239
 20
7.1227885486
 30
0.0
 10
8.6351230658
 20
7.1242060301
 30
0.0
 10
8.6315737651
 20
7.126770202
 30
0.0
 10
8.6283591293
 20
7.1297346366
 30
0.0
 10
8.626462858
 20
7.1319473783
 30
0.0
 10
8.6255821432
 20
7.1331022821
 30
0.0
  0
SPLINE
  5
322
100
AcDbEntity
  8
0
100
AcDbSpline
 62
9
  6
CONTINUOUS
 70
0
 71
3
 72
11
 73
7
 74
0
 42
0.0000001
 43
0.0000001
 44
0.0000000001
 40
0.0
 40
0.0
 40
0.0
 40
0.0
 40
0.2496719754
 40
0.4995594065
 40
0.7497198492
 40
1.0
 40
1.0
 40
1.0
 40
1.0
 10
8.6212456096
 20
7.1398562417
 30
0.0
 10
8.6205792121
 20
7.1411044796
 30
0.0
 10
8.6193829274
 20
7.1436782073
 30
0.0
 10
8.618039163
 20
7.147718798
 30
0.0
 10
8.6171758237
 20
7.1518922525
 30
0.0
 10
8.616931094
 20
7.1547257681
 30
0.0
 10
8.616894002
 20
7.1561437151
 30
0.0
  0
LINE
  5
323
100
AcDbEntity
  8
0
100
AcDbLine
 62
9
  6
CONTINUOUS
 10
8.638995079
 20
7.122160226
 11
8.6544248356
 21
7.1538769348
  0
LINE
  5
324
100
AcDbEntity
  8
0
100
AcDbLine
 62
9
  6
CONTINUOUS
 10
8.9913896018
 20
7.1221602373
 11
8.9759598499
 21
7.1538769348
  0
SPLINE
  5
325
100
AcDbEntity
  8
0
100
AcDbSpline
 62
9
  6
CONTINUOUS
 70
0
 71
3
 72
17
 73
13
 74
0
 42
0.0000001
 43
0.0000001
 44
0.0000000001
 40
0.0
 40
0.0
 40
0.0
 40
0.0
 40
0.0245671168
 40
0.0557576631
 40
0.0933538326
 40
0.1371089225
 40
0.2418701156
 40
0.3672061514
 40
0.5097213877
 40
0.6655523393
 40
0.830464432
 40
1.0
 40
1.0
 40
1.0
 40
1.0
 10
9.0134906826
 20
7.156143716
 30
0.0
 10
9.0131976985
 20
7.1561277364
 30
0.0
 10
9.0125322228
 20
7.1561011836
 30
0.0
 10
9.0114175852
 20
7.1560730133
 30
0.0
 10
9.0100735674
 20
7.1560525724
 30
0.0
 10
9.0078507746
 20
7.1560349168
 30
0.0
 10
9.0045799429
 20
7.1560369631
 30
0.0
 10
9.0001297213
 20
7.1560707809
 30
0.0
 10
8.995069837
 20
7.1561362308
 30
0.0
 10
8.9895376794
 20
7.1562316626
 30
0.0
 10
8.9836832733
 20
7.1563546861
 30
0.0
 10
8.9796899555
 20
7.1564524606
 30
0.0
 10
8.9776657856
 20
7.1565054424
 30
0.0
  0
SPLINE
  5
326
100
AcDbEntity
  8
0
100
AcDbSpline
 62
9
  6
CONTINUOUS
 70
0
 71
3
 72
11
 73
7
 74
0
 42
0.0000001
 43
0.0000001
 44
0.0000000001
 40
0.0
 40
0.0
 40
0.0
 40
0.0
 40
0.2502790505
 40
0.5004405432
 40
0.7503284231
 40
1.0
 40
1.0
 40
1.0
 40
1.0
 10
9.0134906839
 20
7.1561437161
 30
0.0
 10
9.0134536384
 20
7.154725668
 30
0.0
 10
9.0132083539
 20
7.1518919675
 30
0.0
 10
9.0123448465
 20
7.1477182784
 30
0.0
 10
9.0110016076
 20
7.1436771436
 30
0.0
 10
9.0098049062
 20
7.141103376
 30
0.0
 10
9.0091386014
 20
7.1398549713
 30
0.0
  0
SPLINE
  5
327
100
AcDbEntity
  8
0
100
AcDbSpline
 62
9
  6
CONTINUOUS
 70
0
 71
3
 72
11
 73
7
 74
0
 42
0.0000001
 43
0.0000001
 44
0.0000000001
 40
0.0
 40
0.0
 40
0.0
 40
0.0
 40
0.2495070421
 40
0.4993060163
 40
0.7494993891
 40
1.0
 40
1.0
 40
1.0
 40
1.0
 10
9.0048016324
 20
7.1331014685
 30
0.0
 10
9.003921087
 20
7.1319465526
 30
0.0
 10
9.0020247802
 20
7.1297340922
 30
0.0
 10
8.9988107492
 20
7.1267694693
 30
0.0
 10
8.9952616537
 20
7.124205399
 30
0.0
 10
8.9927053655
 20
7.1227885591
 30
0.0
 10
8.9913896019
 20
7.1221602371
 30
0.0
  0
SPLINE
  5
328
100
AcDbEntity
  8
0
100
AcDbSpline
 62
9
  6
CONTINUOUS
 70
0
 71
3
 72
13
 73
9
 74
0
 42
0.0000001
 43
0.0000001
 44
0.0000000001
 40
0.0
 40
0.0
 40
0.0
 40
0.0
 40
0.1193866204
 40
0.2393680669
 40
0.3604722653
 40
0.4832123717
 40
0.7354689867
 40
1.0
 40
1.0
 40
1.0
 40
1.0
 10
11.2585588803
 20
11.5262517309
 30
0.0
 10
11.2585590107
 20
11.5253304685
 30
0.0
 10
11.2584914206
 20
11.5234826356
 30
0.0
 10
11.2581873012
 20
11.5207153716
 30
0.0
 10
11.257680745
 20
11.5179514412
 30
0.0
 10
11.2567277051
 20
11.514240941
 30
0.0
 10
11.255009406
 20
11.5095985992
 30
0.0
 10
11.2531628952
 20
11.506052067
 30
0.0
 10
11.2521227238
 20
11.5042956787
 30
0.0
  0
SPLINE
  5
329
100
AcDbEntity
  8
0
100
AcDbSpline
 62
9
  6
CONTINUOUS
 70
0
 71
3
 72
15
 73
11
 74
0
 42
0.0000001
 43
0.0000001
 44
0.0000000001
 40
0.0
 40
0.0
 40
0.0
 40
0.0
 40
0.115019887
 40
0.2310912328
 40
0.3491912808
 40
0.4702563814
 40
0.5951525347
 40
0.7246482162
 40
0.8594078564
 40
1.0
 40
1.0
 40
1.0
 40
1.0
 10
11.2657102493
 20
11.5346599818
 30
0.0
 10
11.2657102493
 20
11.5333547352
 30
0.0
 10
11.2655768036
 20
11.5307304114
 30
0.0
 10
11.264978236
 20
11.526806972
 30
0.0
 10
11.2639818245
 20
11.5228943413
 30
0.0
 10
11.2625897172
 20
11.5189985074
 30
0.0
 10
11.2608044305
 20
11.5151241498
 30
0.0
 10
11.2586288282
 20
11.511275749
 30
0.0
 10
11.2560663434
 20
11.5074577614
 30
0.0
 10
11.254144797
 20
11.5049902249
 30
0.0
 10
11.2531252845
 20
11.5037630226
 30
0.0
  0
SPLINE
  5
32A
100
AcDbEntity
  8
0
100
AcDbSpline
 62
9
  6
CONTINUOUS
 70
0
 71
3
 72
53
 73
49
 74
0
 42
0.0000001
 43
0.0000001
 44
0.0000000001
 40
0.0
 40
0.0
 40
0.0
 40
0.0
 40
0.0088025957
 40
0.0180735646
 40
0.0278347934
 40
0.0381022361
 40
0.0488864451
 40
0.0601935342
 40
0.0720255531
 40
0.0843812035
 40
0.0972560986
 40
0.1106432581
 40
0.1245333076
 40
0.1389147999
 40
0.1537743973
 40
0.1690970573
 40
0.2010621054
 40
0.2346633902
 40
0.2697335947
 40
0.3060899101
 40
0.3435367347
 40
0.3818680893
 40
0.4208698502
 40
0.4603218658
 40
0.5
 40
0.5396781342
 40
0.5791301498
 40
0.6181319107
 40
0.6564632653
 40
0.6939100899
 40
0.7302664053
 40
0.7653366098
 40
0.7989378946
 40
0.8309029427
 40
0.8462256027
 40
0.8610852001
 40
0.8754666924
 40
0.8893567419
 40
0.9027439014
 40
0.9156187965
 40
0.9279744469
 40
0.9398064658
 40
0.9511135549
 40
0.9618977639
 40
0.9721652066
 40
0.9819264354
 40
0.9911974043
 40
1.0
 40
1.0
 40
1.0
 40
1.0
 10
11.259264725
 20
11.6335990095
 30
0.0
 10
11.2579610545
 20
11.6351225154
 30
0.0
 10
11.2551656381
 20
11.6381504506
 30
0.0
 10
11.2505626812
 20
11.6425166966
 30
0.0
 10
11.2454521727
 20
11.6468151014
 30
0.0
 10
11.2398424916
 20
11.6510387322
 30
0.0
 10
11.2337425163
 20
11.6551813667
 30
0.0
 10
11.2271618891
 20
11.659236468
 30
0.0
 10
11.220111085
 20
11.6631977761
 30
0.0
 10
11.2126012947
 20
11.6670589674
 30
0.0
 10
11.2046445084
 20
11.670813952
 30
0.0
 10
11.1962534297
 20
11.6744566962
 30
0.0
 10
11.1874414935
 20
11.6779813802
 30
0.0
 10
11.178222835
 20
11.6813823184
 30
0.0
 10
11.1686122234
 20
11.6846540788
 30
0.0
 10
11.155105229
 20
11.6888968804
 30
0.0
 10
11.1373430017
 20
11.6938201789
 30
0.0
 10
11.1150191444
 20
11.6990549574
 30
0.0
 10
11.091537638
 20
11.7036628093
 30
0.0
 10
11.0670495825
 20
11.7076137628
 30
0.0
 10
11.0417122543
 20
11.7108820734
 30
0.0
 10
11.0156887141
 20
11.7134464467
 30
0.0
 10
10.9891465137
 20
11.7152901716
 30
0.0
 10
10.9622566346
 20
11.7164012341
 30
0.0
 10
10.9351923428
 20
11.7167723944
 30
0.0
 10
10.9081280509
 20
11.7164012341
 30
0.0
 10
10.8812381718
 20
11.7152901716
 30
0.0
 10
10.8546959714
 20
11.7134464467
 30
0.0
 10
10.8286724312
 20
11.7108820734
 30
0.0
 10
10.803335103
 20
11.7076137628
 30
0.0
 10
10.7788470475
 20
11.7036628093
 30
0.0
 10
10.7553655412
 20
11.6990549574
 30
0.0
 10
10.7330416838
 20
11.6938201789
 30
0.0
 10
10.7152794566
 20
11.6888968804
 30
0.0
 10
10.7017724621
 20
11.6846540788
 30
0.0
 10
10.6921618505
 20
11.6813823184
 30
0.0
 10
10.682943192
 20
11.6779813802
 30
0.0
 10
10.6741312558
 20
11.6744566962
 30
0.0
 10
10.6657401771
 20
11.670813952
 30
0.0
 10
10.6577833908
 20
11.6670589674
 30
0.0
 10
10.6502736005
 20
11.6631977761
 30
0.0
 10
10.6432227965
 20
11.659236468
 30
0.0
 10
10.6366421692
 20
11.6551813667
 30
0.0
 10
10.6305421939
 20
11.6510387322
 30
0.0
 10
10.6249325128
 20
11.6468151014
 30
0.0
 10
10.6198220043
 20
11.6425166966
 30
0.0
 10
10.6152190475
 20
11.6381504506
 30
0.0
 10
10.612423631
 20
11.6351225154
 30
0.0
 10
10.6111199605
 20
11.6335990095
 30
0.0
  0
SPLINE
  5
32B
100
AcDbEntity
  8
0
100
AcDbSpline
 62
9
  6
CONTINUOUS
 70
0
 71
3
 72
14
 73
10
 74
0
 42
0.0000001
 43
0.0000001
 44
0.0000000001
 40
0.0
 40
0.0
 40
0.0
 40
0.0
 40
0.1137814391
 40
0.2287578647
 40
0.346039803
 40
0.4666831993
 40
0.7215367926
 40
0.8575346199
 40
1.0
 40
1.0
 40
1.0
 40
1.0
 10
11.2676923429
 20
11.5369115342
 30
0.0
 10
11.2676923429
 20
11.5355009471
 30
0.0
 10
11.2675372164
 20
11.532662585
 30
0.0
 10
11.2668417416
 20
11.5284215963
 30
0.0
 10
11.2656841416
 20
11.5241942188
 30
0.0
 10
11.2634899131
 20
11.5184838513
 30
0.0
 10
11.260378212
 20
11.5129149549
 30
0.0
 10
11.2565018707
 20
11.5075548906
 30
0.0
 10
11.2542797042
 20
11.5049081146
 30
0.0
 10
11.2531011375
 20
11.5035926626
 30
0.0
  0
SPLINE
  5
32C
100
AcDbEntity
  8
0
100
AcDbSpline
 62
9
  6
CONTINUOUS
 70
0
 71
3
 72
59
 73
55
 74
0
 42
0.0000001
 43
0.0000001
 44
0.0000000001
 40
0.0
 40
0.0
 40
0.0
 40
0.0
 40
0.0075619459
 40
0.0154053652
 40
0.0236264101
 40
0.0323050283
 40
0.0415055958
 40
0.0512781236
 40
0.0616596009
 40
0.0726760967
 40
0.0843442387
 40
0.0966726997
 40
0.1096635763
 40
0.1233130902
 40
0.1376126861
 40
0.1525495512
 40
0.1681070855
 40
0.1842655767
 40
0.2010022867
 40
0.218291969
 40
0.2361071072
 40
0.2544180098
 40
0.2923976552
 40
0.3319622377
 40
0.3728194116
 40
0.4146602266
 40
0.4571635019
 40
0.5
 40
0.5428364981
 40
0.5853397734
 40
0.6271805884
 40
0.6680377623
 40
0.7076023448
 40
0.7455819902
 40
0.7638928928
 40
0.781708031
 40
0.7989977133
 40
0.8157344233
 40
0.8318929145
 40
0.8474504488
 40
0.8623873139
 40
0.8766869098
 40
0.8903364237
 40
0.9033273003
 40
0.9156557613
 40
0.9273239033
 40
0.9383403991
 40
0.9487218764
 40
0.9584944042
 40
0.9676949717
 40
0.9763735899
 40
0.9845946348
 40
0.9924380541
 40
1.0
 40
1.0
 40
1.0
 40
1.0
 10
11.2797186742
 20
11.5930993892
 30
0.0
 10
11.2793469333
 20
11.5949688876
 30
0.0
 10
11.2783311509
 20
11.5987302133
 30
0.0
 10
11.2760659602
 20
11.6042526173
 30
0.0
 10
11.2730466356
 20
11.6097243514
 30
0.0
 10
11.2692831191
 20
11.6151332167
 30
0.0
 10
11.2647855047
 20
11.6204694477
 30
0.0
 10
11.2595645535
 20
11.625722896
 30
0.0
 10
11.2536321043
 20
11.6308837035
 30
0.0
 10
11.2470009852
 20
11.6359415776
 30
0.0
 10
11.2396855033
 20
11.6408862712
 30
0.0
 10
11.2317014122
 20
11.645707562
 30
0.0
 10
11.223065854
 20
11.6503951087
 30
0.0
 10
11.2137975594
 20
11.6549389665
 30
0.0
 10
11.203916618
 20
11.6593292323
 30
0.0
 10
11.1934445373
 20
11.6635563026
 30
0.0
 10
11.1824042031
 20
11.6676110073
 30
0.0
 10
11.1708197377
 20
11.6714843228
 30
0.0
 10
11.1587165416
 20
11.6751677979
 30
0.0
 10
11.1461211773
 20
11.6786532842
 30
0.0
 10
11.1330612523
 20
11.6819330859
 30
0.0
 10
11.1148449074
 20
11.6860725398
 30
0.0
 10
11.0911150908
 20
11.6906600513
 30
0.0
 10
11.0616075615
 20
11.6951789344
 30
0.0
 10
11.0309889645
 20
11.6987361061
 30
0.0
 10
10.9995285137
 20
11.7012998789
 30
0.0
 10
10.9675024591
 20
11.7028473371
 30
0.0
 10
10.9351923428
 20
11.7033646952
 30
0.0
 10
10.9028822264
 20
11.7028473371
 30
0.0
 10
10.8708561718
 20
11.7012998789
 30
0.0
 10
10.839395721
 20
11.6987361061
 30
0.0
 10
10.808777124
 20
11.6951789344
 30
0.0
 10
10.7792695947
 20
11.6906600513
 30
0.0
 10
10.7555397781
 20
11.6860725398
 30
0.0
 10
10.7373234332
 20
11.6819330859
 30
0.0
 10
10.7242635082
 20
11.6786532842
 30
0.0
 10
10.7116681439
 20
11.6751677979
 30
0.0
 10
10.6995649478
 20
11.6714843228
 30
0.0
 10
10.6879804825
 20
11.6676110073
 30
0.0
 10
10.6769401482
 20
11.6635563026
 30
0.0
 10
10.6664680676
 20
11.6593292323
 30
0.0
 10
10.6565871261
 20
11.6549389665
 30
0.0
 10
10.6473188315
 20
11.6503951087
 30
0.0
 10
10.6386832733
 20
11.645707562
 30
0.0
 10
10.6306991822
 20
11.6408862712
 30
0.0
 10
10.6233837003
 20
11.6359415776
 30
0.0
 10
10.6167525813
 20
11.6308837035
 30
0.0
 10
10.610820132
 20
11.625722896
 30
0.0
 10
10.6055991808
 20
11.6204694477
 30
0.0
 10
10.6011015664
 20
11.6151332167
 30
0.0
 10
10.5973380499
 20
11.6097243514
 30
0.0
 10
10.5943187253
 20
11.6042526173
 30
0.0
 10
10.5920535346
 20
11.5987302133
 30
0.0
 10
10.5910377523
 20
11.5949688876
 30
0.0
 10
10.5906660113
 20
11.5930993892
 30
0.0
  0
SPLINE
  5
32D
100
AcDbEntity
  8
0
100
AcDbSpline
 62
9
  6
CONTINUOUS
 70
0
 71
3
 72
59
 73
55
 74
0
 42
0.0000001
 43
0.0000001
 44
0.0000000001
 40
0.0
 40
0.0
 40
0.0
 40
0.0
 40
0.0075825777
 40
0.0154620624
 40
0.0237309871
 40
0.0324652631
 40
0.0417258159
 40
0.0515598561
 40
0.062002045
 40
0.0730765632
 40
0.0847986553
 40
0.0971758687
 40
0.1102094857
 40
0.1238951642
 40
0.1382239085
 40
0.15318269
 40
0.1687547685
 40
0.1849204068
 40
0.2016569658
 40
0.2189393263
 40
0.2367402107
 40
0.2550302039
 40
0.2929494663
 40
0.3324315917
 40
0.3731880018
 40
0.4149139514
 40
0.4572927843
 40
0.5
 40
0.5427072157
 40
0.5850860486
 40
0.6268119982
 40
0.6675684083
 40
0.7070505337
 40
0.7449697961
 40
0.7632597893
 40
0.7810606737
 40
0.7983430342
 40
0.8150795932
 40
0.8312452315
 40
0.84681731
 40
0.8617760915
 40
0.8761048358
 40
0.8897905143
 40
0.9028241313
 40
0.9152013447
 40
0.9269234368
 40
0.937997955
 40
0.9484401439
 40
0.9582741841
 40
0.9675347369
 40
0.9762690129
 40
0.9845379376
 40
0.9924174223
 40
1.0
 40
1.0
 40
1.0
 40
1.0
 10
11.2796785754
 20
11.5932028593
 30
0.0
 10
11.2792609339
 20
11.5950635484
 30
0.0
 10
11.2781553923
 20
11.5988047663
 30
0.0
 10
11.2757691969
 20
11.6042893832
 30
0.0
 10
11.2726389776
 20
11.6097220912
 30
0.0
 10
11.2687743257
 20
11.6150909889
 30
0.0
 10
11.264185369
 20
11.6203865371
 30
0.0
 10
11.2588827789
 20
11.6255987311
 30
0.0
 10
11.2528783323
 20
11.6307178167
 30
0.0
 10
11.2461848776
 20
11.6357336984
 30
0.0
 10
11.2388166363
 20
11.6406362127
 30
0.0
 10
11.2307893308
 20
11.6454153583
 30
0.0
 10
11.2221200036
 20
11.6500609697
 30
0.0
 10
11.2128272408
 20
11.6545632571
 30
0.0
 10
11.2029309838
 20
11.6589125634
 30
0.0
 10
11.192452517
 20
11.6630994284
 30
0.0
 10
11.1814144919
 20
11.6671148951
 30
0.0
 10
11.1698407564
 20
11.6709501357
 30
0.0
 10
11.1577563917
 20
11.6745968461
 30
0.0
 10
11.1451876237
 20
11.6780470884
 30
0.0
 10
11.1321616817
 20
11.6812933045
 30
0.0
 10
11.1140034087
 20
11.6853892695
 30
0.0
 10
11.0903619048
 20
11.6899282268
 30
0.0
 10
11.0609773297
 20
11.6943991142
 30
0.0
 10
11.030499945
 20
11.6979180056
 30
0.0
 10
10.999194643
 20
11.7004539186
 30
0.0
 10
10.9673331521
 20
11.701984455
 30
0.0
 10
10.9351923428
 20
11.702496138
 30
0.0
 10
10.9030515334
 20
11.701984455
 30
0.0
 10
10.8711900426
 20
11.7004539186
 30
0.0
 10
10.8398847405
 20
11.6979180056
 30
0.0
 10
10.8094073558
 20
11.6943991142
 30
0.0
 10
10.7800227807
 20
11.6899282268
 30
0.0
 10
10.7563812768
 20
11.6853892695
 30
0.0
 10
10.7382230038
 20
11.6812933045
 30
0.0
 10
10.7251970619
 20
11.6780470884
 30
0.0
 10
10.7126282938
 20
11.6745968461
 30
0.0
 10
10.7005439291
 20
11.6709501357
 30
0.0
 10
10.6889701936
 20
11.6671148951
 30
0.0
 10
10.6779321685
 20
11.6630994284
 30
0.0
 10
10.6674537018
 20
11.6589125634
 30
0.0
 10
10.6575574447
 20
11.6545632571
 30
0.0
 10
10.648264682
 20
11.6500609697
 30
0.0
 10
10.6395953548
 20
11.6454153583
 30
0.0
 10
10.6315680492
 20
11.6406362127
 30
0.0
 10
10.6241998079
 20
11.6357336984
 30
0.0
 10
10.6175063532
 20
11.6307178167
 30
0.0
 10
10.6115019066
 20
11.6255987311
 30
0.0
 10
10.6061993165
 20
11.6203865371
 30
0.0
 10
10.6016103599
 20
11.6150909889
 30
0.0
 10
10.5977457079
 20
11.6097220912
 30
0.0
 10
10.5946154886
 20
11.6042893832
 30
0.0
 10
10.5922292932
 20
11.5988047663
 30
0.0
 10
10.5911237516
 20
11.5950635484
 30
0.0
 10
10.5907061101
 20
11.5932028593
 30
0.0
  0
SPLINE
  5
32E
100
AcDbEntity
  8
0
100
AcDbSpline
 62
9
  6
CONTINUOUS
 70
0
 71
3
 72
37
 73
33
 74
0
 42
0.0000001
 43
0.0000001
 44
0.0000000001
 40
0.0
 40
0.0
 40
0.0
 40
0.0
 40
0.234045436
 40
0.3392395715
 40
0.4366429704
 40
0.5263099111
 40
0.6082755109
 40
0.6825389826
 40
0.7490796768
 40
0.807867346
 40
0.8588625777
 40
0.8814234231
 40
0.9020183656
 40
0.9206466414
 40
0.9373096315
 40
0.9520086336
 40
0.9647448554
 40
0.9755194136
 40
0.9801713953
 40
0.9843333386
 40
0.9880053576
 40
0.9911875606
 40
0.9938800504
 40
0.996082924
 40
0.9977962728
 40
0.9984694025
 40
0.9990201826
 40
0.9994486231
 40
0.9997547333
 40
0.9998619175
 40
0.9999385225
 40
1.0
 40
1.0
 40
1.0
 40
1.0
 10
11.8237998064
 20
4.8754570419
 30
0.0
 10
11.825773233
 20
4.8759028218
 30
0.0
 10
11.8286480286
 20
4.8764881037
 30
0.0
 10
11.8323699317
 20
4.8771168903
 30
0.0
 10
11.834869373
 20
4.8774863228
 30
0.0
 10
11.8371763108
 20
4.8777815102
 30
0.0
 10
11.8392892871
 20
4.8780136955
 30
0.0
 10
11.8412068124
 20
4.8781916672
 30
0.0
 10
11.8429271566
 20
4.8783235555
 30
0.0
 10
11.844448488
 20
4.8784176087
 30
0.0
 10
11.8455911722
 20
4.8784733219
 30
0.0
 10
11.8464043682
 20
4.8785063795
 30
0.0
 10
11.8469380901
 20
4.8785259034
 30
0.0
 10
11.8474209281
 20
4.878541688
 30
0.0
 10
11.8478528794
 20
4.8785541093
 30
0.0
 10
11.8482339593
 20
4.8785635725
 30
0.0
 10
11.8485641831
 20
4.8785704758
 30
0.0
 10
11.8488075949
 20
4.8785746097
 30
0.0
 10
11.8489769066
 20
4.8785769604
 30
0.0
 10
11.8490848307
 20
4.878578245
 30
0.0
 10
11.8491800526
 20
4.8785791896
 30
0.0
 10
11.8492625745
 20
4.8785798447
 30
0.0
 10
11.8493323973
 20
4.8785802583
 30
0.0
 10
11.8493895259
 20
4.8785804863
 30
0.0
 10
11.8494291938
 20
4.8785805545
 30
0.0
 10
11.8494545897
 20
4.8785805721
 30
0.0
 10
11.8494688616
 20
4.8785805347
 30
0.0
 10
11.8494800018
 20
4.8785805768
 30
0.0
 10
11.8494872168
 20
4.8785804196
 30
0.0
 10
11.8494915338
 20
4.87858058
 30
0.0
 10
11.8494935095
 20
4.8785802524
 30
0.0
 10
11.8494949829
 20
4.8785808553
 30
0.0
 10
11.8494953367
 20
4.8785804588
 30
0.0
  0
SPLINE
  5
32F
100
AcDbEntity
  8
0
100
AcDbSpline
 62
9
  6
CONTINUOUS
 70
0
 71
3
 72
31
 73
27
 74
0
 42
0.0000001
 43
0.0000001
 44
0.0000000001
 40
0.0
 40
0.0
 40
0.0
 40
0.0
 40
0.0006238019
 40
0.0010757734
 40
0.0016470798
 40
0.0031774638
 40
0.0052486422
 40
0.0078719122
 40
0.0110522885
 40
0.0190898771
 40
0.0293592511
 40
0.0418485507
 40
0.0565398636
 40
0.0734065645
 40
0.09242025
 40
0.1135483115
 40
0.1619881895
 40
0.2183798192
 40
0.2823155002
 40
0.3533316269
 40
0.4309146072
 40
0.5145016331
 40
0.603487033
 40
0.6972234454
 40
0.7950274481
 40
1.0
 40
1.0
 40
1.0
 40
1.0
 10
8.5763643272
 20
7.1316162551
 30
0.0
 10
8.5763645005
 20
7.1316096401
 30
0.0
 10
8.5763720936
 20
7.1315991299
 30
0.0
 10
8.5763863173
 20
7.1315894129
 30
0.0
 10
8.5764106278
 20
7.131577047
 30
0.0
 10
8.5764527418
 20
7.1315631342
 30
0.0
 10
8.5765169751
 20
7.1315476418
 30
0.0
 10
8.5765991753
 20
7.1315325979
 30
0.0
 10
8.5767444761
 20
7.1315113453
 30
0.0
 10
8.5769712238
 20
7.1314873931
 30
0.0
 10
8.577296936
 20
7.1314620042
 30
0.0
 10
8.5776935366
 20
7.1314386141
 30
0.0
 10
8.5781603106
 20
7.1314172714
 30
0.0
 10
8.5786964391
 20
7.131398094
 30
0.0
 10
8.579300951
 20
7.1313811399
 30
0.0
 10
8.5802404053
 20
7.1313606446
 30
0.0
 10
8.581576472
 20
7.131341987
 30
0.0
 10
8.5833667201
 20
7.1313296923
 30
0.0
 10
8.5853964959
 20
7.1313268681
 30
0.0
 10
8.5876510586
 20
7.1313335714
 30
0.0
 10
8.5901140379
 20
7.1313498068
 30
0.0
 10
8.5927675635
 20
7.1313754805
 30
0.0
 10
8.5955923519
 20
7.1314104248
 30
0.0
 10
8.5985678449
 20
7.1314543952
 30
0.0
 10
8.6027734472
 20
7.1315257803
 30
0.0
 10
8.605984663
 20
7.1315901823
 30
0.0
 10
8.6081584916
 20
7.1316376501
 30
0.0
  0
SPLINE
  5
330
100
AcDbEntity
  8
0
100
AcDbSpline
 62
9
  6
CONTINUOUS
 70
0
 71
3
 72
11
 73
7
 74
0
 42
0.0000001
 43
0.0000001
 44
0.0000000001
 40
0.0
 40
0.0
 40
0.0
 40
0.0
 40
0.2503804444
 40
0.5005331798
 40
0.7503800265
 40
1.0
 40
1.0
 40
1.0
 40
1.0
 10
8.5593474212
 20
8.8456004489
 30
0.0
 10
8.5592922542
 20
8.8477050487
 30
0.0
 10
8.559348869
 20
8.8519185444
 30
0.0
 10
8.5599318649
 20
8.858207629
 30
0.0
 10
8.5610226175
 20
8.8644227304
 30
0.0
 10
8.562095833
 20
8.8684893253
 30
0.0
 10
8.5627188035
 20
8.8704936725
 30
0.0
  0
SPLINE
  5
331
100
AcDbEntity
  8
0
100
AcDbSpline
 62
9
  6
CONTINUOUS
 70
0
 71
3
 72
10
 73
6
 74
0
 42
0.0000001
 43
0.0000001
 44
0.0000000001
 40
0.0
 40
0.0
 40
0.0
 40
0.0
 40
0.4996084138
 40
0.7498079369
 40
1.0
 40
1.0
 40
1.0
 40
1.0
 10
8.6081584916
 20
7.1316376501
 30
0.0
 10
8.6067365286
 20
7.1355442048
 30
0.0
 10
8.6051043461
 20
7.1416053391
 30
0.0
 10
8.6039150305
 20
7.1498458416
 30
0.0
 10
8.6036433816
 20
7.1540063547
 30
0.0
 10
8.6035888743
 20
7.1560875188
 30
0.0
  0
SPLINE
  5
332
100
AcDbEntity
  8
0
100
AcDbSpline
 62
9
  6
CONTINUOUS
 70
0
 71
3
 72
31
 73
27
 74
0
 42
0.0000001
 43
0.0000001
 44
0.0000000001
 40
0.0
 40
0.0
 40
0.0
 40
0.0
 40
0.0006232897
 40
0.0010752185
 40
0.0016466119
 40
0.0031775067
 40
0.005249589
 40
0.0078741228
 40
0.0110561045
 40
0.0190978694
 40
0.0293726206
 40
0.041868415
 40
0.0565672374
 40
0.073442343
 40
0.0924652136
 40
0.1136030952
 40
0.1620638751
 40
0.2184769061
 40
0.2824328878
 40
0.3534664262
 40
0.4310619896
 40
0.5146546955
 40
0.6036367024
 40
0.6973583979
 40
0.7951340655
 40
1.0
 40
1.0
 40
1.0
 40
1.0
 10
8.5308308335
 20
8.8704702268
 30
0.0
 10
8.5308310071
 20
8.8704635977
 30
0.0
 10
8.5308386321
 20
8.8704530673
 30
0.0
 10
8.5308529011
 20
8.8704433379
 30
0.0
 10
8.530877298
 20
8.8704309504
 30
0.0
 10
8.5309195587
 20
8.8704170163
 30
0.0
 10
8.530984016
 20
8.8704014998
 30
0.0
 10
8.5310665033
 20
8.8703864338
 30
0.0
 10
8.531212313
 20
8.870365151
 30
0.0
 10
8.5314398525
 20
8.8703411685
 30
0.0
 10
8.5317667
 20
8.8703157522
 30
0.0
 10
8.5321646793
 20
8.8702923423
 30
0.0
 10
8.5326330704
 20
8.8702709879
 30
0.0
 10
8.5331710486
 20
8.8702518069
 30
0.0
 10
8.5337776361
 20
8.8702348576
 30
0.0
 10
8.5347202865
 20
8.8702143812
 30
0.0
 10
8.5360608482
 20
8.8701957707
 30
0.0
 10
8.5378570414
 20
8.8701835644
 30
0.0
 10
8.5398934306
 20
8.8701808627
 30
0.0
 10
8.542155175
 20
8.870187722
 30
0.0
 10
8.5446257945
 20
8.8702041457
 30
0.0
 10
8.5472873002
 20
8.8702300382
 30
0.0
 10
8.5501202828
 20
8.8702652296
 30
0.0
 10
8.5531040521
 20
8.8703094728
 30
0.0
 10
8.5573204579
 20
8.8703812522
 30
0.0
 10
8.5605397023
 20
8.8704459767
 30
0.0
 10
8.5627188035
 20
8.8704936725
 30
0.0
  0
SPLINE
  5
333
100
AcDbEntity
  8
0
100
AcDbSpline
 62
9
  6
CONTINUOUS
 70
0
 71
3
 72
11
 73
7
 74
0
 42
0.0000001
 43
0.0000001
 44
0.0000000001
 40
0.0
 40
0.0
 40
0.0
 40
0.0
 40
0.2498222284
 40
0.4997460351
 40
0.749828332
 40
1.0
 40
1.0
 40
1.0
 40
1.0
 10
8.5670672978
 20
8.87791967
 30
0.0
 10
8.5686778703
 20
8.8796261893
 30
0.0
 10
8.572073424
 20
8.8828803686
 30
0.0
 10
8.5776204674
 20
8.8872373702
 30
0.0
 10
8.583561529
 20
8.8910448871
 30
0.0
 10
8.587745837
 20
8.8932005276
 30
0.0
 10
8.5898831211
 20
8.894177043
 30
0.0
  0
SPLINE
  5
334
100
AcDbEntity
  8
0
100
AcDbSpline
 62
9
  6
CONTINUOUS
 70
0
 71
3
 72
33
 73
29
 74
0
 42
0.0000001
 43
0.0000001
 44
0.0000000001
 40
0.0
 40
0.0
 40
0.0
 40
0.0
 40
0.0001452574
 40
0.0003945539
 40
0.0012911921
 40
0.0027470975
 40
0.0047695397
 40
0.007360507
 40
0.0105204897
 40
0.0142489295
 40
0.0185439682
 40
0.028825269
 40
0.0413468363
 40
0.0560872522
 40
0.0730173261
 40
0.0921066203
 40
0.1133206242
 40
0.1366178176
 40
0.1619558482
 40
0.2185613442
 40
0.2827135546
 40
0.3539318833
 40
0.4316846951
 40
0.5153901128
 40
0.6044226283
 40
0.6981144143
 40
0.795761248
 40
1.0
 40
1.0
 40
1.0
 40
1.0
 10
8.552373714
 20
8.9070115371
 30
0.0
 10
8.5523723134
 20
8.9070108093
 30
0.0
 10
8.5523703191
 20
8.9070063591
 30
0.0
 10
8.552370968
 20
8.9069924842
 30
0.0
 10
8.5523776643
 20
8.9069646674
 30
0.0
 10
8.5523926241
 20
8.9069196826
 30
0.0
 10
8.5524159895
 20
8.906857925
 30
0.0
 10
8.5524478264
 20
8.9067797075
 30
0.0
 10
8.5524881549
 20
8.9066849092
 30
0.0
 10
8.5525369533
 20
8.9065736136
 30
0.0
 10
8.5526183462
 20
8.9063921166
 30
0.0
 10
8.5527415516
 20
8.9061246654
 30
0.0
 10
8.5529153858
 20
8.9057555869
 30
0.0
 10
8.5531227514
 20
8.9053224515
 30
0.0
 10
8.5533632135
 20
8.9048260431
 30
0.0
 10
8.5536363126
 20
8.9042672851
 30
0.0
 10
8.5539415222
 20
8.9036472145
 30
0.0
 10
8.5542782892
 20
8.9029669976
 30
0.0
 10
8.5547876967
 20
8.9019431216
 30
0.0
 10
8.5554985116
 20
8.9005235926
 30
0.0
 10
8.5564371791
 20
8.8986605967
 30
0.0
 10
8.5574833747
 20
8.8965944662
 30
0.0
 10
8.558629286
 20
8.8943406705
 30
0.0
 10
8.5598663567
 20
8.8919160649
 30
0.0
 10
8.5611853308
 20
8.8893388081
 30
0.0
 10
8.5625763223
 20
8.8866282292
 30
0.0
 10
8.5645427481
 20
8.8828058439
 30
0.0
 10
8.5660475751
 20
8.8798909179
 30
0.0
 10
8.5670672879
 20
8.8779196885
 30
0.0
  0
SPLINE
  5
335
100
AcDbEntity
  8
0
100
AcDbSpline
 62
9
  6
CONTINUOUS
 70
0
 71
3
 72
32
 73
28
 74
0
 42
0.0000001
 43
0.0000001
 44
0.0000000001
 40
0.0
 40
0.0
 40
0.0
 40
0.0
 40
0.0003951988
 40
0.0012941985
 40
0.0027455691
 40
0.0047576479
 40
0.0073328426
 40
0.0104718658
 40
0.014174415
 40
0.0184390306
 40
0.0286471056
 40
0.0410805051
 40
0.0557193584
 40
0.072535974
 40
0.0915014417
 40
0.1125830657
 40
0.1357415175
 40
0.1609366591
 40
0.2172539228
 40
0.2811328458
 40
0.3521168575
 40
0.4297003993
 40
0.5133294941
 40
0.6024078639
 40
0.6962979679
 40
0.7943264373
 40
1.0
 40
1.0
 40
1.0
 40
1.0
 10
8.5969514278
 20
7.0976823192
 30
0.0
 10
8.5969550385
 20
7.0976803168
 30
0.0
 10
8.5969694057
 20
7.0976896526
 30
0.0
 10
8.5969873554
 20
7.0977084913
 30
0.0
 10
8.5970175461
 20
7.0977445692
 30
0.0
 10
8.5970547806
 20
7.0977947479
 30
0.0
 10
8.597101411
 20
7.0978609358
 30
0.0
 10
8.5971563333
 20
7.0979424629
 30
0.0
 10
8.597219853
 20
7.0980396015
 30
0.0
 10
8.5973221072
 20
7.0981995917
 30
0.0
 10
8.5974706542
 20
7.0984382554
 30
0.0
 10
8.5976734683
 20
7.0987707685
 30
0.0
 10
8.5979098028
 20
7.0991637028
 30
0.0
 10
8.5981791584
 20
7.0996164029
 30
0.0
 10
8.5984809921
 20
7.1001280983
 30
0.0
 10
8.5988147236
 20
7.1006978981
 30
0.0
 10
8.5991797772
 20
7.1013247759
 30
0.0
 10
8.5997280984
 20
7.102270921
 30
0.0
 10
8.6004861488
 20
7.1035872222
 30
0.0
 10
8.6014783188
 20
7.1053207217
 30
0.0
 10
8.602576735
 20
7.1072494017
 30
0.0
 10
8.6037735484
 20
7.1093594946
 30
0.0
 10
8.6050602043
 20
7.1116359572
 30
0.0
 10
8.6064275035
 20
7.1140625282
 30
0.0
 10
8.6078656583
 20
7.1166218472
 30
0.0
 10
8.6098966886
 20
7.1202452829
 30
0.0
 10
8.6114439592
 20
7.123015374
 30
0.0
 10
8.6124901897
 20
7.1248922382
 30
0.0
  0
LINE
  5
336
100
AcDbEntity
  8
0
100
AcDbLine
 62
9
  6
CONTINUOUS
 10
8.8151863646
 20
7.0462679637
 11
8.8151984232
 21
7.0689386732
  0
SPLINE
  5
337
100
AcDbEntity
  8
0
100
AcDbSpline
 62
9
  6
CONTINUOUS
 70
0
 71
3
 72
21
 73
17
 74
0
 42
0.0000001
 43
0.0000001
 44
0.0000000001
 40
0.0
 40
0.0
 40
0.0
 40
0.0
 40
0.1408799683
 40
0.2807861729
 40
0.3499789033
 40
0.4184277341
 40
0.4859198914
 40
0.5522222488
 40
0.6170520722
 40
0.6801050935
 40
0.7410382704
 40
0.7994826992
 40
0.8550015857
 40
0.907169931
 40
0.9556289606
 40
1.0
 40
1.0
 40
1.0
 40
1.0
 10
8.6756418762
 20
7.0685516235
 30
0.0
 10
8.6736806235
 20
7.0691945042
 30
0.0
 10
8.6697514791
 20
7.0704150692
 30
0.0
 10
8.6648102333
 20
7.071786569
 30
0.0
 10
8.6608697202
 20
7.0727899731
 30
0.0
 10
8.657947706
 20
7.0734927714
 30
0.0
 10
8.6550595636
 20
7.0741544339
 30
0.0
 10
8.6522176573
 20
7.0747799172
 30
0.0
 10
8.6494361771
 20
7.0753771242
 30
0.0
 10
8.646730632
 20
7.0759532493
 30
0.0
 10
8.6441186185
 20
7.076519433
 30
0.0
 10
8.6416198184
 20
7.0770866054
 30
0.0
 10
8.6392560641
 20
7.0776673565
 30
0.0
 10
8.6370500706
 20
7.0782746962
 30
0.0
 10
8.6350268851
 20
7.0789245325
 30
0.0
 10
8.6337580802
 20
7.0794182915
 30
0.0
 10
8.6331635709
 20
7.0796812002
 30
0.0
  0
SPLINE
  5
338
100
AcDbEntity
  8
0
100
AcDbSpline
 62
9
  6
CONTINUOUS
 70
0
 71
3
 72
11
 73
7
 74
0
 42
0.0000001
 43
0.0000001
 44
0.0000000001
 40
0.0
 40
0.0
 40
0.0
 40
0.0
 40
0.2502760872
 40
0.5003885963
 40
0.7502828377
 40
1.0
 40
1.0
 40
1.0
 40
1.0
 10
8.6331498279
 20
7.1102078905
 30
0.0
 10
8.631232969
 20
7.1111240014
 30
0.0
 10
8.6274768729
 20
7.113120515
 30
0.0
 10
8.6221220965
 20
7.1165825199
 30
0.0
 10
8.6170889798
 20
7.1204902155
 30
0.0
 10
8.6139771612
 20
7.1233814848
 30
0.0
 10
8.6124901938
 20
7.1248922454
 30
0.0
  0
SPLINE
  5
339
100
AcDbEntity
  8
0
100
AcDbSpline
 62
9
  6
CONTINUOUS
 70
0
 71
3
 72
31
 73
27
 74
0
 42
0.0000001
 43
0.0000001
 44
0.0000000001
 40
0.0
 40
0.0
 40
0.0
 40
0.0
 40
0.0006238025
 40
0.001075774
 40
0.0016470803
 40
0.0031774637
 40
0.0052486411
 40
0.0078719097
 40
0.0110522841
 40
0.0190898679
 40
0.0293592358
 40
0.041848528
 40
0.0565398323
 40
0.0734065236
 40
0.0924201987
 40
0.113548249
 40
0.1619881032
 40
0.2183797084
 40
0.2823153663
 40
0.3533314732
 40
0.4309144391
 40
0.5145014585
 40
0.6034868623
 40
0.6972232915
 40
0.7950273265
 40
1.0
 40
1.0
 40
1.0
 40
1.0
 10
9.0540203582
 20
7.1316162551
 30
0.0
 10
9.054020185
 20
7.1316096401
 30
0.0
 10
9.0540125919
 20
7.13159913
 30
0.0
 10
9.0539983682
 20
7.131589413
 30
0.0
 10
9.0539740579
 20
7.1315770471
 30
0.0
 10
9.053931944
 20
7.1315631343
 30
0.0
 10
9.053867711
 20
7.131547642
 30
0.0
 10
9.0537855111
 20
7.131532598
 30
0.0
 10
9.0536402109
 20
7.1315113455
 30
0.0
 10
9.0534134641
 20
7.1314873933
 30
0.0
 10
9.0530877532
 20
7.1314620045
 30
0.0
 10
9.0526911541
 20
7.1314386143
 30
0.0
 10
9.052224382
 20
7.1314172717
 30
0.0
 10
9.0516882557
 20
7.1313980943
 30
0.0
 10
9.0510837461
 20
7.1313811402
 30
0.0
 10
9.0501442954
 20
7.1313606448
 30
0.0
 10
9.0488082339
 20
7.1313419872
 30
0.0
 10
9.0470179926
 20
7.1313296924
 30
0.0
 10
9.0449882243
 20
7.1313268681
 30
0.0
 10
9.0427336698
 20
7.1313335712
 30
0.0
 10
9.0402706992
 20
7.1313498064
 30
0.0
 10
9.0376171827
 20
7.1313754799
 30
0.0
 10
9.0347924036
 20
7.1314104238
 30
0.0
 10
9.0318169201
 20
7.1314543939
 30
0.0
 10
9.0276113301
 20
7.1315257785
 30
0.0
 10
9.0244001236
 20
7.1315901802
 30
0.0
 10
9.0222263009
 20
7.1316376477
 30
0.0
  0
SPLINE
  5
33A
100
AcDbEntity
  8
0
100
AcDbSpline
 62
9
  6
CONTINUOUS
 70
0
 71
3
 72
10
 73
6
 74
0
 42
0.0000001
 43
0.0000001
 44
0.0000000001
 40
0.0
 40
0.0
 40
0.0
 40
0.0
 40
0.4992493792
 40
0.7495085139
 40
1.0
 40
1.0
 40
1.0
 40
1.0
 10
9.0676658382
 20
8.8704936735
 30
0.0
 10
9.0689128843
 20
8.8664871915
 30
0.0
 10
9.0702593482
 20
8.8602929194
 30
0.0
 10
9.0710363469
 20
8.8519192038
 30
0.0
 10
9.0710923713
 20
8.8477051169
 30
0.0
 10
9.071037266
 20
8.8456005169
 30
0.0
  0
SPLINE
  5
33B
100
AcDbEntity
  8
0
100
AcDbSpline
 62
9
  6
CONTINUOUS
 70
0
 71
3
 72
31
 73
27
 74
0
 42
0.0000001
 43
0.0000001
 44
0.0000000001
 40
0.0
 40
0.0
 40
0.0
 40
0.0
 40
0.0006232895
 40
0.0010752183
 40
0.0016466117
 40
0.0031775067
 40
0.0052495894
 40
0.0078741238
 40
0.0110561063
 40
0.0190978731
 40
0.0293726269
 40
0.0418684243
 40
0.0565672502
 40
0.0734423597
 40
0.0924652346
 40
0.1136031208
 40
0.1620639105
 40
0.2184769514
 40
0.2824329426
 40
0.3534664892
 40
0.4310620585
 40
0.5146547671
 40
0.6036367724
 40
0.6973584609
 40
0.7951341154
 40
1.0
 40
1.0
 40
1.0
 40
1.0
 10
9.099553852
 20
8.8704702268
 30
0.0
 10
9.0995536784
 20
8.8704635977
 30
0.0
 10
9.0995460533
 20
8.8704530672
 30
0.0
 10
9.0995317844
 20
8.8704433378
 30
0.0
 10
9.0995073874
 20
8.8704309504
 30
0.0
 10
9.0994651266
 20
8.8704170163
 30
0.0
 10
9.0994006693
 20
8.8704014998
 30
0.0
 10
9.0993181818
 20
8.8703864337
 30
0.0
 10
9.0991723719
 20
8.870365151
 30
0.0
 10
9.098944832
 20
8.8703411684
 30
0.0
 10
9.098617984
 20
8.8703157521
 30
0.0
 10
9.098220004
 20
8.8702923422
 30
0.0
 10
9.0977516122
 20
8.8702709877
 30
0.0
 10
9.0972136331
 20
8.8702518068
 30
0.0
 10
9.0966070447
 20
8.8702348575
 30
0.0
 10
9.0956643927
 20
8.8702143811
 30
0.0
 10
9.0943238289
 20
8.8701957707
 30
0.0
 10
9.092527633
 20
8.8701835643
 30
0.0
 10
9.0904912406
 20
8.8701808627
 30
0.0
 10
9.0882294929
 20
8.8701877221
 30
0.0
 10
9.0857588698
 20
8.8702041458
 30
0.0
 10
9.0830973604
 20
8.8702300385
 30
0.0
 10
9.080264374
 20
8.87026523
 30
0.0
 10
9.0772806009
 20
8.8703094733
 30
0.0
 10
9.07306419
 20
8.8703812529
 30
0.0
 10
9.0698449418
 20
8.8704459775
 30
0.0
 10
9.0676658382
 20
8.8704936735
 30
0.0
  0
SPLINE
  5
33C
100
AcDbEntity
  8
0
100
AcDbSpline
 62
9
  6
CONTINUOUS
 70
0
 71
3
 72
11
 73
7
 74
0
 42
0.0000001
 43
0.0000001
 44
0.0000000001
 40
0.0
 40
0.0
 40
0.0
 40
0.0
 40
0.2500850172
 40
0.5001802222
 40
0.7501572037
 40
1.0
 40
1.0
 40
1.0
 40
1.0
 10
9.026795813
 20
7.1560875862
 30
0.0
 10
9.026741348
 20
7.1540064187
 30
0.0
 10
9.0264693279
 20
7.1498464956
 30
0.0
 10
9.0255766511
 20
7.1436594989
 30
0.0
 10
9.0241927801
 20
7.1375652324
 30
0.0
 10
9.0229372497
 20
7.1335922282
 30
0.0
 10
9.0222263009
 20
7.1316376477
 30
0.0
  0
SPLINE
  5
33D
100
AcDbEntity
  8
0
100
AcDbSpline
 62
9
  6
CONTINUOUS
 70
0
 71
3
 72
33
 73
29
 74
0
 42
0.0000001
 43
0.0000001
 44
0.0000000001
 40
0.0
 40
0.0
 40
0.0
 40
0.0
 40
0.0001451848
 40
0.0003943641
 40
0.0012907757
 40
0.002746491
 40
0.0047687834
 40
0.0073596416
 40
0.0105195561
 40
0.0142479637
 40
0.0185429929
 40
0.0288243051
 40
0.0413458857
 40
0.0560862994
 40
0.0730163637
 40
0.0921056478
 40
0.1133196442
 40
0.1366168319
 40
0.1619548576
 40
0.2185603476
 40
0.2827125618
 40
0.3539309088
 40
0.4316837584
 40
0.5153892388
 40
0.6044218463
 40
0.698113761
 40
0.7957607673
 40
1.0
 40
1.0
 40
1.0
 40
1.0
 10
9.0780109715
 20
8.9070115371
 30
0.0
 10
9.0780123714
 20
8.9070108097
 30
0.0
 10
9.0780143638
 20
8.9070063604
 30
0.0
 10
9.0780137014
 20
8.9069924902
 30
0.0
 10
9.0780069828
 20
8.9069646858
 30
0.0
 10
9.0779919908
 20
8.9069197185
 30
0.0
 10
9.0779685908
 20
8.9068579801
 30
0.0
 10
9.0779367218
 20
8.9067797804
 30
0.0
 10
9.07789637
 20
8.9066849956
 30
0.0
 10
9.0778475608
 20
8.9065737072
 30
0.0
 10
9.0777661654
 20
8.9063922137
 30
0.0
 10
9.0776429755
 20
8.9061247581
 30
0.0
 10
9.0774691601
 20
8.9057556744
 30
0.0
 10
9.0772617995
 20
8.9053225413
 30
0.0
 10
9.0770213379
 20
8.9048261385
 30
0.0
 10
9.0767482396
 20
8.9042673865
 30
0.0
 10
9.0764430353
 20
8.9036473204
 30
0.0
 10
9.0761062754
 20
8.9029671078
 30
0.0
 10
9.0755968783
 20
8.9019432382
 30
0.0
 10
9.0748860751
 20
8.9005237192
 30
0.0
 10
9.0739474239
 20
8.8986607358
 30
0.0
 10
9.0729012466
 20
8.8965946184
 30
0.0
 10
9.0717553546
 20
8.8943408367
 30
0.0
 10
9.0705183046
 20
8.8919162454
 30
0.0
 10
9.0691993521
 20
8.8893390031
 30
0.0
 10
9.067808383
 20
8.8866284383
 30
0.0
 10
9.065841987
 20
8.8828060712
 30
0.0
 10
9.0643371846
 20
8.8798911574
 30
0.0
 10
9.0633174874
 20
8.8779199363
 30
0.0
  0
LINE
  5
33E
100
AcDbEntity
  8
0
100
AcDbLine
 62
9
  6
CONTINUOUS
 10
8.8151866012
 20
8.9432131767
 11
8.8152002409
 21
8.9712184174
  0
SPLINE
  5
33F
100
AcDbEntity
  8
0
100
AcDbSpline
 62
9
  6
CONTINUOUS
 70
0
 71
3
 72
10
 73
6
 74
0
 42
0.0000001
 43
0.0000001
 44
0.0000000001
 40
0.0
 40
0.0
 40
0.0
 40
0.0
 40
0.2503223338
 40
0.500555307
 40
1.0
 40
1.0
 40
1.0
 40
1.0
 10
9.040501539
 20
8.8941770034
 30
0.0
 10
9.0426388442
 20
8.8932005589
 30
0.0
 10
9.0468234714
 20
8.8910436342
 30
0.0
 10
9.0547346953
 20
8.8859760171
 30
0.0
 10
9.0601005377
 20
8.8813303743
 30
0.0
 10
9.0633174142
 20
8.8779197986
 30
0.0
  0
SPLINE
  5
340
100
AcDbEntity
  8
0
100
AcDbSpline
 62
9
  6
CONTINUOUS
 70
0
 71
3
 72
59
 73
55
 74
0
 42
0.0000001
 43
0.0000001
 44
0.0000000001
 40
0.0
 40
0.0
 40
0.0
 40
0.0
 40
0.0075124953
 40
0.0151943247
 40
0.0231651134
 40
0.0315308755
 40
0.0403793044
 40
0.0497804632
 40
0.0597881312
 40
0.0704416145
 40
0.0817680604
 40
0.0937840628
 40
0.1064976765
 40
0.1199095744
 40
0.1340141423
 40
0.1488006249
 40
0.164253474
 40
0.1803532881
 40
0.1970771182
 40
0.2143988256
 40
0.2322896627
 40
0.2507182439
 40
0.2890504686
 40
0.3291073721
 40
0.3705729802
 40
0.4131117794
 40
0.4563738928
 40
0.5
 40
0.5436261072
 40
0.5868882206
 40
0.6294270198
 40
0.6708926279
 40
0.7109495314
 40
0.7492817561
 40
0.7677103373
 40
0.7856011744
 40
0.8029228818
 40
0.8196467119
 40
0.835746526
 40
0.8511993751
 40
0.8659858577
 40
0.8800904256
 40
0.8935023235
 40
0.9062159372
 40
0.9182319396
 40
0.9295583855
 40
0.9402118688
 40
0.9502195368
 40
0.9596206956
 40
0.9684691245
 40
0.9768348866
 40
0.9848056753
 40
0.9924875047
 40
1.0
 40
1.0
 40
1.0
 40
1.0
 10
11.2191033717
 20
11.3384330166
 30
0.0
 10
11.2190374447
 20
11.3400149341
 30
0.0
 10
11.2186739986
 20
11.3432091881
 30
0.0
 10
11.2174514662
 20
11.3479503665
 30
0.0
 10
11.2155550094
 20
11.3526581575
 30
0.0
 10
11.2129931037
 20
11.357319704
 30
0.0
 10
11.2097749027
 20
11.3619256644
 30
0.0
 10
11.2059096666
 20
11.3664666538
 30
0.0
 10
11.2014074316
 20
11.3709337499
 30
0.0
 10
11.1962790683
 20
11.3753179629
 30
0.0
 10
11.1905364092
 20
11.3796099159
 30
0.0
 10
11.1841927812
 20
11.3838004118
 30
0.0
 10
11.177262735
 20
11.3878800174
 30
0.0
 10
11.169762279
 20
11.3918394466
 30
0.0
 10
11.1617088353
 20
11.3956696562
 30
0.0
 10
11.1531211063
 20
11.3993616052
 30
0.0
 10
11.1440191896
 20
11.4029067627
 30
0.0
 10
11.1344243846
 20
11.4062967306
 30
0.0
 10
11.1243592049
 20
11.4095234941
 30
0.0
 10
11.1138473378
 20
11.4125794911
 30
0.0
 10
11.1029134682
 20
11.4154574359
 30
0.0
 10
11.0876055124
 20
11.4190958655
 30
0.0
 10
11.0675963691
 20
11.4231301542
 30
0.0
 10
11.0426448486
 20
11.4271050171
 30
0.0
 10
11.0166806212
 20
11.4302367419
 30
0.0
 10
10.9899484682
 20
11.4324953806
 30
0.0
 10
10.9627000818
 20
11.4338592664
 30
0.0
 10
10.9351923428
 20
11.4343153516
 30
0.0
 10
10.9076846037
 20
11.4338592664
 30
0.0
 10
10.8804362173
 20
11.4324953806
 30
0.0
 10
10.8537040644
 20
11.4302367419
 30
0.0
 10
10.8277398369
 20
11.4271050171
 30
0.0
 10
10.8027883164
 20
11.4231301542
 30
0.0
 10
10.7827791731
 20
11.4190958655
 30
0.0
 10
10.7674712173
 20
11.4154574359
 30
0.0
 10
10.7565373477
 20
11.4125794911
 30
0.0
 10
10.7460254806
 20
11.4095234941
 30
0.0
 10
10.7359603009
 20
11.4062967306
 30
0.0
 10
10.7263654959
 20
11.4029067627
 30
0.0
 10
10.7172635792
 20
11.3993616052
 30
0.0
 10
10.7086758502
 20
11.3956696562
 30
0.0
 10
10.7006224066
 20
11.3918394466
 30
0.0
 10
10.6931219505
 20
11.3878800174
 30
0.0
 10
10.6861919043
 20
11.3838004118
 30
0.0
 10
10.6798482763
 20
11.3796099159
 30
0.0
 10
10.6741056172
 20
11.3753179629
 30
0.0
 10
10.668977254
 20
11.3709337499
 30
0.0
 10
10.664475019
 20
11.3664666538
 30
0.0
 10
10.6606097828
 20
11.3619256644
 30
0.0
 10
10.6573915819
 20
11.357319704
 30
0.0
 10
10.6548296761
 20
11.3526581575
 30
0.0
 10
10.6529332193
 20
11.3479503665
 30
0.0
 10
10.6517106869
 20
11.3432091881
 30
0.0
 10
10.6513472409
 20
11.3400149341
 30
0.0
 10
10.6512813138
 20
11.3384330166
 30
0.0
  0
SPLINE
  5
341
100
AcDbEntity
  8
0
100
AcDbSpline
 62
9
  6
CONTINUOUS
 70
0
 71
3
 72
61
 73
57
 74
0
 42
0.0000001
 43
0.0000001
 44
0.0000000001
 40
0.0
 40
0.0
 40
0.0
 40
0.0
 40
0.0075226437
 40
0.0151810088
 40
0.023100109
 40
0.0313928716
 40
0.0401539905
 40
0.0494596137
 40
0.0593685804
 40
0.0699244479
 40
0.0811575761
 40
0.0930870871
 40
0.1057229766
 40
0.1190672375
 40
0.133115314
 40
0.1478570728
 40
0.1632773548
 40
0.1793569669
 40
0.1960728861
 40
0.213398841
 40
0.2313057547
 40
0.2497618028
 40
0.2687329948
 40
0.2881831991
 40
0.3283650984
 40
0.3699874428
 40
0.4127074916
 40
0.4561675308
 40
0.5
 40
0.5438324692
 40
0.5872925084
 40
0.6300125572
 40
0.6716349016
 40
0.7118168009
 40
0.7312670052
 40
0.7502381972
 40
0.7686942453
 40
0.786601159
 40
0.8039271139
 40
0.8206430331
 40
0.8367226452
 40
0.8521429272
 40
0.866884686
 40
0.8809327625
 40
0.8942770234
 40
0.9069129129
 40
0.9188424239
 40
0.9300755521
 40
0.9406314196
 40
0.9505403863
 40
0.9598460095
 40
0.9686071284
 40
0.976899891
 40
0.9848189912
 40
0.9924773563
 40
1.0
 40
1.0
 40
1.0
 40
1.0
 10
11.2389422856
 20
11.2180212481
 30
0.0
 10
11.2389422856
 20
11.2197247115
 30
0.0
 10
11.2386929374
 20
11.2231672964
 30
0.0
 10
11.2375773809
 20
11.2282941621
 30
0.0
 10
11.2357250832
 20
11.2333884603
 30
0.0
 10
11.2331452552
 20
11.2384352782
 30
0.0
 10
11.2298479084
 20
11.243424032
 30
0.0
 10
11.2258430606
 20
11.2483442559
 30
0.0
 10
11.221141716
 20
11.2531862678
 30
0.0
 10
11.2157554718
 20
11.2579401312
 30
0.0
 10
11.2096971168
 20
11.262595694
 30
0.0
 10
11.2029809559
 20
11.2671428552
 30
0.0
 10
11.195622638
 20
11.2715711979
 30
0.0
 10
11.187639501
 20
11.2758705983
 30
0.0
 10
11.179050366
 20
11.2800309859
 30
0.0
 10
11.1698755479
 20
11.2840424346
 30
0.0
 10
11.1601368951
 20
11.2878955138
 30
0.0
 10
11.1498575881
 20
11.2915808879
 30
0.0
 10
11.1390622
 20
11.2950897536
 30
0.0
 10
11.127776573
 20
11.2984136958
 30
0.0
 10
11.1160277322
 20
11.301544608
 30
0.0
 10
11.1038438939
 20
11.3044750332
 30
0.0
 10
11.0912542567
 20
11.3071978694
 30
0.0
 10
11.0737778824
 20
11.3105792137
 30
0.0
 10
11.0511339355
 20
11.3142234815
 30
0.0
 10
11.0231367437
 20
11.3176336605
 30
0.0
 10
10.9942951837
 20
11.3200935193
 30
0.0
 10
10.9648863256
 20
11.3215791012
 30
0.0
 10
10.9351923428
 20
11.3220759084
 30
0.0
 10
10.9054983599
 20
11.3215791012
 30
0.0
 10
10.8760895019
 20
11.3200935193
 30
0.0
 10
10.8472479418
 20
11.3176336605
 30
0.0
 10
10.81925075
 20
11.3142234815
 30
0.0
 10
10.7966068031
 20
11.3105792137
 30
0.0
 10
10.7791304288
 20
11.3071978694
 30
0.0
 10
10.7665407916
 20
11.3044750332
 30
0.0
 10
10.7543569533
 20
11.301544608
 30
0.0
 10
10.7426081125
 20
11.2984136958
 30
0.0
 10
10.7313224855
 20
11.2950897536
 30
0.0
 10
10.7205270975
 20
11.2915808879
 30
0.0
 10
10.7102477905
 20
11.2878955138
 30
0.0
 10
10.7005091376
 20
11.2840424346
 30
0.0
 10
10.6913343195
 20
11.2800309859
 30
0.0
 10
10.6827451845
 20
11.2758705983
 30
0.0
 10
10.6747620475
 20
11.2715711979
 30
0.0
 10
10.6674037296
 20
11.2671428552
 30
0.0
 10
10.6606875687
 20
11.262595694
 30
0.0
 10
10.6546292138
 20
11.2579401312
 30
0.0
 10
10.6492429695
 20
11.2531862678
 30
0.0
 10
10.644541625
 20
11.2483442559
 30
0.0
 10
10.6405367771
 20
11.243424032
 30
0.0
 10
10.6372394303
 20
11.2384352782
 30
0.0
 10
10.6346596023
 20
11.2333884603
 30
0.0
 10
10.6328073047
 20
11.2282941621
 30
0.0
 10
10.6316917481
 20
11.2231672964
 30
0.0
 10
10.6314423999
 20
11.2197247115
 30
0.0
 10
10.6314423999
 20
11.2180212481
 30
0.0
  0
SPLINE
  5
342
100
AcDbEntity
  8
0
100
AcDbSpline
 62
9
  6
CONTINUOUS
 70
0
 71
3
 72
53
 73
49
 74
0
 42
0.0000001
 43
0.0000001
 44
0.0000000001
 40
0.0
 40
0.0
 40
0.0
 40
0.0
 40
0.0084843083
 40
0.0174289919
 40
0.0268651856
 40
0.0368160622
 40
0.0472983291
 40
0.0583226823
 40
0.0698950597
 40
0.0820168875
 40
0.0946860552
 40
0.1078970218
 40
0.1216415391
 40
0.1359086963
 40
0.1506854371
 40
0.1659566009
 40
0.197910818
 40
0.2316193192
 40
0.2669058745
 40
0.3035762582
 40
0.341421441
 40
0.3802204156
 40
0.4197427898
 40
0.4597512327
 40
0.50000383
 40
0.540256388
 40
0.580264713
 40
0.6197868919
 40
0.6585855957
 40
0.6964304349
 40
0.7331004055
 40
0.7683864824
 40
0.8020944455
 40
0.8340480709
 40
0.8493189211
 40
0.8640953382
 40
0.8783621623
 40
0.892106339
 40
0.9053169585
 40
0.9179857749
 40
0.9301072487
 40
0.941679272
 40
0.9527032732
 40
0.9631851935
 40
0.9731357323
 40
0.9825716008
 40
0.9915159767
 40
1.0
 40
1.0
 40
1.0
 40
1.0
 10
11.2321402144
 20
11.2981267689
 30
0.0
 10
11.2310924358
 20
11.2995671809
 30
0.0
 10
11.2288115551
 20
11.3024342771
 30
0.0
 10
11.2249733347
 20
11.3065729939
 30
0.0
 10
11.2206385676
 20
11.3106519439
 30
0.0
 10
11.215815194
 20
11.314664525
 30
0.0
 10
11.2105111563
 20
11.3186042879
 30
0.0
 10
11.2047355417
 20
11.3224649966
 30
0.0
 10
11.1984979856
 20
11.3262401349
 30
0.0
 10
11.1918090945
 20
11.3299235623
 30
0.0
 10
11.1846801335
 20
11.3335089477
 30
0.0
 10
11.1771232428
 20
11.3369903361
 30
0.0
 10
11.1691512429
 20
11.3403617076
 30
0.0
 10
11.1607777476
 20
11.3436173686
 30
0.0
 10
11.15201701
 20
11.3467517409
 30
0.0
 10
11.1396523529
 20
11.3508234963
 30
0.0
 10
11.1233254871
 20
11.3555512282
 30
0.0
 10
11.1027317597
 20
11.3605792718
 30
0.0
 10
11.0809902114
 20
11.3650097124
 30
0.0
 10
11.0582496901
 20
11.368811866
 30
0.0
 10
11.0346655815
 20
11.3719593452
 30
0.0
 10
11.0103994063
 20
11.3744303071
 30
0.0
 10
10.9856174455
 20
11.3762075997
 30
0.0
 10
10.9604896168
 20
11.3772788872
 30
0.0
 10
10.9351882601
 20
11.377636734
 30
0.0
 10
10.9098869313
 20
11.3772786566
 30
0.0
 10
10.8847591865
 20
11.3762071401
 30
0.0
 10
10.8599773647
 20
11.3744296215
 30
0.0
 10
10.8357113828
 20
11.3719584386
 30
0.0
 10
10.8121275204
 20
11.3688107446
 30
0.0
 10
10.7893872964
 20
11.365008384
 30
0.0
 10
10.7676460945
 20
11.3605777455
 30
0.0
 10
10.7470527601
 20
11.3555495147
 30
0.0
 10
10.7307262532
 20
11.3508216315
 30
0.0
 10
10.7183619058
 20
11.3467497604
 30
0.0
 10
10.7096014131
 20
11.3436153082
 30
0.0
 10
10.7012281722
 20
11.3403595707
 30
0.0
 10
10.6932564355
 20
11.3369881265
 30
0.0
 10
10.6856998167
 20
11.333506669
 30
0.0
 10
10.6785711355
 20
11.3299212185
 30
0.0
 10
10.6718825319
 20
11.3262377298
 30
0.0
 10
10.6656452703
 20
11.3224625344
 30
0.0
 10
10.6598699568
 20
11.3186017726
 30
0.0
 10
10.6545662261
 20
11.3146619609
 30
0.0
 10
10.6497431651
 20
11.3106493348
 30
0.0
 10
10.6454087155
 20
11.3065703442
 30
0.0
 10
10.6415708173
 20
11.3024315907
 30
0.0
 10
10.6392901613
 20
11.2995644742
 30
0.0
 10
10.6382424961
 20
11.2981240536
 30
0.0
  0
SPLINE
  5
343
100
AcDbEntity
  8
0
100
AcDbSpline
 62
9
  6
CONTINUOUS
 70
0
 71
3
 72
61
 73
57
 74
0
 42
0.0000001
 43
0.0000001
 44
0.0000000001
 40
0.0
 40
0.0
 40
0.0
 40
0.0
 40
0.0075226437
 40
0.0151810088
 40
0.023100109
 40
0.0313928716
 40
0.0401539905
 40
0.0494596137
 40
0.0593685804
 40
0.0699244479
 40
0.0811575761
 40
0.0930870871
 40
0.1057229766
 40
0.1190672375
 40
0.133115314
 40
0.1478570728
 40
0.1632773548
 40
0.1793569669
 40
0.1960728861
 40
0.213398841
 40
0.2313057547
 40
0.2497618028
 40
0.2687329948
 40
0.2881831991
 40
0.3283650984
 40
0.3699874428
 40
0.4127074916
 40
0.4561675308
 40
0.5
 40
0.5438324692
 40
0.5872925084
 40
0.6300125572
 40
0.6716349016
 40
0.7118168009
 40
0.7312670052
 40
0.7502381972
 40
0.7686942453
 40
0.786601159
 40
0.8039271139
 40
0.8206430331
 40
0.8367226452
 40
0.8521429272
 40
0.866884686
 40
0.8809327625
 40
0.8942770234
 40
0.9069129129
 40
0.9188424239
 40
0.9300755521
 40
0.9406314196
 40
0.9505403863
 40
0.9598460095
 40
0.9686071284
 40
0.976899891
 40
0.9848189912
 40
0.9924773563
 40
1.0
 40
1.0
 40
1.0
 40
1.0
 10
11.2239848888
 20
11.4454228276
 30
0.0
 10
11.2239848888
 20
11.4470424083
 30
0.0
 10
11.2237478191
 20
11.4503154718
 30
0.0
 10
11.2226871953
 20
11.455189878
 30
0.0
 10
11.2209261094
 20
11.4600333204
 30
0.0
 10
11.2184733185
 20
11.4648316205
 30
0.0
 10
11.2153383411
 20
11.4695747158
 30
0.0
 10
11.2115307019
 20
11.4742526557
 30
0.0
 10
11.2070608632
 20
11.478856235
 30
0.0
 10
11.2019398509
 20
11.4833760064
 30
0.0
 10
11.1961798242
 20
11.4878023178
 30
0.0
 10
11.1897943837
 20
11.4921255656
 30
0.0
 10
11.1827984075
 20
11.4963358457
 30
0.0
 10
11.1752083799
 20
11.500423533
 30
0.0
 10
11.1670421952
 20
11.5043790529
 30
0.0
 10
11.1583191677
 20
11.508192968
 30
0.0
 10
11.1490600702
 20
11.5118563121
 30
0.0
 10
11.1392869416
 20
11.5153602092
 30
0.0
 10
11.1290231451
 20
11.5186962897
 30
0.0
 10
11.1182932503
 20
11.5218565528
 30
0.0
 10
11.1071229513
 20
11.5248332911
 30
0.0
 10
11.0955390753
 20
11.527619415
 30
0.0
 10
11.0835693829
 20
11.530208172
 30
0.0
 10
11.0669535884
 20
11.5334230105
 30
0.0
 10
11.0454246853
 20
11.5368878256
 30
0.0
 10
11.0188061444
 20
11.540130079
 30
0.0
 10
10.9913848139
 20
11.5424688083
 30
0.0
 10
10.9634241206
 20
11.5438812365
 30
0.0
 10
10.9351923428
 20
11.5443535797
 30
0.0
 10
10.9069605649
 20
11.5438812365
 30
0.0
 10
10.8789998716
 20
11.5424688083
 30
0.0
 10
10.8515785411
 20
11.540130079
 30
0.0
 10
10.8249600002
 20
11.5368878256
 30
0.0
 10
10.8034310971
 20
11.5334230105
 30
0.0
 10
10.7868153026
 20
11.530208172
 30
0.0
 10
10.7748456102
 20
11.527619415
 30
0.0
 10
10.7632617342
 20
11.5248332911
 30
0.0
 10
10.7520914353
 20
11.5218565528
 30
0.0
 10
10.7413615404
 20
11.5186962897
 30
0.0
 10
10.7310977439
 20
11.5153602092
 30
0.0
 10
10.7213246154
 20
11.5118563121
 30
0.0
 10
10.7120655178
 20
11.508192968
 30
0.0
 10
10.7033424904
 20
11.5043790529
 30
0.0
 10
10.6951763056
 20
11.500423533
 30
0.0
 10
10.687586278
 20
11.4963358457
 30
0.0
 10
10.6805903018
 20
11.4921255656
 30
0.0
 10
10.6742048613
 20
11.4878023178
 30
0.0
 10
10.6684448346
 20
11.4833760064
 30
0.0
 10
10.6633238223
 20
11.478856235
 30
0.0
 10
10.6588539836
 20
11.4742526557
 30
0.0
 10
10.6550463444
 20
11.4695747158
 30
0.0
 10
10.651911367
 20
11.4648316205
 30
0.0
 10
10.6494585761
 20
11.4600333204
 30
0.0
 10
10.6476974902
 20
11.455189878
 30
0.0
 10
10.6466368664
 20
11.4503154718
 30
0.0
 10
10.6463997968
 20
11.4470424083
 30
0.0
 10
10.6463997968
 20
11.4454228276
 30
0.0
  0
SPLINE
  5
344
100
AcDbEntity
  8
0
100
AcDbSpline
 62
9
  6
CONTINUOUS
 70
0
 71
3
 72
27
 73
23
 74
0
 42
0.0000001
 43
0.0000001
 44
0.0000000001
 40
0.0
 40
0.0
 40
0.0
 40
0.0
 40
0.0853992029
 40
0.1701892659
 40
0.2537788744
 40
0.3355861859
 40
0.4150626922
 40
0.49168041
 40
0.564937797
 40
0.634347722
 40
0.6994305149
 40
0.7597724755
 40
0.8149289065
 40
0.8644657418
 40
0.8870281861
 40
0.9080754326
 40
0.9275672802
 40
0.9454332567
 40
0.9616120128
 40
0.9761062342
 40
0.9889197834
 40
1.0
 40
1.0
 40
1.0
 40
1.0
 10
10.9351923427
 20
4.7500527925
 30
0.0
 10
10.9607917218
 20
4.7500528262
 30
0.0
 10
11.0118117529
 20
4.7508803896
 30
0.0
 10
11.0878083973
 20
4.7545350838
 30
0.0
 10
11.1625901554
 20
4.7603356228
 30
0.0
 10
11.2356047646
 20
4.7679545369
 30
0.0
 10
11.3063511842
 20
4.7769729512
 30
0.0
 10
11.3743728665
 20
4.7869831955
 30
0.0
 10
11.4392458117
 20
4.7975969978
 30
0.0
 10
11.5005678523
 20
4.8084609228
 30
0.0
 10
11.5579621653
 20
4.8192783343
 30
0.0
 10
11.6110687821
 20
4.82976348
 30
0.0
 10
11.6595340846
 20
4.8396905744
 30
0.0
 10
11.6968579521
 20
4.8475700701
 30
0.0
 10
11.7241573889
 20
4.8534321812
 30
0.0
 10
11.7426434205
 20
4.8574396074
 30
0.0
 10
11.7597475008
 20
4.861176734
 30
0.0
 10
11.7754199411
 20
4.8646292022
 30
0.0
 10
11.789623458
 20
4.867786064
 30
0.0
 10
11.8023445717
 20
4.8706320515
 30
0.0
 10
11.8135726135
 20
4.8731514817
 30
0.0
 10
11.8205600091
 20
4.8747252309
 30
0.0
 10
11.8237998064
 20
4.8754570419
 30
0.0
  0
SPLINE
  5
345
100
AcDbEntity
  8
0
100
AcDbSpline
 62
9
  6
CONTINUOUS
 70
0
 71
3
 72
33
 73
29
 74
0
 42
0.0000001
 43
0.0000001
 44
0.0000000001
 40
0.0
 40
0.0
 40
0.0
 40
0.0
 40
0.0150462179
 40
0.0303619384
 40
0.0462003476
 40
0.0627860817
 40
0.0803084006
 40
0.0989196261
 40
0.1187377481
 40
0.1398495395
 40
0.1623158903
 40
0.1861750732
 40
0.2114468986
 40
0.2381355996
 40
0.2662318458
 40
0.2957155161
 40
0.326556221
 40
0.3587155922
 40
0.3921475822
 40
0.4267996541
 40
0.4626136511
 40
0.499525892
 40
0.5763644256
 40
0.6567286315
 40
0.7399736368
 40
0.8254144652
 40
0.9123339461
 40
1.0
 40
1.0
 40
1.0
 40
1.0
 10
11.1851923088
 20
12.2497640479
 30
0.0
 10
11.1851923088
 20
12.2511661559
 30
0.0
 10
11.1849872403
 20
12.2539995565
 30
0.0
 10
11.1840688657
 20
12.2582191504
 30
0.0
 10
11.1825444337
 20
12.2624119278
 30
0.0
 10
11.1804211702
 20
12.2665657533
 30
0.0
 10
11.1777072026
 20
12.2706716578
 30
0.0
 10
11.1744111185
 20
12.2747212928
 30
0.0
 10
11.1705416444
 20
12.2787064344
 30
0.0
 10
11.1661085437
 20
12.2826191077
 30
0.0
 10
11.1611222413
 20
12.2864508498
 30
0.0
 10
11.1555945214
 20
12.2901933419
 30
0.0
 10
11.1495383114
 20
12.2938381088
 30
0.0
 10
11.1429678127
 20
12.297376675
 30
0.0
 10
11.1358985729
 20
12.3008008868
 30
0.0
 10
11.1283472773
 20
12.3041024793
 30
0.0
 10
11.1203319238
 20
12.307273742
 30
0.0
 10
11.1118715879
 20
12.3103069713
 30
0.0
 10
11.1029864921
 20
12.3131949295
 30
0.0
 10
11.0936979134
 20
12.3159306771
 30
0.0
 10
11.0840280643
 20
12.3185075889
 30
0.0
 10
11.0704759047
 20
12.3217669772
 30
0.0
 10
11.0527451976
 20
12.3253814385
 30
0.0
 10
11.0306177606
 20
12.3289428848
 30
0.0
 10
11.0075745057
 20
12.3317495774
 30
0.0
 10
10.9838366774
 20
12.3337741383
 30
0.0
 10
10.9596320538
 20
12.3349968818
 30
0.0
 10
10.9433616566
 20
12.3352690837
 30
0.0
 10
10.9351923427
 20
12.3352690837
 30
0.0
  0
SPLINE
  5
346
100
AcDbEntity
  8
0
100
AcDbSpline
 62
9
  6
CONTINUOUS
 70
0
 71
3
 72
11
 73
7
 74
0
 42
0.0000001
 43
0.0000001
 44
0.0000000001
 40
0.0
 40
0.0
 40
0.0
 40
0.0
 40
0.2497174615
 40
0.4996115486
 40
0.7497241752
 40
1.0
 40
1.0
 40
1.0
 40
1.0
 10
9.0178944632
 20
7.1248924152
 30
0.0
 10
9.0164076547
 20
7.1233814737
 30
0.0
 10
9.0132954586
 20
7.1204905857
 30
0.0
 10
9.0082632155
 20
7.1165816933
 30
0.0
 10
9.0029078482
 20
7.1131204447
 30
0.0
 10
8.999151747
 20
7.1111239374
 30
0.0
 10
8.9972348731
 20
7.1102078286
 30
0.0
  0
SPLINE
  5
347
100
AcDbEntity
  8
0
100
AcDbSpline
 62
9
  6
CONTINUOUS
 70
0
 71
3
 72
32
 73
28
 74
0
 42
0.0000001
 43
0.0000001
 44
0.0000000001
 40
0.0
 40
0.0
 40
0.0
 40
0.0
 40
0.0003948227
 40
0.0012933892
 40
0.0027443905
 40
0.0047561794
 40
0.0073311683
 40
0.0104700709
 40
0.0141725735
 40
0.0184371883
 40
0.0286453247
 40
0.0410787971
 40
0.0557177018
 40
0.072534361
 40
0.0914998769
 40
0.1125815583
 40
0.1357400741
 40
0.1609352837
 40
0.2172526915
 40
0.2811317693
 40
0.3521159427
 40
0.4296996485
 40
0.5133289047
 40
0.6024074285
 40
0.6962976737
 40
0.794326266
 40
1.0
 40
1.0
 40
1.0
 40
1.0
 10
9.0334332577
 20
7.0976823191
 30
0.0
 10
9.0334296503
 20
7.0976803186
 30
0.0
 10
9.0334152962
 20
7.0976896689
 30
0.0
 10
9.0333973919
 20
7.0977085282
 30
0.0
 10
9.0333672513
 20
7.097744636
 30
0.0
 10
9.033330076
 20
7.097794846
 30
0.0
 10
9.0332834983
 20
7.0978610638
 30
0.0
 10
9.0332286152
 20
7.0979426127
 30
0.0
 10
9.0331651141
 20
7.0980397618
 30
0.0
 10
9.0330628648
 20
7.098199756
 30
0.0
 10
9.0329142939
 20
7.0984384076
 30
0.0
 10
9.0327114505
 20
7.0987709069
 30
0.0
 10
9.0324751089
 20
7.099163841
 30
0.0
 10
9.0322057544
 20
7.0996165458
 30
0.0
 10
9.0319039215
 20
7.100128246
 30
0.0
 10
9.0315701839
 20
7.1006980471
 30
0.0
 10
9.0312051214
 20
7.1013249252
 30
0.0
 10
9.0306567873
 20
7.1022710708
 30
0.0
 10
9.0298987238
 20
7.1035873753
 30
0.0
 10
9.0289065351
 20
7.1053208782
 30
0.0
 10
9.0278080975
 20
7.1072495613
 30
0.0
 10
9.0266112618
 20
7.1093596576
 30
0.0
 10
9.0253245819
 20
7.1116361236
 30
0.0
 10
9.0239572574
 20
7.1140626977
 30
0.0
 10
9.0225190764
 20
7.1166220195
 30
0.0
 10
9.0204880099
 20
7.1202454577
 30
0.0
 10
9.0189407119
 20
7.1230155504
 30
0.0
 10
9.017894463
 20
7.1248924156
 30
0.0
  0
SPLINE
  5
348
100
AcDbEntity
  8
0
100
AcDbSpline
 62
9
  6
CONTINUOUS
 70
0
 71
3
 72
21
 73
17
 74
0
 42
0.0000001
 43
0.0000001
 44
0.0000000001
 40
0.0
 40
0.0
 40
0.0
 40
0.0
 40
0.0443794625
 40
0.0928425185
 40
0.1450060083
 40
0.2005195002
 40
0.2589622942
 40
0.3198984309
 40
0.3829534115
 40
0.4477801372
 40
0.5140792503
 40
0.5815727603
 40
0.6500242262
 40
0.7192157951
 40
0.8591162901
 40
1.0
 40
1.0
 40
1.0
 40
1.0
 10
8.9972211281
 20
7.079680825
 30
0.0
 10
8.9966265071
 20
7.0794178724
 30
0.0
 10
8.9953575587
 20
7.0789240046
 30
0.0
 10
8.9933343036
 20
7.0782740527
 30
0.0
 10
8.9911283974
 20
7.0776667807
 30
0.0
 10
8.9887647955
 20
7.0770861947
 30
0.0
 10
8.9862660573
 20
7.0765190857
 30
0.0
 10
8.9836540488
 20
7.0759527211
 30
0.0
 10
8.980948505
 20
7.0753765324
 30
0.0
 10
8.9781670365
 20
7.0747796523
 30
0.0
 10
8.9753251677
 20
7.0741544075
 30
0.0
 10
8.972437091
 20
7.0734924755
 30
0.0
 10
8.9695151086
 20
7.072789446
 30
0.0
 10
8.9655744827
 20
7.0717868526
 30
0.0
 10
8.960632971
 20
7.0704164826
 30
0.0
 10
8.9567043467
 20
7.0691944148
 30
0.0
 10
8.9547430265
 20
7.0685516003
 30
0.0
  0
LINE
  5
349
100
AcDbEntity
  8
0
100
AcDbLine
 62
9
  6
CONTINUOUS
 10
8.595307184
 20
8.8820351748
 11
8.5898830901
 21
8.8941770289
  0
LINE
  5
34A
100
AcDbEntity
  8
0
100
AcDbLine
 62
9
  6
CONTINUOUS
 10
8.6389949132
 20
7.1221603061
 11
8.6331498648
 21
7.1102078709
  0
LINE
  5
34B
100
AcDbEntity
  8
0
100
AcDbLine
 62
9
  6
CONTINUOUS
 10
8.6168940001
 20
7.1561438225
 11
8.6035888743
 21
7.1560875188
  0
SPLINE
  5
34C
100
AcDbEntity
  8
0
100
AcDbSpline
 62
9
  6
CONTINUOUS
 70
0
 71
3
 72
16
 73
12
 74
0
 42
0.0000001
 43
0.0000001
 44
0.0000000001
 40
0.0
 40
0.0
 40
0.0
 40
0.0
 40
0.0276166636
 40
0.0609047976
 40
0.0997394427
 40
0.1439581977
 40
0.2477745136
 40
0.3704881163
 40
0.5098198357
 40
0.6631417693
 40
1.0
 40
1.0
 40
1.0
 40
1.0
 10
8.6212456083
 20
7.1398562441
 30
0.0
 10
8.6211419544
 20
7.1397585385
 30
0.0
 10
8.6209056262
 20
7.1395512842
 30
0.0
 10
8.6205047079
 20
7.1392287868
 30
0.0
 10
8.620025607
 20
7.1388673207
 30
0.0
 10
8.619242621
 20
7.1383051092
 30
0.0
 10
8.6180851163
 20
7.1375233651
 30
0.0
 10
8.6164958032
 20
7.1365057185
 30
0.0
 10
8.6146700658
 20
7.1353844737
 30
0.0
 10
8.6118777229
 20
7.1337273054
 30
0.0
 10
8.6096782799
 20
7.1324797416
 30
0.0
 10
8.6081584916
 20
7.13163765
 30
0.0
  0
SPLINE
  5
34D
100
AcDbEntity
  8
0
100
AcDbSpline
 62
9
  6
CONTINUOUS
 70
0
 71
3
 72
16
 73
12
 74
0
 42
0.0000001
 43
0.0000001
 44
0.0000000001
 40
0.0
 40
0.0
 40
0.0
 40
0.0
 40
0.0279591226
 40
0.061480018
 40
0.1004673938
 40
0.1447781232
 40
0.2486434904
 40
0.371283733
 40
0.5104633289
 40
0.6635862039
 40
1.0
 40
1.0
 40
1.0
 40
1.0
 10
8.6255821382
 20
7.1331022886
 30
0.0
 10
8.6254446729
 20
7.1330582899
 30
0.0
 10
8.6251467752
 20
7.1329479089
 30
0.0
 10
8.624670829
 20
7.132741481
 30
0.0
 10
8.624127462
 20
7.1324795687
 30
0.0
 10
8.6232702014
 20
7.1320336302
 30
0.0
 10
8.6220543894
 20
7.1313425714
 30
0.0
 10
8.620443517
 20
7.1303578975
 30
0.0
 10
8.6186435269
 20
7.1291962756
 30
0.0
 10
8.6159515645
 20
7.1273828469
 30
0.0
 10
8.6138919968
 20
7.1259174327
 30
0.0
 10
8.6124901898
 20
7.1248922382
 30
0.0
  0
SPLINE
  5
34E
100
AcDbEntity
  8
0
100
AcDbSpline
 62
9
  6
CONTINUOUS
 70
0
 71
3
 72
16
 73
12
 74
0
 42
0.0000001
 43
0.0000001
 44
0.0000000001
 40
0.0
 40
0.0
 40
0.0
 40
0.0
 40
0.0276165483
 40
0.0609046986
 40
0.099739439
 40
0.1439583222
 40
0.247774869
 40
0.3704885886
 40
0.5098202894
 40
0.663142096
 40
1.0
 40
1.0
 40
1.0
 40
1.0
 10
9.009138589
 20
7.1398549476
 30
0.0
 10
9.0092422545
 20
7.1397572576
 30
0.0
 10
9.0094786034
 20
7.1395500332
 30
0.0
 10
9.0098795466
 20
7.1392275762
 30
0.0
 10
9.0103586697
 20
7.1388661489
 30
0.0
 10
9.0111416843
 20
7.1383039918
 30
0.0
 10
9.0122992224
 20
7.137522321
 30
0.0
 10
9.0138885795
 20
7.1365047794
 30
0.0
 10
9.0157143738
 20
7.1353836735
 30
0.0
 10
9.018506823
 20
7.1337267603
 30
0.0
 10
9.020706396
 20
7.1324794847
 30
0.0
 10
9.0222263009
 20
7.1316376477
 30
0.0
  0
LINE
  5
34F
100
AcDbEntity
  8
0
100
AcDbLine
 62
9
  6
CONTINUOUS
 10
9.0134906863
 20
7.1561438567
 11
9.026795813
 21
7.1560875862
  0
LINE
  5
350
100
AcDbEntity
  8
0
100
AcDbLine
 62
9
  6
CONTINUOUS
 10
9.0577321464
 20
8.8456570569
 11
9.071037266
 21
8.8456005169
  0
SPLINE
  5
351
100
AcDbEntity
  8
0
100
AcDbSpline
 62
9
  6
CONTINUOUS
 70
0
 71
3
 72
16
 73
12
 74
0
 42
0.0000001
 43
0.0000001
 44
0.0000000001
 40
0.0
 40
0.0
 40
0.0
 40
0.0
 40
0.0293884217
 40
0.0641444553
 40
0.1041729066
 40
0.1493346706
 40
0.254328614
 40
0.3773273031
 40
0.516098091
 40
0.6680682406
 40
1.0
 40
1.0
 40
1.0
 40
1.0
 10
9.0541488192
 20
8.8622965357
 30
0.0
 10
9.0542564829
 20
8.8624084029
 30
0.0
 10
9.054502201
 20
8.8626422413
 30
0.0
 10
9.0549213482
 20
8.8629991387
 30
0.0
 10
9.0554205027
 20
8.8633897644
 30
0.0
 10
9.0562313124
 20
8.8639833658
 30
0.0
 10
9.057428945
 20
8.8647893813
 30
0.0
 10
9.059073122
 20
8.8658150502
 30
0.0
 10
9.0609582689
 20
8.8669218393
 30
0.0
 10
9.063831054
 20
8.8685248797
 30
0.0
 10
9.0660988113
 20
8.869706545
 30
0.0
 10
9.0676658381
 20
8.8704936736
 30
0.0
  0
SPLINE
  5
352
100
AcDbEntity
  8
0
100
AcDbSpline
 62
9
  6
CONTINUOUS
 70
0
 71
3
 72
16
 73
12
 74
0
 42
0.0000001
 43
0.0000001
 44
0.0000000001
 40
0.0
 40
0.0
 40
0.0
 40
0.0
 40
0.0288943299
 40
0.0633122584
 40
0.1031182189
 40
0.1481460328
 40
0.2530698791
 40
0.3761779881
 40
0.5151724652
 40
0.6674325687
 40
1.0
 40
1.0
 40
1.0
 40
1.0
 10
9.0497951003
 20
8.8697319965
 30
0.0
 10
9.0499377523
 20
8.8697857599
 30
0.0
 10
9.0502465392
 20
8.8699135989
 30
0.0
 10
9.0507406924
 20
8.8701413953
 30
0.0
 10
9.0513041958
 20
8.8704214301
 30
0.0
 10
9.0521905295
 20
8.8708871186
 30
0.0
 10
9.0534470209
 20
8.871592443
 30
0.0
 10
9.0551123249
 20
8.8725808766
 30
0.0
 10
9.0569711801
 20
8.8737317734
 30
0.0
 10
9.0597428433
 20
8.8755068981
 30
0.0
 10
9.0618692591
 20
8.8769292954
 30
0.0
 10
9.0633174863
 20
8.8779199379
 30
0.0
  0
SPLINE
  5
353
100
AcDbEntity
  8
0
100
AcDbSpline
 62
9
  6
CONTINUOUS
 70
0
 71
3
 72
16
 73
12
 74
0
 42
0.0000001
 43
0.0000001
 44
0.0000000001
 40
0.0
 40
0.0
 40
0.0
 40
0.0
 40
0.029388297
 40
0.0641443235
 40
0.1041728344
 40
0.1493346842
 40
0.2543287862
 40
0.3773275549
 40
0.5160983257
 40
0.6680683859
 40
1.0
 40
1.0
 40
1.0
 40
1.0
 10
8.5762362935
 20
8.8622976439
 30
0.0
 10
8.5761286221
 20
8.8624095007
 30
0.0
 10
8.57588289
 20
8.8626433184
 30
0.0
 10
8.5754637259
 20
8.863000187
 30
0.0
 10
8.5749645557
 20
8.8633907838
 30
0.0
 10
8.5741537247
 20
8.8639843423
 30
0.0
 10
8.5729560656
 20
8.8647902964
 30
0.0
 10
8.5713118521
 20
8.8658158738
 30
0.0
 10
8.5694266578
 20
8.8669225401
 30
0.0
 10
8.566553784
 20
8.8685253538
 30
0.0
 10
8.5642859228
 20
8.8697067676
 30
0.0
 10
8.5627188035
 20
8.8704936725
 30
0.0
  0
LINE
  5
354
100
AcDbEntity
  8
0
100
AcDbLine
 62
9
  6
CONTINUOUS
 10
8.5726525399
 20
8.8456570224
 11
8.5593474212
 21
8.8456004489
  0
SPLINE
  5
355
100
AcDbEntity
  8
0
100
AcDbSpline
 62
9
  6
CONTINUOUS
 70
0
 71
3
 72
67
 73
63
 74
0
 42
0.0000001
 43
0.0000001
 44
0.0000000001
 40
0.0
 40
0.0
 40
0.0
 40
0.0
 40
0.0488513631
 40
0.0732437465
 40
0.0975895388
 40
0.1460810221
 40
0.1942136628
 40
0.2418727178
 40
0.288942448
 40
0.3353146158
 40
0.3808829447
 40
0.4691909688
 40
0.5530678533
 40
0.6317406695
 40
0.668889341
 40
0.7044688493
 40
0.7383943002
 40
0.7705752405
 40
0.8009225816
 40
0.8293546303
 40
0.8558170346
 40
0.8802504952
 40
0.9025719098
 40
0.9129167319
 40
0.9227073171
 40
0.9319361825
 40
0.9405980166
 40
0.9486895509
 40
0.9562075962
 40
0.9631481234
 40
0.9695042042
 40
0.9752682834
 40
0.9804331082
 40
0.9849958046
 40
0.9870514783
 40
0.9889567842
 40
0.990711784
 40
0.9923165364
 40
0.9937708705
 40
0.9950742366
 40
0.9962260489
 40
0.9972257213
 40
0.9976683219
 40
0.9980726677
 40
0.9984386854
 40
0.9987663017
 40
0.9990554433
 40
0.999306045
 40
0.9995180901
 40
0.9996096542
 40
0.9996915795
 40
0.9997638662
 40
0.9998265143
 40
0.9998795239
 40
0.9999228953
 40
0.9999566285
 40
0.9999698808
 40
0.9999807235
 40
0.9999891569
 40
0.9999951807
 40
0.9999987951
 40
1.0
 40
1.0
 40
1.0
 40
1.0
 10
10.9351923427
 20
4.7851113907
 30
0.0
 10
10.9499622284
 20
4.7851114017
 30
0.0
 10
10.9721076095
 20
4.7853050067
 30
0.0
 10
11.0016064788
 20
4.7859447745
 30
0.0
 10
11.0309900497
 20
4.7868356806
 30
0.0
 10
11.0675325405
 20
4.7884074278
 30
0.0
 10
11.1110810244
 20
4.7909870774
 30
0.0
 10
11.154155991
 20
4.7942027542
 30
0.0
 10
11.1966493758
 20
4.7979955261
 30
0.0
 10
11.2384592897
 20
4.8022910468
 30
0.0
 10
11.2925997153
 20
4.8085241662
 30
0.0
 10
11.3578752963
 20
4.8171365673
 30
0.0
 10
11.4328797255
 20
4.8284191079
 30
0.0
 10
11.4924500378
 20
4.8382699163
 30
0.0
 10
11.5375442998
 20
4.8461363217
 30
0.0
 10
11.5692817454
 20
4.8518415163
 30
0.0
 10
11.5995156333
 20
4.8574195769
 30
0.0
 10
11.6281720105
 20
4.8628276309
 30
0.0
 10
11.6551779192
 20
4.8680240154
 30
0.0
 10
11.6804713215
 20
4.8729693801
 30
0.0
 10
11.7039965384
 20
4.8776395937
 30
0.0
 10
11.7256977479
 20
4.8820093299
 30
0.0
 10
11.7426143385
 20
4.8854539179
 30
0.0
 10
11.7551894217
 20
4.8880315197
 30
0.0
 10
11.7638853055
 20
4.8898209765
 30
0.0
 10
11.772081705
 20
4.8915131456
 30
0.0
 10
11.7797740623
 20
4.8931060703
 30
0.0
 10
11.7869589352
 20
4.8945988094
 30
0.0
 10
11.7936332922
 20
4.8959903521
 30
0.0
 10
11.7997930111
 20
4.8972794944
 30
0.0
 10
11.8054329802
 20
4.8984633223
 30
0.0
 10
11.8105471055
 20
4.899538871
 30
0.0
 10
11.815130579
 20
4.9005030236
 30
0.0
 10
11.818616853
 20
4.901236375
 30
0.0
 10
11.8211386102
 20
4.9017674738
 30
0.0
 10
11.8228296143
 20
4.902124042
 30
0.0
 10
11.824387103
 20
4.9024530293
 30
0.0
 10
11.8258110344
 20
4.9027545595
 30
0.0
 10
11.827101205
 20
4.9030286249
 30
0.0
 10
11.8282572743
 20
4.9032749253
 30
0.0
 10
11.8292787722
 20
4.9034931667
 30
0.0
 10
11.83004568
 20
4.9036574409
 30
0.0
 10
11.8305915661
 20
4.9037745804
 30
0.0
 10
11.8309501189
 20
4.9038515999
 30
0.0
 10
11.8312746695
 20
4.9039213776
 30
0.0
 10
11.8315651581
 20
4.9039838755
 30
0.0
 10
11.831821527
 20
4.9040390575
 30
0.0
 10
11.8320437358
 20
4.904086888
 30
0.0
 10
11.8322075462
 20
4.9041221463
 30
0.0
 10
11.8323215005
 20
4.9041466728
 30
0.0
 10
11.8323941457
 20
4.9041623076
 30
0.0
 10
11.8324582446
 20
4.9041761031
 30
0.0
 10
11.8325137956
 20
4.9041880564
 30
0.0
 10
11.8325608038
 20
4.9041981762
 30
0.0
 10
11.832599255
 20
4.904206438
 30
0.0
 10
11.8326259806
 20
4.9042122141
 30
0.0
 10
11.8326430463
 20
4.9042158443
 30
0.0
 10
11.8326527186
 20
4.9042180092
 30
0.0
 10
11.832660049
 20
4.9042193658
 30
0.0
 10
11.8326657257
 20
4.9042210816
 30
0.0
 10
11.8326683439
 20
4.9042207736
 30
0.0
 10
11.8326703764
 20
4.9042221097
 30
0.0
 10
11.8326704833
 20
4.9042217614
 30
0.0
  0
LINE
  5
356
100
AcDbEntity
  8
0
100
AcDbLine
 62
9
  6
CONTINUOUS
 10
10.0023763848
 20
4.8521942517
 11
10.0031510414
 21
4.852185477
  0
SPLINE
  5
357
100
AcDbEntity
  8
0
100
AcDbSpline
 62
9
  6
CONTINUOUS
 70
0
 71
3
 72
14
 73
10
 74
0
 42
0.0000001
 43
0.0000001
 44
0.0000000001
 40
0.0
 40
0.0
 40
0.0
 40
0.0
 40
0.0546235427
 40
0.1286746287
 40
0.2222712015
 40
0.3356927502
 40
0.4693856443
 40
0.6239954115
 40
1.0
 40
1.0
 40
1.0
 40
1.0
 10
10.0031510414
 20
4.852185477
 30
0.0
 10
10.0034227226
 20
4.8521822939
 30
0.0
 10
10.0040627206
 20
4.8521725199
 30
0.0
 10
10.0051673812
 20
4.8521215158
 30
0.0
 10
10.0065607144
 20
4.8520015933
 30
0.0
 10
10.0082414993
 20
4.851780306
 30
0.0
 10
10.010209077
 20
4.851426652
 30
0.0
 10
10.0134258773
 20
4.8506654915
 30
0.0
 10
10.0159327103
 20
4.8498104857
 30
0.0
 10
10.0176660269
 20
4.8491079922
 30
0.0
  0
SPLINE
  5
358
100
AcDbEntity
  8
0
100
AcDbSpline
 62
9
  6
CONTINUOUS
 70
0
 71
3
 72
35
 73
31
 74
0
 42
0.0000001
 43
0.0000001
 44
0.0000000001
 40
0.0
 40
0.0
 40
0.0
 40
0.0
 40
0.0000600809
 40
0.0002424867
 40
0.0005472286
 40
0.0009743167
 40
0.0015237614
 40
0.0021955736
 40
0.003906345
 40
0.0061067239
 40
0.0087968093
 40
0.0119767053
 40
0.0156465221
 40
0.0244563822
 40
0.0352273854
 40
0.047960615
 40
0.0626572441
 40
0.0793185359
 40
0.0979458435
 40
0.1185406026
 40
0.1411020681
 40
0.1921005325
 40
0.2508932883
 40
0.3174399954
 40
0.3917095282
 40
0.4736804179
 40
0.5633513605
 40
0.6607575903
 40
0.7659535527
 40
1.0
 40
1.0
 40
1.0
 40
1.0
 10
10.0208893643
 20
4.8785804615
 30
0.0
 10
10.020888898
 20
4.8785802328
 30
0.0
 10
10.0208934118
 20
4.878580776
 30
0.0
 10
10.0208957903
 20
4.8785802498
 30
0.0
 10
10.020905039
 20
4.8785805578
 30
0.0
 10
10.0209155188
 20
4.8785804247
 30
0.0
 10
10.0209299986
 20
4.8785804678
 30
0.0
 10
10.0209552336
 20
4.8785804067
 30
0.0
 10
10.0209949221
 20
4.8785803113
 30
0.0
 10
10.0210519529
 20
4.8785800402
 30
0.0
 10
10.0211217253
 20
4.8785795902
 30
0.0
 10
10.0212041832
 20
4.8785788984
 30
0.0
 10
10.0213395434
 20
4.878577506
 30
0.0
 10
10.0215405104
 20
4.8785748267
 30
0.0
 10
10.0218198023
 20
4.8785700319
 30
0.0
 10
10.0221499487
 20
4.8785630877
 30
0.0
 10
10.0225309676
 20
4.8785535964
 30
0.0
 10
10.0229628758
 20
4.8785411602
 30
0.0
 10
10.0234456902
 20
4.8785253755
 30
0.0
 10
10.0239794091
 20
4.8785058674
 30
0.0
 10
10.0247926405
 20
4.8784728562
 30
0.0
 10
10.025935409
 20
4.8784172393
 30
0.0
 10
10.0274568764
 20
4.8783233265
 30
0.0
 10
10.0291773842
 20
4.8781915808
 30
0.0
 10
10.0310950756
 20
4.8780137276
 30
0.0
 10
10.0332081975
 20
4.8777816069
 30
0.0
 10
10.0355152457
 20
4.8774864148
 30
0.0
 10
10.0380147622
 20
4.8771169417
 30
0.0
 10
10.0417367114
 20
4.8764880853
 30
0.0
 10
10.0446115315
 20
4.8759027761
 30
0.0
 10
10.0465849756
 20
4.8754570147
 30
0.0
  0
SPLINE
  5
359
100
AcDbEntity
  8
0
100
AcDbSpline
 62
9
  6
CONTINUOUS
 70
0
 71
3
 72
67
 73
63
 74
0
 42
0.0000001
 43
0.0000001
 44
0.0000000001
 40
0.0
 40
0.0
 40
0.0
 40
0.0
 40
0.0000012035
 40
0.0000048164
 40
0.0000108388
 40
0.0000192707
 40
0.000030112
 40
0.0000433628
 40
0.0000770931
 40
0.0001204616
 40
0.0001734686
 40
0.0002361143
 40
0.0003083986
 40
0.000390322
 40
0.0004818844
 40
0.0006939274
 40
0.0009445288
 40
0.0012336716
 40
0.0015612905
 40
0.0019273122
 40
0.0023316635
 40
0.0027742711
 40
0.0037739626
 40
0.004925801
 40
0.0062292012
 40
0.0076835779
 40
0.0092883826
 40
0.0110434439
 40
0.0129488137
 40
0.0150045466
 40
0.0195673197
 40
0.0247321181
 40
0.0304960583
 40
0.0368519857
 40
0.043792455
 40
0.0513106217
 40
0.0594023834
 40
0.0680644216
 40
0.0772933447
 40
0.0870838345
 40
0.0974285074
 40
0.1197498485
 40
0.144183558
 40
0.1706460403
 40
0.199077981
 40
0.2294252936
 40
0.2616062444
 40
0.2955316731
 40
0.3311111839
 40
0.3682598748
 40
0.4469326353
 40
0.5308094743
 40
0.6191174129
 40
0.6646856996
 40
0.7110578516
 40
0.7581275611
 40
0.8057865561
 40
0.8539191562
 40
0.9024106195
 40
0.9267563769
 40
0.9511487135
 40
1.0
 40
1.0
 40
1.0
 40
1.0
 10
10.0377142133
 20
4.9042217505
 30
0.0
 10
10.0377141588
 20
4.9042221102
 30
0.0
 10
10.0377165832
 20
4.9042207473
 30
0.0
 10
10.0377188205
 20
4.9042210829
 30
0.0
 10
10.0377247127
 20
4.9042193525
 30
0.0
 10
10.0377319461
 20
4.9042180036
 30
0.0
 10
10.0377416543
 20
4.9042158368
 30
0.0
 10
10.0377587008
 20
4.9042122092
 30
0.0
 10
10.0377854361
 20
4.9042064337
 30
0.0
 10
10.03782388
 20
4.9041981741
 30
0.0
 10
10.037870888
 20
4.904188056
 30
0.0
 10
10.0379264364
 20
4.9041761046
 30
0.0
 10
10.0379905339
 20
4.904162311
 30
0.0
 10
10.0380631776
 20
4.9041466781
 30
0.0
 10
10.0381771307
 20
4.9041221541
 30
0.0
 10
10.0383409405
 20
4.9040868989
 30
0.0
 10
10.0385631497
 20
4.9040390721
 30
0.0
 10
10.0388195204
 20
4.903983894
 30
0.0
 10
10.0391100123
 20
4.9039214
 30
0.0
 10
10.0394345675
 20
4.9038516262
 30
0.0
 10
10.0397931261
 20
4.9037746101
 30
0.0
 10
10.0403390229
 20
4.9036574747
 30
0.0
 10
10.0411059474
 20
4.9034932033
 30
0.0
 10
10.0421274696
 20
4.9032749605
 30
0.0
 10
10.0432835689
 20
4.9030286521
 30
0.0
 10
10.0445737759
 20
4.9027545705
 30
0.0
 10
10.04599775
 20
4.9024530133
 30
0.0
 10
10.0475552857
 20
4.902123989
 30
0.0
 10
10.0492463381
 20
4.9017673799
 30
0.0
 10
10.051768146
 20
4.9012362285
 30
0.0
 10
10.0552544447
 20
4.9005028337
 30
0.0
 10
10.0598378952
 20
4.8995387025
 30
0.0
 10
10.0649519439
 20
4.8984632585
 30
0.0
 10
10.0705918289
 20
4.8972795456
 30
0.0
 10
10.0767515328
 20
4.8959904652
 30
0.0
 10
10.0834259682
 20
4.8945988684
 30
0.0
 10
10.0906109877
 20
4.8931060136
 30
0.0
 10
10.0983034737
 20
4.8915129817
 30
0.0
 10
10.1064999198
 20
4.88982079
 30
0.0
 10
10.1151957589
 20
4.8880313967
 30
0.0
 10
10.1277707675
 20
4.885453911
 30
0.0
 10
10.1446873689
 20
4.8820093382
 30
0.0
 10
10.1663886208
 20
4.877639426
 30
0.0
 10
10.1899139031
 20
4.8729692029
 30
0.0
 10
10.2152073046
 20
4.8680239287
 30
0.0
 10
10.2422131728
 20
4.8628275383
 30
0.0
 10
10.2708695345
 20
4.8574194695
 30
0.0
 10
10.3011034256
 20
4.8518414438
 30
0.0
 10
10.3328408727
 20
4.8461362613
 30
0.0
 10
10.3779351191
 20
4.8382698299
 30
0.0
 10
10.4375054094
 20
4.8284190449
 30
0.0
 10
10.5125097804
 20
4.8171365044
 30
0.0
 10
10.5777853106
 20
4.8085241278
 30
0.0
 10
10.6319256886
 20
4.8022909822
 30
0.0
 10
10.673735582
 20
4.7979954977
 30
0.0
 10
10.7162289401
 20
4.7942027656
 30
0.0
 10
10.7593038678
 20
4.7909870698
 30
0.0
 10
10.8028523136
 20
4.7884074031
 30
0.0
 10
10.8393947757
 20
4.7868356708
 30
0.0
 10
10.8687783158
 20
4.7859447782
 30
0.0
 10
10.8982771376
 20
4.7853050415
 30
0.0
 10
10.9204224805
 20
4.785111441
 30
0.0
 10
10.9351923427
 20
4.7851113907
 30
0.0
  0
LINE
  5
35A
100
AcDbEntity
  8
0
100
AcDbLine
 62
9
  6
CONTINUOUS
 10
8.9913895129
 20
7.1221601949
 11
8.9972348724
 21
7.1102078282
  0
SPLINE
  5
35B
100
AcDbEntity
  8
0
100
AcDbSpline
 62
9
  6
CONTINUOUS
 70
0
 71
3
 72
16
 73
12
 74
0
 42
0.0000001
 43
0.0000001
 44
0.0000000001
 40
0.0
 40
0.0
 40
0.0
 40
0.0
 40
0.0279591002
 40
0.061480016
 40
0.1004674423
 40
0.1447782421
 40
0.2486437782
 40
0.3712841816
 40
0.5104638807
 40
0.6635867503
 40
1.0
 40
1.0
 40
1.0
 40
1.0
 10
9.004801633
 20
7.1331014694
 30
0.0
 10
9.0049391031
 20
7.1330574796
 30
0.0
 10
9.0052370127
 20
7.1329471183
 30
0.0
 10
9.0057129811
 20
7.1327407229
 30
0.0
 10
9.0062563764
 20
7.1324788485
 30
0.0
 10
9.0071136852
 20
7.1320329707
 30
0.0
 10
9.0083295716
 20
7.1313419997
 30
0.0
 10
9.0099405494
 20
7.1303574442
 30
0.0
 10
9.0117406635
 20
7.1291959575
 30
0.0
 10
9.0144328173
 20
7.1273827374
 30
0.0
 10
9.0164925431
 20
7.1259174906
 30
0.0
 10
9.0178944635
 20
7.1248924154
 30
0.0
  0
LINE
  5
35C
100
AcDbEntity
  8
0
100
AcDbLine
 62
9
  6
CONTINUOUS
 10
9.0350778158
 20
8.8820350433
 11
9.0405015408
 21
8.8941770025
  0
SPLINE
  5
35D
100
AcDbEntity
  8
0
100
AcDbSpline
 62
9
  6
CONTINUOUS
 70
0
 71
3
 72
16
 73
12
 74
0
 42
0.0000001
 43
0.0000001
 44
0.0000000001
 40
0.0
 40
0.0
 40
0.0
 40
0.0
 40
0.0288946631
 40
0.0633127655
 40
0.1031188001
 40
0.1481466305
 40
0.253070433
 40
0.3761784713
 40
0.5151728792
 40
0.6674329054
 40
1.0
 40
1.0
 40
1.0
 40
1.0
 10
8.5805902908
 20
8.8697323897
 30
0.0
 10
8.5804476281
 20
8.8697861346
 30
0.0
 10
8.58013882
 20
8.86991394
 30
0.0
 10
8.5796446372
 20
8.870141695
 30
0.0
 10
8.5790811054
 20
8.8704216924
 30
0.0
 10
8.5781947326
 20
8.870887332
 30
0.0
 10
8.576938192
 20
8.8715926021
 30
0.0
 10
8.5752728268
 20
8.8725809747
 30
0.0
 10
8.5734139026
 20
8.8737318061
 30
0.0
 10
8.5706421308
 20
8.875506827
 30
0.0
 10
8.5685156141
 20
8.876929122
 30
0.0
 10
8.5670673047
 20
8.8779196772
 30
0.0
  0
SPLINE
  5
35E
100
AcDbEntity
  8
0
100
AcDbSpline
 62
9
  6
CONTINUOUS
 70
0
 71
3
 72
34
 73
30
 74
0
 42
0.0000001
 43
0.0000001
 44
0.0000000001
 40
0.0
 40
0.0
 40
0.0
 40
0.0
 40
0.0136981707
 40
0.0283152914
 40
0.0440646001
 40
0.0610713598
 40
0.0793978277
 40
0.0990592398
 40
0.1200450751
 40
0.1423255827
 40
0.190586412
 40
0.2434741032
 40
0.300597686
 40
0.3616058956
 40
0.4262107032
 40
0.4942116463
 40
0.5655318265
 40
0.6402894406
 40
0.6790869169
 40
0.7189700091
 40
0.760122402
 40
0.8028374116
 40
0.8475757745
 40
0.8709133989
 40
0.8950364726
 40
0.9200380748
 40
0.9459620599
 40
0.9727321578
 40
1.0
 40
1.0
 40
1.0
 40
1.0
 10
8.6101923427
 20
6.7597100469
 30
0.0
 10
8.6101923505
 20
6.7593589096
 30
0.0
 10
8.610259012
 20
6.7586321749
 30
0.0
 10
8.6105305912
 20
6.7575325031
 30
0.0
 10
8.6109640118
 20
6.756395464
 30
0.0
 10
8.6115491506
 20
6.7552221746
 30
0.0
 10
8.6122768074
 20
6.7540133817
 30
0.0
 10
8.6131381335
 20
6.7527700228
 30
0.0
 10
8.6141253728
 20
6.7514935517
 30
0.0
 10
8.615640566
 20
6.7497014682
 30
0.0
 10
8.6178147993
 20
6.7473997531
 30
0.0
 10
8.6207491429
 20
6.7445963299
 30
0.0
 10
8.6240344131
 20
6.7416923157
 30
0.0
 10
8.6276374096
 20
6.7386979904
 30
0.0
 10
8.6315341326
 20
6.7356235255
 30
0.0
 10
8.635711445
 20
6.7324801756
 30
0.0
 10
8.6401716205
 20
6.7292822602
 30
0.0
 10
8.6440955451
 20
6.7266233855
 30
0.0
 10
8.6474095484
 20
6.7245045448
 30
0.0
 10
8.6500342986
 20
6.7229081464
 30
0.0
 10
8.6527910726
 20
6.7213375476
 30
0.0
 10
8.6557164383
 20
6.7198155355
 30
0.0
 10
8.6583032547
 20
6.718638178
 30
0.0
 10
8.6605059301
 20
6.7177797058
 30
0.0
 10
8.6622665872
 20
6.7171853345
 30
0.0
 10
8.6641209715
 20
6.7166692339
 30
0.0
 10
8.6660722875
 20
6.7162612925
 30
0.0
 10
8.6681076363
 20
6.7160022815
 30
0.0
 10
8.669493362
 20
6.7159372835
 30
0.0
 10
8.6701923427
 20
6.7159375071
 30
0.0
  0
SPLINE
  5
35F
100
AcDbEntity
  8
0
100
AcDbSpline
 62
9
  6
CONTINUOUS
 70
0
 71
3
 72
38
 73
34
 74
0
 42
0.0000001
 43
0.0000001
 44
0.0000000001
 40
0.0
 40
0.0
 40
0.0
 40
0.0
 40
0.053887841
 40
0.0814856937
 40
0.1094882776
 40
0.1666228905
 40
0.2251127488
 40
0.2847557408
 40
0.3453618747
 40
0.4067632642
 40
0.4688165484
 40
0.5314056049
 40
0.5944445054
 40
0.6578860701
 40
0.6897589212
 40
0.7217436666
 40
0.7538593108
 40
0.7861394746
 40
0.8186428201
 40
0.8514749143
 40
0.8680731455
 40
0.8848453666
 40
0.9018572093
 40
0.9192182124
 40
0.9371231179
 40
0.9559526256
 40
0.9608911248
 40
0.9659544559
 40
0.9711676528
 40
0.9765624155
 40
0.9821542421
 40
0.9879482538
 40
1.0
 40
1.0
 40
1.0
 40
1.0
 10
8.6401923427
 20
6.7888014671
 30
0.0
 10
8.6401923472
 20
6.7874014268
 30
0.0
 10
8.6403019359
 20
6.7852834472
 30
0.0
 10
8.6406140852
 20
6.7824558379
 30
0.0
 10
8.6410339006
 20
6.7795565854
 30
0.0
 10
8.6417356563
 20
6.7758896564
 30
0.0
 10
8.6428008434
 20
6.7714611488
 30
0.0
 10
8.6440586556
 20
6.7669900035
 30
0.0
 10
8.6454805288
 20
6.7624891996
 30
0.0
 10
8.6470451138
 20
6.7579698246
 30
0.0
 10
8.6487369746
 20
6.7534415987
 30
0.0
 10
8.6505462092
 20
6.7489131637
 30
0.0
 10
8.6524691555
 20
6.7443926248
 30
0.0
 10
8.6541669308
 20
6.7406446431
 30
0.0
 10
8.6555914396
 20
6.737659727
 30
0.0
 10
8.6566988718
 20
6.735425582
 30
0.0
 10
8.6578493641
 20
6.7332013464
 30
0.0
 10
8.6590517545
 20
6.7309892856
 30
0.0
 10
8.6603200657
 20
6.7287927298
 30
0.0
 10
8.6614463932
 20
6.7269856565
 30
0.0
 10
8.6624080542
 20
6.7255593972
 30
0.0
 10
8.6631724097
 20
6.7244964765
 30
0.0
 10
8.6639883904
 20
6.7234472715
 30
0.0
 10
8.6648753202
 20
6.7224175196
 30
0.0
 10
8.6658650967
 20
6.7214180538
 30
0.0
 10
8.6667042054
 20
6.7207278509
 30
0.0
 10
8.6673282234
 20
6.720313114
 30
0.0
 10
8.6676672931
 20
6.7201095803
 30
0.0
 10
8.6680280411
 20
6.7199202304
 30
0.0
 10
8.6684134415
 20
6.7197502266
 30
0.0
 10
8.6688248886
 20
6.7196045672
 30
0.0
 10
8.669413858
 20
6.7194483213
 30
0.0
 10
8.6698792307
 20
6.7193966863
 30
0.0
 10
8.6701923427
 20
6.7193967196
 30
0.0
  0
SPLINE
  5
360
100
AcDbEntity
  8
0
100
AcDbSpline
 62
9
  6
CONTINUOUS
 70
0
 71
3
 72
21
 73
17
 74
0
 42
0.0000001
 43
0.0000001
 44
0.0000000001
 40
0.0
 40
0.0
 40
0.0
 40
0.0
 40
0.1523636515
 40
0.2278432894
 40
0.3023765291
 40
0.3755943628
 40
0.4470883989
 40
0.5164694493
 40
0.5833580059
 40
0.6474178775
 40
0.7083362225
 40
0.7658625954
 40
0.8198057285
 40
0.8700730905
 40
0.9167073955
 40
1.0
 40
1.0
 40
1.0
 40
1.0
 10
8.6701923427
 20
7.051864513
 30
0.0
 10
8.6689061996
 20
7.0525637108
 30
0.0
 10
8.6669419028
 20
7.0535365335
 30
0.0
 10
8.6642670267
 20
7.054671682
 30
0.0
 10
8.6622597816
 20
7.0554292028
 30
0.0
 10
8.6602613653
 20
7.0560967395
 30
0.0
 10
8.6582893945
 20
7.0566832019
 30
0.0
 10
8.656360766
 20
7.0571989714
 30
0.0
 10
8.6544909686
 20
7.0576560759
 30
0.0
 10
8.6526951171
 20
7.0580723708
 30
0.0
 10
8.6509864013
 20
7.0584661204
 30
0.0
 10
8.6493764637
 20
7.0588557749
 30
0.0
 10
8.6478756949
 20
7.05925949
 30
0.0
 10
8.6464925629
 20
7.0596961219
 30
0.0
 10
8.6448778292
 20
7.0603196292
 30
0.0
 10
8.6437659893
 20
7.0609156269
 30
0.0
 10
8.6431208458
 20
7.0613891598
 30
0.0
  0
LINE
  5
361
100
AcDbEntity
  8
0
100
AcDbLine
 62
9
  6
CONTINUOUS
 10
8.6431208458
 20
7.0613891598
 11
8.6401923427
 21
7.0635798591
  0
SPLINE
  5
362
100
AcDbEntity
  8
0
100
AcDbSpline
 62
9
  6
CONTINUOUS
 70
0
 71
3
 72
32
 73
28
 74
0
 42
0.0000001
 43
0.0000001
 44
0.0000000001
 40
0.0
 40
0.0
 40
0.0
 40
0.0
 40
0.0272699685
 40
0.0540357003
 40
0.1049411754
 40
0.1523889546
 40
0.1971292518
 40
0.2398458898
 40
0.2810003476
 40
0.3208851271
 40
0.3596842154
 40
0.434445083
 40
0.5057681793
 40
0.5737720616
 40
0.6383796213
 40
0.6993904045
 40
0.756516189
 40
0.8094059416
 40
0.8576687986
 40
0.8799501973
 40
0.90093694
 40
0.9205991499
 40
0.9389263316
 40
0.9559337439
 40
0.971683625
 40
0.9863012917
 40
1.0
 40
1.0
 40
1.0
 40
1.0
 10
8.9601923427
 20
6.7159375071
 30
0.0
 10
8.9608913506
 20
6.7159373103
 30
0.0
 10
8.9622771085
 20
6.7160006934
 30
0.0
 10
8.9649475983
 20
6.7163439652
 30
0.0
 10
8.9680715286
 20
6.717115993
 30
0.0
 10
8.9715186136
 20
6.7183820632
 30
0.0
 10
8.9746680683
 20
6.719815438
 30
0.0
 10
8.9775934882
 20
6.7213375456
 30
0.0
 10
8.9803502912
 20
6.7229080793
 30
0.0
 10
8.9829750528
 20
6.7245045023
 30
0.0
 10
8.9862890648
 20
6.7266233508
 30
0.0
 10
8.9902130139
 20
6.7292822147
 30
0.0
 10
8.994673191
 20
6.732480158
 30
0.0
 10
8.9988505264
 20
6.7356235026
 30
0.0
 10
9.0027472629
 20
6.7386979777
 30
0.0
 10
9.0063502721
 20
6.7416923018
 30
0.0
 10
9.0096355293
 20
6.7445963359
 30
0.0
 10
9.0125698586
 20
6.7473997757
 30
0.0
 10
9.0147441072
 20
6.7497014806
 30
0.0
 10
9.0162593134
 20
6.7514935606
 30
0.0
 10
9.0172465702
 20
6.7527700222
 30
0.0
 10
9.0181079036
 20
6.7540133796
 30
0.0
 10
9.0188355574
 20
6.7552221745
 30
0.0
 10
9.0194206905
 20
6.7563954649
 30
0.0
 10
9.019854103
 20
6.7575325046
 30
0.0
 10
9.0201256776
 20
6.7586321753
 30
0.0
 10
9.0201923365
 20
6.7593589096
 30
0.0
 10
9.0201923427
 20
6.7597100469
 30
0.0
  0
SPLINE
  5
363
100
AcDbEntity
  8
0
100
AcDbSpline
 62
9
  6
CONTINUOUS
 70
0
 71
3
 72
36
 73
32
 74
0
 42
0.0000001
 43
0.0000001
 44
0.0000000001
 40
0.0
 40
0.0
 40
0.0
 40
0.0
 40
0.0120546297
 40
0.0234296275
 40
0.0340297212
 40
0.0440303304
 40
0.0536052558
 40
0.0628705047
 40
0.0807756435
 40
0.0981370314
 40
0.1151490619
 40
0.1319211741
 40
0.1485196613
 40
0.1813521397
 40
0.2138558183
 40
0.2461362858
 40
0.2782522208
 40
0.3102372862
 40
0.3421104966
 40
0.4055526787
 40
0.4685921445
 40
0.5311818164
 40
0.593235931
 40
0.6546379672
 40
0.7152445978
 40
0.7748879485
 40
0.8333783692
 40
0.8905128747
 40
0.9185148931
 40
0.9461122734
 40
1.0
 40
1.0
 40
1.0
 40
1.0
 10
8.9601923427
 20
6.7193967196
 30
0.0
 10
8.9605055274
 20
6.7193966994
 30
0.0
 10
8.9611159162
 20
6.7194645783
 30
0.0
 10
8.9619636507
 20
6.7197292829
 30
0.0
 10
8.9627125465
 20
6.7200943744
 30
0.0
 10
8.9633752206
 20
6.7205153996
 30
0.0
 10
8.9639731183
 20
6.7209681485
 30
0.0
 10
8.964694135
 20
6.7215946326
 30
0.0
 10
8.9655095079
 20
6.7224175989
 30
0.0
 10
8.966396312
 20
6.7234472519
 30
0.0
 10
8.9672123946
 20
6.7244964389
 30
0.0
 10
8.9679765186
 20
6.7255595118
 30
0.0
 10
8.9689383107
 20
6.7269856849
 30
0.0
 10
8.9700646666
 20
6.7287927563
 30
0.0
 10
8.9713328985
 20
6.7309893669
 30
0.0
 10
8.9725353469
 20
6.7332014025
 30
0.0
 10
8.9736858727
 20
6.7354256281
 30
0.0
 10
8.9747933025
 20
6.737659783
 30
0.0
 10
8.9762177755
 20
6.7406447275
 30
0.0
 10
8.9779155622
 20
6.7443927154
 30
0.0
 10
8.9798385453
 20
6.7489132519
 30
0.0
 10
8.9816477698
 20
6.7534417106
 30
0.0
 10
8.9833395781
 20
6.7579699776
 30
0.0
 10
8.9849041656
 20
6.7624893697
 30
0.0
 10
8.9863260415
 20
6.7669901791
 30
0.0
 10
8.9875838286
 20
6.7714613353
 30
0.0
 10
8.9886490409
 20
6.7758898251
 30
0.0
 10
8.9893507967
 20
6.7795567249
 30
0.0
 10
8.9897705834
 20
6.782455931
 30
0.0
 10
8.9900826892
 20
6.7852834937
 30
0.0
 10
8.990192339
 20
6.7874014397
 30
0.0
 10
8.9901923427
 20
6.7888014671
 30
0.0
  0
LINE
  5
364
100
AcDbEntity
  8
0
100
AcDbLine
 62
9
  6
CONTINUOUS
 10
8.9901923427
 20
7.0635798591
 11
8.9872638419
 21
7.0613889708
  0
SPLINE
  5
365
100
AcDbEntity
  8
0
100
AcDbSpline
 62
9
  6
CONTINUOUS
 70
0
 71
3
 72
20
 73
16
 74
0
 42
0.0000001
 43
0.0000001
 44
0.0000000001
 40
0.0
 40
0.0
 40
0.0
 40
0.0
 40
0.0832922425
 40
0.1299305393
 40
0.1801998057
 40
0.2341425694
 40
0.291668978
 40
0.3525878477
 40
0.4166487557
 40
0.483538732
 40
0.5529206929
 40
0.6244147581
 40
0.6976333909
 40
0.8476250751
 40
1.0
 40
1.0
 40
1.0
 40
1.0
 10
8.9872638419
 20
7.0613889708
 30
0.0
 10
8.986618631
 20
7.0609155698
 30
0.0
 10
8.9855067304
 20
7.0603197925
 30
0.0
 10
8.9838922845
 20
7.0596955256
 30
0.0
 10
8.9825091801
 20
7.0592587095
 30
0.0
 10
8.9810083804
 20
7.058855198
 30
0.0
 10
8.9793984217
 20
7.0584658025
 30
0.0
 10
8.9776897166
 20
7.0580721378
 30
0.0
 10
8.9758939449
 20
7.0576555727
 30
0.0
 10
8.9740242112
 20
7.0571982905
 30
0.0
 10
8.9720954012
 20
7.0566833395
 30
0.0
 10
8.9701234008
 20
7.0560969778
 30
0.0
 10
8.96743773
 20
7.0551985863
 30
0.0
 10
8.964083037
 20
7.0538583234
 30
0.0
 10
8.9614782298
 20
7.0525642371
 30
0.0
 10
8.9601923427
 20
7.0518644189
 30
0.0
  0
SPLINE
  5
366
100
AcDbEntity
  8
0
100
AcDbSpline
 62
9
  6
CONTINUOUS
 70
0
 71
3
 72
34
 73
30
 74
0
 42
0.0000001
 43
0.0000001
 44
0.0000000001
 40
0.0
 40
0.0
 40
0.0
 40
0.0
 40
0.0425052679
 40
0.0849446872
 40
0.1272433547
 40
0.1693346163
 40
0.2111501348
 40
0.2526198373
 40
0.2936724168
 40
0.3342387988
 40
0.3742513621
 40
0.4136415498
 40
0.4902808272
 40
0.563634406
 40
0.6331927727
 40
0.6663876156
 40
0.6984513275
 40
0.7589811067
 40
0.8143234793
 40
0.8399034719
 40
0.8640311151
 40
0.8866737587
 40
0.9077935618
 40
0.9273474
 40
0.9452716124
 40
0.9615049832
 40
0.9760437419
 40
0.9888922136
 40
1.0
 40
1.0
 40
1.0
 40
1.0
 10
10.9351923353
 20
4.7154610242
 30
0.0
 10
10.948358364
 20
4.7154610926
 30
0.0
 10
10.9746705546
 20
4.7156812284
 30
0.0
 10
11.0140736165
 20
4.7166677247
 30
0.0
 10
11.0533271077
 20
4.718294757
 30
0.0
 10
11.0923566608
 20
4.7205347009
 30
0.0
 10
11.1310914146
 20
4.7233489798
 30
0.0
 10
11.1694607566
 20
4.7266951367
 30
0.0
 10
11.207395489
 20
4.730528289
 30
0.0
 10
11.2448293358
 20
4.7347963226
 30
0.0
 10
11.2816992695
 20
4.7394407966
 30
0.0
 10
11.3295866756
 20
4.7460025495
 30
0.0
 10
11.3875839971
 20
4.7548291827
 30
0.0
 10
11.4546408927
 20
4.7661657532
 30
0.0
 10
11.5083014107
 20
4.7759800365
 30
0.0
 10
11.5493144781
 20
4.7838416888
 30
0.0
 10
11.5875439071
 20
4.7913674225
 30
0.0
 10
11.6324482756
 20
4.8005003365
 30
0.0
 10
11.675321396
 20
4.8095373234
 30
0.0
 10
11.7071292551
 20
4.8163979476
 30
0.0
 10
11.7290234387
 20
4.8211810285
 30
0.0
 10
11.7495584427
 20
4.8257123182
 30
0.0
 10
11.7687022361
 20
4.8299732994
 30
0.0
 10
11.7864133993
 20
4.8339436144
 30
0.0
 10
11.8026415651
 20
4.8376098722
 30
0.0
 10
11.8173473949
 20
4.8409650752
 30
0.0
 10
11.8305158428
 20
4.8439904274
 30
0.0
 10
11.8421362008
 20
4.8466635343
 30
0.0
 10
11.849366722
 20
4.8483317276
 30
0.0
 10
11.8527186585
 20
4.8491079639
 30
0.0
  0
SPLINE
  5
367
100
AcDbEntity
  8
0
100
AcDbSpline
 62
9
  6
CONTINUOUS
 70
0
 71
3
 72
34
 73
30
 74
0
 42
0.0000001
 43
0.0000001
 44
0.0000000001
 40
0.0
 40
0.0
 40
0.0
 40
0.0
 40
0.0111070889
 40
0.0239554649
 40
0.0384945979
 40
0.054728351
 40
0.0726525103
 40
0.0922062688
 40
0.1133263769
 40
0.1359692511
 40
0.1600967335
 40
0.1856765481
 40
0.2410189416
 40
0.3015487847
 40
0.3336125103
 40
0.3668073744
 40
0.4363654277
 40
0.509718912
 40
0.5863584127
 40
0.6257485109
 40
0.6657609794
 40
0.7063273774
 40
0.7473800188
 40
0.7888497366
 40
0.8306652718
 40
0.8727565606
 40
0.9150552546
 40
0.9574947172
 40
1.0
 40
1.0
 40
1.0
 40
1.0
 10
10.0176660269
 20
4.8491079326
 30
0.0
 10
10.0210177241
 20
4.8483316207
 30
0.0
 10
10.0282479816
 20
4.8466633777
 30
0.0
 10
10.0398682204
 20
4.843990333
 30
0.0
 10
10.0530368928
 20
4.8409650453
 30
0.0
 10
10.067742956
 20
4.8376098877
 30
0.0
 10
10.0839711857
 20
4.8339435644
 30
0.0
 10
10.1016823931
 20
4.8299732043
 30
0.0
 10
10.120826352
 20
4.8257123189
 30
0.0
 10
10.1413614841
 20
4.8211810738
 30
0.0
 10
10.1632556188
 20
4.8163979293
 30
0.0
 10
10.1950633658
 20
4.8095372556
 30
0.0
 10
10.237936468
 20
4.8005003276
 30
0.0
 10
10.2828408692
 20
4.7913674273
 30
0.0
 10
10.3210703342
 20
4.7838417231
 30
0.0
 10
10.3620833245
 20
4.7759801336
 30
0.0
 10
10.4157436869
 20
4.7661656781
 30
0.0
 10
10.4828005158
 20
4.7548290479
 30
0.0
 10
10.5407979015
 20
4.7460027722
 30
0.0
 10
10.5886853008
 20
4.7394408973
 30
0.0
 10
10.6255551702
 20
4.7347963345
 30
0.0
 10
10.662989013
 20
4.7305283171
 30
0.0
 10
10.7009237786
 20
4.7266952202
 30
0.0
 10
10.739293141
 20
4.723348977
 30
0.0
 10
10.7780279129
 20
4.7205346984
 30
0.0
 10
10.8170574887
 20
4.7182947935
 30
0.0
 10
10.8563110069
 20
4.7166677145
 30
0.0
 10
10.8957140944
 20
4.71568122
 30
0.0
 10
10.9220263023
 20
4.7154610953
 30
0.0
 10
10.9351923353
 20
4.7154610242
 30
0.0
  0
SPLINE
  5
368
100
AcDbEntity
  8
0
100
AcDbSpline
 62
9
  6
CONTINUOUS
 70
0
 71
3
 72
69
 73
65
 74
0
 42
0.0000001
 43
0.0000001
 44
0.0000000001
 40
0.0
 40
0.0
 40
0.0
 40
0.0
 40
0.0000012206
 40
0.0000048612
 40
0.0000109211
 40
0.0000193995
 40
0.0000302957
 40
0.0000436091
 40
0.0000774843
 40
0.0001210194
 40
0.0001742088
 40
0.0002370469
 40
0.000309528
 40
0.0004833969
 40
0.0006957711
 40
0.0009466067
 40
0.0012358599
 40
0.0015634874
 40
0.0019294464
 40
0.0023336944
 40
0.0027761893
 40
0.0037757531
 40
0.0049278453
 40
0.0062322281
 40
0.0076886651
 40
0.0092969174
 40
0.011056745
 40
0.0129679067
 40
0.0150301547
 40
0.0196065716
 40
0.0247830598
 40
0.0305566277
 40
0.0369237995
 40
0.0438790066
 40
0.0514161217
 40
0.0595290704
 40
0.0682122972
 40
0.0774606001
 40
0.0872687665
 40
0.097630525
 40
0.1085375777
 40
0.1199814068
 40
0.1444456393
 40
0.1709566681
 40
0.1994456675
 40
0.2298384472
 40
0.2620562174
 40
0.2960162539
 40
0.3316327824
 40
0.368818199
 40
0.4074826768
 40
0.4475341124
 40
0.488877935
 40
0.5314177077
 40
0.6196905117
 40
0.6652227298
 40
0.7115469698
 40
0.7585569439
 40
0.8061443075
 40
0.854196142
 40
0.9025998772
 40
0.9268994494
 40
0.9512445128
 40
1.0
 40
1.0
 40
1.0
 40
1.0
 10
10.0601923428
 20
4.9402187254
 30
0.0
 10
10.0601926644
 20
4.9402188868
 30
0.0
 10
10.0601941279
 20
4.9402179615
 30
0.0
 10
10.0601971886
 20
4.9402177662
 30
0.0
 10
10.0602024344
 20
4.9402161745
 30
0.0
 10
10.060209703
 20
4.9402145416
 30
0.0
 10
10.0602190736
 20
4.9402122071
 30
0.0
 10
10.0602357109
 20
4.9402081881
 30
0.0
 10
10.0602617077
 20
4.9402018672
 30
0.0
 10
10.0602991342
 20
4.9401928298
 30
0.0
 10
10.0603448712
 20
4.940181814
 30
0.0
 10
10.0603989157
 20
4.9401688499
 30
0.0
 10
10.0604875772
 20
4.9401476612
 30
0.0
 10
10.0606191624
 20
4.9401164077
 30
0.0
 10
10.0608019847
 20
4.9400733238
 30
0.0
 10
10.061018009
 20
4.9400228211
 30
0.0
 10
10.0612672251
 20
4.939965029
 30
0.0
 10
10.0615496231
 20
4.9399000773
 30
0.0
 10
10.0618651928
 20
4.9398280954
 30
0.0
 10
10.0622139243
 20
4.9397492139
 30
0.0
 10
10.0627450748
 20
4.9396300773
 30
0.0
 10
10.063491851
 20
4.9394648502
 30
0.0
 10
10.0644874577
 20
4.9392480107
 30
0.0
 10
10.0656152484
 20
4.9390051369
 30
0.0
 10
10.0668750014
 20
4.9387362201
 30
0.0
 10
10.0682664827
 20
4.9384411897
 30
0.0
 10
10.069789462
 20
4.9381199926
 30
0.0
 10
10.0714437035
 20
4.9377725591
 30
0.0
 10
10.0739109789
 20
4.9372561026
 30
0.0
 10
10.0773210129
 20
4.9365446205
 30
0.0
 10
10.0818022049
 20
4.9356097207
 30
0.0
 10
10.0867996941
 20
4.9345643877
 30
0.0
 10
10.0923094538
 20
4.9334067217
 30
0.0
 10
10.0983282933
 20
4.9321433014
 30
0.0
 10
10.1048521735
 20
4.9307803908
 30
0.0
 10
10.1118773161
 20
4.9293255789
 30
0.0
 10
10.1193985554
 20
4.9277784949
 30
0.0
 10
10.1274101602
 20
4.9261346754
 30
0.0
 10
10.1359062709
 20
4.9243900372
 30
0.0
 10
10.1448807336
 20
4.9225436121
 30
0.0
 10
10.1543284272
 20
4.9206042906
 30
0.0
 10
10.1678518032
 20
4.9178424199
 30
0.0
 10
10.1858914588
 20
4.9142031811
 30
0.0
 10
10.2088704211
 20
4.9096356575
 30
0.0
 10
10.2335769282
 20
4.9047940744
 30
0.0
 10
10.2599485125
 20
4.8997006575
 30
0.0
 10
10.2879206909
 20
4.8943891508
 30
0.0
 10
10.3174271586
 20
4.8889030285
 30
0.0
 10
10.3483991444
 20
4.8832883054
 30
0.0
 10
10.3807656556
 20
4.8775925795
 30
0.0
 10
10.4144521424
 20
4.8718561088
 30
0.0
 10
10.4493832572
 20
4.8661289255
 30
0.0
 10
10.4854832886
 20
4.8604742686
 30
0.0
 10
10.535690668
 20
4.8530230276
 30
0.0
 10
10.5872224623
 20
4.8460906496
 30
0.0
 10
10.6399665401
 20
4.839878746
 30
0.0
 10
10.6806847124
 20
4.8355918003
 30
0.0
 10
10.7220606233
 20
4.8317996334
 30
0.0
 10
10.7639958294
 20
4.8285757149
 30
0.0
 10
10.8063868769
 20
4.8259863861
 30
0.0
 10
10.8419561145
 20
4.8244095484
 30
0.0
 10
10.8705552667
 20
4.8235146595
 30
0.0
 10
10.8992648387
 20
4.8228712556
 30
0.0
 10
10.920817743
 20
4.8226760183
 30
0.0
 10
10.9351923427
 20
4.8226759173
 30
0.0
  0
SPLINE
  5
369
100
AcDbEntity
  8
0
100
AcDbSpline
 62
9
  6
CONTINUOUS
 70
0
 71
3
 72
21
 73
17
 74
0
 42
0.0000001
 43
0.0000001
 44
0.0000000001
 40
0.0
 40
0.0
 40
0.0
 40
0.0
 40
0.1267654035
 40
0.2532406681
 40
0.3163697738
 40
0.379342692
 40
0.4421428854
 40
0.5047587255
 40
0.5671861815
 40
0.6294283923
 40
0.6914951536
 40
0.753404762
 40
0.8151790174
 40
0.876843685
 40
0.938450204
 40
1.0
 40
1.0
 40
1.0
 40
1.0
 10
9.0201923427
 20
6.7597100469
 30
0.0
 10
9.0182325082
 20
6.7597100469
 30
0.0
 10
9.0143077175
 20
6.7600837444
 30
0.0
 10
9.0095852845
 20
6.7614723818
 30
0.0
 10
9.0060310772
 20
6.7631022175
 30
0.0
 10
9.0035017889
 20
6.7645717734
 30
0.0
 10
9.0011333226
 20
6.7662746777
 30
0.0
 10
8.9989482132
 20
6.7681946326
 30
0.0
 10
8.9969675403
 20
6.7703131037
 30
0.0
 10
8.995210463
 20
6.7726097935
 30
0.0
 10
8.9936939628
 20
6.7750626088
 30
0.0
 10
8.9924326418
 20
6.7776478968
 30
0.0
 10
8.9914387274
 20
6.780340685
 30
0.0
 10
8.9907217477
 20
6.7831153335
 30
0.0
 10
8.990288978
 20
6.785944454
 30
0.0
 10
8.9901923427
 20
6.7878498871
 30
0.0
 10
8.9901923427
 20
6.7888014671
 30
0.0
  0
SPLINE
  5
36A
100
AcDbEntity
  8
0
100
AcDbSpline
 62
9
  6
CONTINUOUS
 70
0
 71
3
 72
21
 73
17
 74
0
 42
0.0000001
 43
0.0000001
 44
0.0000000001
 40
0.0
 40
0.0
 40
0.0
 40
0.0
 40
0.1267653938
 40
0.2532406452
 40
0.316369744
 40
0.3793426559
 40
0.4421428438
 40
0.5047586798
 40
0.5671861336
 40
0.6294283442
 40
0.6914951074
 40
0.7534047202
 40
0.8151789823
 40
0.8768436592
 40
0.9384501898
 40
1.0
 40
1.0
 40
1.0
 40
1.0
 10
8.6101923427
 20
6.7597100469
 30
0.0
 10
8.6121521772
 20
6.7597100464
 30
0.0
 10
8.6160769679
 20
6.7600837428
 30
0.0
 10
8.6207994009
 20
6.7614723793
 30
0.0
 10
8.6243536082
 20
6.7631022145
 30
0.0
 10
8.6268828966
 20
6.7645717702
 30
0.0
 10
8.6292513629
 20
6.7662746743
 30
0.0
 10
8.6314364723
 20
6.7681946291
 30
0.0
 10
8.6334171452
 20
6.7703131003
 30
0.0
 10
8.6351742225
 20
6.7726097903
 30
0.0
 10
8.6366907227
 20
6.7750626058
 30
0.0
 10
8.6379520437
 20
6.7776478942
 30
0.0
 10
8.6389459581
 20
6.780340683
 30
0.0
 10
8.6396629378
 20
6.783115332
 30
0.0
 10
8.6400957075
 20
6.7859444532
 30
0.0
 10
8.6401923427
 20
6.7878498868
 30
0.0
 10
8.6401923427
 20
6.7888014671
 30
0.0
  0
SPLINE
  5
36B
100
AcDbEntity
  8
0
100
AcDbSpline
 62
9
  6
CONTINUOUS
 70
0
 71
3
 72
16
 73
12
 74
0
 42
0.0000001
 43
0.0000001
 44
0.0000000001
 40
0.0
 40
0.0
 40
0.0
 40
0.0
 40
0.1194736275
 40
0.2396588762
 40
0.3611938699
 40
0.4845782134
 40
0.6101290985
 40
0.7379601229
 40
0.8027468409
 40
0.8680638308
 40
1.0
 40
1.0
 40
1.0
 40
1.0
 10
8.9972214802
 20
7.0796797185
 30
0.0
 10
8.9964128619
 20
7.0793220687
 30
0.0
 10
8.9948484455
 20
7.0784654294
 30
0.0
 10
8.9927428096
 20
7.0767995859
 30
0.0
 10
8.99092001
 20
7.0747886078
 30
0.0
 10
8.9894214571
 20
7.0724789936
 30
0.0
 10
8.9882797122
 20
7.0699234856
 30
0.0
 10
8.9876485856
 20
7.0676454867
 30
0.0
 10
8.9873399218
 20
7.0657602913
 30
0.0
 10
8.9871631107
 20
7.0638278921
 30
0.0
 10
8.987183903
 20
7.0623621049
 30
0.0
 10
8.9872638413
 20
7.0613889704
 30
0.0
  0
SPLINE
  5
36C
100
AcDbEntity
  8
0
100
AcDbSpline
 62
9
  6
CONTINUOUS
 70
0
 71
3
 72
16
 73
12
 74
0
 42
0.0000001
 43
0.0000001
 44
0.0000000001
 40
0.0
 40
0.0
 40
0.0
 40
0.0
 40
0.1194736283
 40
0.2396588773
 40
0.3611938712
 40
0.4845782147
 40
0.6101290996
 40
0.7379601236
 40
0.8027468415
 40
0.8680638311
 40
1.0
 40
1.0
 40
1.0
 40
1.0
 10
13.242221479
 20
7.0796797162
 30
0.0
 10
13.2414128609
 20
7.0793220664
 30
0.0
 10
13.2398484445
 20
7.078465427
 30
0.0
 10
13.2377428089
 20
7.0767995835
 30
0.0
 10
13.2359200094
 20
7.0747886054
 30
0.0
 10
13.2344214567
 20
7.0724789912
 30
0.0
 10
13.233279712
 20
7.0699234834
 30
0.0
 10
13.2326485855
 20
7.0676454845
 30
0.0
 10
13.2323399217
 20
7.0657602893
 30
0.0
 10
13.2321631107
 20
7.0638278902
 30
0.0
 10
13.232183903
 20
7.062362103
 30
0.0
 10
13.2322638413
 20
7.0613889686
 30
0.0
  0
SPLINE
  5
36D
100
AcDbEntity
  8
0
100
AcDbSpline
 62
9
  6
CONTINUOUS
 70
0
 71
3
 72
16
 73
12
 74
0
 42
0.0000001
 43
0.0000001
 44
0.0000000001
 40
0.0
 40
0.0
 40
0.0
 40
0.0
 40
0.1194704332
 40
0.2396542639
 40
0.3611890947
 40
0.4845740563
 40
0.6101259619
 40
0.7379581313
 40
0.8027454075
 40
0.8680629221
 40
1.0
 40
1.0
 40
1.0
 40
1.0
 10
8.6331633685
 20
7.0796798369
 30
0.0
 10
8.6339719523
 20
7.0793221905
 30
0.0
 10
8.6355363094
 20
7.0784655529
 30
0.0
 10
8.6376418711
 20
7.0767997193
 30
0.0
 10
8.639464626
 20
7.0747887498
 30
0.0
 10
8.6409631578
 20
7.0724791443
 30
0.0
 10
8.6421049005
 20
7.0699236458
 30
0.0
 10
8.6427360378
 20
7.0676456552
 30
0.0
 10
8.6430447166
 20
7.065760466
 30
0.0
 10
8.6432215461
 20
7.0638280743
 30
0.0
 10
8.643200771
 20
7.0623622918
 30
0.0
 10
8.6431208458
 20
7.0613891598
 30
0.0
  0
LINE
  5
36E
100
AcDbEntity
  8
0
100
AcDbLine
 62
9
  6
CONTINUOUS
 10
8.6756418746
 20
7.068551624
 11
8.6701923427
 21
7.051864513
  0
LINE
  5
36F
100
AcDbEntity
  8
0
100
AcDbLine
 62
9
  6
CONTINUOUS
 10
12.9206418746
 20
7.0685516242
 11
12.9151923427
 21
7.0518645133
  0
SPLINE
  5
370
100
AcDbEntity
  8
0
100
AcDbSpline
 62
9
  6
CONTINUOUS
 70
0
 71
3
 72
16
 73
12
 74
0
 42
0.0000001
 43
0.0000001
 44
0.0000000001
 40
0.0
 40
0.0
 40
0.0
 40
0.0
 40
0.1194704534
 40
0.2396542946
 40
0.3611891287
 40
0.4845740882
 40
0.610125988
 40
0.7379581493
 40
0.8027454212
 40
0.8680629312
 40
1.0
 40
1.0
 40
1.0
 40
1.0
 10
12.8781633685
 20
7.079679837
 30
0.0
 10
12.8789719524
 20
7.0793221906
 30
0.0
 10
12.8805363097
 20
7.0784655529
 30
0.0
 10
12.8826418718
 20
7.0767997192
 30
0.0
 10
12.8844646268
 20
7.0747887496
 30
0.0
 10
12.8859631586
 20
7.0724791441
 30
0.0
 10
12.8871049012
 20
7.0699236456
 30
0.0
 10
12.8877360385
 20
7.067645655
 30
0.0
 10
12.888044717
 20
7.0657604659
 30
0.0
 10
12.8882215464
 20
7.0638280743
 30
0.0
 10
12.8882007712
 20
7.0623622918
 30
0.0
 10
12.8881208458
 20
7.0613891599
 30
0.0
  0
SPLINE
  5
371
100
AcDbEntity
  8
0
100
AcDbSpline
 62
9
  6
CONTINUOUS
 70
0
 71
3
 72
13
 73
9
 74
0
 42
0.0000001
 43
0.0000001
 44
0.0000000001
 40
0.0
 40
0.0
 40
0.0
 40
0.0
 40
0.2645166393
 40
0.5167707894
 40
0.6395131186
 40
0.7606212233
 40
0.8806077249
 40
1.0
 40
1.0
 40
1.0
 40
1.0
 10
10.6182548225
 20
11.5043077372
 30
0.0
 10
10.6172157764
 20
11.5060632286
 30
0.0
 10
10.6153712812
 20
11.5096079293
 30
0.0
 10
10.613654927
 20
11.5142476639
 30
0.0
 10
10.6127029592
 20
11.517956074
 30
0.0
 10
10.6121969686
 20
11.5207184658
 30
0.0
 10
10.6118931892
 20
11.5234841846
 30
0.0
 10
10.6118256749
 20
11.5253309819
 30
0.0
 10
10.6118258053
 20
11.5262517309
 30
0.0
  0
SPLINE
  5
372
100
AcDbEntity
  8
0
100
AcDbSpline
 62
9
  6
CONTINUOUS
 70
0
 71
3
 72
21
 73
17
 74
0
 42
0.0000001
 43
0.0000001
 44
0.0000000001
 40
0.0
 40
0.0
 40
0.0
 40
0.0
 40
0.1267643997
 40
0.2532410434
 40
0.3163696584
 40
0.3793426522
 40
0.4421427831
 40
0.5047586805
 40
0.5671861557
 40
0.62942829
 40
0.6914951734
 40
0.7534043275
 40
0.815179301
 40
0.8768445555
 40
0.9384470454
 40
1.0
 40
1.0
 40
1.0
 40
1.0
 10
12.8551923427
 20
6.7597100469
 30
0.0
 10
12.8571521623
 20
6.7597100462
 30
0.0
 10
12.8610769557
 20
6.7600837577
 30
0.0
 10
12.8657994036
 20
6.7614723427
 30
0.0
 10
12.869353623
 20
6.7631021965
 30
0.0
 10
12.8718828796
 20
6.7645717929
 30
0.0
 10
12.8742513597
 20
6.7662746762
 30
0.0
 10
12.8764365066
 20
6.7681945931
 30
0.0
 10
12.8784171424
 20
6.7703131027
 30
0.0
 10
12.8801741996
 20
6.7726098068
 30
0.0
 10
12.8816907366
 20
6.7750625911
 30
0.0
 10
12.8829520842
 20
6.7776478773
 30
0.0
 10
12.8839459325
 20
6.7803407052
 30
0.0
 10
12.8846629205
 20
6.7831153046
 30
0.0
 10
12.8850957501
 20
6.7859444147
 30
0.0
 10
12.8851923427
 20
6.787849838
 30
0.0
 10
12.8851923427
 20
6.7888014671
 30
0.0
  0
SPLINE
  5
373
100
AcDbEntity
  8
0
100
AcDbSpline
 62
9
  6
CONTINUOUS
 70
0
 71
3
 72
35
 73
31
 74
0
 42
0.0000001
 43
0.0000001
 44
0.0000000001
 40
0.0
 40
0.0
 40
0.0
 40
0.0
 40
0.0136981015
 40
0.0283151192
 40
0.044064263
 40
0.0610708339
 40
0.0793971073
 40
0.099058403
 40
0.1200442546
 40
0.1423247416
 40
0.1905853799
 40
0.2434728561
 40
0.300596166
 40
0.3616041485
 40
0.4262088108
 40
0.494209449
 40
0.5655292115
 40
0.6402867455
 40
0.6790837503
 40
0.7189664517
 40
0.7601194287
 40
0.8028339828
 40
0.8475701606
 40
0.8709076898
 40
0.8950328074
 40
0.9200334054
 40
0.9328801658
 40
0.9459580032
 40
0.9727336851
 40
1.0
 40
1.0
 40
1.0
 40
1.0
 10
12.8551923427
 20
6.7597100469
 30
0.0
 10
12.8551923511
 20
6.7593589098
 30
0.0
 10
12.8552590146
 20
6.7586321766
 30
0.0
 10
12.8555305942
 20
6.7575325093
 30
0.0
 10
12.8559640076
 20
6.7563954745
 30
0.0
 10
12.8565491372
 20
6.7552221901
 30
0.0
 10
12.8572767843
 20
6.7540133993
 30
0.0
 10
12.8581381116
 20
6.7527700422
 30
0.0
 10
12.8591253667
 20
6.7514935784
 30
0.0
 10
12.8606405702
 20
6.7497014975
 30
0.0
 10
12.8628147951
 20
6.7473997715
 30
0.0
 10
12.8657491302
 20
6.7445963395
 30
0.0
 10
12.8690343965
 20
6.7416923204
 30
0.0
 10
12.872637394
 20
6.738697991
 30
0.0
 10
12.8765341299
 20
6.7356235361
 30
0.0
 10
12.880711442
 20
6.7324801868
 30
0.0
 10
12.8851716005
 20
6.729282242
 30
0.0
 10
12.8890955558
 20
6.7266234214
 30
0.0
 10
12.8924095251
 20
6.7245045429
 30
0.0
 10
12.895034256
 20
6.722908099
 30
0.0
 10
12.8977911007
 20
6.7213376107
 30
0.0
 10
12.900716427
 20
6.7198156083
 30
0.0
 10
12.9033030897
 20
6.7186380858
 30
0.0
 10
12.9055057168
 20
6.7177794155
 30
0.0
 10
12.9072665798
 20
6.7171856704
 30
0.0
 10
12.9087979725
 20
6.7167594266
 30
0.0
 10
12.9100710575
 20
6.7164696214
 30
0.0
 10
12.9113989257
 20
6.7162192976
 30
0.0
 10
12.913107691
 20
6.716003965
 30
0.0
 10
12.9144933982
 20
6.7159372281
 30
0.0
 10
12.9151923427
 20
6.7159375071
 30
0.0
  0
SPLINE
  5
374
100
AcDbEntity
  8
0
100
AcDbSpline
 62
9
  6
CONTINUOUS
 70
0
 71
3
 72
38
 73
34
 74
0
 42
0.0000001
 43
0.0000001
 44
0.0000000001
 40
0.0
 40
0.0
 40
0.0
 40
0.0
 40
0.0272652675
 40
0.0407495287
 40
0.0540530769
 40
0.0671301388
 40
0.0799733999
 40
0.0925875183
 40
0.104975342
 40
0.1291033475
 40
0.1524401967
 40
0.17510028
 40
0.1971794386
 40
0.2398921216
 40
0.2810436848
 40
0.3209256249
 40
0.3597221227
 40
0.4344783869
 40
0.5057970778
 40
0.5737969127
 40
0.6384006015
 40
0.6994075594
 40
0.7565299319
 40
0.8094165233
 40
0.8576766442
 40
0.8799570711
 40
0.9009428428
 40
0.9206040078
 40
0.9389300006
 40
0.9559362632
 40
0.9716852263
 40
0.9863021112
 40
1.0
 40
1.0
 40
1.0
 40
1.0
 10
13.2051923427
 20
6.7159375071
 30
0.0
 10
13.205891271
 20
6.715936966
 30
0.0
 10
13.2069363489
 20
6.7159884642
 30
0.0
 10
13.2083143324
 20
6.7161349146
 30
0.0
 10
13.2093258719
 20
6.7162823899
 30
0.0
 10
13.2103142291
 20
6.7164686096
 30
0.0
 10
13.2112774748
 20
6.7166884441
 30
0.0
 10
13.2122159347
 20
6.7169349126
 30
0.0
 10
13.2134247072
 20
6.7172889398
 30
0.0
 10
13.2148794324
 20
6.7177788905
 30
0.0
 10
13.2165547271
 20
6.7184320481
 30
0.0
 10
13.2181558712
 20
6.7191269375
 30
0.0
 10
13.2201836952
 20
6.7200833694
 30
0.0
 10
13.2225937319
 20
6.7213375289
 30
0.0
 10
13.2253504237
 20
6.7229080112
 30
0.0
 10
13.2279751449
 20
6.7245044681
 30
0.0
 10
13.2312891099
 20
6.726623333
 30
0.0
 10
13.2352130501
 20
6.7292821814
 30
0.0
 10
13.2396732031
 20
6.7324801378
 30
0.0
 10
13.2438505356
 20
6.7356234727
 30
0.0
 10
13.2477472675
 20
6.73869794
 30
0.0
 10
13.25135025
 20
6.7416922822
 30
0.0
 10
13.2546355047
 20
6.7445963058
 30
0.0
 10
13.2575698309
 20
6.7473997509
 30
0.0
 10
13.2597440666
 20
6.7497014804
 30
0.0
 10
13.2612593167
 20
6.7514935467
 30
0.0
 10
13.2622466058
 20
6.7527700067
 30
0.0
 10
13.2631079594
 20
6.754013359
 30
0.0
 10
13.263835601
 20
6.7552221578
 30
0.0
 10
13.2644207038
 20
6.7563954563
 30
0.0
 10
13.264854095
 20
6.757532502
 30
0.0
 10
13.2651256647
 20
6.7586321753
 30
0.0
 10
13.265192331
 20
6.7593589099
 30
0.0
 10
13.2651923427
 20
6.7597100469
 30
0.0
  0
SPLINE
  5
375
100
AcDbEntity
  8
0
100
AcDbSpline
 62
9
  6
CONTINUOUS
 70
0
 71
3
 72
21
 73
17
 74
0
 42
0.0000001
 43
0.0000001
 44
0.0000000001
 40
0.0
 40
0.0
 40
0.0
 40
0.0
 40
0.1267644126
 40
0.253241074
 40
0.3163696981
 40
0.3793427004
 40
0.4421428387
 40
0.5047587415
 40
0.5671862197
 40
0.6294283543
 40
0.691495235
 40
0.7534043834
 40
0.8151793479
 40
0.87684459
 40
0.9384470642
 40
1.0
 40
1.0
 40
1.0
 40
1.0
 10
13.2651923427
 20
6.7597100469
 30
0.0
 10
13.2632325232
 20
6.7597100469
 30
0.0
 10
13.2593077297
 20
6.7600837598
 30
0.0
 10
13.2545852819
 20
6.761472346
 30
0.0
 10
13.2510310625
 20
6.7631022005
 30
0.0
 10
13.2485018059
 20
6.7645717972
 30
0.0
 10
13.2461333258
 20
6.7662746808
 30
0.0
 10
13.2439481789
 20
6.7681945978
 30
0.0
 10
13.2419675431
 20
6.7703131072
 30
0.0
 10
13.240210486
 20
6.7726098111
 30
0.0
 10
13.2386939489
 20
6.7750625951
 30
0.0
 10
13.2374326013
 20
6.7776478808
 30
0.0
 10
13.236438753
 20
6.7803407079
 30
0.0
 10
13.235721765
 20
6.7831153066
 30
0.0
 10
13.2352889354
 20
6.7859444157
 30
0.0
 10
13.2351923427
 20
6.7878498384
 30
0.0
 10
13.2351923427
 20
6.7888014671
 30
0.0
  0
SPLINE
  5
376
100
AcDbEntity
  8
0
100
AcDbSpline
 62
9
  6
CONTINUOUS
 70
0
 71
3
 72
38
 73
34
 74
0
 42
0.0000001
 43
0.0000001
 44
0.0000000001
 40
0.0
 40
0.0
 40
0.0
 40
0.0
 40
0.0538868497
 40
0.0814841988
 40
0.1094862749
 40
0.1666196668
 40
0.2251082176
 40
0.2847498875
 40
0.3453546302
 40
0.406754582
 40
0.4688065372
 40
0.5313942501
 40
0.5944317397
 40
0.657871834
 40
0.7217262515
 40
0.7538411709
 40
0.7861205895
 40
0.8186231909
 40
0.8514545872
 40
0.8680526278
 40
0.8848239197
 40
0.9018357906
 40
0.9191963149
 40
0.937100854
 40
0.9463677272
 40
0.9559386609
 40
0.9659365037
 40
0.9711519005
 40
0.9765483659
 40
0.9821408282
 40
0.9879332424
 40
0.9939103207
 40
1.0
 40
1.0
 40
1.0
 40
1.0
 10
12.8851923427
 20
6.7888014671
 30
0.0
 10
12.8851923475
 20
6.7874014223
 30
0.0
 10
12.8853019253
 20
6.7852834354
 30
0.0
 10
12.8856140796
 20
6.7824558169
 30
0.0
 10
12.8860339009
 20
6.7795565601
 30
0.0
 10
12.8867356542
 20
6.7758896291
 30
0.0
 10
12.8878008383
 20
6.7714611224
 30
0.0
 10
12.8890586567
 20
6.7669899833
 30
0.0
 10
12.8904805305
 20
6.7624891856
 30
0.0
 10
12.8920451327
 20
6.7579698223
 30
0.0
 10
12.8937369763
 20
6.7534415903
 30
0.0
 10
12.8955462161
 20
6.7489131673
 30
0.0
 10
12.8974691158
 20
6.7443925796
 30
0.0
 10
12.8995099497
 20
6.7398878049
 30
0.0
 10
12.9013185039
 20
6.736161123
 30
0.0
 10
12.9028492866
 20
6.7332013166
 30
0.0
 10
12.9040518477
 20
6.7309893483
 30
0.0
 10
12.9053200122
 20
6.7287927167
 30
0.0
 10
12.906446293
 20
6.7269855979
 30
0.0
 10
12.9074082717
 20
6.7255595694
 30
0.0
 10
12.9081721327
 20
6.7244963059
 30
0.0
 10
12.9089885028
 20
6.7234473441
 30
0.0
 10
12.9098752021
 20
6.7224176454
 30
0.0
 10
12.91069031
 20
6.7215942919
 30
0.0
 10
12.9114121085
 20
6.7209687899
 30
0.0
 10
12.9120090813
 20
6.7205151474
 30
0.0
 10
12.9125533191
 20
6.7201688505
 30
0.0
 10
12.9130279593
 20
6.7199202805
 30
0.0
 10
12.9134137267
 20
6.7197507313
 30
0.0
 10
12.9138251831
 20
6.7196052978
 30
0.0
 10
12.91426164
 20
6.7194890103
 30
0.0
 10
12.91472035
 20
6.7194139974
 30
0.0
 10
12.9150341256
 20
6.7193966955
 30
0.0
 10
12.9151923427
 20
6.7193967196
 30
0.0
  0
LINE
  5
377
100
AcDbEntity
  8
0
100
AcDbLine
 62
9
  6
CONTINUOUS
 10
12.8881208458
 20
7.0613891599
 11
12.8851923427
 21
7.0635798591
  0
SPLINE
  5
378
100
AcDbEntity
  8
0
100
AcDbSpline
 62
9
  6
CONTINUOUS
 70
0
 71
3
 72
21
 73
17
 74
0
 42
0.0000001
 43
0.0000001
 44
0.0000000001
 40
0.0
 40
0.0
 40
0.0
 40
0.0
 40
0.1523636517
 40
0.2278432897
 40
0.3023765296
 40
0.3755943634
 40
0.4470883996
 40
0.5164694502
 40
0.5833580069
 40
0.6474178786
 40
0.7083362237
 40
0.7658625966
 40
0.8198057298
 40
0.8700730917
 40
0.9167073964
 40
1.0
 40
1.0
 40
1.0
 40
1.0
 10
12.9151923427
 20
7.0518645133
 30
0.0
 10
12.9139061996
 20
7.0525637111
 30
0.0
 10
12.9119419029
 20
7.0535365338
 30
0.0
 10
12.9092670268
 20
7.0546716823
 30
0.0
 10
12.9072597817
 20
7.0554292032
 30
0.0
 10
12.9052613653
 20
7.0560967399
 30
0.0
 10
12.9032893945
 20
7.0566832023
 30
0.0
 10
12.901360766
 20
7.0571989718
 30
0.0
 10
12.8994909687
 20
7.0576560763
 30
0.0
 10
12.8976951171
 20
7.0580723711
 30
0.0
 10
12.8959864013
 20
7.0584661207
 30
0.0
 10
12.8943764637
 20
7.0588557752
 30
0.0
 10
12.892875695
 20
7.0592594903
 30
0.0
 10
12.891492563
 20
7.0596961222
 30
0.0
 10
12.8898778293
 20
7.0603196294
 30
0.0
 10
12.8887659893
 20
7.0609156271
 30
0.0
 10
12.8881208458
 20
7.0613891599
 30
0.0
  0
SPLINE
  5
379
100
AcDbEntity
  8
0
100
AcDbSpline
 62
9
  6
CONTINUOUS
 70
0
 71
3
 72
39
 73
35
 74
0
 42
0.0000001
 43
0.0000001
 44
0.0000000001
 40
0.0
 40
0.0
 40
0.0
 40
0.0
 40
0.0060897071
 40
0.0120660585
 40
0.0178573518
 40
0.023448489
 40
0.0340587524
 40
0.044055062
 40
0.0536250616
 40
0.0628940898
 40
0.0719344871
 40
0.0808001901
 40
0.0981628465
 40
0.1151729318
 40
0.1319453958
 40
0.1485429061
 40
0.1650105823
 40
0.1813762907
 40
0.2138791726
 40
0.2461587621
 40
0.2782738491
 40
0.3421285818
 40
0.4055692456
 40
0.4686069826
 40
0.5311949871
 40
0.593247147
 40
0.6546479346
 40
0.7152530514
 40
0.7748942303
 40
0.8333833198
 40
0.890516044
 40
0.9185167286
 40
0.9461127922
 40
1.0
 40
1.0
 40
1.0
 40
1.0
 10
13.2051923427
 20
6.7193967196
 30
0.0
 10
13.2053505606
 20
6.7193966698
 30
0.0
 10
13.2056643272
 20
6.7194138815
 30
0.0
 10
13.2061229721
 20
6.7194890349
 30
0.0
 10
13.2065592938
 20
6.719605555
 30
0.0
 10
13.2070983923
 20
6.7197963465
 30
0.0
 10
13.2077135988
 20
6.7200928636
 30
0.0
 10
13.2083757292
 20
6.7205149644
 30
0.0
 10
13.2089723745
 20
6.7209690527
 30
0.0
 10
13.2095207224
 20
6.7214429035
 30
0.0
 10
13.2100299355
 20
6.7219323991
 30
0.0
 10
13.2106620391
 20
6.7225960579
 30
0.0
 10
13.2113971267
 20
6.7234465196
 30
0.0
 10
13.2122118
 20
6.7244968034
 30
0.0
 10
13.2129769612
 20
6.7255590859
 30
0.0
 10
13.2137002467
 20
6.7266332802
 30
0.0
 10
13.2143930559
 20
6.7277147722
 30
0.0
 10
13.2152783044
 20
6.729163294
 30
0.0
 10
13.216333057
 20
6.7309892062
 30
0.0
 10
13.2175353069
 20
6.7332013384
 30
0.0
 10
13.2190662395
 20
6.7361610913
 30
0.0
 10
13.2208748083
 20
6.7398877981
 30
0.0
 10
13.2229155283
 20
6.7443926563
 30
0.0
 10
13.2248385452
 20
6.7489132255
 30
0.0
 10
13.2266477482
 20
6.753441685
 30
0.0
 10
13.2283396427
 20
6.7579699357
 30
0.0
 10
13.2299041438
 20
6.762489374
 30
0.0
 10
13.2313260113
 20
6.7669901923
 30
0.0
 10
13.2325838675
 20
6.771461333
 30
0.0
 10
13.2336490413
 20
6.7758898259
 30
0.0
 10
13.2343508136
 20
6.7795567137
 30
0.0
 10
13.2347705913
 20
6.7824558902
 30
0.0
 10
13.2350826716
 20
6.7852834551
 30
0.0
 10
13.2351923356
 20
6.7874014129
 30
0.0
 10
13.2351923427
 20
6.7888014671
 30
0.0
  0
SPLINE
  5
37A
100
AcDbEntity
  8
0
100
AcDbSpline
 62
9
  6
CONTINUOUS
 70
0
 71
3
 72
20
 73
16
 74
0
 42
0.0000001
 43
0.0000001
 44
0.0000000001
 40
0.0
 40
0.0
 40
0.0
 40
0.0
 40
0.0832922548
 40
0.1299305559
 40
0.1801998234
 40
0.234142586
 40
0.2916689926
 40
0.3525878601
 40
0.4166487661
 40
0.4835387406
 40
0.5529206996
 40
0.6244147631
 40
0.6976333944
 40
0.8476250765
 40
1.0
 40
1.0
 40
1.0
 40
1.0
 10
13.2322638419
 20
7.0613889691
 30
0.0
 10
13.231618631
 20
7.0609155679
 30
0.0
 10
13.2305067306
 20
7.0603197899
 30
0.0
 10
13.228892285
 20
7.0596955221
 30
0.0
 10
13.2275091807
 20
7.0592587055
 30
0.0
 10
13.226008381
 20
7.0588551939
 30
0.0
 10
13.2243984224
 20
7.0584657985
 30
0.0
 10
13.2226897173
 20
7.058072134
 30
0.0
 10
13.2208939457
 20
7.057655569
 30
0.0
 10
13.219024212
 20
7.0571982869
 30
0.0
 10
13.2170954021
 20
7.0566833362
 30
0.0
 10
13.2151234016
 20
7.0560969748
 30
0.0
 10
13.2124377307
 20
7.055198584
 30
0.0
 10
13.2090830374
 20
7.0538583222
 30
0.0
 10
13.2064782299
 20
7.0525642367
 30
0.0
 10
13.2051923427
 20
7.0518644187
 30
0.0
  0
LINE
  5
37B
100
AcDbEntity
  8
0
100
AcDbLine
 62
9
  6
CONTINUOUS
 10
13.2351923427
 20
7.0635798591
 11
13.2322638419
 21
7.0613889691
  0
LINE
  5
37C
100
AcDbEntity
  8
0
100
AcDbLine
 62
9
  6
CONTINUOUS
 10
12.8839949262
 20
7.1221602998
 11
12.8781498474
 21
7.1102078793
  0
SPLINE
  5
37D
100
AcDbEntity
  8
0
100
AcDbSpline
 62
9
  6
CONTINUOUS
 70
0
 71
3
 72
28
 73
24
 74
0
 42
0.0000001
 43
0.0000001
 44
0.0000000001
 40
0.0
 40
0.0
 40
0.0
 40
0.0
 40
0.0608923517
 40
0.1185573561
 40
0.2187833627
 40
0.2616809758
 40
0.3005564142
 40
0.3360379901
 40
0.3686402133
 40
0.4267183472
 40
0.4772554959
 40
0.5617874863
 40
0.6304692981
 40
0.6878640359
 40
0.736805089
 40
0.7792121271
 40
0.816470147
 40
0.8496294116
 40
0.9067326516
 40
0.9319956875
 40
0.9557014977
 40
0.9782543493
 40
1.0
 40
1.0
 40
1.0
 40
1.0
 10
11.8527186585
 20
4.7069483468
 30
0.0
 10
11.8536837212
 20
4.7069483414
 30
0.0
 10
11.8555627998
 20
4.7069793903
 30
0.0
 10
11.8590271614
 20
4.7071328717
 30
0.0
 10
11.8621992942
 20
4.7074089131
 30
0.0
 10
11.8650612449
 20
4.7077700635
 30
0.0
 10
11.8668988023
 20
4.708048412
 30
0.0
 10
11.8685687995
 20
4.7083402069
 30
0.0
 10
11.8705308242
 20
4.7087260986
 30
0.0
 10
11.8727128993
 20
4.7092272364
 30
0.0
 10
11.8756664128
 20
4.7100339027
 30
0.0
 10
11.8787321729
 20
4.7110597085
 30
0.0
 10
11.8818059639
 20
4.7123697674
 30
0.0
 10
11.8842645409
 20
4.7136607335
 30
0.0
 10
11.8862543326
 20
4.7149303085
 30
0.0
 10
11.8878714163
 20
4.7161754264
 30
0.0
 10
11.8891826419
 20
4.7173956993
 30
0.0
 10
11.8905212989
 20
4.718912452
 30
0.0
 10
11.8915252776
 20
4.7204640059
 30
0.0
 10
11.892178815
 20
4.7220163026
 30
0.0
 10
11.8924974329
 20
4.7231068215
 30
0.0
 10
11.8926794682
 20
4.7241713803
 30
0.0
 10
11.8927186588
 20
4.7248740856
 30
0.0
 10
11.8927186585
 20
4.7252187252
 30
0.0
  0
SPLINE
  5
37E
100
AcDbEntity
  8
0
100
AcDbSpline
 62
9
  6
CONTINUOUS
 70
0
 71
3
 72
15
 73
11
 74
0
 42
0.0000001
 43
0.0000001
 44
0.0000000001
 40
0.0
 40
0.0
 40
0.0
 40
0.0
 40
0.1231263498
 40
0.2467392414
 40
0.3709610318
 40
0.4958351432
 40
0.6213216604
 40
0.7473035581
 40
0.8736022185
 40
1.0
 40
1.0
 40
1.0
 40
1.0
 10
10.0176660269
 20
4.8491079643
 30
0.0
 10
10.0194135256
 20
4.8491312423
 30
0.0
 10
10.0229195003
 20
4.8495028414
 30
0.0
 10
10.0279932171
 20
4.8510116872
 30
0.0
 10
10.0327345383
 20
4.8534233516
 30
0.0
 10
10.0369888322
 20
4.8566593033
 30
0.0
 10
10.0406204916
 20
4.8606146282
 30
0.0
 10
10.0435134322
 20
4.8651624157
 30
0.0
 10
10.0455751571
 20
4.8701544718
 30
0.0
 10
10.0463524863
 20
4.8736780544
 30
0.0
 10
10.0465849706
 20
4.8754570158
 30
0.0
  0
SPLINE
  5
37F
100
AcDbEntity
  8
0
100
AcDbSpline
 62
9
  6
CONTINUOUS
 70
0
 71
3
 72
14
 73
10
 74
0
 42
0.0000001
 43
0.0000001
 44
0.0000000001
 40
0.0
 40
0.0
 40
0.0
 40
0.0
 40
0.3771969591
 40
0.5320817209
 40
0.6658536429
 40
0.779164188
 40
0.8724640647
 40
0.9460360163
 40
1.0
 40
1.0
 40
1.0
 40
1.0
 10
11.8527186585
 20
4.8491079874
 30
0.0
 10
11.8544610815
 20
4.8498141766
 30
0.0
 10
11.8569804318
 20
4.8506726096
 30
0.0
 10
11.8602120931
 20
4.851434321
 30
0.0
 10
11.8621853329
 20
4.8517868088
 30
0.0
 10
11.8638682281
 20
4.8520064875
 30
0.0
 10
11.8652601914
 20
4.8521246388
 30
0.0
 10
11.8663600614
 20
4.8521740563
 30
0.0
 10
11.8669957243
 20
4.852182942
 30
0.0
 10
11.8672646854
 20
4.852185835
 30
0.0
  0
LINE
  5
380
100
AcDbEntity
  8
0
100
AcDbLine
 62
9
  6
CONTINUOUS
 10
11.8672646854
 20
4.852185835
 11
11.8680082691
 21
4.8521942987
  0
LINE
  5
381
100
AcDbEntity
  8
0
100
AcDbLine
 62
9
  6
CONTINUOUS
 10
13.258490686
 20
7.1561438477
 11
13.2717958125
 21
7.1560875677
  0
SPLINE
  5
382
100
AcDbEntity
  8
0
100
AcDbSpline
 62
9
  6
CONTINUOUS
 70
0
 71
3
 72
33
 73
29
 74
0
 42
0.0000001
 43
0.0000001
 44
0.0000000001
 40
0.0
 40
0.0
 40
0.0
 40
0.0
 40
0.0876660539
 40
0.1745855348
 40
0.2600263632
 40
0.3432713685
 40
0.4236355744
 40
0.500474108
 40
0.5373863489
 40
0.5732003459
 40
0.6078524178
 40
0.6412844078
 40
0.673443779
 40
0.7042844839
 40
0.7337681542
 40
0.7618644004
 40
0.7885531014
 40
0.8138249268
 40
0.8376841097
 40
0.8601504605
 40
0.8812622519
 40
0.9010803739
 40
0.9196915994
 40
0.9372139183
 40
0.9537996524
 40
0.9696380616
 40
0.9849537821
 40
1.0
 40
1.0
 40
1.0
 40
1.0
 10
10.9351923427
 20
12.3352690837
 30
0.0
 10
10.9270230289
 20
12.3352690837
 30
0.0
 10
10.9107526317
 20
12.3349968818
 30
0.0
 10
10.886548008
 20
12.3337741383
 30
0.0
 10
10.8628101797
 20
12.3317495774
 30
0.0
 10
10.8397669249
 20
12.3289428848
 30
0.0
 10
10.8176394879
 20
12.3253814385
 30
0.0
 10
10.7999087807
 20
12.3217669772
 30
0.0
 10
10.7863566211
 20
12.3185075889
 30
0.0
 10
10.776686772
 20
12.3159306771
 30
0.0
 10
10.7673981933
 20
12.3131949295
 30
0.0
 10
10.7585130976
 20
12.3103069713
 30
0.0
 10
10.7500527617
 20
12.307273742
 30
0.0
 10
10.7420374082
 20
12.3041024793
 30
0.0
 10
10.7344861126
 20
12.3008008868
 30
0.0
 10
10.7274168728
 20
12.297376675
 30
0.0
 10
10.7208463741
 20
12.2938381088
 30
0.0
 10
10.7147901641
 20
12.2901933419
 30
0.0
 10
10.7092624442
 20
12.2864508498
 30
0.0
 10
10.7042761418
 20
12.2826191077
 30
0.0
 10
10.699843041
 20
12.2787064344
 30
0.0
 10
10.695973567
 20
12.2747212928
 30
0.0
 10
10.6926774828
 20
12.2706716578
 30
0.0
 10
10.6899635153
 20
12.2665657533
 30
0.0
 10
10.6878402517
 20
12.2624119278
 30
0.0
 10
10.6863158198
 20
12.2582191504
 30
0.0
 10
10.6853974452
 20
12.2539995565
 30
0.0
 10
10.6851923766
 20
12.2511661559
 30
0.0
 10
10.6851923766
 20
12.2497640479
 30
0.0
  0
SPLINE
  5
383
100
AcDbEntity
  8
0
100
AcDbSpline
 62
9
  6
CONTINUOUS
 70
0
 71
3
 72
16
 73
12
 74
0
 42
0.0000001
 43
0.0000001
 44
0.0000000001
 40
0.0
 40
0.0
 40
0.0
 40
0.0
 40
0.0276193388
 40
0.0609065311
 40
0.0997382326
 40
0.143955907
 40
0.2477736626
 40
0.3704875523
 40
0.5098173999
 40
0.6631463132
 40
1.0
 40
1.0
 40
1.0
 40
1.0
 10
13.2541385702
 20
7.1398549276
 30
0.0
 10
13.2542422474
 20
7.139757229
 30
0.0
 10
13.2544786
 20
7.1395499946
 30
0.0
 10
13.2548795443
 20
7.1392275486
 30
0.0
 10
13.2553586518
 20
7.1388661454
 30
0.0
 10
13.2561416531
 20
7.1383039969
 30
0.0
 10
13.2572991893
 20
7.1375223217
 30
0.0
 10
13.2588885498
 20
7.1365047899
 30
0.0
 10
13.2607143647
 20
7.1353836643
 30
0.0
 10
13.2635068252
 20
7.13372676
 30
0.0
 10
13.2657064085
 20
7.1324794728
 30
0.0
 10
13.2672262952
 20
7.1316376478
 30
0.0
  0
SPLINE
  5
384
100
AcDbEntity
  8
0
100
AcDbSpline
 62
9
  6
CONTINUOUS
 70
0
 71
3
 72
61
 73
57
 74
0
 42
0.0000001
 43
0.0000001
 44
0.0000000001
 40
0.0
 40
0.0
 40
0.0
 40
0.0
 40
0.0075225775
 40
0.01518096
 40
0.0231000719
 40
0.0313928111
 40
0.0401539299
 40
0.0494595668
 40
0.0593685163
 40
0.0699244005
 40
0.0811575092
 40
0.0930870203
 40
0.1057229237
 40
0.1190671569
 40
0.133115271
 40
0.1478570037
 40
0.1632772901
 40
0.1793569204
 40
0.1960728066
 40
0.2133988054
 40
0.2313056925
 40
0.2497617484
 40
0.268732959
 40
0.2881831355
 40
0.3283650541
 40
0.3699874215
 40
0.4127074801
 40
0.4561675218
 40
0.5
 40
0.5438324782
 40
0.5872925199
 40
0.6300125785
 40
0.6716349459
 40
0.7118168645
 40
0.731267041
 40
0.7502382516
 40
0.7686943075
 40
0.7866011946
 40
0.8039271934
 40
0.8206430796
 40
0.8367227099
 40
0.8521429963
 40
0.866884729
 40
0.8809328431
 40
0.8942770763
 40
0.9069129797
 40
0.9188424908
 40
0.9300755995
 40
0.9406314837
 40
0.9505404332
 40
0.9598460701
 40
0.9686071889
 40
0.9768999281
 40
0.98481904
 40
0.9924774225
 40
1.0
 40
1.0
 40
1.0
 40
1.0
 10
11.2051923423
 20
11.2067052388
 30
0.0
 10
11.2051923423
 20
11.2082194155
 30
0.0
 10
11.2049706908
 20
11.2112794803
 30
0.0
 10
11.2039791066
 20
11.2158366918
 30
0.0
 10
11.2023326164
 20
11.2203649588
 30
0.0
 10
11.200039439
 20
11.2248510182
 30
0.0
 10
11.197108471
 20
11.2292854702
 30
0.0
 10
11.193548598
 20
11.2336589953
 30
0.0
 10
11.1893696453
 20
11.2379630312
 30
0.0
 10
11.1845818515
 20
11.24218866
 30
0.0
 10
11.1791966648
 20
11.2463269605
 30
0.0
 10
11.1732267425
 20
11.2503688817
 30
0.0
 10
11.1666860077
 20
11.2543051691
 30
0.0
 10
11.1595898994
 20
11.2581268972
 30
0.0
 10
11.1519550952
 20
11.2618249799
 30
0.0
 10
11.1437997105
 20
11.2653907434
 30
0.0
 10
11.1351431275
 20
11.2688157007
 30
0.0
 10
11.1260059594
 20
11.2720915682
 30
0.0
 10
11.1164100648
 20
11.2752106038
 30
0.0
 10
11.1063783841
 20
11.2781651736
 30
0.0
 10
11.0959349723
 20
11.2809482406
 30
0.0
 10
11.0851048906
 20
11.2835530601
 30
0.0
 10
11.0739140961
 20
11.2859733389
 30
0.0
 10
11.0583795448
 20
11.2889790225
 30
0.0
 10
11.0382515803
 20
11.2922183455
 30
0.0
 10
11.0133651725
 20
11.2952496115
 30
0.0
 10
10.9877282183
 20
11.2974361502
 30
0.0
 10
10.9615870031
 20
11.2987566845
 30
0.0
 10
10.9351923428
 20
11.2991983009
 30
0.0
 10
10.9087976824
 20
11.2987566845
 30
0.0
 10
10.8826564673
 20
11.2974361502
 30
0.0
 10
10.857019513
 20
11.2952496115
 30
0.0
 10
10.8321331052
 20
11.2922183455
 30
0.0
 10
10.8120051407
 20
11.2889790225
 30
0.0
 10
10.7964705894
 20
11.2859733389
 30
0.0
 10
10.7852797949
 20
11.2835530601
 30
0.0
 10
10.7744497132
 20
11.2809482406
 30
0.0
 10
10.7640063014
 20
11.2781651736
 30
0.0
 10
10.7539746207
 20
11.2752106038
 30
0.0
 10
10.7443787261
 20
11.2720915682
 30
0.0
 10
10.735241558
 20
11.2688157007
 30
0.0
 10
10.726584975
 20
11.2653907434
 30
0.0
 10
10.7184295903
 20
11.2618249799
 30
0.0
 10
10.7107947861
 20
11.2581268972
 30
0.0
 10
10.7036986778
 20
11.2543051691
 30
0.0
 10
10.6971579431
 20
11.2503688817
 30
0.0
 10
10.6911880207
 20
11.2463269605
 30
0.0
 10
10.685802834
 20
11.24218866
 30
0.0
 10
10.6810150402
 20
11.2379630312
 30
0.0
 10
10.6768360875
 20
11.2336589953
 30
0.0
 10
10.6732762145
 20
11.2292854702
 30
0.0
 10
10.6703452465
 20
11.2248510182
 30
0.0
 10
10.6680520691
 20
11.2203649588
 30
0.0
 10
10.6664055789
 20
11.2158366918
 30
0.0
 10
10.6654139947
 20
11.2112794803
 30
0.0
 10
10.6651923432
 20
11.2082194155
 30
0.0
 10
10.6651923432
 20
11.2067052388
 30
0.0
  0
SPLINE
  5
385
100
AcDbEntity
  8
0
100
AcDbSpline
 62
9
  6
CONTINUOUS
 70
0
 71
3
 72
16
 73
12
 74
0
 42
0.0000001
 43
0.0000001
 44
0.0000000001
 40
0.0
 40
0.0
 40
0.0
 40
0.0
 40
0.0279620168
 40
0.0614819446
 40
0.1004662475
 40
0.1447757765
 40
0.2486423754
 40
0.3712827767
 40
0.5104605116
 40
0.6635904643
 40
1.0
 40
1.0
 40
1.0
 40
1.0
 10
12.8705821604
 20
7.1331022734
 30
0.0
 10
12.8704446809
 20
7.1330582698
 30
0.0
 10
12.8701467704
 20
7.1329478947
 30
0.0
 10
12.869670832
 20
7.1327414619
 30
0.0
 10
12.8691274934
 20
7.1324795531
 30
0.0
 10
12.8682702434
 20
7.1320336276
 30
0.0
 10
12.8670544237
 20
7.1313425787
 30
0.0
 10
12.8654435562
 20
7.1303579002
 30
0.0
 10
12.8636435345
 20
7.1291962746
 30
0.0
 10
12.8609515712
 20
7.127382836
 30
0.0
 10
12.8588919845
 20
7.1259174221
 30
0.0
 10
12.8574901926
 20
7.1248922429
 30
0.0
  0
SPLINE
  5
386
100
AcDbEntity
  8
0
100
AcDbSpline
 62
9
  6
CONTINUOUS
 70
0
 71
3
 72
61
 73
57
 74
0
 42
0.0000001
 43
0.0000001
 44
0.0000000001
 40
0.0
 40
0.0
 40
0.0
 40
0.0
 40
0.0075226437
 40
0.0151810088
 40
0.023100109
 40
0.0313928716
 40
0.0401539905
 40
0.0494596137
 40
0.0593685804
 40
0.0699244479
 40
0.0811575761
 40
0.0930870871
 40
0.1057229766
 40
0.1190672375
 40
0.133115314
 40
0.1478570728
 40
0.1632773548
 40
0.1793569669
 40
0.1960728861
 40
0.213398841
 40
0.2313057547
 40
0.2497618028
 40
0.2687329948
 40
0.2881831991
 40
0.3283650984
 40
0.3699874428
 40
0.4127074916
 40
0.4561675308
 40
0.5
 40
0.5438324692
 40
0.5872925084
 40
0.6300125572
 40
0.6716349016
 40
0.7118168009
 40
0.7312670052
 40
0.7502381972
 40
0.7686942453
 40
0.786601159
 40
0.8039271139
 40
0.8206430331
 40
0.8367226452
 40
0.8521429272
 40
0.866884686
 40
0.8809327625
 40
0.8942770234
 40
0.9069129129
 40
0.9188424239
 40
0.9300755521
 40
0.9406314196
 40
0.9505403863
 40
0.9598460095
 40
0.9686071284
 40
0.976899891
 40
0.9848189912
 40
0.9924773563
 40
1.0
 40
1.0
 40
1.0
 40
1.0
 10
11.2205114903
 20
11.2080963852
 30
0.0
 10
11.2205114903
 20
11.2096964867
 30
0.0
 10
11.220277272
 20
11.212930184
 30
0.0
 10
11.2192294046
 20
11.2177459642
 30
0.0
 10
11.2174894998
 20
11.222531153
 30
0.0
 10
11.2150662094
 20
11.2272717425
 30
0.0
 10
11.2119689374
 20
11.2319577911
 30
0.0
 10
11.2082070939
 20
11.2365794679
 30
0.0
 10
11.2037910153
 20
11.2411276785
 30
0.0
 10
11.198731595
 20
11.2455930892
 30
0.0
 10
11.193040846
 20
11.249966164
 30
0.0
 10
11.1867322051
 20
11.2542374147
 30
0.0
 10
11.1798203718
 20
11.2583970565
 30
0.0
 10
11.1723216318
 20
11.2624355799
 30
0.0
 10
11.1642536643
 20
11.2663435255
 30
0.0
 10
11.1556355515
 20
11.2701115694
 30
0.0
 10
11.146487816
 20
11.2737308533
 30
0.0
 10
11.1368322319
 20
11.277192608
 30
0.0
 10
11.1266918813
 20
11.2804885645
 30
0.0
 10
11.1160910383
 20
11.283610818
 30
0.0
 10
11.105055088
 20
11.2865517542
 30
0.0
 10
11.0936105349
 20
11.2893043685
 30
0.0
 10
11.0817848058
 20
11.2918619897
 30
0.0
 10
11.0653688546
 20
11.2950381624
 30
0.0
 10
11.0440988864
 20
11.298461305
 30
0.0
 10
11.017800495
 20
11.3016645628
 30
0.0
 10
10.9907089695
 20
11.3039751635
 30
0.0
 10
10.9630845682
 20
11.305370604
 30
0.0
 10
10.9351923428
 20
11.3058372661
 30
0.0
 10
10.9073001173
 20
11.305370604
 30
0.0
 10
10.8796757161
 20
11.3039751635
 30
0.0
 10
10.8525841905
 20
11.3016645628
 30
0.0
 10
10.8262857991
 20
11.298461305
 30
0.0
 10
10.8050158309
 20
11.2950381624
 30
0.0
 10
10.7885998798
 20
11.2918619897
 30
0.0
 10
10.7767741506
 20
11.2893043685
 30
0.0
 10
10.7653295975
 20
11.2865517542
 30
0.0
 10
10.7542936473
 20
11.283610818
 30
0.0
 10
10.7436928042
 20
11.2804885645
 30
0.0
 10
10.7335524536
 20
11.277192608
 30
0.0
 10
10.7238968696
 20
11.2737308533
 30
0.0
 10
10.714749134
 20
11.2701115694
 30
0.0
 10
10.7061310212
 20
11.2663435255
 30
0.0
 10
10.6980630537
 20
11.2624355799
 30
0.0
 10
10.6905643137
 20
11.2583970565
 30
0.0
 10
10.6836524804
 20
11.2542374147
 30
0.0
 10
10.6773438395
 20
11.249966164
 30
0.0
 10
10.6716530905
 20
11.2455930892
 30
0.0
 10
10.6665936702
 20
11.2411276785
 30
0.0
 10
10.6621775917
 20
11.2365794679
 30
0.0
 10
10.6584157481
 20
11.2319577911
 30
0.0
 10
10.6553184761
 20
11.2272717425
 30
0.0
 10
10.6528951857
 20
11.222531153
 30
0.0
 10
10.6511552809
 20
11.2177459642
 30
0.0
 10
10.6501074136
 20
11.212930184
 30
0.0
 10
10.6498731952
 20
11.2096964867
 30
0.0
 10
10.6498731952
 20
11.2080963852
 30
0.0
  0
SPLINE
  5
387
100
AcDbEntity
  8
0
100
AcDbSpline
 62
9
  6
CONTINUOUS
 70
0
 71
3
 72
25
 73
21
 74
0
 42
0.0000001
 43
0.0000001
 44
0.0000000001
 40
0.0
 40
0.0
 40
0.0
 40
0.0
 40
0.0217463362
 40
0.0442999606
 40
0.0680065784
 40
0.0932702109
 40
0.1503752871
 40
0.1835365215
 40
0.2207957605
 40
0.2632044991
 40
0.3121473006
 40
0.3695445594
 40
0.4382300044
 40
0.5227628702
 40
0.6313670244
 40
0.6994472441
 40
0.7812233082
 40
0.8814517017
 40
0.9391076929
 40
1.0
 40
1.0
 40
1.0
 40
1.0
 10
9.9776660269
 20
4.7252187251
 30
0.0
 10
9.9776660266
 20
4.7248740862
 30
0.0
 10
9.9777052154
 20
4.7241713814
 30
0.0
 10
9.9778872501
 20
4.7231068227
 30
0.0
 10
9.9782058688
 20
4.7220163077
 30
0.0
 10
9.9788594241
 20
4.7204640225
 30
0.0
 10
9.9798634318
 20
4.7189124856
 30
0.0
 10
9.9812020298
 20
4.7173956657
 30
0.0
 10
9.9825132662
 20
4.7161753771
 30
0.0
 10
9.9841303628
 20
4.7149302593
 30
0.0
 10
9.9861202805
 20
4.7136608627
 30
0.0
 10
9.9885787142
 20
4.712369577
 30
0.0
 10
9.9916528254
 20
4.7110600665
 30
0.0
 10
9.9955915256
 20
4.7097412289
 30
0.0
 10
9.9996151789
 20
4.7087465396
 30
0.0
 10
10.0036440958
 20
4.708002089
 30
0.0
 10
10.007571999
 20
4.7074617281
 30
0.0
 10
10.0113579991
 20
4.7071335055
 30
0.0
 10
10.0148221111
 20
4.7069786011
 30
0.0
 10
10.0167009974
 20
4.7069484297
 30
0.0
 10
10.0176660269
 20
4.7069484259
 30
0.0
  0
SPLINE
  5
388
100
AcDbEntity
  8
0
100
AcDbSpline
 62
9
  6
CONTINUOUS
 70
0
 71
3
 72
16
 73
12
 74
0
 42
0.0000001
 43
0.0000001
 44
0.0000000001
 40
0.0
 40
0.0
 40
0.0
 40
0.0
 40
0.0276194613
 40
0.0609066386
 40
0.0997382458
 40
0.1439557963
 40
0.247773328
 40
0.3704871004
 40
0.5098169608
 40
0.6631459946
 40
1.0
 40
1.0
 40
1.0
 40
1.0
 10
12.8662456058
 20
7.1398562014
 30
0.0
 10
12.8661419402
 20
7.1397584873
 30
0.0
 10
12.8659056082
 20
7.1395512233
 30
0.0
 10
12.8655046885
 20
7.1392287377
 30
0.0
 10
12.865025603
 20
7.1388672968
 30
0.0
 10
12.8642426307
 20
7.1383050943
 30
0.0
 10
12.8630851287
 20
7.1375233463
 30
0.0
 10
12.8614958131
 20
7.1365057108
 30
0.0
 10
12.8596700558
 20
7.1353844485
 30
0.0
 10
12.8568777025
 20
7.1337272921
 30
0.0
 10
12.8546782467
 20
7.1324797247
 30
0.0
 10
12.8531584758
 20
7.1316376497
 30
0.0
  0
LINE
  5
389
100
AcDbEntity
  8
0
100
AcDbLine
 62
9
  6
CONTINUOUS
 10
12.8618940001
 20
7.1561438237
 11
12.8485888742
 21
7.1560875212
  0
LINE
  5
38A
100
AcDbEntity
  8
0
100
AcDbLine
 62
9
  6
CONTINUOUS
 10
12.8176525396
 20
8.845657034
 11
12.8043474206
 21
8.8456004726
  0
SPLINE
  5
38B
100
AcDbEntity
  8
0
100
AcDbSpline
 62
9
  6
CONTINUOUS
 70
0
 71
3
 72
16
 73
12
 74
0
 42
0.0000001
 43
0.0000001
 44
0.0000000001
 40
0.0
 40
0.0
 40
0.0
 40
0.0
 40
0.0293883576
 40
0.0641444159
 40
0.1041729392
 40
0.1493347891
 40
0.2543288709
 40
0.3773276089
 40
0.5160983503
 40
0.6680683892
 40
1.0
 40
1.0
 40
1.0
 40
1.0
 10
12.8212363492
 20
8.862297734
 30
0.0
 10
12.8211286779
 20
8.8624095913
 30
0.0
 10
12.8208829458
 20
8.8626434095
 30
0.0
 10
12.8204637809
 20
8.8630002778
 30
0.0
 10
12.8199646094
 20
8.8633908729
 30
0.0
 10
12.819153776
 20
8.8639844273
 30
0.0
 10
12.8179561126
 20
8.8647903736
 30
0.0
 10
12.8163118929
 20
8.8658159389
 30
0.0
 10
12.8144266914
 20
8.8669225906
 30
0.0
 10
12.8115538068
 20
8.8685253818
 30
0.0
 10
12.8092859381
 20
8.8697067788
 30
0.0
 10
12.807718814
 20
8.8704936727
 30
0.0
  0
SPLINE
  5
38C
100
AcDbEntity
  8
0
100
AcDbSpline
 62
9
  6
CONTINUOUS
 70
0
 71
3
 72
16
 73
12
 74
0
 42
0.0000001
 43
0.0000001
 44
0.0000000001
 40
0.0
 40
0.0
 40
0.0
 40
0.0
 40
0.028894345
 40
0.063312284
 40
0.1031182523
 40
0.1481460724
 40
0.253069929
 40
0.3761780455
 40
0.5151725255
 40
0.6674326237
 40
1.0
 40
1.0
 40
1.0
 40
1.0
 10
13.2947949825
 20
8.8697321256
 30
0.0
 10
13.2949376357
 20
8.8697858868
 30
0.0
 10
13.2952464251
 20
8.8699137215
 30
0.0
 10
13.2957405825
 20
8.8701415113
 30
0.0
 10
13.2963040905
 20
8.8704215391
 30
0.0
 10
13.2971904316
 20
8.8708872171
 30
0.0
 10
13.2984469335
 20
8.8715925276
 30
0.0
 10
13.3001122513
 20
8.8725809438
 30
0.0
 10
13.301971122
 20
8.873731822
 30
0.0
 10
13.304742808
 20
8.8755069198
 30
0.0
 10
13.3068692413
 20
8.8769292975
 30
0.0
 10
13.3083174804
 20
8.8779199268
 30
0.0
  0
SPLINE
  5
38D
100
AcDbEntity
  8
0
100
AcDbSpline
 62
9
  6
CONTINUOUS
 70
0
 71
3
 72
16
 73
12
 74
0
 42
0.0000001
 43
0.0000001
 44
0.0000000001
 40
0.0
 40
0.0
 40
0.0
 40
0.0
 40
0.0293882939
 40
0.0641442459
 40
0.1041726501
 40
0.14933439
 40
0.2543283265
 40
0.3773270405
 40
0.5160978716
 40
0.6680680783
 40
1.0
 40
1.0
 40
1.0
 40
1.0
 10
13.2991487666
 20
8.8622966988
 30
0.0
 10
13.2992564324
 20
8.8624085626
 30
0.0
 10
13.2995021546
 20
8.862642394
 30
0.0
 10
13.2999213066
 20
8.8629992821
 30
0.0
 10
13.3004204654
 20
8.8633898989
 30
0.0
 10
13.3012312808
 20
8.8639834884
 30
0.0
 10
13.3024289196
 20
8.8647894895
 30
0.0
 10
13.3040731031
 20
8.8658151414
 30
0.0
 10
13.3059582564
 20
8.8669219122
 30
0.0
 10
13.3088310514
 20
8.8685249246
 30
0.0
 10
13.3110988174
 20
8.8697065648
 30
0.0
 10
13.3126658515
 20
8.8704936733
 30
0.0
  0
LINE
  5
38E
100
AcDbEntity
  8
0
100
AcDbLine
 62
9
  6
CONTINUOUS
 10
13.3027321464
 20
8.8456570552
 11
13.316037266
 21
8.8456005135
  0
SPLINE
  5
38F
100
AcDbEntity
  8
0
100
AcDbSpline
 62
9
  6
CONTINUOUS
 70
0
 71
3
 72
16
 73
12
 74
0
 42
0.0000001
 43
0.0000001
 44
0.0000000001
 40
0.0
 40
0.0
 40
0.0
 40
0.0
 40
0.0288946615
 40
0.063312765
 40
0.1031188026
 40
0.1481466363
 40
0.2530704434
 40
0.3761784823
 40
0.5151728872
 40
0.667432909
 40
1.0
 40
1.0
 40
1.0
 40
1.0
 10
12.8255903384
 20
8.8697324941
 30
0.0
 10
12.8254476754
 20
8.8697862382
 30
0.0
 10
12.8251388667
 20
8.8699140418
 30
0.0
 10
12.8246446827
 20
8.8701417934
 30
0.0
 10
12.8240811492
 20
8.8704217867
 30
0.0
 10
12.8231947734
 20
8.8708874198
 30
0.0
 10
12.8219382281
 20
8.8715926802
 30
0.0
 10
12.8202728565
 20
8.87258104
 30
0.0
 10
12.8184139251
 20
8.8737318576
 30
0.0
 10
12.8156421427
 20
8.8755068588
 30
0.0
 10
12.8135156186
 20
8.8769291403
 30
0.0
 10
12.8120673047
 20
8.8779196873
 30
0.0
  0
LINE
  5
390
100
AcDbEntity
  8
0
100
AcDbLine
 62
9
  6
CONTINUOUS
 10
12.8403071857
 20
8.8820351754
 11
12.8348830936
 21
8.8941770309
  0
SPLINE
  5
391
100
AcDbEntity
  8
0
100
AcDbSpline
 62
9
  6
CONTINUOUS
 70
0
 71
3
 72
15
 73
11
 74
0
 42
0.0000001
 43
0.0000001
 44
0.0000000001
 40
0.0
 40
0.0
 40
0.0
 40
0.0
 40
0.1231261764
 40
0.2467389272
 40
0.3709606283
 40
0.4958347129
 40
0.621321268
 40
0.7473032612
 40
0.8736020597
 40
1.0
 40
1.0
 40
1.0
 40
1.0
 10
11.8527186519
 20
4.8491079753
 30
0.0
 10
11.8509711589
 20
4.8491312554
 30
0.0
 10
11.8474651952
 20
4.8495028587
 30
0.0
 10
11.8423914954
 20
4.8510117098
 30
0.0
 10
11.8376501907
 20
4.8534233782
 30
0.0
 10
11.8333959121
 20
4.8566593326
 30
0.0
 10
11.8297642657
 20
4.8606146586
 30
0.0
 10
11.8268713351
 20
4.8651624458
 30
0.0
 10
11.8248096169
 20
4.8701545003
 30
0.0
 10
11.8240322894
 20
4.873678081
 30
0.0
 10
11.8237998052
 20
4.8754570416
 30
0.0
  0
SPLINE
  5
392
100
AcDbEntity
  8
0
100
AcDbSpline
 62
9
  6
CONTINUOUS
 70
0
 71
3
 72
59
 73
55
 74
0
 42
0.0000001
 43
0.0000001
 44
0.0000000001
 40
0.0
 40
0.0
 40
0.0
 40
0.0
 40
0.0075226783
 40
0.0151810787
 40
0.0231002155
 40
0.0313930163
 40
0.0401541756
 40
0.0494598417
 40
0.0593688541
 40
0.0699247702
 40
0.0811579501
 40
0.0930875161
 40
0.1057234639
 40
0.1190677863
 40
0.1331159275
 40
0.1478577543
 40
0.1632781074
 40
0.1793577936
 40
0.1960737899
 40
0.2133998246
 40
0.2313068208
 40
0.249762954
 40
0.2881822227
 40
0.3283643073
 40
0.3699868436
 40
0.4127070893
 40
0.4561673288
 40
0.5
 40
0.5438326712
 40
0.5872929107
 40
0.6300131564
 40
0.6716356927
 40
0.7118177773
 40
0.750237046
 40
0.7686931792
 40
0.7866001754
 40
0.8039262101
 40
0.8206422064
 40
0.8367218926
 40
0.8521422457
 40
0.8668840725
 40
0.8809322137
 40
0.8942765361
 40
0.9069124839
 40
0.9188420499
 40
0.9300752298
 40
0.9406311459
 40
0.9505401583
 40
0.9598458244
 40
0.9686069837
 40
0.9768997845
 40
0.9848189213
 40
0.9924773217
 40
1.0
 40
1.0
 40
1.0
 40
1.0
 10
11.2186197315
 20
11.3616697169
 30
0.0
 10
11.2186197315
 20
11.3632592092
 30
0.0
 10
11.2183870661
 20
11.3664714661
 30
0.0
 10
11.2173461465
 20
11.371255316
 30
0.0
 10
11.2156177778
 20
11.3760087775
 30
0.0
 10
11.2132105546
 20
11.3807179354
 30
0.0
 10
11.2101338185
 20
11.3853729139
 30
0.0
 10
11.2063969172
 20
11.3899639475
 30
0.0
 10
11.2020101187
 20
11.394482002
 30
0.0
 10
11.196984244
 20
11.3989178056
 30
0.0
 10
11.1913312265
 20
11.4032618855
 30
0.0
 10
11.185064414
 20
11.4075048164
 30
0.0
 10
11.1781984083
 20
11.4116368784
 30
0.0
 10
11.1707493874
 20
11.4156486251
 30
0.0
 10
11.1627349132
 20
11.4195306597
 30
0.0
 10
11.1541739413
 20
11.4232737202
 30
0.0
 10
11.1450868581
 20
11.4268690073
 30
0.0
 10
11.1354952941
 20
11.4303078088
 30
0.0
 10
11.1254221758
 20
11.4335819145
 30
0.0
 10
11.1148916256
 20
11.4366834565
 30
0.0
 10
11.1039288248
 20
11.4396049324
 30
0.0
 10
11.0885646056
 20
11.4433001169
 30
0.0
 10
11.0684631345
 20
11.4473978707
 30
0.0
 10
11.0433770497
 20
11.4514355264
 30
0.0
 10
11.0172527064
 20
11.4546174963
 30
0.0
 10
10.9903408953
 20
11.4569127907
 30
0.0
 10
10.9628996288
 20
11.4582989751
 30
0.0
 10
10.9351923428
 20
11.4587625444
 30
0.0
 10
10.9074850567
 20
11.4582989751
 30
0.0
 10
10.8800437902
 20
11.4569127907
 30
0.0
 10
10.8531319791
 20
11.4546174963
 30
0.0
 10
10.8270076359
 20
11.4514355264
 30
0.0
 10
10.8019215511
 20
11.4473978707
 30
0.0
 10
10.7818200799
 20
11.4433001169
 30
0.0
 10
10.7664558607
 20
11.4396049324
 30
0.0
 10
10.7554930599
 20
11.4366834565
 30
0.0
 10
10.7449625097
 20
11.4335819145
 30
0.0
 10
10.7348893914
 20
11.4303078088
 30
0.0
 10
10.7252978274
 20
11.4268690073
 30
0.0
 10
10.7162107442
 20
11.4232737202
 30
0.0
 10
10.7076497723
 20
11.4195306597
 30
0.0
 10
10.6996352981
 20
11.4156486251
 30
0.0
 10
10.6921862772
 20
11.4116368784
 30
0.0
 10
10.6853202715
 20
11.4075048164
 30
0.0
 10
10.679053459
 20
11.4032618855
 30
0.0
 10
10.6734004415
 20
11.3989178056
 30
0.0
 10
10.6683745669
 20
11.394482002
 30
0.0
 10
10.6639877683
 20
11.3899639475
 30
0.0
 10
10.660250867
 20
11.3853729139
 30
0.0
 10
10.6571741309
 20
11.3807179354
 30
0.0
 10
10.6547669077
 20
11.3760087775
 30
0.0
 10
10.6530385391
 20
11.371255316
 30
0.0
 10
10.6519976194
 20
11.3664714661
 30
0.0
 10
10.651764954
 20
11.3632592092
 30
0.0
 10
10.651764954
 20
11.3616697169
 30
0.0
  0
SPLINE
  5
393
100
AcDbEntity
  8
0
100
AcDbSpline
 62
9
  6
CONTINUOUS
 70
0
 71
3
 72
67
 73
63
 74
0
 42
0.0000001
 43
0.0000001
 44
0.0000000001
 40
0.0
 40
0.0
 40
0.0
 40
0.0
 40
0.0037551718
 40
0.0075275662
 40
0.0113337965
 40
0.0151899549
 40
0.0231088837
 40
0.0314014869
 40
0.0357197944
 40
0.0401654191
 40
0.0494707955
 40
0.059379533
 40
0.0699351264
 40
0.0811679757
 40
0.0930972086
 40
0.1057327548
 40
0.1190767075
 40
0.1331244307
 40
0.1478658071
 40
0.1632857374
 40
0.1793649157
 40
0.1960804368
 40
0.2134059733
 40
0.2313124108
 40
0.2497680333
 40
0.2687387332
 40
0.2881884545
 40
0.3283693477
 40
0.3699906742
 40
0.412709668
 40
0.4561686212
 40
0.5
 40
0.5438313788
 40
0.587290332
 40
0.6300093258
 40
0.6716306523
 40
0.7118115455
 40
0.7312612668
 40
0.7502319667
 40
0.7686875892
 40
0.7865940267
 40
0.8039195632
 40
0.8206350843
 40
0.8367142626
 40
0.8521341929
 40
0.8668755693
 40
0.8809232925
 40
0.8942672452
 40
0.9069027914
 40
0.9188320243
 40
0.9300648736
 40
0.940620467
 40
0.9505292045
 40
0.9598345809
 40
0.9642802056
 40
0.9685985131
 40
0.9768911163
 40
0.9848100451
 40
0.9886662035
 40
0.9924724338
 40
0.9962448282
 40
1.0
 40
1.0
 40
1.0
 40
1.0
 10
11.2585588803
 20
11.5262517309
 30
0.0
 10
11.2585590084
 20
11.5271570085
 30
0.0
 10
11.2584938079
 20
11.5289723984
 30
0.0
 10
11.258200286
 20
11.5316910693
 30
0.0
 10
11.257711336
 20
11.5344063786
 30
0.0
 10
11.2567917099
 20
11.5380509454
 30
0.0
 10
11.2551339776
 20
11.542611536
 30
0.0
 10
11.2528758151
 20
11.5470287795
 30
0.0
 10
11.2507081732
 20
11.5505247802
 30
0.0
 10
11.2482199239
 20
11.5541024544
 30
0.0
 10
11.2446135448
 20
11.5585332636
 30
0.0
 10
11.2396087654
 20
11.5636876849
 30
0.0
 10
11.2338746233
 20
11.5687486551
 30
0.0
 10
11.2274250267
 20
11.573704859
 30
0.0
 10
11.2202751079
 20
11.5785456627
 30
0.0
 10
11.2124416019
 20
11.583260032
 30
0.0
 10
11.2039428874
 20
11.5878370631
 30
0.0
 10
11.1947990572
 20
11.5922661394
 30
0.0
 10
11.185031723
 20
11.5965366766
 30
0.0
 10
11.1746641226
 20
11.6006385504
 30
0.0
 10
11.1637209757
 20
11.6045619739
 30
0.0
 10
11.1522284008
 20
11.6082974281
 30
0.0
 10
11.1402139283
 20
11.6118360177
 30
0.0
 10
11.1277063389
 20
11.6151691723
 30
0.0
 10
11.1147356447
 20
11.6182888015
 30
0.0
 10
11.1013329549
 20
11.6211875122
 30
0.0
 10
11.0827279369
 20
11.6247872201
 30
0.0
 10
11.0586216131
 20
11.6286668568
 30
0.0
 10
11.0288163167
 20
11.6322972463
 30
0.0
 10
10.9981121242
 20
11.6349159573
 30
0.0
 10
10.9668040023
 20
11.636497497
 30
0.0
 10
10.9351923428
 20
11.6370264037
 30
0.0
 10
10.9035806832
 20
11.636497497
 30
0.0
 10
10.8722725614
 20
11.6349159573
 30
0.0
 10
10.8415683688
 20
11.6322972463
 30
0.0
 10
10.8117630724
 20
11.6286668568
 30
0.0
 10
10.7876567486
 20
11.6247872201
 30
0.0
 10
10.7690517306
 20
11.6211875122
 30
0.0
 10
10.7556490408
 20
11.6182888015
 30
0.0
 10
10.7426783466
 20
11.6151691723
 30
0.0
 10
10.7301707572
 20
11.6118360177
 30
0.0
 10
10.7181562848
 20
11.6082974281
 30
0.0
 10
10.7066637098
 20
11.6045619739
 30
0.0
 10
10.6957205629
 20
11.6006385504
 30
0.0
 10
10.6853529625
 20
11.5965366766
 30
0.0
 10
10.6755856284
 20
11.5922661394
 30
0.0
 10
10.6664417981
 20
11.5878370631
 30
0.0
 10
10.6579430837
 20
11.583260032
 30
0.0
 10
10.6501095776
 20
11.5785456627
 30
0.0
 10
10.6429596588
 20
11.573704859
 30
0.0
 10
10.6365100623
 20
11.5687486551
 30
0.0
 10
10.6307759201
 20
11.5636876849
 30
0.0
 10
10.6257711407
 20
11.5585332636
 30
0.0
 10
10.6221647616
 20
11.5541024544
 30
0.0
 10
10.6196765123
 20
11.5505247802
 30
0.0
 10
10.6175088704
 20
11.5470287795
 30
0.0
 10
10.6152507079
 20
11.542611536
 30
0.0
 10
10.6135929756
 20
11.5380509454
 30
0.0
 10
10.6126733496
 20
11.5344063786
 30
0.0
 10
10.6121843995
 20
11.5316910693
 30
0.0
 10
10.6118908776
 20
11.5289723984
 30
0.0
 10
10.6118256771
 20
11.5271570085
 30
0.0
 10
10.6118258053
 20
11.5262517309
 30
0.0
  0
SPLINE
  5
394
100
AcDbEntity
  8
0
100
AcDbSpline
 62
9
  6
CONTINUOUS
 70
0
 71
3
 72
61
 73
57
 74
0
 42
0.0000001
 43
0.0000001
 44
0.0000000001
 40
0.0
 40
0.0
 40
0.0
 40
0.0
 40
0.0075226898
 40
0.0151810094
 40
0.0231000915
 40
0.031392876
 40
0.0401539978
 40
0.0494596052
 40
0.0593685879
 40
0.0699244436
 40
0.081157572
 40
0.0930871013
 40
0.1057229613
 40
0.1190672454
 40
0.1331153176
 40
0.1478570602
 40
0.1632773735
 40
0.1793569512
 40
0.1960728875
 40
0.2133988544
 40
0.2313057367
 40
0.2497618175
 40
0.2687329887
 40
0.2881831931
 40
0.3283650844
 40
0.3699874448
 40
0.4127074998
 40
0.4561675325
 40
0.5
 40
0.5438324675
 40
0.5872925002
 40
0.6300125552
 40
0.6716349156
 40
0.7118168069
 40
0.7312670113
 40
0.7502381825
 40
0.7686942633
 40
0.7866011456
 40
0.8039271125
 40
0.8206430488
 40
0.8367226265
 40
0.8521429398
 40
0.8668846824
 40
0.8809327546
 40
0.8942770387
 40
0.9069128987
 40
0.918842428
 40
0.9300755564
 40
0.9406314121
 40
0.9505403948
 40
0.9598460022
 40
0.968607124
 40
0.9768999085
 40
0.9848189906
 40
0.9924773102
 40
1.0
 40
1.0
 40
1.0
 40
1.0
 10
11.2657102493
 20
11.5346599818
 30
0.0
 10
11.2657102493
 20
11.5365135743
 30
0.0
 10
11.2654389428
 20
11.540259539
 30
0.0
 10
11.2642250528
 20
11.5458382006
 30
0.0
 10
11.2622095328
 20
11.5513814253
 30
0.0
 10
11.2594023642
 20
11.5568730009
 30
0.0
 10
11.2558144218
 20
11.5623013793
 30
0.0
 10
11.251456668
 20
11.5676552164
 30
0.0
 10
11.2463409963
 20
11.5729239069
 30
0.0
 10
11.2404801052
 20
11.5780967225
 30
0.0
 10
11.2338878552
 20
11.5831625587
 30
0.0
 10
11.2265798183
 20
11.5881104109
 30
0.0
 10
11.21857307
 20
11.5929290426
 30
0.0
 10
11.2098864038
 20
11.5976072957
 30
0.0
 10
11.2005403543
 20
11.6021343228
 30
0.0
 10
11.190557012
 20
11.6064993045
 30
0.0
 10
11.1799601283
 20
11.6106918928
 30
0.0
 10
11.1687749698
 20
11.6147020842
 30
0.0
 10
11.1570282323
 20
11.6185201493
 30
0.0
 10
11.1447480554
 20
11.622136996
 30
0.0
 10
11.1319638561
 20
11.6255438646
 30
0.0
 10
11.1187063102
 20
11.6287324855
 30
0.0
 10
11.1050072151
 20
11.6316953023
 30
0.0
 10
11.0859907404
 20
11.635374619
 30
0.0
 10
11.0613512964
 20
11.6393400553
 30
0.0
 10
11.030886845
 20
11.6430507322
 30
0.0
 10
10.9995036181
 20
11.645727357
 30
0.0
 10
10.9675031057
 20
11.647343873
 30
0.0
 10
10.9351923428
 20
11.6478844766
 30
0.0
 10
10.9028815798
 20
11.647343873
 30
0.0
 10
10.8708810675
 20
11.645727357
 30
0.0
 10
10.8394978405
 20
11.6430507322
 30
0.0
 10
10.8090333891
 20
11.6393400553
 30
0.0
 10
10.7843939451
 20
11.635374619
 30
0.0
 10
10.7653774704
 20
11.6316953023
 30
0.0
 10
10.7516783753
 20
11.6287324855
 30
0.0
 10
10.7384208294
 20
11.6255438646
 30
0.0
 10
10.7256366301
 20
11.622136996
 30
0.0
 10
10.7133564532
 20
11.6185201493
 30
0.0
 10
10.7016097158
 20
11.6147020842
 30
0.0
 10
10.6904245572
 20
11.6106918928
 30
0.0
 10
10.6798276735
 20
11.6064993045
 30
0.0
 10
10.6698443313
 20
11.6021343228
 30
0.0
 10
10.6604982818
 20
11.5976072957
 30
0.0
 10
10.6518116156
 20
11.5929290426
 30
0.0
 10
10.6438048673
 20
11.5881104109
 30
0.0
 10
10.6364968303
 20
11.5831625587
 30
0.0
 10
10.6299045803
 20
11.5780967225
 30
0.0
 10
10.6240436892
 20
11.5729239069
 30
0.0
 10
10.6189280176
 20
11.5676552164
 30
0.0
 10
10.6145702637
 20
11.5623013793
 30
0.0
 10
10.6109823214
 20
11.5568730009
 30
0.0
 10
10.6081751527
 20
11.5513814253
 30
0.0
 10
10.6061596328
 20
11.5458382006
 30
0.0
 10
10.6049457427
 20
11.540259539
 30
0.0
 10
10.6046744362
 20
11.5365135743
 30
0.0
 10
10.6046744362
 20
11.5346599818
 30
0.0
  0
SPLINE
  5
395
100
AcDbEntity
  8
0
100
AcDbSpline
 62
9
  6
CONTINUOUS
 70
0
 71
3
 72
61
 73
57
 74
0
 42
0.0000001
 43
0.0000001
 44
0.0000000001
 40
0.0
 40
0.0
 40
0.0
 40
0.0
 40
0.0075226898
 40
0.0151810094
 40
0.0231000915
 40
0.031392876
 40
0.0401539978
 40
0.0494596051
 40
0.0593685879
 40
0.0699244436
 40
0.0811575719
 40
0.0930871013
 40
0.1057229613
 40
0.1190672454
 40
0.1331153176
 40
0.1478570602
 40
0.1632773735
 40
0.1793569512
 40
0.1960728875
 40
0.2133988544
 40
0.2313057367
 40
0.2497618175
 40
0.2687329887
 40
0.2881831931
 40
0.3283650844
 40
0.3699874448
 40
0.4127074998
 40
0.4561675325
 40
0.5
 40
0.5438324675
 40
0.5872925002
 40
0.6300125552
 40
0.6716349156
 40
0.7118168069
 40
0.7312670113
 40
0.7502381825
 40
0.7686942633
 40
0.7866011456
 40
0.8039271125
 40
0.8206430488
 40
0.8367226265
 40
0.8521429398
 40
0.8668846824
 40
0.8809327546
 40
0.8942770387
 40
0.9069128987
 40
0.9188424281
 40
0.9300755564
 40
0.9406314121
 40
0.9505403949
 40
0.9598460022
 40
0.968607124
 40
0.9768999085
 40
0.9848189906
 40
0.9924773102
 40
1.0
 40
1.0
 40
1.0
 40
1.0
 10
11.2676923429
 20
11.5369115342
 30
0.0
 10
11.2676923429
 20
11.5387762426
 30
0.0
 10
11.2674194093
 20
11.5425446716
 30
0.0
 10
11.2661982397
 20
11.548156788
 30
0.0
 10
11.2641706328
 20
11.5537332551
 30
0.0
 10
11.2613466297
 20
11.5592577633
 30
0.0
 10
11.2577371707
 20
11.5647186953
 30
0.0
 10
11.2533532837
 20
11.570104639
 30
0.0
 10
11.2482069338
 20
11.5754049255
 30
0.0
 10
11.2423108952
 20
11.5806087621
 30
0.0
 10
11.235679112
 20
11.5857049778
 30
0.0
 10
11.2283272492
 20
11.590682502
 30
0.0
 10
11.220272485
 20
11.5955300306
 30
0.0
 10
11.2115337255
 20
11.6002363389
 30
0.0
 10
11.2021316283
 20
11.6047905143
 30
0.0
 10
11.1920884167
 20
11.6091816724
 30
0.0
 10
11.1814279842
 20
11.6133994034
 30
0.0
 10
11.170175749
 20
11.6174336437
 30
0.0
 10
11.1583585671
 20
11.6212746055
 30
0.0
 10
11.1460047469
 20
11.6249131422
 30
0.0
 10
11.1331438816
 20
11.6283404415
 30
0.0
 10
11.1198068311
 20
11.6315481844
 30
0.0
 10
11.1060255834
 20
11.6345287689
 30
0.0
 10
11.0868950682
 20
11.6382301503
 30
0.0
 10
11.0621078631
 20
11.6422193671
 30
0.0
 10
11.0314607185
 20
11.6459522966
 30
0.0
 10
10.9998892884
 20
11.6486449729
 30
0.0
 10
10.9676968712
 20
11.6502711831
 30
0.0
 10
10.9351923428
 20
11.6508150287
 30
0.0
 10
10.9026878144
 20
11.6502711831
 30
0.0
 10
10.8704953971
 20
11.6486449729
 30
0.0
 10
10.838923967
 20
11.6459522966
 30
0.0
 10
10.8082768224
 20
11.6422193671
 30
0.0
 10
10.7834896173
 20
11.6382301503
 30
0.0
 10
10.7643591021
 20
11.6345287689
 30
0.0
 10
10.7505778544
 20
11.6315481844
 30
0.0
 10
10.737240804
 20
11.6283404415
 30
0.0
 10
10.7243799386
 20
11.6249131422
 30
0.0
 10
10.7120261184
 20
11.6212746055
 30
0.0
 10
10.7002089365
 20
11.6174336437
 30
0.0
 10
10.6889567013
 20
11.6133994034
 30
0.0
 10
10.6782962689
 20
11.6091816724
 30
0.0
 10
10.6682530572
 20
11.6047905143
 30
0.0
 10
10.65885096
 20
11.6002363389
 30
0.0
 10
10.6501122005
 20
11.5955300306
 30
0.0
 10
10.6420574363
 20
11.590682502
 30
0.0
 10
10.6347055735
 20
11.5857049778
 30
0.0
 10
10.6280737903
 20
11.5806087621
 30
0.0
 10
10.6221777518
 20
11.5754049255
 30
0.0
 10
10.6170314018
 20
11.570104639
 30
0.0
 10
10.6126475148
 20
11.5647186953
 30
0.0
 10
10.6090380558
 20
11.5592577633
 30
0.0
 10
10.6062140527
 20
11.5537332551
 30
0.0
 10
10.6041864459
 20
11.548156788
 30
0.0
 10
10.6029652762
 20
11.5425446716
 30
0.0
 10
10.6026923426
 20
11.5387762426
 30
0.0
 10
10.6026923426
 20
11.5369115342
 30
0.0
  0
LINE
  5
396
100
AcDbEntity
  8
0
100
AcDbLine
 62
9
  6
CONTINUOUS
 10
13.2800777988
 20
8.882035051
 11
13.285501563
 21
8.8941769924
  0
SPLINE
  5
397
100
AcDbEntity
  8
0
100
AcDbSpline
 62
9
  6
CONTINUOUS
 70
0
 71
3
 72
16
 73
12
 74
0
 42
0.0000001
 43
0.0000001
 44
0.0000000001
 40
0.0
 40
0.0
 40
0.0
 40
0.0
 40
0.0279620056
 40
0.0614819622
 40
0.1004663221
 40
0.1447759257
 40
0.248642695
 40
0.3712832517
 40
0.5104610801
 40
0.6635910173
 40
1.0
 40
1.0
 40
1.0
 40
1.0
 10
13.2498016358
 20
7.1331014378
 30
0.0
 10
13.24993912
 20
7.1330574431
 30
0.0
 10
13.2502370423
 20
7.1329470878
 30
0.0
 10
13.2507130027
 20
7.1327406878
 30
0.0
 10
13.2512563693
 20
7.1324788172
 30
0.0
 10
13.2521136671
 20
7.1320329528
 30
0.0
 10
13.2533295602
 20
7.1313419923
 30
0.0
 10
13.2549405318
 20
7.1303574327
 30
0.0
 10
13.2567406755
 20
7.1291959425
 30
0.0
 10
13.2594328271
 20
7.1273827121
 30
0.0
 10
13.2614925684
 20
7.125917464
 30
0.0
 10
13.2628944707
 20
7.1248924024
 30
0.0
  0
LINE
  5
398
100
AcDbEntity
  8
0
100
AcDbLine
 62
9
  6
CONTINUOUS
 10
13.2363895118
 20
7.1221601944
 11
13.2422348698
 21
7.1102078264
  0
SPLINE
  5
399
100
AcDbEntity
  8
0
100
AcDbSpline
 62
9
  6
CONTINUOUS
 70
0
 71
3
 72
21
 73
17
 74
0
 42
0.0000001
 43
0.0000001
 44
0.0000000001
 40
0.0
 40
0.0
 40
0.0
 40
0.0
 40
0.1408799683
 40
0.280786173
 40
0.3499789035
 40
0.4184277344
 40
0.4859198919
 40
0.5522222493
 40
0.6170520728
 40
0.6801050942
 40
0.7410382712
 40
0.7994827001
 40
0.8550015869
 40
0.9071699322
 40
0.9556289615
 40
1.0
 40
1.0
 40
1.0
 40
1.0
 10
12.9206418761
 20
7.0685516238
 30
0.0
 10
12.9186806235
 20
7.0691945045
 30
0.0
 10
12.9147514791
 20
7.0704150696
 30
0.0
 10
12.9098102333
 20
7.0717865694
 30
0.0
 10
12.9058697202
 20
7.0727899735
 30
0.0
 10
12.902947706
 20
7.0734927718
 30
0.0
 10
12.9000595636
 20
7.0741544343
 30
0.0
 10
12.8972176573
 20
7.0747799176
 30
0.0
 10
12.894436177
 20
7.0753771246
 30
0.0
 10
12.8917306319
 20
7.0759532497
 30
0.0
 10
12.8891186184
 20
7.0765194334
 30
0.0
 10
12.8866198183
 20
7.0770866057
 30
0.0
 10
12.884256064
 20
7.0776673568
 30
0.0
 10
12.8820500705
 20
7.0782746965
 30
0.0
 10
12.880026885
 20
7.0789245328
 30
0.0
 10
12.8787580801
 20
7.0794182918
 30
0.0
 10
12.8781635708
 20
7.0796812005
 30
0.0
  0
LINE
  5
39A
100
AcDbEntity
  8
0
100
AcDbLine
 62
9
  6
CONTINUOUS
 10
13.0601945172
 20
7.0462679667
 11
13.0602067946
 21
7.0689386746
  0
SPLINE
  5
39B
100
AcDbEntity
  8
0
100
AcDbSpline
 62
9
  6
CONTINUOUS
 70
0
 71
3
 72
11
 73
7
 74
0
 42
0.0000001
 43
0.0000001
 44
0.0000000001
 40
0.0
 40
0.0
 40
0.0
 40
0.0
 40
0.2502760475
 40
0.5003885012
 40
0.7502827822
 40
1.0
 40
1.0
 40
1.0
 40
1.0
 10
12.8781498103
 20
7.110207899
 30
0.0
 10
12.8762329562
 20
7.1111240175
 30
0.0
 10
12.8724768143
 20
7.1131204405
 30
0.0
 10
12.867122092
 20
7.1165825338
 30
0.0
 10
12.862088991
 20
7.1204902332
 30
0.0
 10
12.8589771213
 20
7.1233814549
 30
0.0
 10
12.8574902053
 20
7.1248922658
 30
0.0
  0
SPLINE
  5
39C
100
AcDbEntity
  8
0
100
AcDbSpline
 62
9
  6
CONTINUOUS
 70
0
 71
3
 72
33
 73
29
 74
0
 42
0.0000001
 43
0.0000001
 44
0.0000000001
 40
0.0
 40
0.0
 40
0.0
 40
0.0
 40
0.0001452579
 40
0.0003945551
 40
0.0012911945
 40
0.0027471009
 40
0.0047695438
 40
0.0073605114
 40
0.0105204942
 40
0.0142489337
 40
0.018543972
 40
0.0288252716
 40
0.0413468374
 40
0.0560872517
 40
0.0730173239
 40
0.0921066162
 40
0.1133206181
 40
0.1366178094
 40
0.1619558378
 40
0.2185613293
 40
0.2827135355
 40
0.3539318604
 40
0.4316846695
 40
0.5153900858
 40
0.6044226015
 40
0.6981143899
 40
0.7957612289
 40
1.0
 40
1.0
 40
1.0
 40
1.0
 10
12.797373714
 20
8.9070115371
 30
0.0
 10
12.7973723133
 20
8.9070108093
 30
0.0
 10
12.797370319
 20
8.9070063591
 30
0.0
 10
12.7973709678
 20
8.9069924842
 30
0.0
 10
12.797377664
 20
8.9069646672
 30
0.0
 10
12.7973926235
 20
8.9069196824
 30
0.0
 10
12.7974159888
 20
8.9068579247
 30
0.0
 10
12.7974478255
 20
8.9067797072
 30
0.0
 10
12.7974881537
 20
8.9066849089
 30
0.0
 10
12.7975369521
 20
8.9065736133
 30
0.0
 10
12.7976183449
 20
8.9063921164
 30
0.0
 10
12.7977415503
 20
8.9061246654
 30
0.0
 10
12.7979153845
 20
8.9057555872
 30
0.0
 10
12.79812275
 20
8.9053224521
 30
0.0
 10
12.7983632119
 20
8.904826044
 30
0.0
 10
12.7986363108
 20
8.9042672864
 30
0.0
 10
12.7989415202
 20
8.9036472161
 30
0.0
 10
12.799278287
 20
8.9029669997
 30
0.0
 10
12.7997876943
 20
8.9019431244
 30
0.0
 10
12.8004985087
 20
8.9005235962
 30
0.0
 10
12.8014371757
 20
8.8986606015
 30
0.0
 10
12.8024833707
 20
8.8965944723
 30
0.0
 10
12.8036292814
 20
8.8943406779
 30
0.0
 10
12.8048663514
 20
8.8919160737
 30
0.0
 10
12.8061853249
 20
8.8893388184
 30
0.0
 10
12.8075763157
 20
8.8866282408
 30
0.0
 10
12.8095427407
 20
8.8828058574
 30
0.0
 10
12.811047567
 20
8.8798909328
 30
0.0
 10
12.8120672794
 20
8.8779197043
 30
0.0
  0
SPLINE
  5
39D
100
AcDbEntity
  8
0
100
AcDbSpline
 62
9
  6
CONTINUOUS
 70
0
 71
3
 72
11
 73
7
 74
0
 42
0.0000001
 43
0.0000001
 44
0.0000000001
 40
0.0
 40
0.0
 40
0.0
 40
0.0
 40
0.2498222084
 40
0.4997460187
 40
0.7498283394
 40
1.0
 40
1.0
 40
1.0
 40
1.0
 10
12.8120672941
 20
8.8779196765
 30
0.0
 10
12.8136778291
 20
8.8796262308
 30
0.0
 10
12.8170734592
 20
8.8828803334
 30
0.0
 10
12.8226204504
 20
8.887237396
 30
0.0
 10
12.8285615597
 20
8.8910448409
 30
0.0
 10
12.8327458391
 20
8.8932005326
 30
0.0
 10
12.8348831244
 20
8.894177045
 30
0.0
  0
SPLINE
  5
39E
100
AcDbEntity
  8
0
100
AcDbSpline
 62
9
  6
CONTINUOUS
 70
0
 71
3
 72
33
 73
29
 74
0
 42
0.0000001
 43
0.0000001
 44
0.0000000001
 40
0.0
 40
0.0
 40
0.0
 40
0.0
 40
0.0001451846
 40
0.0003943635
 40
0.0012907744
 40
0.0027464892
 40
0.0047687813
 40
0.0073596393
 40
0.0105195539
 40
0.0142479617
 40
0.0185429911
 40
0.0288243041
 40
0.0413458857
 40
0.0560863006
 40
0.0730163661
 40
0.0921056514
 40
0.1133196493
 40
0.1366168384
 40
0.1619548657
 40
0.2185603588
 40
0.2827125759
 40
0.3539309254
 40
0.431683777
 40
0.5153892583
 40
0.6044218656
 40
0.6981137785
 40
0.7957607812
 40
1.0
 40
1.0
 40
1.0
 40
1.0
 10
13.3230109714
 20
8.9070115371
 30
0.0
 10
13.3230123714
 20
8.9070108097
 30
0.0
 10
13.3230143637
 20
8.9070063605
 30
0.0
 10
13.3230137012
 20
8.9069924903
 30
0.0
 10
13.3230069826
 20
8.9069646859
 30
0.0
 10
13.3229919905
 20
8.9069197186
 30
0.0
 10
13.3229685904
 20
8.9068579802
 30
0.0
 10
13.3229367212
 20
8.9067797806
 30
0.0
 10
13.3228963693
 20
8.9066849957
 30
0.0
 10
13.3228475601
 20
8.9065737073
 30
0.0
 10
13.3227661646
 20
8.9063922137
 30
0.0
 10
13.3226429747
 20
8.906124758
 30
0.0
 10
13.3224691593
 20
8.9057556742
 30
0.0
 10
13.3222617986
 20
8.9053225408
 30
0.0
 10
13.3220213369
 20
8.9048261378
 30
0.0
 10
13.3217482384
 20
8.9042673856
 30
0.0
 10
13.3214430341
 20
8.9036473192
 30
0.0
 10
13.321106274
 20
8.9029671063
 30
0.0
 10
13.3205968767
 20
8.9019432362
 30
0.0
 10
13.3198860732
 20
8.9005237166
 30
0.0
 10
13.3189474216
 20
8.8986607324
 30
0.0
 10
13.3179012439
 20
8.8965946141
 30
0.0
 10
13.3167553514
 20
8.8943408314
 30
0.0
 10
13.315518301
 20
8.8919162392
 30
0.0
 10
13.314199348
 20
8.8893389959
 30
0.0
 10
13.3128083785
 20
8.8866284301
 30
0.0
 10
13.3108419819
 20
8.8828060617
 30
0.0
 10
13.309337179
 20
8.879891147
 30
0.0
 10
13.3083174814
 20
8.8779199252
 30
0.0
  0
SPLINE
  5
39F
100
AcDbEntity
  8
0
100
AcDbSpline
 62
9
  6
CONTINUOUS
 70
0
 71
3
 72
10
 73
6
 74
0
 42
0.0000001
 43
0.0000001
 44
0.0000000001
 40
0.0
 40
0.0
 40
0.0
 40
0.0
 40
0.2503223611
 40
0.5005553032
 40
1.0
 40
1.0
 40
1.0
 40
1.0
 10
13.2855015618
 20
8.894176993
 30
0.0
 10
13.2876388633
 20
8.8932005414
 30
0.0
 10
13.2918235398
 20
8.8910437159
 30
0.0
 10
13.2997347244
 20
8.8859760324
 30
0.0
 10
13.305100559
 20
8.8813303879
 30
0.0
 10
13.3083174092
 20
8.8779197891
 30
0.0
  0
LINE
  5
3A0
100
AcDbEntity
  8
0
100
AcDbLine
 62
9
  6
CONTINUOUS
 10
13.0602074333
 20
8.971218414
 11
13.0601850137
 21
8.9432131755
  0
SPLINE
  5
3A1
100
AcDbEntity
  8
0
100
AcDbSpline
 62
9
  6
CONTINUOUS
 70
0
 71
3
 72
31
 73
27
 74
0
 42
0.0000001
 43
0.0000001
 44
0.0000000001
 40
0.0
 40
0.0
 40
0.0
 40
0.0
 40
0.0006232896
 40
0.0010752185
 40
0.0016466118
 40
0.0031775067
 40
0.0052495891
 40
0.007874123
 40
0.011056105
 40
0.0190978703
 40
0.0293726221
 40
0.0418684172
 40
0.0565672405
 40
0.073442347
 40
0.0924652187
 40
0.1136031013
 40
0.1620638837
 40
0.218476917
 40
0.282432901
 40
0.3534664414
 40
0.4310620062
 40
0.5146547128
 40
0.6036367193
 40
0.697358413
 40
0.7951340775
 40
1.0
 40
1.0
 40
1.0
 40
1.0
 10
12.7758308335
 20
8.8704702268
 30
0.0
 10
12.7758310071
 20
8.8704635977
 30
0.0
 10
12.7758386321
 20
8.8704530672
 30
0.0
 10
12.7758529011
 20
8.8704433379
 30
0.0
 10
12.775877298
 20
8.8704309504
 30
0.0
 10
12.7759195587
 20
8.8704170163
 30
0.0
 10
12.775984016
 20
8.8704014998
 30
0.0
 10
12.7760665034
 20
8.8703864338
 30
0.0
 10
12.7762123131
 20
8.870365151
 30
0.0
 10
12.7764398528
 20
8.8703411685
 30
0.0
 10
12.7767667003
 20
8.8703157522
 30
0.0
 10
12.7771646798
 20
8.8702923423
 30
0.0
 10
12.7776330711
 20
8.8702709878
 30
0.0
 10
12.7781710495
 20
8.8702518068
 30
0.0
 10
12.7787776372
 20
8.8702348576
 30
0.0
 10
12.779720288
 20
8.8702143812
 30
0.0
 10
12.7810608503
 20
8.8701957707
 30
0.0
 10
12.782857044
 20
8.8701835643
 30
0.0
 10
12.784893434
 20
8.8701808627
 30
0.0
 10
12.7871551793
 20
8.870187722
 30
0.0
 10
12.7896257996
 20
8.8702041457
 30
0.0
 10
12.7922873062
 20
8.8702300383
 30
0.0
 10
12.7951202897
 20
8.8702652297
 30
0.0
 10
12.7981040599
 20
8.8703094729
 30
0.0
 10
12.8023204669
 20
8.8703812524
 30
0.0
 10
12.8055397123
 20
8.8704459769
 30
0.0
 10
12.807718814
 20
8.8704936727
 30
0.0
  0
SPLINE
  5
3A2
100
AcDbEntity
  8
0
100
AcDbSpline
 62
9
  6
CONTINUOUS
 70
0
 71
3
 72
10
 73
6
 74
0
 42
0.0000001
 43
0.0000001
 44
0.0000000001
 40
0.0
 40
0.0
 40
0.0
 40
0.0
 40
0.4996084435
 40
0.7498079261
 40
1.0
 40
1.0
 40
1.0
 40
1.0
 10
12.8531584758
 20
7.1316376497
 30
0.0
 10
12.8517364688
 20
7.1355441879
 30
0.0
 10
12.8501043905
 20
7.1416053536
 30
0.0
 10
12.8489150367
 20
7.1498458445
 30
0.0
 10
12.8486433817
 20
7.1540063574
 30
0.0
 10
12.8485888742
 20
7.1560875212
 30
0.0
  0
SPLINE
  5
3A3
100
AcDbEntity
  8
0
100
AcDbSpline
 62
9
  6
CONTINUOUS
 70
0
 71
3
 72
11
 73
7
 74
0
 42
0.0000001
 43
0.0000001
 44
0.0000000001
 40
0.0
 40
0.0
 40
0.0
 40
0.0
 40
0.2503805115
 40
0.5005326129
 40
0.7503800608
 40
1.0
 40
1.0
 40
1.0
 40
1.0
 10
12.8043474206
 20
8.8456004726
 30
0.0
 10
12.8042922673
 20
8.8477050722
 30
0.0
 10
12.8043487495
 20
8.851918562
 30
0.0
 10
12.8049318566
 20
8.8582076417
 30
0.0
 10
12.80602266
 20
8.8644227173
 30
0.0
 10
12.8070957249
 20
8.8684893639
 30
0.0
 10
12.807718814
 20
8.8704936727
 30
0.0
  0
SPLINE
  5
3A4
100
AcDbEntity
  8
0
100
AcDbSpline
 62
9
  6
CONTINUOUS
 70
0
 71
3
 72
31
 73
27
 74
0
 42
0.0000001
 43
0.0000001
 44
0.0000000001
 40
0.0
 40
0.0
 40
0.0
 40
0.0
 40
0.000623802
 40
0.0010757734
 40
0.0016470798
 40
0.0031774638
 40
0.0052486421
 40
0.0078719118
 40
0.0110522878
 40
0.0190898757
 40
0.0293592488
 40
0.0418485473
 40
0.056539859
 40
0.0734065584
 40
0.0924202425
 40
0.1135483023
 40
0.1619881768
 40
0.2183798028
 40
0.2823154804
 40
0.3533316042
 40
0.4309145824
 40
0.5145016073
 40
0.6034870078
 40
0.6972234227
 40
0.7950274301
 40
1.0
 40
1.0
 40
1.0
 40
1.0
 10
12.8213643272
 20
7.1316162551
 30
0.0
 10
12.8213645005
 20
7.1316096401
 30
0.0
 10
12.8213720936
 20
7.13159913
 30
0.0
 10
12.8213863173
 20
7.131589413
 30
0.0
 10
12.8214106277
 20
7.131577047
 30
0.0
 10
12.8214527418
 20
7.1315631343
 30
0.0
 10
12.821516975
 20
7.1315476419
 30
0.0
 10
12.8215991752
 20
7.1315325979
 30
0.0
 10
12.8217444759
 20
7.1315113453
 30
0.0
 10
12.8219712234
 20
7.1314873931
 30
0.0
 10
12.8222969355
 20
7.1314620043
 30
0.0
 10
12.8226935359
 20
7.1314386141
 30
0.0
 10
12.8231603095
 20
7.1314172714
 30
0.0
 10
12.8236964377
 20
7.1313980941
 30
0.0
 10
12.8243009493
 20
7.13138114
 30
0.0
 10
12.8252404031
 20
7.1313606446
 30
0.0
 10
12.826576469
 20
7.131341987
 30
0.0
 10
12.8283667161
 20
7.1313296923
 30
0.0
 10
12.8303964908
 20
7.1313268681
 30
0.0
 10
12.8326510522
 20
7.1313335714
 30
0.0
 10
12.8351140303
 20
7.1313498067
 30
0.0
 10
12.8377675545
 20
7.1313754804
 30
0.0
 10
12.8405923416
 20
7.1314104246
 30
0.0
 10
12.8435678332
 20
7.131454395
 30
0.0
 10
12.8477734337
 20
7.13152578
 30
0.0
 10
12.850984648
 20
7.131590182
 30
0.0
 10
12.8531584758
 20
7.1316376497
 30
0.0
  0
SPLINE
  5
3A5
100
AcDbEntity
  8
0
100
AcDbSpline
 62
9
  6
CONTINUOUS
 70
0
 71
3
 72
32
 73
28
 74
0
 42
0.0000001
 43
0.0000001
 44
0.0000000001
 40
0.0
 40
0.0
 40
0.0
 40
0.0
 40
0.0003951998
 40
0.0012942008
 40
0.0027455724
 40
0.004757652
 40
0.0073328474
 40
0.010471871
 40
0.0141744205
 40
0.0184390363
 40
0.0286471114
 40
0.0410805112
 40
0.0557193649
 40
0.0725359809
 40
0.0915014491
 40
0.1125830736
 40
0.1357415258
 40
0.160936668
 40
0.2172539327
 40
0.2811328567
 40
0.352116869
 40
0.4297004113
 40
0.5133295061
 40
0.6024078753
 40
0.696297978
 40
0.7943264456
 40
1.0
 40
1.0
 40
1.0
 40
1.0
 10
12.8419514278
 20
7.0976823191
 30
0.0
 10
12.8419550386
 20
7.0976803167
 30
0.0
 10
12.8419694058
 20
7.0976896525
 30
0.0
 10
12.8419873557
 20
7.0977084912
 30
0.0
 10
12.8420175465
 20
7.097744569
 30
0.0
 10
12.8420547812
 20
7.0977947476
 30
0.0
 10
12.8421014117
 20
7.0978609354
 30
0.0
 10
12.8421563342
 20
7.0979424625
 30
0.0
 10
12.8422198539
 20
7.0980396011
 30
0.0
 10
12.8423221081
 20
7.0981995914
 30
0.0
 10
12.842470655
 20
7.0984382551
 30
0.0
 10
12.8426734691
 20
7.0987707683
 30
0.0
 10
12.8429098037
 20
7.0991637028
 30
0.0
 10
12.8431791593
 20
7.099616403
 30
0.0
 10
12.8434809931
 20
7.1001280985
 30
0.0
 10
12.8438147247
 20
7.1006978984
 30
0.0
 10
12.8441797783
 20
7.1013247764
 30
0.0
 10
12.8447280996
 20
7.1022709216
 30
0.0
 10
12.8454861501
 20
7.1035872231
 30
0.0
 10
12.8464783202
 20
7.105320723
 30
0.0
 10
12.8475767367
 20
7.1072494034
 30
0.0
 10
12.8487735502
 20
7.1093594967
 30
0.0
 10
12.8500602063
 20
7.1116359597
 30
0.0
 10
12.8514275057
 20
7.1140625312
 30
0.0
 10
12.8528656607
 20
7.1166218507
 30
0.0
 10
12.8548966913
 20
7.120245287
 30
0.0
 10
12.8564439618
 20
7.1230153786
 30
0.0
 10
12.8574901924
 20
7.1248922432
 30
0.0
  0
SPLINE
  5
3A6
100
AcDbEntity
  8
0
100
AcDbSpline
 62
9
  6
CONTINUOUS
 70
0
 71
3
 72
17
 73
13
 74
0
 42
0.0000001
 43
0.0000001
 44
0.0000000001
 40
0.0
 40
0.0
 40
0.0
 40
0.0
 40
0.0245671172
 40
0.0557576638
 40
0.0933538334
 40
0.1371089234
 40
0.2418701165
 40
0.3672061522
 40
0.5097213883
 40
0.6655523397
 40
0.8304644322
 40
1.0
 40
1.0
 40
1.0
 40
1.0
 10
12.8618940029
 20
7.1561437151
 30
0.0
 10
12.862186987
 20
7.1561277354
 30
0.0
 10
12.8628524627
 20
7.1561011824
 30
0.0
 10
12.8639671003
 20
7.1560730119
 30
0.0
 10
12.8653111181
 20
7.1560525709
 30
0.0
 10
12.8675339109
 20
7.1560349151
 30
0.0
 10
12.8708047426
 20
7.1560369614
 30
0.0
 10
12.8752549642
 20
7.1560707792
 30
0.0
 10
12.8803148485
 20
7.1561362293
 30
0.0
 10
12.8858470061
 20
7.1562316615
 30
0.0
 10
12.8917014122
 20
7.1563546855
 30
0.0
 10
12.89569473
 20
7.1564524604
 30
0.0
 10
12.8977188999
 20
7.1565054424
 30
0.0
  0
LINE
  5
3A7
100
AcDbEntity
  8
0
100
AcDbLine
 62
9
  6
CONTINUOUS
 10
12.8839950793
 20
7.1221602259
 11
12.8994248356
 21
7.1538769348
  0
SPLINE
  5
3A8
100
AcDbEntity
  8
0
100
AcDbSpline
 62
9
  6
CONTINUOUS
 70
0
 71
3
 72
11
 73
7
 74
0
 42
0.0000001
 43
0.0000001
 44
0.0000000001
 40
0.0
 40
0.0
 40
0.0
 40
0.0
 40
0.2504987679
 40
0.5006930049
 40
0.7504929773
 40
1.0
 40
1.0
 40
1.0
 40
1.0
 10
12.8839950793
 20
7.1221602259
 30
0.0
 10
12.8826792281
 20
7.1227885548
 30
0.0
 10
12.8801230268
 20
7.124205946
 30
0.0
 10
12.8765737129
 20
7.1267701161
 30
0.0
 10
12.8733592035
 20
7.1297346753
 30
0.0
 10
12.8714628717
 20
7.1319473597
 30
0.0
 10
12.8705821643
 20
7.1331022682
 30
0.0
  0
SPLINE
  5
3A9
100
AcDbEntity
  8
0
100
AcDbSpline
 62
9
  6
CONTINUOUS
 70
0
 71
3
 72
11
 73
7
 74
0
 42
0.0000001
 43
0.0000001
 44
0.0000000001
 40
0.0
 40
0.0
 40
0.0
 40
0.0
 40
0.2496717267
 40
0.4995606958
 40
0.7497217077
 40
1.0
 40
1.0
 40
1.0
 40
1.0
 10
12.8662456066
 20
7.1398562
 30
0.0
 10
12.8655792092
 20
7.1411044394
 30
0.0
 10
12.8643829325
 20
7.1436781851
 30
0.0
 10
12.8630391765
 20
7.1477187989
 30
0.0
 10
12.8621758613
 20
7.1518922657
 30
0.0
 10
12.861931091
 20
7.1547257759
 30
0.0
 10
12.8618940018
 20
7.1561437151
 30
0.0
  0
LINE
  5
3AA
100
AcDbEntity
  8
0
100
AcDbLine
 62
9
  6
CONTINUOUS
 10
13.2363896017
 20
7.1221602374
 11
13.2209598499
 21
7.1538769348
  0
SPLINE
  5
3AB
100
AcDbEntity
  8
0
100
AcDbSpline
 62
9
  6
CONTINUOUS
 70
0
 71
3
 72
11
 73
7
 74
0
 42
0.0000001
 43
0.0000001
 44
0.0000000001
 40
0.0
 40
0.0
 40
0.0
 40
0.0
 40
0.2495070514
 40
0.4993059801
 40
0.7494994191
 40
1.0
 40
1.0
 40
1.0
 40
1.0
 10
13.249801635
 20
7.1331014367
 30
0.0
 10
13.2489210948
 20
7.1319465196
 30
0.0
 10
13.2470247646
 20
7.1297340847
 30
0.0
 10
13.2438107385
 20
7.1267694661
 30
0.0
 10
13.2402616273
 20
7.1242054317
 30
0.0
 10
13.2377053635
 20
7.1227885578
 30
0.0
 10
13.2363896018
 20
7.1221602372
 30
0.0
  0
SPLINE
  5
3AC
100
AcDbEntity
  8
0
100
AcDbSpline
 62
9
  6
CONTINUOUS
 70
0
 71
3
 72
17
 73
13
 74
0
 42
0.0000001
 43
0.0000001
 44
0.0000000001
 40
0.0
 40
0.0
 40
0.0
 40
0.0
 40
0.0245671165
 40
0.0557576627
 40
0.0933538321
 40
0.137108922
 40
0.2418701151
 40
0.367206151
 40
0.5097213873
 40
0.6655523391
 40
0.8304644319
 40
1.0
 40
1.0
 40
1.0
 40
1.0
 10
13.2584906826
 20
7.1561437165
 30
0.0
 10
13.2581976985
 20
7.156127737
 30
0.0
 10
13.2575322228
 20
7.1561011843
 30
0.0
 10
13.2564175852
 20
7.1560730141
 30
0.0
 10
13.2550735674
 20
7.1560525733
 30
0.0
 10
13.2528507747
 20
7.1560349178
 30
0.0
 10
13.2495799429
 20
7.1560369642
 30
0.0
 10
13.2451297213
 20
7.1560707819
 30
0.0
 10
13.240069837
 20
7.1561362317
 30
0.0
 10
13.2345376794
 20
7.1562316634
 30
0.0
 10
13.2286832733
 20
7.1563546864
 30
0.0
 10
13.2246899555
 20
7.1564524607
 30
0.0
 10
13.2226657856
 20
7.1565054424
 30
0.0
  0
SPLINE
  5
3AD
100
AcDbEntity
  8
0
100
AcDbSpline
 62
9
  6
CONTINUOUS
 70
0
 71
3
 72
11
 73
7
 74
0
 42
0.0000001
 43
0.0000001
 44
0.0000000001
 40
0.0
 40
0.0
 40
0.0
 40
0.0
 40
0.250280544
 40
0.5004412608
 40
0.7503273443
 40
1.0
 40
1.0
 40
1.0
 40
1.0
 10
13.2584906832
 20
7.1561437165
 30
0.0
 10
13.2584536023
 20
7.1547256549
 30
0.0
 10
13.2582084498
 20
7.1518919353
 30
0.0
 10
13.2573450069
 20
7.1477182017
 30
0.0
 10
13.2560015216
 20
7.1436771454
 30
0.0
 10
13.2548049211
 20
7.1411033238
 30
0.0
 10
13.2541385712
 20
7.1398549294
 30
0.0
  0
SPLINE
  5
3AE
100
AcDbEntity
  8
0
100
AcDbSpline
 62
9
  6
CONTINUOUS
 70
0
 71
3
 72
17
 73
13
 74
0
 42
0.0000001
 43
0.0000001
 44
0.0000000001
 40
0.0
 40
0.0
 40
0.0
 40
0.0
 40
0.0245671172
 40
0.0557576638
 40
0.0933538334
 40
0.1371089234
 40
0.2418701165
 40
0.3672061522
 40
0.5097213882
 40
0.6655523397
 40
0.8304644322
 40
1.0
 40
1.0
 40
1.0
 40
1.0
 10
13.3027321498
 20
8.8456571858
 30
0.0
 10
13.3024391657
 20
8.8456412061
 30
0.0
 10
13.30177369
 20
8.8456146531
 30
0.0
 10
13.3006590524
 20
8.8455864826
 30
0.0
 10
13.2993150346
 20
8.8455660416
 30
0.0
 10
13.2970922418
 20
8.8455483859
 30
0.0
 10
13.2938214101
 20
8.8455504321
 30
0.0
 10
13.2893711885
 20
8.8455842499
 30
0.0
 10
13.2843113042
 20
8.8456497
 30
0.0
 10
13.2787791466
 20
8.8457451322
 30
0.0
 10
13.2729247405
 20
8.8458681562
 30
0.0
 10
13.2689314227
 20
8.8459659311
 30
0.0
 10
13.2669072528
 20
8.8460189131
 30
0.0
  0
SPLINE
  5
3AF
100
AcDbEntity
  8
0
100
AcDbSpline
 62
9
  6
CONTINUOUS
 70
0
 71
3
 72
12
 73
8
 74
0
 42
0.0000001
 43
0.0000001
 44
0.0000000001
 40
0.0
 40
0.0
 40
0.0
 40
0.0
 40
0.250327271
 40
0.5004363616
 40
0.6254255014
 40
0.7503676474
 40
1.0
 40
1.0
 40
1.0
 40
1.0
 10
13.2800776152
 20
8.8820351361
 30
0.0
 10
13.2815495855
 20
8.8813622107
 30
0.0
 10
13.2844032949
 20
8.8798131401
 30
0.0
 10
13.2876775195
 20
8.8774191223
 30
0.0
 10
13.2900850704
 20
8.8752580345
 30
0.0
 10
13.2923432429
 20
8.8729463272
 30
0.0
 10
13.2938650305
 20
8.8710512799
 30
0.0
 10
13.2947949866
 20
8.8697321199
 30
0.0
  0
SPLINE
  5
3B0
100
AcDbEntity
  8
0
100
AcDbSpline
 62
9
  6
CONTINUOUS
 70
0
 71
3
 72
11
 73
7
 74
0
 42
0.0000001
 43
0.0000001
 44
0.0000000001
 40
0.0
 40
0.0
 40
0.0
 40
0.0
 40
0.2494032059
 40
0.4991056772
 40
0.7493211913
 40
1.0
 40
1.0
 40
1.0
 40
1.0
 10
13.2991487686
 20
8.8622966946
 30
0.0
 10
13.2997633958
 20
8.8610083433
 30
0.0
 10
13.3008499033
 20
8.8583585861
 30
0.0
 10
13.3020094435
 20
8.8542195735
 30
0.0
 10
13.3026703395
 20
8.8499647629
 30
0.0
 10
13.3027697711
 20
8.8470914441
 30
0.0
 10
13.302732151
 20
8.8456571858
 30
0.0
  0
LINE
  5
3B1
100
AcDbEntity
  8
0
100
AcDbLine
 62
9
  6
CONTINUOUS
 10
13.2800776152
 20
8.8820351361
 11
13.2651555213
 21
8.8488258851
  0
LINE
  5
3B2
100
AcDbEntity
  8
0
100
AcDbLine
 62
9
  6
CONTINUOUS
 10
12.8403070734
 20
8.8820351241
 11
12.8552291642
 21
8.8488258851
  0
SPLINE
  5
3B3
100
AcDbEntity
  8
0
100
AcDbSpline
 62
9
  6
CONTINUOUS
 70
0
 71
3
 72
11
 73
7
 74
0
 42
0.0000001
 43
0.0000001
 44
0.0000000001
 40
0.0
 40
0.0
 40
0.0
 40
0.0
 40
0.2496662992
 40
0.4994972359
 40
0.7496394249
 40
1.0
 40
1.0
 40
1.0
 40
1.0
 10
12.825590338
 20
8.8697324937
 30
0.0
 10
12.8265202454
 20
8.8710516274
 30
0.0
 10
12.8285480934
 20
8.8735775021
 30
0.0
 10
12.8320544949
 20
8.8769422328
 30
0.0
 10
12.8359811195
 20
8.8798135463
 30
0.0
 10
12.8388351483
 20
8.881362231
 30
0.0
 10
12.8403070731
 20
8.8820351249
 30
0.0
  0
SPLINE
  5
3B4
100
AcDbEntity
  8
0
100
AcDbSpline
 62
9
  6
CONTINUOUS
 70
0
 71
3
 72
17
 73
13
 74
0
 42
0.0000001
 43
0.0000001
 44
0.0000000001
 40
0.0
 40
0.0
 40
0.0
 40
0.0
 40
0.0245671179
 40
0.0557576649
 40
0.0933538349
 40
0.137108925
 40
0.2418701181
 40
0.3672061535
 40
0.5097213893
 40
0.6655523403
 40
0.8304644324
 40
1.0
 40
1.0
 40
1.0
 40
1.0
 10
12.8176525357
 20
8.8456571841
 30
0.0
 10
12.8179455198
 20
8.8456412043
 30
0.0
 10
12.8186109955
 20
8.8456146511
 30
0.0
 10
12.8197256332
 20
8.8455864802
 30
0.0
 10
12.821069651
 20
8.845566039
 30
0.0
 10
12.8232924437
 20
8.8455483829
 30
0.0
 10
12.8265632755
 20
8.845550429
 30
0.0
 10
12.831013497
 20
8.845584247
 30
0.0
 10
12.8360733813
 20
8.8456496974
 30
0.0
 10
12.8416055389
 20
8.8457451301
 30
0.0
 10
12.847459945
 20
8.8458681552
 30
0.0
 10
12.8514532627
 20
8.8459659308
 30
0.0
 10
12.8534774326
 20
8.8460189131
 30
0.0
  0
SPLINE
  5
3B5
100
AcDbEntity
  8
0
100
AcDbSpline
 62
9
  6
CONTINUOUS
 70
0
 71
3
 72
11
 73
7
 74
0
 42
0.0000001
 43
0.0000001
 44
0.0000000001
 40
0.0
 40
0.0
 40
0.0
 40
0.0
 40
0.2506795401
 40
0.5008952006
 40
0.7505964137
 40
1.0
 40
1.0
 40
1.0
 40
1.0
 10
12.8176525343
 20
8.8456571842
 30
0.0
 10
12.8176148779
 20
8.8470915296
 30
0.0
 10
12.8177146834
 20
8.8499650298
 30
0.0
 10
12.8183758784
 20
8.8542199955
 30
0.0
 10
12.8195348398
 20
8.8583594507
 30
0.0
 10
12.8206218137
 20
8.8610091922
 30
0.0
 10
12.8212363292
 20
8.8622976915
 30
0.0
  0
SPLINE
  5
3B6
100
AcDbEntity
  8
0
100
AcDbSpline
 62
9
  6
CONTINUOUS
 70
0
 71
3
 72
21
 73
17
 74
0
 42
0.0000001
 43
0.0000001
 44
0.0000000001
 40
0.0
 40
0.0
 40
0.0
 40
0.0
 40
0.04437947
 40
0.0928425286
 40
0.1450060165
 40
0.200519504
 40
0.2589622939
 40
0.3198984285
 40
0.3829534085
 40
0.4477801337
 40
0.5140792464
 40
0.5815727561
 40
0.6500242221
 40
0.7192157914
 40
0.8591162881
 40
1.0
 40
1.0
 40
1.0
 40
1.0
 10
13.2422211274
 20
7.0796808212
 30
0.0
 10
13.2416265064
 20
7.0794178685
 30
0.0
 10
13.240357558
 20
7.0789240005
 30
0.0
 10
13.238334303
 20
7.0782740485
 30
0.0
 10
13.2361283971
 20
7.0776667765
 30
0.0
 10
13.2337647955
 20
7.0770861906
 30
0.0
 10
13.2312660576
 20
7.0765190817
 30
0.0
 10
13.2286540494
 20
7.0759527172
 30
0.0
 10
13.2259485059
 20
7.0753765287
 30
0.0
 10
13.2231670375
 20
7.0747796487
 30
0.0
 10
13.2203251689
 20
7.0741544042
 30
0.0
 10
13.2174370924
 20
7.0734924726
 30
0.0
 10
13.2145151101
 20
7.0727894435
 30
0.0
 10
13.2105744843
 20
7.071786851
 30
0.0
 10
13.2056329727
 20
7.070416482
 30
0.0
 10
13.2017043485
 20
7.0691944149
 30
0.0
 10
13.1997430283
 20
7.0685516006
 30
0.0
  0
SPLINE
  5
3B7
100
AcDbEntity
  8
0
100
AcDbSpline
 62
9
  6
CONTINUOUS
 70
0
 71
3
 72
32
 73
28
 74
0
 42
0.0000001
 43
0.0000001
 44
0.0000000001
 40
0.0
 40
0.0
 40
0.0
 40
0.0
 40
0.0003948207
 40
0.0012933849
 40
0.0027443842
 40
0.0047561713
 40
0.0073311589
 40
0.0104700605
 40
0.0141725626
 40
0.0184371769
 40
0.0286453128
 40
0.0410787843
 40
0.0557176881
 40
0.072534346
 40
0.0914998605
 40
0.1125815405
 40
0.1357400549
 40
0.160935263
 40
0.2172526678
 40
0.2811317429
 40
0.3521159141
 40
0.4296996187
 40
0.5133288747
 40
0.6024074
 40
0.6962976485
 40
0.7943262465
 40
1.0
 40
1.0
 40
1.0
 40
1.0
 10
13.2784332577
 20
7.0976823192
 30
0.0
 10
13.2784296504
 20
7.0976803187
 30
0.0
 10
13.2784152964
 20
7.097689669
 30
0.0
 10
13.2783973923
 20
7.0977085284
 30
0.0
 10
13.2783672519
 20
7.0977446364
 30
0.0
 10
13.278330077
 20
7.0977948465
 30
0.0
 10
13.2782834997
 20
7.0978610644
 30
0.0
 10
13.2782286168
 20
7.0979426133
 30
0.0
 10
13.2781651158
 20
7.0980397624
 30
0.0
 10
13.2780628666
 20
7.0981997566
 30
0.0
 10
13.2779142956
 20
7.0984384079
 30
0.0
 10
13.2777114522
 20
7.0987709069
 30
0.0
 10
13.2774751107
 20
7.0991638408
 30
0.0
 10
13.2772057564
 20
7.0996165454
 30
0.0
 10
13.2769039236
 20
7.1001282453
 30
0.0
 10
13.2765701862
 20
7.1006980461
 30
0.0
 10
13.2762051239
 20
7.1013249237
 30
0.0
 10
13.2756567901
 20
7.1022710688
 30
0.0
 10
13.2748987269
 20
7.1035873725
 30
0.0
 10
13.2739065386
 20
7.1053208744
 30
0.0
 10
13.2728081016
 20
7.1072495565
 30
0.0
 10
13.2716112664
 20
7.1093596516
 30
0.0
 10
13.2703245871
 20
7.1116361164
 30
0.0
 10
13.2689572631
 20
7.1140626892
 30
0.0
 10
13.2675190827
 20
7.1166220097
 30
0.0
 10
13.2654880169
 20
7.1202454463
 30
0.0
 10
13.2639407195
 20
7.1230155377
 30
0.0
 10
13.2628944709
 20
7.1248924021
 30
0.0
  0
SPLINE
  5
3B8
100
AcDbEntity
  8
0
100
AcDbSpline
 62
9
  6
CONTINUOUS
 70
0
 71
3
 72
11
 73
7
 74
0
 42
0.0000001
 43
0.0000001
 44
0.0000000001
 40
0.0
 40
0.0
 40
0.0
 40
0.0
 40
0.2497174742
 40
0.499611557
 40
0.7497241889
 40
1.0
 40
1.0
 40
1.0
 40
1.0
 10
13.2628944707
 20
7.1248924024
 30
0.0
 10
13.2614076674
 20
7.1233814559
 30
0.0
 10
13.2582954515
 20
7.1204905888
 30
0.0
 10
13.2532632103
 20
7.1165816955
 30
0.0
 10
13.2479078324
 20
7.1131204656
 30
0.0
 10
13.2441517444
 20
7.1111239349
 30
0.0
 10
13.2422348705
 20
7.1102078267
 30
0.0
  0
SPLINE
  5
3B9
100
AcDbEntity
  8
0
100
AcDbSpline
 62
9
  6
CONTINUOUS
 70
0
 71
3
 72
31
 73
27
 74
0
 42
0.0000001
 43
0.0000001
 44
0.0000000001
 40
0.0
 40
0.0
 40
0.0
 40
0.0
 40
0.0006238024
 40
0.001075774
 40
0.0016470803
 40
0.0031774637
 40
0.0052486412
 40
0.0078719098
 40
0.0110522844
 40
0.0190898684
 40
0.0293592367
 40
0.0418485292
 40
0.056539834
 40
0.0734065258
 40
0.0924202015
 40
0.1135482524
 40
0.1619881079
 40
0.2183797144
 40
0.2823153735
 40
0.3533314815
 40
0.4309144481
 40
0.5145014679
 40
0.6034868715
 40
0.6972232998
 40
0.795027333
 40
1.0
 40
1.0
 40
1.0
 40
1.0
 10
13.2990203582
 20
7.1316162551
 30
0.0
 10
13.299020185
 20
7.1316096401
 30
0.0
 10
13.2990125919
 20
7.13159913
 30
0.0
 10
13.2989983682
 20
7.131589413
 30
0.0
 10
13.2989740579
 20
7.1315770471
 30
0.0
 10
13.298931944
 20
7.1315631343
 30
0.0
 10
13.298867711
 20
7.131547642
 30
0.0
 10
13.2987855111
 20
7.131532598
 30
0.0
 10
13.2986402108
 20
7.1315113455
 30
0.0
 10
13.298413464
 20
7.1314873933
 30
0.0
 10
13.298087753
 20
7.1314620045
 30
0.0
 10
13.2976911538
 20
7.1314386143
 30
0.0
 10
13.2972243817
 20
7.1314172717
 30
0.0
 10
13.2966882552
 20
7.1313980943
 30
0.0
 10
13.2960837455
 20
7.1313811402
 30
0.0
 10
13.2951442946
 20
7.1313606448
 30
0.0
 10
13.2938082328
 20
7.1313419872
 30
0.0
 10
13.2920179911
 20
7.1313296924
 30
0.0
 10
13.2899882224
 20
7.1313268681
 30
0.0
 10
13.2877336675
 20
7.1313335712
 30
0.0
 10
13.2852706964
 20
7.1313498064
 30
0.0
 10
13.2826171795
 20
7.1313754799
 30
0.0
 10
13.2797923999
 20
7.1314104239
 30
0.0
 10
13.2768169158
 20
7.131454394
 30
0.0
 10
13.2726113252
 20
7.1315257786
 30
0.0
 10
13.2694001181
 20
7.1315901803
 30
0.0
 10
13.2672262952
 20
7.1316376479
 30
0.0
  0
SPLINE
  5
3BA
100
AcDbEntity
  8
0
100
AcDbSpline
 62
9
  6
CONTINUOUS
 70
0
 71
3
 72
10
 73
6
 74
0
 42
0.0000001
 43
0.0000001
 44
0.0000000001
 40
0.0
 40
0.0
 40
0.0
 40
0.0
 40
0.4992492344
 40
0.7495085321
 40
1.0
 40
1.0
 40
1.0
 40
1.0
 10
13.3126658515
 20
8.8704936732
 30
0.0
 10
13.3139128318
 20
8.8664871724
 30
0.0
 10
13.3152593668
 20
8.8602929211
 30
0.0
 10
13.3160363081
 20
8.8519191993
 30
0.0
 10
13.3160923725
 20
8.8477051131
 30
0.0
 10
13.316037266
 20
8.8456005135
 30
0.0
  0
SPLINE
  5
3BB
100
AcDbEntity
  8
0
100
AcDbSpline
 62
9
  6
CONTINUOUS
 70
0
 71
3
 72
11
 73
7
 74
0
 42
0.0000001
 43
0.0000001
 44
0.0000000001
 40
0.0
 40
0.0
 40
0.0
 40
0.0
 40
0.2500845186
 40
0.5001785438
 40
0.7501571836
 40
1.0
 40
1.0
 40
1.0
 40
1.0
 10
13.2717958125
 20
7.1560875677
 30
0.0
 10
13.2717413568
 20
7.1540064055
 30
0.0
 10
13.271469369
 20
7.1498464932
 30
0.0
 10
13.2705764823
 20
7.1436595297
 30
0.0
 10
13.2691928406
 20
7.1375652383
 30
0.0
 10
13.2679376067
 20
7.133592095
 30
0.0
 10
13.2672262952
 20
7.1316376479
 30
0.0
  0
SPLINE
  5
3BC
100
AcDbEntity
  8
0
100
AcDbSpline
 62
9
  6
CONTINUOUS
 70
0
 71
3
 72
31
 73
27
 74
0
 42
0.0000001
 43
0.0000001
 44
0.0000000001
 40
0.0
 40
0.0
 40
0.0
 40
0.0
 40
0.0006232895
 40
0.0010752184
 40
0.0016466117
 40
0.0031775067
 40
0.0052495893
 40
0.0078741235
 40
0.0110561058
 40
0.019097872
 40
0.029372625
 40
0.0418684214
 40
0.0565672463
 40
0.0734423546
 40
0.0924652282
 40
0.1136031129
 40
0.1620638997
 40
0.2184769376
 40
0.2824329259
 40
0.35346647
 40
0.4310620375
 40
0.5146547452
 40
0.603636751
 40
0.6973584417
 40
0.7951341001
 40
1.0
 40
1.0
 40
1.0
 40
1.0
 10
13.344553852
 20
8.8704702268
 30
0.0
 10
13.3445536784
 20
8.8704635977
 30
0.0
 10
13.3445460533
 20
8.8704530672
 30
0.0
 10
13.3445317844
 20
8.8704433379
 30
0.0
 10
13.3445073874
 20
8.8704309504
 30
0.0
 10
13.3444651267
 20
8.8704170163
 30
0.0
 10
13.3444006693
 20
8.8704014998
 30
0.0
 10
13.344318182
 20
8.8703864337
 30
0.0
 10
13.3441723721
 20
8.870365151
 30
0.0
 10
13.3439448323
 20
8.8703411685
 30
0.0
 10
13.3436179844
 20
8.8703157522
 30
0.0
 10
13.3432200047
 20
8.8702923423
 30
0.0
 10
13.3427516131
 20
8.8702709878
 30
0.0
 10
13.3422136343
 20
8.8702518068
 30
0.0
 10
13.3416070461
 20
8.8702348575
 30
0.0
 10
13.3406643946
 20
8.8702143811
 30
0.0
 10
13.3393238314
 20
8.8701957707
 30
0.0
 10
13.3375276364
 20
8.8701835643
 30
0.0
 10
13.335491245
 20
8.8701808627
 30
0.0
 10
13.3332294982
 20
8.870187722
 30
0.0
 10
13.3307588763
 20
8.8702041458
 30
0.0
 10
13.328097368
 20
8.8702300384
 30
0.0
 10
13.3252643827
 20
8.8702652299
 30
0.0
 10
13.3222806108
 20
8.8703094731
 30
0.0
 10
13.3180642015
 20
8.8703812527
 30
0.0
 10
13.3148449544
 20
8.8704459773
 30
0.0
 10
13.3126658515
 20
8.8704936732
 30
0.0
  0
ENDSEC
  0
SECTION
  2
OBJECTS
  0
DICTIONARY
  5
C
100
AcDbDictionary
280
0
281
1
  3
ACAD_GROUP
350
D
  3
ACAD_MLINESTYLE
350
17
  3
ACAD_LAYOUT
350
1A
  3
ACAD_PLOTSETTINGS
350
19
  3
ACAD_PLOTSTYLENAME
350
E
  0
DICTIONARY
  5
D
102
{ACAD_REACTORS
330
C
102
}
100
AcDbDictionary
280
0
281
1
  0
ACDBDICTIONARYWDFLT
  5
E
102
{ACAD_REACTORS
330
C
102
}
100
AcDbDictionary
281
1
  3
Normal
350
F
100
AcDbDictionaryWithDefault
340
F
  0
DICTIONARY
  5
17
102
{ACAD_REACTORS
330
C
102
}
100
AcDbDictionary
280
0
281
1
  3
Standard
350
18
  0
DICTIONARY
  5
19
102
{ACAD_REACTORS
330
C
102
}
100
AcDbDictionary
281
1
  0
DICTIONARY
  5
1A
102
{ACAD_REACTORS
330
C
102
}
100
AcDbDictionary
281
1
  3
Model
350
3BD
  3
Layout1
350
3BE
  0
ACDBPLACEHOLDER
  5
F
102
{ACAD_REACTORS
330
E
102
}
  0
MLINESTYLE
  5
18
102
{ACAD_REACTORS
330
17
102
}
100
AcDbMlineStyle
  2
STANDARD
 70
0
  3

 62
256
 51
90.0
 52
90.0
 71
2
 49
0.5
 62
256
  6
BYLAYER
 49
-0.5
 62
256
  6
BYLAYER
  0
LAYOUT
  5
3BD
102
{ACAD_REACTORS
330
1A
102
}
100
AcDbPlotSettings
  1

  2
none_device
  4
ANSI_C_(22.00_x_17.00_Inches)
  6

 40
0.0
 41
0.0
 42
0.0
 43
0.0
 44
558.8
 45
431.8
 46
0.0
 47
0.0
 48
0.0
 49
0.0
140
0.0
141
0.0
142
1.0
143
1.0
 70
1024
 72
0
 73
0
 74
0
  7

 75
0
147
1.0
148
0.0
149
0.0
100
AcDbLayout
  1
Model
 70
0
 71
0
 10
0.0
 20
0.0
 11
22.0
 21
17.0
 12
0.0
 22
0.0
 32
0.0
 14
0.0
 24
0.0
 34
0.0
 15
0.0
 25
0.0
 35
0.0
146
0.0
 13
0.0
 23
0.0
 33
0.0
 16
1.0
 26
0.0
 36
0.0
 17
0.0
 27
1.0
 37
0.0
 76
0
330
205
345
0
346
0
  0
LAYOUT
  5
3BE
102
{ACAD_REACTORS
330
1A
102
}
100
AcDbPlotSettings
  1

  2
none_device
  4
ANSI_C_(22.00_x_17.00_Inches)
  6

 40
0.0
 41
0.0
 42
0.0
 43
0.0
 44
558.8
 45
431.8
 46
0.0
 47
0.0
 48
0.0
 49
0.0
140
0.0
141
0.0
142
1.0
143
1.0
 70
0
 72
0
 73
0
 74
0
  7

 75
0
147
1.0
148
0.0
149
0.0
100
AcDbLayout
  1
Layout1
 70
0
 71
1
 10
0.0
 20
0.0
 11
22.0
 21
17.0
 12
0.0
 22
0.0
 32
0.0
 14
0.0
 24
0.0
 34
0.0
 15
0.0
 25
0.0
 35
0.0
146
0.0
 13
0.0
 23
0.0
 33
0.0
 16
1.0
 26
0.0
 36
0.0
 17
0.0
 27
1.0
 37
0.0
 76
0
330
206
345
0
346
0
  0
ENDSEC
  0
EOF
