999
DXF file: E:\BT Custom\CADOUTPUT\_RIGHT.dxf
999
Pro/ENGINEER 2018400 by Parametric Technology Corporation
  0
SECTION
  2
HEADER
  9
$ACADVER
  1
AC1018
  9
$DWGCODEPAGE
  3
ANSI_1252
  9
$EXTMAX
 10
22.0
 20
17.0
 30
0.0
  9
$EXTMIN
 10
0.0
 20
0.0
 30
0.0
  9
$LIMMIN
 10
0.0
 20
0.0
  9
$LIMMAX
 10
22.0
 20
17.0
  9
$VIEWCTR
 10
11.0
 20
8.5
  9
$VIEWSIZE
 40
17.0
  9
$CLAYER
  8
0
  9
$LTSCALE
 40
1.21
  9
$CELTYPE
  6
BYLAYER
  9
$DIMSCALE
 40
1.0
  9
$DIMASZ
 40
0.1
  9
$DIMEXO
 40
0.0625
  9
$DIMDLI
 40
0.836
  9
$DIMEXE
 40
0.125
  9
$DIMCEN
 40
0.198
  9
$DIMLFAC
 40
1.0
  9
$DIMBLK
  1
_FILLED
  9
$DIMALT
 70
1
  9
$DIMALTD
 70
2
  9
$DIMALTTD
 70
2
  9
$DIMALTF
 40
25.4
  9
$DIMTXT
 40
0.08
  9
$DIMTOL
 70
1
  9
$DIMLIM
 70
0
  9
$DIMTFAC
 40
1.0
  9
$DIMTP
 40
0.001
  9
$DIMTM
 40
0.001
  9
$DIMGAP
 40
0.09
  9
$DIMDSEP
 70
46
  9
$AUNITS
 70
0
  9
$PDMODE
 70
3
  9
$PDSIZE
 40
0.06
  9
$HANDSEED
  5
305
  9
$TILEMODE
 70
1
  9
$MEASUREMENT
 70
0
  9
$INSUNITS
 70
1
  0
ENDSEC
  0
SECTION
  2
CLASSES
  0
CLASS
  1
ACDBDICTIONARYWDFLT
  2
AcDbDictionaryWithDefault
  3
AutoCAD 2000
 90
0
 91
1
280
0
281
0
  0
CLASS
  1
ACDBPLACEHOLDER
  2
AcDbPlaceHolder
  3
AutoCAD 2000
 90
0
 91
1
280
0
281
0
  0
CLASS
  1
LAYOUT
  2
AcDbLayout
  3
AutoCAD 2000
 90
0
 91
0
280
0
281
0
  0
ENDSEC
  0
SECTION
  2
TABLES
  0
TABLE
  2
VPORT
  5
8
100
AcDbSymbolTable
 70
2
  0
VPORT
  5
1F4
100
AcDbSymbolTableRecord
100
AcDbViewportTableRecord
  2
*ACTIVE
 70
0
 10
0.0
 20
0.0
 11
1.0
 21
1.0
 12
11.0
 22
8.5
 13
0.0
 23
0.0
 14
1.0
 24
1.0
 15
0.0
 25
0.0
 16
0.0
 26
0.0
 36
1.0
 17
0.0
 27
0.0
 37
0.0
 40
17.0
 41
1.2941176471
 42
50.0
 43
0.0
 44
0.0
 50
0.0
 51
0.0
 71
0
 72
100
 73
1
 74
1
 75
0
 76
0
 77
0
 78
0
  0
ENDTAB
  0
TABLE
  2
LTYPE
  5
5
100
AcDbSymbolTable
 70
6
  0
LTYPE
  5
14
100
AcDbSymbolTableRecord
100
AcDbLinetypeTableRecord
  2
BYBLOCK
 70
0
  3

 72
65
 73
0
 40
0.0
  0
LTYPE
  5
15
100
AcDbSymbolTableRecord
100
AcDbLinetypeTableRecord
  2
BYLAYER
 70
0
  3

 72
65
 73
0
 40
0.0
  0
LTYPE
  5
16
100
AcDbSymbolTableRecord
100
AcDbLinetypeTableRecord
  2
CONTINUOUS
 70
64
  3
Solid line
 72
65
 73
0
 40
0.0
  0
LTYPE
  5
1F5
100
AcDbSymbolTableRecord
100
AcDbLinetypeTableRecord
  2
CENTER
 70
64
  3
____ _ ____ _ ____ _ ____ _ ____ _ ____ _ ____
 72
65
 73
4
 40
0.6
 49
0.375
 74
0
 49
-0.075
 74
0
 49
0.075
 74
0
 49
-0.075
 74
0
  0
LTYPE
  5
1F6
100
AcDbSymbolTableRecord
100
AcDbLinetypeTableRecord
  2
HIDDEN
 70
64
  3
- - - - - - - - - - - - - - - - - - - -
 72
65
 73
2
 40
0.2
 49
0.1
 74
0
 49
-0.1
 74
0
  0
LTYPE
  5
1F7
100
AcDbSymbolTableRecord
100
AcDbLinetypeTableRecord
  2
PHANTOM
 70
64
  3
_____ _ _ _____ _ _ _____ _ _ _____
 72
65
 73
6
 40
0.8
 49
0.45
 74
0
 49
-0.05
 74
0
 49
0.1
 74
0
 49
-0.05
 74
0
 49
0.1
 74
0
 49
-0.05
 74
0
  0
LTYPE
  5
1F8
100
AcDbSymbolTableRecord
100
AcDbLinetypeTableRecord
  2
DOT
 70
64
  3
. . . . . . . . . . . . . . . . . . . .
 72
65
 73
2
 40
0.2
 49
0.1
 74
0
 49
-0.1
 74
0
  0
LTYPE
  5
1F9
100
AcDbSymbolTableRecord
100
AcDbLinetypeTableRecord
  2
DASHED
 70
64
  3
- - - - - - - - - - - - - - - - - - - -
 72
65
 73
2
 40
0.2
 49
0.1
 74
0
 49
-0.1
 74
0
  0
ENDTAB
  0
TABLE
  2
LAYER
  5
2
100
AcDbSymbolTable
 70
36
  0
LAYER
  5
10
100
AcDbSymbolTableRecord
100
AcDbLayerTableRecord
  2
0
 70
0
 62
7
  6
CONTINUOUS
370
-3
390
F
  0
LAYER
  5
1FA
100
AcDbSymbolTableRecord
100
AcDbLayerTableRecord
  2
DEFAULT_1
 70
0
 62
7
  6
CENTER
370
-3
390
F
  0
LAYER
  5
1FB
100
AcDbSymbolTableRecord
100
AcDbLayerTableRecord
  2
DEFAULT_2
 70
0
 62
8
  6
HIDDEN
370
-3
390
F
  0
LAYER
  5
1FC
100
AcDbSymbolTableRecord
100
AcDbLayerTableRecord
  2
DEFAULT_3
 70
0
 62
7
  6
PHANTOM
370
-3
390
F
  0
LAYER
  5
1FD
100
AcDbSymbolTableRecord
100
AcDbLayerTableRecord
  2
ALL_FEATURES
 70
0
 62
7
  6
CONTINUOUS
370
-3
390
F
  0
LAYER
  5
1FE
100
AcDbSymbolTableRecord
100
AcDbLayerTableRecord
  2
AXES_FEATURES
 70
0
 62
7
  6
CONTINUOUS
370
-3
390
F
  0
LAYER
  5
1FF
100
AcDbSymbolTableRecord
100
AcDbLayerTableRecord
  2
DEFAULT_COORDINATE_SYSTEM
 70
0
 62
7
  6
CONTINUOUS
370
-3
390
F
  0
LAYER
  5
200
100
AcDbSymbolTableRecord
100
AcDbLayerTableRecord
  2
DEFAULT_DATUM_AXES
 70
0
 62
7
  6
CONTINUOUS
370
-3
390
F
  0
LAYER
  5
201
100
AcDbSymbolTableRecord
100
AcDbLayerTableRecord
  2
DEFAULT_DATUM_PLANES
 70
0
 62
7
  6
CONTINUOUS
370
-3
390
F
  0
LAYER
  5
202
100
AcDbSymbolTableRecord
100
AcDbLayerTableRecord
  2
DIMENSIONS
 70
0
 62
7
  6
CONTINUOUS
370
-3
390
F
  0
ENDTAB
  0
TABLE
  2
STYLE
  5
3
100
AcDbSymbolTable
 70
1
  0
STYLE
  5
11
100
AcDbSymbolTableRecord
100
AcDbTextStyleTableRecord
  2
STANDARD
 70
0
 40
0.0
 41
0.8
 50
0.0
 71
0
 42
0.2
  3
txt
  4

  0
STYLE
  5
203
100
AcDbSymbolTableRecord
100
AcDbTextStyleTableRecord
  2
TEXTSTYLE_1
 70
0
 40
0.0
 41
0.8
 50
0.0
 71
0
 42
0.2
  3
gdt
  4

  0
ENDTAB
  0
TABLE
  2
VIEW
  5
6
100
AcDbSymbolTable
 70
0
  0
ENDTAB
  0
TABLE
  2
UCS
  5
7
100
AcDbSymbolTable
 70
0
  0
ENDTAB
  0
TABLE
  2
APPID
  5
9
100
AcDbSymbolTable
 70
1
  0
APPID
  5
204
100
AcDbSymbolTableRecord
100
AcDbRegAppTableRecord
  2
ACAD
 70
0
  0
ENDTAB
  0
TABLE
  2
BLOCK_RECORD
  5
1
100
AcDbSymbolTable
 70
0
  0
BLOCK_RECORD
  5
205
100
AcDbSymbolTableRecord
100
AcDbBlockTableRecord
  2
*Model_Space
  0
BLOCK_RECORD
  5
206
100
AcDbSymbolTableRecord
100
AcDbBlockTableRecord
  2
*Paper_Space
  0
BLOCK_RECORD
  5
207
100
AcDbSymbolTableRecord
100
AcDbBlockTableRecord
  2
_FILLED
  0
ENDTAB
  0
TABLE
  2
DIMSTYLE
  5
A
100
AcDbSymbolTable
 70
1
100
AcDbDimStyleTable
 71
0
  0
DIMSTYLE
105
208
100
AcDbSymbolTableRecord
100
AcDbDimStyleTableRecord
  2
STANDARD
 70
0
  3

  4

 40
1.0
 41
0.1
 42
0.0625
 43
0.38
 44
0.125
 45
0.0
 46
0.0
 47
0.001
 48
0.001
140
0.08
141
0.09
142
0.0
143
25.4
144
1.0
145
0.0
146
1.0
147
0.09
 71
1.0
 72
0.0
 73
1
 74
1
 75
0
 76
0
 77
0
 78
4
 79
1
170
1
171
2
172
0
173
0
174
0
175
0
176
0
177
0
178
0
270
2
179
3
271
3
272
3
273
2
274
2
275
0
280
0
281
0
282
0
283
1
284
4
285
0
286
0
287
3
288
0
340
11
278
46
341
207
342
207
343
207
344
207
  0
ENDTAB
  0
ENDSEC
  0
SECTION
  2
BLOCKS
  0
BLOCK
  5
20
100
AcDbEntity
  8
0
100
AcDbBlockBegin
  2
*Model_Space
 70
0
 10
0.0
 20
0.0
 30
0.0
  3
*Model_Space
  1

  0
ENDBLK
  5
21
100
AcDbEntity
  8
0
100
AcDbBlockEnd
  0
BLOCK
  5
1C
100
AcDbEntity
  8
0
100
AcDbBlockBegin
  2
*Paper_Space
 70
0
 10
0.0
 20
0.0
 30
0.0
  3
*Paper_Space
  1

  0
ENDBLK
  5
1D
100
AcDbEntity
  8
0
100
AcDbBlockEnd
  0
BLOCK
  5
209
100
AcDbEntity
  8
0
100
AcDbBlockBegin
  2
_FILLED
 70
64
 10
0.0
 20
0.0
  3
_FILLED
  1

  0
SOLID
  5
20A
100
AcDbEntity
  8
0
  6
BYBLOCK
 62
0
100
AcDbTrace
 10
0.0
 20
0.0
 11
-1.0
 21
0.2
 12
-1.0
 22
-0.2
 13
-1.0
 23
-0.2
  0
ENDBLK
  5
20B
100
AcDbEntity
  8
0
  6
BYBLOCK
 62
0
100
AcDbBlockEnd
  0
ENDSEC
  0
SECTION
  2
ENTITIES
  0
LINE
  5
20C
100
AcDbEntity
  8
0
100
AcDbLine
 62
7
  6
CONTINUOUS
 10
11.6866679548
 20
4.2974410273
 11
13.7366679548
 21
4.2974410273
  0
LINE
  5
20D
100
AcDbEntity
  8
0
100
AcDbLine
 62
9
  6
CONTINUOUS
 10
11.6866679548
 20
4.4074410273
 11
13.7366679548
 21
4.4074410273
  0
LINE
  5
20E
100
AcDbEntity
  8
0
100
AcDbLine
 62
7
  6
CONTINUOUS
 10
11.7266679548
 20
4.4474410273
 11
13.6966679548
 21
4.4474410273
  0
LINE
  5
20F
100
AcDbEntity
  8
0
100
AcDbLine
 62
9
  6
CONTINUOUS
 10
11.9275648278
 20
4.4674410273
 11
13.4957711217
 21
4.4674410273
  0
LINE
  5
210
100
AcDbEntity
  8
0
100
AcDbLine
 62
9
  6
CONTINUOUS
 10
11.8366679548
 20
4.6824410273
 11
13.5866679548
 21
4.6824410273
  0
LINE
  5
211
100
AcDbEntity
  8
0
100
AcDbLine
 62
7
  6
CONTINUOUS
 10
11.8766679548
 20
4.7224410273
 11
13.5466679548
 21
4.7224410273
  0
LINE
  5
212
100
AcDbEntity
  8
0
100
AcDbLine
 62
7
  6
CONTINUOUS
 10
7.7809391259
 20
11.4454141098
 11
7.7804346753
 21
11.4445474512
  0
LINE
  5
213
100
AcDbEntity
  8
0
100
AcDbLine
 62
7
  6
CONTINUOUS
 10
8.1124364029
 20
12.0774913856
 11
7.8832829068
 21
11.4478973297
  0
LINE
  5
214
100
AcDbEntity
  8
0
100
AcDbLine
 62
7
  6
CONTINUOUS
 10
7.7483425376
 20
11.1763852118
 11
7.7577850289
 21
11.2008298956
  0
LINE
  5
215
100
AcDbEntity
  8
0
100
AcDbLine
 62
7
  6
CONTINUOUS
 10
8.5822827133
 20
11.906481314
 11
8.3531292172
 21
11.276887258
  0
LINE
  5
216
100
AcDbEntity
  8
0
100
AcDbLine
 62
7
  6
CONTINUOUS
 10
8.3878877599
 20
11.1578761635
 11
8.3976682013
 21
11.1638385022
  0
LINE
  5
217
100
AcDbEntity
  8
0
100
AcDbLine
 62
7
  6
CONTINUOUS
 10
8.400350258
 20
11.1654121387
 11
8.3976682014
 21
11.1638385019
  0
LINE
  5
218
100
AcDbEntity
  8
0
100
AcDbLine
 62
7
  6
CONTINUOUS
 10
8.4299329189
 20
11.2091996869
 11
8.4297622732
 21
11.2082115333
  0
LINE
  5
219
100
AcDbEntity
  8
0
100
AcDbLine
 62
7
  6
CONTINUOUS
 10
8.2819749119
 20
10.9821589115
 11
8.2904542839
 21
11.0069541421
  0
LINE
  5
21A
100
AcDbEntity
  8
0
100
AcDbLine
 62
9
  6
CONTINUOUS
 10
12.6566679548
 20
6.70556031
 11
12.6266679548
 21
6.70556031
  0
LINE
  5
21B
100
AcDbEntity
  8
0
100
AcDbLine
 62
9
  6
CONTINUOUS
 10
12.7666679548
 20
6.70556031
 11
12.7966679548
 21
6.70556031
  0
LINE
  5
21C
100
AcDbEntity
  8
0
100
AcDbLine
 62
9
  6
CONTINUOUS
 10
12.7666679548
 20
6.805802161
 11
12.6566679548
 21
6.805802161
  0
LINE
  5
21D
100
AcDbEntity
  8
0
100
AcDbLine
 62
9
  6
CONTINUOUS
 10
12.7666679548
 20
6.8239995595
 11
12.6566679548
 21
6.8239995595
  0
LINE
  5
21E
100
AcDbEntity
  8
0
100
AcDbLine
 62
9
  6
CONTINUOUS
 10
12.7885545899
 20
6.8399046211
 11
12.6347813197
 21
6.8399046211
  0
LINE
  5
21F
100
AcDbEntity
  8
0
100
AcDbLine
 62
9
  6
CONTINUOUS
 10
12.7885545899
 20
6.873838557
 11
12.6347813197
 21
6.873838557
  0
LINE
  5
220
100
AcDbEntity
  8
0
100
AcDbLine
 62
7
  6
CONTINUOUS
 10
11.8816679548
 20
7.0724410273
 11
12.5506697276
 21
7.0724410273
  0
LINE
  5
221
100
AcDbEntity
  8
0
100
AcDbLine
 62
7
  6
CONTINUOUS
 10
12.8726661821
 20
7.0724410273
 11
13.5416679548
 21
7.0724410273
  0
LINE
  5
222
100
AcDbEntity
  8
0
100
AcDbLine
 62
9
  6
CONTINUOUS
 10
11.870856252
 20
7.1895531351
 11
12.5482425337
 21
7.1895531351
  0
LINE
  5
223
100
AcDbEntity
  8
0
100
AcDbLine
 62
9
  6
CONTINUOUS
 10
12.875093376
 20
7.1895531351
 11
13.5524796577
 21
7.1895531351
  0
LINE
  5
224
100
AcDbEntity
  8
0
100
AcDbLine
 62
7
  6
CONTINUOUS
 10
7.7754546655
 20
11.3928555339
 11
7.7764977258
 21
11.3899260655
  0
LINE
  5
225
100
AcDbEntity
  8
0
100
AcDbLine
 62
7
  6
CONTINUOUS
 10
7.7801574613
 20
11.3790719026
 11
7.7764977261
 21
11.3899260656
  0
LINE
  5
226
100
AcDbEntity
  8
0
100
AcDbLine
 62
9
  6
CONTINUOUS
 10
12.2512281766
 20
7.6031812154
 11
12.539669931
 21
7.6031812154
  0
LINE
  5
227
100
AcDbEntity
  8
0
100
AcDbLine
 62
9
  6
CONTINUOUS
 10
12.8836659787
 20
7.6031812154
 11
13.172107733
 21
7.6031812154
  0
LINE
  5
228
100
AcDbEntity
  8
0
100
AcDbLine
 62
9
  6
CONTINUOUS
 10
12.2169233394
 20
7.6758449179
 11
12.5381639475
 21
7.6758449179
  0
LINE
  5
229
100
AcDbEntity
  8
0
100
AcDbLine
 62
9
  6
CONTINUOUS
 10
12.8851719622
 20
7.6758449179
 11
13.2064125702
 21
7.6758449179
  0
LINE
  5
22A
100
AcDbEntity
  8
0
100
AcDbLine
 62
7
  6
CONTINUOUS
 10
12.2446679548
 20
7.7674410273
 11
12.5362655825
 21
7.7674410273
  0
LINE
  5
22B
100
AcDbEntity
  8
0
100
AcDbLine
 62
7
  6
CONTINUOUS
 10
12.8870703271
 20
7.7674410273
 11
13.1786679548
 21
7.7674410273
  0
LINE
  5
22C
100
AcDbEntity
  8
0
100
AcDbLine
 62
9
  6
CONTINUOUS
 10
12.8245930142
 20
8.6126925287
 11
12.5987428954
 21
8.6126925287
  0
LINE
  5
22D
100
AcDbEntity
  8
0
100
AcDbLine
 62
9
  6
CONTINUOUS
 10
12.8245930142
 20
8.649233839
 11
12.5987428954
 21
8.649233839
  0
LINE
  5
22E
100
AcDbEntity
  8
0
100
AcDbLine
 62
7
  6
CONTINUOUS
 10
12.5975055998
 20
8.7134410273
 11
12.8258303094
 21
8.7134410273
  0
LINE
  5
22F
100
AcDbEntity
  8
0
100
AcDbLine
 62
7
  6
CONTINUOUS
 10
11.6866679548
 20
4.4074410273
 11
11.6866679548
 21
4.2974410273
  0
LINE
  5
230
100
AcDbEntity
  8
0
100
AcDbLine
 62
9
  6
CONTINUOUS
 10
11.7266679548
 20
4.4474410273
 11
11.7266679548
 21
4.2974410273
  0
LINE
  5
231
100
AcDbEntity
  8
0
100
AcDbLine
 62
7
  6
CONTINUOUS
 10
11.8366679548
 20
4.5648982192
 11
11.8366679548
 21
4.6824410273
  0
LINE
  5
232
100
AcDbEntity
  8
0
100
AcDbLine
 62
7
  6
CONTINUOUS
 10
8.2214342062
 20
10.8565821022
 11
7.7140001918
 21
11.0412729793
  0
LINE
  5
233
100
AcDbEntity
  8
0
100
AcDbLine
 62
9
  6
CONTINUOUS
 10
7.7001112374
 20
11.0479035829
 11
8.2363358324
 21
10.8527337914
  0
LINE
  5
234
100
AcDbEntity
  8
0
100
AcDbLine
 62
9
  6
CONTINUOUS
 10
7.6864043097
 20
11.064132149
 11
8.2572674694
 21
10.856354951
  0
LINE
  5
235
100
AcDbEntity
  8
0
100
AcDbLine
 62
9
  6
CONTINUOUS
 10
7.6894901612
 20
11.1033375344
 11
8.280104306
 21
10.8883715658
  0
LINE
  5
236
100
AcDbEntity
  8
0
100
AcDbLine
 62
9
  6
CONTINUOUS
 10
7.7042492849
 20
11.1197394849
 11
8.2793411318
 21
10.9104231707
  0
LINE
  5
237
100
AcDbEntity
  8
0
100
AcDbLine
 62
9
  6
CONTINUOUS
 10
7.7483425376
 20
11.1763852118
 11
8.2819749119
 21
10.9821589115
  0
LINE
  5
238
100
AcDbEntity
  8
0
100
AcDbLine
 62
9
  6
CONTINUOUS
 10
7.7577850307
 20
11.200829895
 11
8.2904542821
 21
11.0069541427
  0
LINE
  5
239
100
AcDbEntity
  8
0
100
AcDbLine
 62
9
  6
CONTINUOUS
 10
7.7832270713
 20
11.2864179975
 11
8.3259795201
 21
11.0888722616
  0
LINE
  5
23A
100
AcDbEntity
  8
0
100
AcDbLine
 62
7
  6
CONTINUOUS
 10
11.9066679548
 20
4.7224410273
 11
11.9066679548
 21
7.0724410273
  0
LINE
  5
23B
100
AcDbEntity
  8
0
100
AcDbLine
 62
9
  6
CONTINUOUS
 10
11.9275648278
 20
4.4474410273
 11
11.9275648278
 21
4.4674410273
  0
LINE
  5
23C
100
AcDbEntity
  8
0
100
AcDbLine
 62
9
  6
CONTINUOUS
 10
7.7801574613
 20
11.3790719026
 11
8.3878877599
 21
11.1578761635
  0
LINE
  5
23D
100
AcDbEntity
  8
0
100
AcDbLine
 62
9
  6
CONTINUOUS
 10
7.7764977258
 20
11.3899260655
 11
8.3976682014
 21
11.1638385019
  0
LINE
  5
23E
100
AcDbEntity
  8
0
100
AcDbLine
 62
9
  6
CONTINUOUS
 10
7.7754546652
 20
11.3928555338
 11
8.4003502582
 21
11.1654121384
  0
LINE
  5
23F
100
AcDbEntity
  8
0
100
AcDbLine
 62
9
  6
CONTINUOUS
 10
7.7804346753
 20
11.4445474512
 11
8.4297622732
 21
11.2082115333
  0
LINE
  5
240
100
AcDbEntity
  8
0
100
AcDbLine
 62
9
  6
CONTINUOUS
 10
7.7809391312
 20
11.4454141067
 11
8.4299329129
 21
11.2091996879
  0
LINE
  5
241
100
AcDbEntity
  8
0
100
AcDbLine
 62
9
  6
CONTINUOUS
 10
7.7939840196
 20
11.4588707407
 11
8.4285897062
 21
11.2278931603
  0
LINE
  5
242
100
AcDbEntity
  8
0
100
AcDbLine
 62
7
  6
CONTINUOUS
 10
7.8395874734
 20
11.4638011668
 11
8.3968246507
 21
11.2609834209
  0
LINE
  5
243
100
AcDbEntity
  8
0
100
AcDbLine
 62
7
  6
CONTINUOUS
 10
12.5182711143
 20
8.6356741187
 11
12.5550793992
 21
6.8596743741
  0
LINE
  5
244
100
AcDbEntity
  8
0
100
AcDbLine
 62
9
  6
CONTINUOUS
 10
12.5470645438
 20
8.5878794877
 11
12.582080367
 21
6.8983660184
  0
LINE
  5
245
100
AcDbEntity
  8
0
100
AcDbLine
 62
9
  6
CONTINUOUS
 10
12.5611533438
 20
8.5878228154
 11
12.5961691562
 21
6.8983098696
  0
LINE
  5
246
100
AcDbEntity
  8
0
100
AcDbLine
 62
9
  6
CONTINUOUS
 10
12.5987428954
 20
8.6126925287
 11
12.6347813197
 21
6.873838557
  0
LINE
  5
247
100
AcDbEntity
  8
0
100
AcDbLine
 62
7
  6
CONTINUOUS
 10
12.4616679548
 20
7.7674410273
 11
12.4616679548
 21
11.2224410273
  0
LINE
  5
248
100
AcDbEntity
  8
0
100
AcDbLine
 62
9
  6
CONTINUOUS
 10
12.5987428954
 20
8.649233839
 11
12.5987428954
 21
8.6126925287
  0
LINE
  5
249
100
AcDbEntity
  8
0
100
AcDbLine
 62
7
  6
CONTINUOUS
 10
12.6266679548
 20
6.70556031
 11
12.6266679548
 21
6.7940867206
  0
LINE
  5
24A
100
AcDbEntity
  8
0
100
AcDbLine
 62
9
  6
CONTINUOUS
 10
12.6347813197
 20
6.873838557
 11
12.6347813197
 21
6.8399046211
  0
LINE
  5
24B
100
AcDbEntity
  8
0
100
AcDbLine
 62
9
  6
CONTINUOUS
 10
12.6566679548
 20
6.8239995595
 11
12.6566679548
 21
6.70556031
  0
LINE
  5
24C
100
AcDbEntity
  8
0
100
AcDbLine
 62
9
  6
CONTINUOUS
 10
12.7666679548
 20
6.70556031
 11
12.7666679548
 21
6.8239995595
  0
LINE
  5
24D
100
AcDbEntity
  8
0
100
AcDbLine
 62
9
  6
CONTINUOUS
 10
12.7885545899
 20
6.8399046211
 11
12.7885545899
 21
6.873838557
  0
LINE
  5
24E
100
AcDbEntity
  8
0
100
AcDbLine
 62
7
  6
CONTINUOUS
 10
12.7966679548
 20
6.7940868149
 11
12.7966679548
 21
6.70556031
  0
LINE
  5
24F
100
AcDbEntity
  8
0
100
AcDbLine
 62
9
  6
CONTINUOUS
 10
12.8245930142
 20
8.6126925287
 11
12.8245930142
 21
8.649233839
  0
LINE
  5
250
100
AcDbEntity
  8
0
100
AcDbLine
 62
7
  6
CONTINUOUS
 10
12.9616679548
 20
7.7674410273
 11
12.9616679548
 21
11.2224410273
  0
LINE
  5
251
100
AcDbEntity
  8
0
100
AcDbLine
 62
9
  6
CONTINUOUS
 10
12.7885545899
 20
6.873838557
 11
12.8245930142
 21
8.6126925287
  0
LINE
  5
252
100
AcDbEntity
  8
0
100
AcDbLine
 62
9
  6
CONTINUOUS
 10
12.8271667525
 20
6.8983098207
 11
12.8621825645
 21
8.5878227508
  0
LINE
  5
253
100
AcDbEntity
  8
0
100
AcDbLine
 62
9
  6
CONTINUOUS
 10
12.8412555426
 20
6.898366017
 11
12.8762713658
 21
8.5878794867
  0
LINE
  5
254
100
AcDbEntity
  8
0
100
AcDbLine
 62
7
  6
CONTINUOUS
 10
12.8682565105
 20
6.8596743738
 11
12.9050647953
 21
8.6356741184
  0
LINE
  5
255
100
AcDbEntity
  8
0
100
AcDbLine
 62
9
  6
CONTINUOUS
 10
12.4616679548
 20
11.2224410273
 11
12.9616679548
 21
11.2224410273
  0
LINE
  5
256
100
AcDbEntity
  8
0
100
AcDbLine
 62
9
  6
CONTINUOUS
 10
8.5822827133
 20
11.906481314
 11
8.1124364029
 21
12.0774913856
  0
LINE
  5
257
100
AcDbEntity
  8
0
100
AcDbLine
 62
9
  6
CONTINUOUS
 10
13.4957711217
 20
4.4474410273
 11
13.4957711217
 21
4.4674410273
  0
LINE
  5
258
100
AcDbEntity
  8
0
100
AcDbLine
 62
7
  6
CONTINUOUS
 10
13.5166679548
 20
4.7224410273
 11
13.5166679548
 21
7.0724410273
  0
LINE
  5
259
100
AcDbEntity
  8
0
100
AcDbLine
 62
7
  6
CONTINUOUS
 10
13.5866679548
 20
4.5648982192
 11
13.5866679548
 21
4.6824410273
  0
LINE
  5
25A
100
AcDbEntity
  8
0
100
AcDbLine
 62
9
  6
CONTINUOUS
 10
13.6966679548
 20
4.4474410273
 11
13.6966679548
 21
4.2974410273
  0
LINE
  5
25B
100
AcDbEntity
  8
0
100
AcDbLine
 62
7
  6
CONTINUOUS
 10
13.7366679548
 20
4.4074410273
 11
13.7366679548
 21
4.2974410273
  0
ARC
  5
25C
100
AcDbEntity
  8
0
100
AcDbCircle
 62
7
  6
CONTINUOUS
 10
8.9886458989
 20
10.7528331752
 40
0.743
100
AcDbArc
 50
153.1103674819
 51
159.9999999124
  0
ARC
  5
25D
100
AcDbEntity
  8
0
100
AcDbCircle
 62
7
  6
CONTINUOUS
 10
7.059593413
 20
11.4549508604
 40
0.743
100
AcDbArc
 50
340.0000000876
 51
346.8896325181
  0
ARC
  5
25E
100
AcDbEntity
  8
0
100
AcDbCircle
 62
7
  6
CONTINUOUS
 10
8.4856259301
 20
11.0079153344
 40
0.1790000008
100
AcDbArc
 50
123.0946198465
 51
153.1103674819
  0
ARC
  5
25F
100
AcDbEntity
  8
0
100
AcDbCircle
 62
7
  6
CONTINUOUS
 10
7.6088927164
 20
11.3270201276
 40
0.1790000008
100
AcDbArc
 50
346.8896325181
 51
16.9053801535
  0
ARC
  5
260
100
AcDbEntity
  8
0
100
AcDbCircle
 62
7
  6
CONTINUOUS
 10
8.4086372549
 20
10.9415922687
 40
0.1330000004
100
AcDbArc
 50
162.2410938151
 51
193.553553377
  0
ARC
  5
261
100
AcDbEntity
  8
0
100
AcDbCircle
 62
7
  6
CONTINUOUS
 10
7.6252378183
 20
11.2267263451
 40
0.1330000004
100
AcDbArc
 50
306.446446623
 51
337.7589061849
  0
ARC
  5
262
100
AcDbEntity
  8
0
100
AcDbCircle
 62
7
  6
CONTINUOUS
 10
8.2487958176
 20
10.9317575118
 40
0.08
100
AcDbArc
 50
250.0
 51
261.0397140499
  0
ARC
  5
263
100
AcDbEntity
  8
0
100
AcDbCircle
 62
7
  6
CONTINUOUS
 10
7.7413618033
 20
11.1164483889
 40
0.08
100
AcDbArc
 50
238.9602859501
 51
250.0
  0
ARC
  5
264
100
AcDbEntity
  8
0
100
AcDbCircle
 62
7
  6
CONTINUOUS
 10
8.3677495967
 20
11.2193212879
 40
0.0629999962
100
AcDbArc
 50
301.1627534366
 51
349.8430419522
  0
ARC
  5
265
100
AcDbEntity
  8
0
100
AcDbCircle
 62
7
  6
CONTINUOUS
 10
7.8350803541
 20
11.4131970369
 40
0.0629999962
100
AcDbArc
 50
150.1569580478
 51
198.8372465634
  0
ARC
  5
266
100
AcDbEntity
  8
0
100
AcDbCircle
 62
7
  6
CONTINUOUS
 10
8.2258728089
 20
10.8975336938
 40
0.0549999988
100
AcDbArc
 50
350.4107267091
 51
13.553553377
  0
ARC
  5
267
100
AcDbEntity
  8
0
100
AcDbCircle
 62
7
  6
CONTINUOUS
 10
7.7369232005
 20
11.0754967973
 40
0.0549999988
100
AcDbArc
 50
126.446446623
 51
149.5892732909
  0
ARC
  5
268
100
AcDbEntity
  8
0
100
AcDbCircle
 62
7
  6
CONTINUOUS
 10
8.379039878
 20
11.2121193046
 40
0.052
100
AcDbArc
 50
17.6585253029
 51
70.0
  0
ARC
  5
269
100
AcDbEntity
  8
0
100
AcDbCircle
 62
7
  6
CONTINUOUS
 10
7.8218021512
 20
11.4149372506
 40
0.052
100
AcDbArc
 50
70.0
 51
122.3414746971
  0
ARC
  5
26A
100
AcDbEntity
  8
0
100
AcDbCircle
 62
7
  6
CONTINUOUS
 10
8.2357330669
 20
10.8958678547
 40
0.0450000005
100
AcDbArc
 50
298.5902386693
 51
350.4107267091
  0
ARC
  5
26B
100
AcDbEntity
  8
0
100
AcDbCircle
 62
7
  6
CONTINUOUS
 10
7.728299024
 20
11.0805587422
 40
0.0450000005
100
AcDbArc
 50
149.5892732909
 51
201.4097613307
  0
ARC
  5
26C
100
AcDbEntity
  8
0
100
AcDbCircle
 62
7
  6
CONTINUOUS
 10
8.3904744535
 20
11.215759425
 40
0.0400000021
100
AcDbArc
 50
350.561234851
 51
17.6585253029
  0
ARC
  5
26D
100
AcDbEntity
  8
0
100
AcDbCircle
 62
7
  6
CONTINUOUS
 10
7.8153825825
 20
11.425075748
 40
0.0400000021
100
AcDbArc
 50
122.3414746971
 51
149.438765149
  0
ARC
  5
26E
100
AcDbEntity
  8
0
100
AcDbCircle
 62
7
  6
CONTINUOUS
 10
8.2414755763
 20
10.8853310765
 40
0.0329999994
100
AcDbArc
 50
261.0397140499
 51
298.5902386693
  0
ARC
  5
26F
100
AcDbEntity
  8
0
100
AcDbCircle
 62
7
  6
CONTINUOUS
 10
7.717127096
 20
11.0761783157
 40
0.0329999994
100
AcDbArc
 50
201.4097613307
 51
238.9602859501
  0
ARC
  5
270
100
AcDbEntity
  8
0
100
AcDbCircle
 62
7
  6
CONTINUOUS
 10
12.0986101346
 20
3.6748314006
 40
0.8475497503
100
AcDbArc
 50
112.5322509262
 51
113.9893514614
  0
ARC
  5
271
100
AcDbEntity
  8
0
100
AcDbCircle
 62
7
  6
CONTINUOUS
 10
11.8766679548
 20
4.6824410273
 40
0.04
100
AcDbArc
 50
90.0
 51
180.0
  0
ARC
  5
272
100
AcDbEntity
  8
0
100
AcDbCircle
 62
7
  6
CONTINUOUS
 10
11.7966679548
 20
4.5648982192
 40
0.04
100
AcDbArc
 50
290.0968465459
 51
360.0
  0
ARC
  5
273
100
AcDbEntity
  8
0
100
AcDbCircle
 62
7
  6
CONTINUOUS
 10
11.7266679548
 20
4.4074410273
 40
0.04
100
AcDbArc
 50
90.0
 51
180.0
  0
ARC
  5
274
100
AcDbEntity
  8
0
100
AcDbCircle
 62
7
  6
CONTINUOUS
 10
11.8207205154
 20
4.4991602977
 40
0.03
100
AcDbArc
 50
110.0968465459
 51
193.2680353701
  0
ARC
  5
275
100
AcDbEntity
  8
0
100
AcDbCircle
 62
7
  6
CONTINUOUS
 10
11.7623220916
 20
4.4853898911
 40
0.03
100
AcDbArc
 50
292.5489636902
 51
13.2680353791
  0
ARC
  5
276
100
AcDbEntity
  8
0
100
AcDbCircle
 62
7
  6
CONTINUOUS
 10
11.7458884036
 20
4.4674410273
 40
0.0199999587
100
AcDbArc
 50
271.024435989
 51
294.0037360891
  0
ARC
  5
277
100
AcDbEntity
  8
0
100
AcDbCircle
 62
9
  6
CONTINUOUS
 10
12.2966679548
 20
6.70556031
 40
0.36
100
AcDbArc
 50
330.999076136
 51
360.0
  0
ARC
  5
278
100
AcDbEntity
  8
0
100
AcDbCircle
 62
7
  6
CONTINUOUS
 10
12.2966679548
 20
6.70556031
 40
0.33
100
AcDbArc
 50
325.1918213044
 51
360.0
  0
ARC
  5
279
100
AcDbEntity
  8
0
100
AcDbCircle
 62
7
  6
CONTINUOUS
 10
11.8816679548
 20
7.1314961454
 40
0.0590551181
100
AcDbArc
 50
100.5491060217
 51
270.0
  0
ARC
  5
27A
100
AcDbEntity
  8
0
100
AcDbCircle
 62
7
  6
CONTINUOUS
 10
12.6358475013
 20
6.8234413787
 40
0.0399999724
100
AcDbArc
 50
197.8791422498
 51
240.9006938481
  0
ARC
  5
27B
100
AcDbEntity
  8
0
100
AcDbCircle
 62
7
  6
CONTINUOUS
 10
12.5920714552
 20
6.8604410489
 40
0.037
100
AcDbArc
 50
181.1873073157
 51
256.4793558651
  0
ARC
  5
27C
100
AcDbEntity
  8
0
100
AcDbCircle
 62
7
  6
CONTINUOUS
 10
12.6066679548
 20
6.7710145876
 40
0.0200001361
100
AcDbArc
 50
0.000000001
 51
60.9006929671
  0
ARC
  5
27D
100
AcDbEntity
  8
0
100
AcDbCircle
 62
7
  6
CONTINUOUS
 10
12.578745101
 20
6.8050207636
 40
0.02
100
AcDbArc
 50
17.8791302583
 51
76.4793571974
  0
ARC
  5
27E
100
AcDbEntity
  8
0
100
AcDbCircle
 62
7
  6
CONTINUOUS
 10
13.6966679548
 20
4.4074410273
 40
0.04
100
AcDbArc
 50
0.0
 51
90.0
  0
ARC
  5
27F
100
AcDbEntity
  8
0
100
AcDbCircle
 62
7
  6
CONTINUOUS
 10
13.5466679548
 20
4.6824410273
 40
0.04
100
AcDbArc
 50
0.0
 51
90.0
  0
ARC
  5
280
100
AcDbEntity
  8
0
100
AcDbCircle
 62
7
  6
CONTINUOUS
 10
13.6266679548
 20
4.5648982192
 40
0.04
100
AcDbArc
 50
180.0
 51
249.9031534541
  0
ARC
  5
281
100
AcDbEntity
  8
0
100
AcDbCircle
 62
7
  6
CONTINUOUS
 10
13.6026153943
 20
4.4991602977
 40
0.03
100
AcDbArc
 50
346.7319646257
 51
69.9031534541
  0
ARC
  5
282
100
AcDbEntity
  8
0
100
AcDbCircle
 62
7
  6
CONTINUOUS
 10
13.6610138181
 20
4.4853898911
 40
0.03
100
AcDbArc
 50
166.73196462
 51
247.4510363098
  0
ARC
  5
283
100
AcDbEntity
  8
0
100
AcDbCircle
 62
7
  6
CONTINUOUS
 10
13.6774474044
 20
4.4674410273
 40
0.02
100
AcDbArc
 50
245.9964880406
 51
266.1029995582
  0
ARC
  5
284
100
AcDbEntity
  8
0
100
AcDbCircle
 62
7
  6
CONTINUOUS
 10
12.7116679548
 20
6.1334410273
 40
0.66
100
AcDbArc
 50
98.0630859019
 51
81.9369138275
  0
ARC
  5
285
100
AcDbEntity
  8
0
100
AcDbCircle
 62
9
  6
CONTINUOUS
 10
12.7116679548
 20
6.1334410273
 40
0.6409921564
100
AcDbArc
 50
97.6208527849
 51
82.3791472151
  0
ARC
  5
286
100
AcDbEntity
  8
0
100
AcDbCircle
 62
7
  6
CONTINUOUS
 10
12.7116679548
 20
6.1334410273
 40
0.52
100
AcDbArc
 50
100.0634168303
 51
79.9365831665
  0
ARC
  5
287
100
AcDbEntity
  8
0
100
AcDbCircle
 62
9
  6
CONTINUOUS
 10
12.7116679548
 20
6.1334410273
 40
0.47
100
AcDbArc
 50
102.9992100985
 51
77.0007899022
  0
ARC
  5
288
100
AcDbEntity
  8
0
100
AcDbCircle
 62
9
  6
CONTINUOUS
 10
12.7116679548
 20
6.1334410273
 40
0.44
100
AcDbArc
 50
105.9380182669
 51
74.061981679
  0
CIRCLE
  5
289
100
AcDbEntity
  8
0
100
AcDbCircle
 62
7
  6
CONTINUOUS
 10
12.7116679548
 20
6.1334410273
 40
0.41
  0
ARC
  5
28A
100
AcDbEntity
  8
0
100
AcDbCircle
 62
9
  6
CONTINUOUS
 10
12.7116679548
 20
6.1334410273
 40
0.41
100
AcDbArc
 50
101.413184762
 51
104.1371145983
  0
ARC
  5
28B
100
AcDbEntity
  8
0
100
AcDbCircle
 62
9
  6
CONTINUOUS
 10
12.7116679548
 20
6.1334410273
 40
0.41
100
AcDbArc
 50
75.8628853241
 51
78.5868148787
  0
ARC
  5
28C
100
AcDbEntity
  8
0
100
AcDbCircle
 62
9
  6
CONTINUOUS
 10
13.1266679548
 20
6.70556031
 40
0.36
100
AcDbArc
 50
180.0
 51
209.0009239191
  0
CIRCLE
  5
28D
100
AcDbEntity
  8
0
100
AcDbCircle
 62
9
  6
CONTINUOUS
 10
12.7116679548
 20
6.1334410273
 40
0.3574596669
  0
ARC
  5
28E
100
AcDbEntity
  8
0
100
AcDbCircle
 62
7
  6
CONTINUOUS
 10
13.1266679548
 20
6.70556031
 40
0.33
100
AcDbArc
 50
180.0
 51
214.8081794472
  0
ARC
  5
28F
100
AcDbEntity
  8
0
100
AcDbCircle
 62
7
  6
CONTINUOUS
 10
13.5416679548
 20
7.1314961454
 40
0.0590551181
100
AcDbArc
 50
270.0
 51
79.4508939783
  0
ARC
  5
290
100
AcDbEntity
  8
0
100
AcDbCircle
 62
7
  6
CONTINUOUS
 10
12.7874884084
 20
6.8234413756
 40
0.0399999722
100
AcDbArc
 50
299.0993065344
 51
342.1208603397
  0
ARC
  5
291
100
AcDbEntity
  8
0
100
AcDbCircle
 62
7
  6
CONTINUOUS
 10
12.8312644544
 20
6.8604410486
 40
0.037
100
AcDbArc
 50
283.5206449608
 51
358.8126926843
  0
ARC
  5
292
100
AcDbEntity
  8
0
100
AcDbCircle
 62
7
  6
CONTINUOUS
 10
12.8166679548
 20
6.7710145855
 40
0.0200001353
100
AcDbArc
 50
119.0993076566
 51
179.9999999987
  0
ARC
  5
293
100
AcDbEntity
  8
0
100
AcDbCircle
 62
7
  6
CONTINUOUS
 10
12.8445908093
 20
6.8050207632
 40
0.02
100
AcDbArc
 50
103.5206433908
 51
162.1208724844
  0
ARC
  5
294
100
AcDbEntity
  8
0
100
AcDbCircle
 62
7
  6
CONTINUOUS
 10
10.4616679548
 20
11.2224410273
 40
2.5
100
AcDbArc
 50
0.0
 51
160.0
  0
ARC
  5
295
100
AcDbEntity
  8
0
100
AcDbCircle
 62
7
  6
CONTINUOUS
 10
10.4616679548
 20
11.2224410273
 40
2.0
100
AcDbArc
 50
0.0
 51
160.0
  0
ARC
  5
296
100
AcDbEntity
  8
0
100
AcDbCircle
 62
7
  6
CONTINUOUS
 10
11.7850834092
 20
7.650138587
 40
0.468503937
100
AcDbArc
 50
280.5491060217
 51
354.247680581
  0
ARC
  5
297
100
AcDbEntity
  8
0
100
AcDbCircle
 62
7
  6
CONTINUOUS
 10
13.6382525005
 20
7.650138587
 40
0.468503937
100
AcDbArc
 50
185.752319419
 51
259.4508939783
  0
ARC
  5
298
100
AcDbEntity
  8
0
100
AcDbCircle
 62
7
  6
CONTINUOUS
 10
12.1736679548
 20
7.6109942907
 40
0.0779527559
100
AcDbArc
 50
354.247680581
 51
56.2967024761
  0
ARC
  5
299
100
AcDbEntity
  8
0
100
AcDbCircle
 62
7
  6
CONTINUOUS
 10
13.2496679548
 20
7.6109942907
 40
0.0779527559
100
AcDbArc
 50
123.7032975239
 51
185.752319419
  0
ARC
  5
29A
100
AcDbEntity
  8
0
100
AcDbCircle
 62
7
  6
CONTINUOUS
 10
12.2446679548
 20
7.7174410273
 40
0.05
100
AcDbArc
 50
90.0
 51
236.2967024761
  0
ARC
  5
29B
100
AcDbEntity
  8
0
100
AcDbCircle
 62
7
  6
CONTINUOUS
 10
13.1786679548
 20
7.7174410273
 40
0.05
100
AcDbArc
 50
303.7032975239
 51
90.0
  0
ARC
  5
29C
100
AcDbEntity
  8
0
100
AcDbCircle
 62
7
  6
CONTINUOUS
 10
12.8258303494
 20
8.6734407212
 40
0.0399999981
100
AcDbArc
 50
17.4497321258
 51
90.0010296434
  0
ARC
  5
29D
100
AcDbEntity
  8
0
100
AcDbCircle
 62
7
  6
CONTINUOUS
 10
12.5975055597
 20
8.6734407184
 40
0.0399999974
100
AcDbArc
 50
89.9989633498
 51
162.5502651865
  0
ARC
  5
29E
100
AcDbEntity
  8
0
100
AcDbCircle
 62
7
  6
CONTINUOUS
 10
12.555263166
 20
8.6364410016
 40
0.037
100
AcDbArc
 50
105.2538536866
 51
181.1873073157
  0
ARC
  5
29F
100
AcDbEntity
  8
0
100
AcDbCircle
 62
7
  6
CONTINUOUS
 10
12.8680727436
 20
8.6364410018
 40
0.037
100
AcDbArc
 50
358.8126926843
 51
74.7461458624
  0
ARC
  5
2A0
100
AcDbEntity
  8
0
100
AcDbCircle
 62
7
  6
CONTINUOUS
 10
12.540266689
 20
8.6914328688
 40
0.02
100
AcDbArc
 50
285.2538522875
 51
342.5502765916
  0
ARC
  5
2A1
100
AcDbEntity
  8
0
100
AcDbCircle
 62
7
  6
CONTINUOUS
 10
12.8830692211
 20
8.6914328689
 40
0.02
100
AcDbArc
 50
197.4497208446
 51
254.7461472521
  0
SPLINE
  5
2A2
100
AcDbEntity
  8
0
100
AcDbSpline
 62
7
  6
CONTINUOUS
 70
0
 71
3
 72
11
 73
7
 74
0
 42
0.0000001
 43
0.0000001
 44
0.0000000001
 40
0.0
 40
0.0
 40
0.0
 40
0.0
 40
0.25
 40
0.5
 40
0.75
 40
1.0
 40
1.0
 40
1.0
 40
1.0
 10
13.6693115517
 20
4.4491706168
 30
0.0
 10
13.6284836617
 20
4.4673516669
 30
0.0
 10
13.5336249938
 20
4.5013797956
 30
0.0
 10
13.3575688836
 20
4.5433254313
 30
0.0
 10
13.1549779833
 20
4.5744507545
 30
0.0
 10
13.0077774297
 20
4.5871349963
 30
0.0
 10
12.9326524336
 20
4.5913304297
 30
0.0
  0
LINE
  5
2A3
100
AcDbEntity
  8
0
100
AcDbLine
 62
7
  6
CONTINUOUS
 10
11.7958363953
 20
4.4664946761
 11
11.796889318
 21
4.4669007193
  0
SPLINE
  5
2A4
100
AcDbEntity
  8
0
100
AcDbSpline
 62
7
  6
CONTINUOUS
 70
0
 71
3
 72
11
 73
7
 74
0
 42
0.0000001
 43
0.0000001
 44
0.0000000001
 40
0.0
 40
0.0
 40
0.0
 40
0.0
 40
0.25
 40
0.5
 40
0.75
 40
1.0
 40
1.0
 40
1.0
 40
1.0
 10
12.4906805407
 20
4.5913302658
 30
0.0
 10
12.4155558266
 20
4.5871347902
 30
0.0
 10
12.268355858
 20
4.5744504941
 30
0.0
 10
12.0657658029
 20
4.5433251781
 30
0.0
 10
11.8897104174
 20
4.5013796296
 30
0.0
 10
11.7948521014
 20
4.4673516026
 30
0.0
 10
11.7540243447
 20
4.4491706109
 30
0.0
  0
SPLINE
  5
2A5
100
AcDbEntity
  8
0
100
AcDbSpline
 62
9
  6
CONTINUOUS
 70
0
 71
3
 72
23
 73
19
 74
0
 42
0.0000001
 43
0.0000001
 44
0.0000000001
 40
0.0
 40
0.0
 40
0.0
 40
0.0
 40
0.1234781355
 40
0.1857322226
 40
0.2482518875
 40
0.310990109
 40
0.3424260133
 40
0.3738977516
 40
0.4369201955
 40
0.5000000752
 40
0.5630798794
 40
0.6261022477
 40
0.6575740183
 40
0.6890100362
 40
0.7517486543
 40
0.8142686851
 40
0.876522828
 40
1.0
 40
1.0
 40
1.0
 40
1.0
 10
12.4961287901
 20
4.6176793438
 30
0.0
 10
12.5138494138
 20
4.6186380553
 30
0.0
 10
12.540531267
 20
4.6195916147
 30
0.0
 10
12.5762039028
 20
4.6202737807
 30
0.0
 10
12.6031522029
 20
4.6205721776
 30
0.0
 10
12.6256722704
 20
4.6206946399
 30
0.0
 10
12.6437302761
 20
4.6207509511
 30
0.0
 10
12.6618291795
 20
4.620787854
 30
0.0
 10
12.6844760581
 20
4.620804175
 30
0.0
 10
12.7116657128
 20
4.6208021222
 30
0.0
 10
12.7388553566
 20
4.6208038986
 30
0.0
 10
12.761502218
 20
4.6207874463
 30
0.0
 10
12.7796011314
 20
4.6207505075
 30
0.0
 10
12.7976592152
 20
4.6206942188
 30
0.0
 10
12.8201794093
 20
4.6205719278
 30
0.0
 10
12.8471278301
 20
4.6202737978
 30
0.0
 10
12.8828003922
 20
4.6195918335
 30
0.0
 10
12.9094821172
 20
4.6186382823
 30
0.0
 10
12.9272026002
 20
4.6176795348
 30
0.0
  0
SPLINE
  5
2A6
100
AcDbEntity
  8
0
100
AcDbSpline
 62
9
  6
CONTINUOUS
 70
0
 71
3
 72
54
 73
50
 74
0
 42
0.0000001
 43
0.0000001
 44
0.0000000001
 40
0.0
 40
0.0
 40
0.0
 40
0.0
 40
0.0000047331
 40
0.0000189165
 40
0.0000425496
 40
0.0000756321
 40
0.0001181637
 40
0.000170144
 40
0.0003024492
 40
0.0004725447
 40
0.0006804276
 40
0.0009260949
 40
0.0012095437
 40
0.0018897744
 40
0.0027210965
 40
0.0037034869
 40
0.004836917
 40
0.0061210987
 40
0.0075553933
 40
0.0091391385
 40
0.0108716728
 40
0.0147804682
 40
0.019276522
 40
0.0243550257
 40
0.0300118254
 40
0.0362428571
 40
0.0430440349
 40
0.0504096644
 40
0.0583323534
 40
0.0758192593
 40
0.0954468485
 40
0.1171593404
 40
0.1409002726
 40
0.1666108326
 40
0.1942318218
 40
0.2237030186
 40
0.2549674302
 40
0.2879739896
 40
0.3226665043
 40
0.3589747885
 40
0.3968307122
 40
0.4361755344
 40
0.5191003822
 40
0.6072521342
 40
0.70001521
 40
0.79679363
 40
0.846526221
 40
0.8970365023
 40
1.0
 40
1.0
 40
1.0
 40
1.0
 10
11.7915213035
 20
4.4922750944
 30
0.0
 10
11.7915222543
 20
4.492275711
 30
0.0
 10
11.7915267384
 20
4.4922768343
 30
0.0
 10
11.7915359943
 20
4.4922809874
 30
0.0
 10
11.7915519766
 20
4.492286811
 30
0.0
 10
11.7915740885
 20
4.4922954729
 30
0.0
 10
11.791602623
 20
4.4923063979
 30
0.0
 10
11.7916532955
 20
4.4923259182
 30
0.0
 10
11.7917325001
 20
4.492356346
 30
0.0
 10
11.7918465485
 20
4.4924001524
 30
0.0
 10
11.7919859553
 20
4.4924536367
 30
0.0
 10
11.7921507185
 20
4.4925167945
 30
0.0
 10
11.7924211128
 20
4.4926203444
 30
0.0
 10
11.7928225274
 20
4.4927738431
 30
0.0
 10
11.7933803775
 20
4.4929867667
 30
0.0
 10
11.7940397574
 20
4.4932379704
 30
0.0
 10
11.7948006329
 20
4.4935273146
 30
0.0
 10
11.7956628712
 20
4.4938545043
 30
0.0
 10
11.7966262542
 20
4.4942190397
 30
0.0
 10
11.7976904671
 20
4.4946204223
 30
0.0
 10
11.7993097332
 20
4.4952289637
 30
0.0
 10
11.8015833924
 20
4.4960782852
 30
0.0
 10
11.8046106005
 20
4.4971996042
 30
0.0
 10
11.8080341228
 20
4.4984558227
 30
0.0
 10
11.8118525091
 20
4.4998417232
 30
0.0
 10
11.8160643785
 20
4.5013523146
 30
0.0
 10
11.820667974
 20
4.5029824723
 30
0.0
 10
11.8256608798
 20
4.5047264526
 30
0.0
 10
11.8330808179
 20
4.5072802418
 30
0.0
 10
11.8433026222
 20
4.5107138011
 30
0.0
 10
11.856699727
 20
4.515060842
 30
0.0
 10
11.871572845
 20
4.5197076873
 30
0.0
 10
11.8878929674
 20
4.5246032661
 30
0.0
 10
11.9056287629
 20
4.5296987508
 30
0.0
 10
11.9247470087
 20
4.5349459282
 30
0.0
 10
11.9452131094
 20
4.5403005883
 30
0.0
 10
11.9669936098
 20
4.5457193555
 30
0.0
 10
11.9900543965
 20
4.5511629647
 30
0.0
 10
12.0143574729
 20
4.556592532
 30
0.0
 10
12.0398588967
 20
4.5619749332
 30
0.0
 10
12.0665139553
 20
4.5672763824
 30
0.0
 10
12.1041992446
 20
4.5743219627
 30
0.0
 10
12.1538783915
 20
4.5827208297
 30
0.0
 10
12.2163855747
 20
4.5918738073
 30
0.0
 10
12.2823644459
 20
4.6001065447
 30
0.0
 10
12.3393488594
 20
4.6060324326
 30
0.0
 10
12.3863365799
 20
4.6101965258
 30
0.0
 10
12.4348396274
 20
4.6140080055
 30
0.0
 10
12.4715130965
 20
4.6163476432
 30
0.0
 10
12.4961287901
 20
4.6176793438
 30
0.0
  0
SPLINE
  5
2A7
100
AcDbEntity
  8
0
100
AcDbSpline
 62
9
  6
CONTINUOUS
 70
0
 71
3
 72
72
 73
68
 74
0
 42
0.0000001
 43
0.0000001
 44
0.0000000001
 40
0.0
 40
0.0
 40
0.0
 40
0.0
 40
0.0486356917
 40
0.0729208517
 40
0.0971607941
 40
0.1213401955
 40
0.1454452191
 40
0.1933765506
 40
0.2408409451
 40
0.2877236667
 40
0.3109123627
 40
0.3339141786
 40
0.3793032557
 40
0.4016644193
 40
0.4237861054
 40
0.4672606544
 40
0.5096269426
 40
0.5507895332
 40
0.5906566896
 40
0.6291405729
 40
0.6661565624
 40
0.7016227149
 40
0.7354603155
 40
0.7675930397
 40
0.7979484277
 40
0.8264553798
 40
0.8530434475
 40
0.8776435828
 40
0.900187552
 40
0.9206079013
 40
0.9300007003
 40
0.9388374832
 40
0.9471098877
 40
0.9548096641
 40
0.9619290273
 40
0.9684601988
 40
0.9743954347
 40
0.9797277957
 40
0.9844506772
 40
0.9865814842
 40
0.9885574644
 40
0.9903780097
 40
0.9920425573
 40
0.9935505422
 40
0.9949013981
 40
0.9960945567
 40
0.997129455
 40
0.9975874231
 40
0.9980057008
 40
0.9983842631
 40
0.998723085
 40
0.9990221415
 40
0.9992814075
 40
0.9995008581
 40
0.9995956447
 40
0.999680468
 40
0.9997553249
 40
0.9998202123
 40
0.9998751269
 40
0.9999200658
 40
0.9999550256
 40
0.9999687625
 40
0.9999800034
 40
0.999988748
 40
0.9999949959
 40
0.9999987467
 40
1.0
 40
1.0
 40
1.0
 40
1.0
 10
12.7117062294
 20
4.6824410273
 30
0.0
 10
12.7260804659
 20
4.6824408249
 30
0.0
 10
12.7476323759
 20
4.6823091452
 30
0.0
 10
12.7763453786
 20
4.6819045443
 30
0.0
 10
12.7978293512
 20
4.6814965518
 30
0.0
 10
12.8192578686
 20
4.6809858768
 30
0.0
 10
12.8476826595
 20
4.6801671894
 30
0.0
 10
12.8829783491
 20
4.6788835932
 30
0.0
 10
12.9249830219
 20
4.6769079076
 30
0.0
 10
12.9596622565
 20
4.6748815969
 30
0.0
 10
12.9871095631
 20
4.6730580552
 30
0.0
 10
13.0141069586
 20
4.6711273113
 30
0.0
 10
13.0408453579
 20
4.669006794
 30
0.0
 10
13.0673040607
 20
4.6666697393
 30
0.0
 10
13.0931844478
 20
4.6642220291
 30
0.0
 10
13.1249238555
 20
4.660936855
 30
0.0
 10
13.1622164264
 20
4.6566646011
 30
0.0
 10
13.1984002594
 20
4.6521014347
 30
0.0
 10
13.2333903398
 20
4.647263003
 30
0.0
 10
13.2671059087
 20
4.6421736266
 30
0.0
 10
13.2994705603
 20
4.6368670578
 30
0.0
 10
13.3304124375
 20
4.6313860721
 30
0.0
 10
13.359863332
 20
4.6257768926
 30
0.0
 10
13.3877588115
 20
4.6200872307
 30
0.0
 10
13.4140358204
 20
4.6143579137
 30
0.0
 10
13.4386352691
 20
4.6086384805
 30
0.0
 10
13.4615030266
 20
4.6029919945
 30
0.0
 10
13.4825869888
 20
4.5974815951
 30
0.0
 10
13.5018372482
 20
4.5921715677
 30
0.0
 10
13.5166990867
 20
4.5878601386
 30
0.0
 10
13.5276377885
 20
4.5845692208
 30
0.0
 10
13.5351242201
 20
4.5822660976
 30
0.0
 10
13.5421193007
 20
4.5800680042
 30
0.0
 10
13.5486181913
 20
4.5779844356
 30
0.0
 10
13.5546162501
 20
4.5760246874
 30
0.0
 10
13.5601090416
 20
4.574197961
 30
0.0
 10
13.5650924698
 20
4.5725134519
 30
0.0
 10
13.5695625988
 20
4.5709795345
 30
0.0
 10
13.5729642165
 20
4.5697961395
 30
0.0
 10
13.5754264373
 20
4.5689315639
 30
0.0
 10
13.5770783391
 20
4.5683483916
 30
0.0
 10
13.5785994232
 20
4.5678086221
 30
0.0
 10
13.5799893889
 20
4.5673129539
 30
0.0
 10
13.581247948
 20
4.5668620798
 30
0.0
 10
13.5823748138
 20
4.566456696
 30
0.0
 10
13.5833696956
 20
4.5660974826
 30
0.0
 10
13.5841161298
 20
4.5658272279
 30
0.0
 10
13.5846471267
 20
4.565634658
 30
0.0
 10
13.5849957198
 20
4.5655080953
 30
0.0
 10
13.5853111724
 20
4.5653934373
 30
0.0
 10
13.5855934719
 20
4.5652907142
 30
0.0
 10
13.5858426061
 20
4.5651999571
 30
0.0
 10
13.5860585623
 20
4.5651211968
 30
0.0
 10
13.5862177795
 20
4.5650630625
 30
0.0
 10
13.5863285554
 20
4.5650225777
 30
0.0
 10
13.586399188
 20
4.564996748
 30
0.0
 10
13.5864615174
 20
4.564973941
 30
0.0
 10
13.5865155399
 20
4.564954159
 30
0.0
 10
13.5865612602
 20
4.5649374107
 30
0.0
 10
13.586598659
 20
4.5649236864
 30
0.0
 10
13.5866246606
 20
4.5649141689
 30
0.0
 10
13.5866412552
 20
4.5649080353
 30
0.0
 10
13.5866506803
 20
4.5649046507
 30
0.0
 10
13.5866577749
 20
4.5649018343
 30
0.0
 10
13.5866633844
 20
4.5649002345
 30
0.0
 10
13.5866657818
 20
4.5648985293
 30
0.0
 10
13.5866679169
 20
4.5648985877
 30
0.0
 10
13.5866679548
 20
4.5648982192
 30
0.0
  0
SPLINE
  5
2A8
100
AcDbEntity
  8
0
100
AcDbSpline
 62
9
  6
CONTINUOUS
 70
0
 71
3
 72
15
 73
11
 74
0
 42
0.0000001
 43
0.0000001
 44
0.0000000001
 40
0.0
 40
0.0
 40
0.0
 40
0.0
 40
0.1276136808
 40
0.2544337961
 40
0.3803898198
 40
0.5055167248
 40
0.6298863834
 40
0.7536269999
 40
0.8769356368
 40
1.0
 40
1.0
 40
1.0
 40
1.0
 10
12.8070844831
 20
6.8107739259
 30
0.0
 10
12.8063039371
 20
6.8103688948
 30
0.0
 10
12.8047982528
 20
6.809459119
 30
0.0
 10
12.8027464771
 20
6.8078160681
 30
0.0
 10
12.8009430601
 20
6.8059265088
 30
0.0
 10
12.7994208006
 20
6.8038246422
 30
0.0
 10
12.7982072555
 20
6.8015477632
 30
0.0
 10
12.7973241721
 20
6.7991365747
 30
0.0
 10
12.7967879407
 20
6.7966349908
 30
0.0
 10
12.7966679548
 20
6.794934842
 30
0.0
 10
12.7966679548
 20
6.7940868149
 30
0.0
  0
SPLINE
  5
2A9
100
AcDbEntity
  8
0
100
AcDbSpline
 62
9
  6
CONTINUOUS
 70
0
 71
3
 72
15
 73
11
 74
0
 42
0.0000001
 43
0.0000001
 44
0.0000000001
 40
0.0
 40
0.0
 40
0.0
 40
0.0
 40
0.0911994941
 40
0.1948551073
 40
0.3102745245
 40
0.4360508213
 40
0.5702763402
 40
0.7106927308
 40
0.8548084017
 40
1.0
 40
1.0
 40
1.0
 40
1.0
 10
12.7882146776
 20
6.8219021388
 30
0.0
 10
12.7877197842
 20
6.8215187942
 30
0.0
 10
12.7867416018
 20
6.8205964485
 30
0.0
 10
12.7854045377
 20
6.8189329431
 30
0.0
 10
12.7841287532
 20
6.8169343288
 30
0.0
 10
12.7829421776
 20
6.8146435896
 30
0.0
 10
12.7818704679
 20
6.8121099711
 30
0.0
 10
12.7809374505
 20
6.8093889369
 30
0.0
 10
12.7801638855
 20
6.8065405643
 30
0.0
 10
12.7797649095
 20
6.804593643
 30
0.0
 10
12.7795959885
 20
6.8036114617
 30
0.0
  0
SPLINE
  5
2AA
100
AcDbEntity
  8
0
100
AcDbSpline
 62
9
  6
CONTINUOUS
 70
0
 71
3
 72
15
 73
11
 74
0
 42
0.0000001
 43
0.0000001
 44
0.0000000001
 40
0.0
 40
0.0
 40
0.0
 40
0.0
 40
0.0911952284
 40
0.1948492799
 40
0.3102686934
 40
0.4360458259
 40
0.5702725765
 40
0.7106903207
 40
0.8548072871
 40
1.0
 40
1.0
 40
1.0
 40
1.0
 10
12.6351211064
 20
6.8219020181
 30
0.0
 10
12.6356159508
 20
6.8215186569
 30
0.0
 10
12.6365940537
 20
6.8205962874
 30
0.0
 10
12.6379310566
 20
6.8189327839
 30
0.0
 10
12.6392068354
 20
6.8169341703
 30
0.0
 10
12.6403934439
 20
6.8146434296
 30
0.0
 10
12.6414652109
 20
6.812109807
 30
0.0
 10
12.6423983002
 20
6.8093887662
 30
0.0
 10
12.6431719454
 20
6.8065403852
 30
0.0
 10
12.6435709757
 20
6.8045934559
 30
0.0
 10
12.6437399246
 20
6.8036112705
 30
0.0
  0
SPLINE
  5
2AB
100
AcDbEntity
  8
0
100
AcDbSpline
 62
9
  6
CONTINUOUS
 70
0
 71
3
 72
15
 73
11
 74
0
 42
0.0000001
 43
0.0000001
 44
0.0000000001
 40
0.0
 40
0.0
 40
0.0
 40
0.0
 40
0.1276164293
 40
0.2544387503
 40
0.3803962038
 40
0.5055236281
 40
0.6298928516
 40
0.753632107
 40
0.876938549
 40
1.0
 40
1.0
 40
1.0
 40
1.0
 10
12.6162514266
 20
6.810773894
 30
0.0
 10
12.6170319717
 20
6.810368822
 30
0.0
 10
12.6185376522
 20
6.8094589799
 30
0.0
 10
12.6205894266
 20
6.8078158632
 30
0.0
 10
12.6223928435
 20
6.8059262693
 30
0.0
 10
12.6239151038
 20
6.8038243944
 30
0.0
 10
12.6251286502
 20
6.8015475295
 30
0.0
 10
12.6260117351
 20
6.7991363739
 30
0.0
 10
12.6265479679
 20
6.7966348385
 30
0.0
 10
12.6266679548
 20
6.7949347266
 30
0.0
 10
12.6266679548
 20
6.7940867206
 30
0.0
  0
SPLINE
  5
2AC
100
AcDbEntity
  8
0
100
AcDbSpline
 62
9
  6
CONTINUOUS
 70
0
 71
3
 72
45
 73
41
 74
0
 42
0.0000001
 43
0.0000001
 44
0.0000000001
 40
0.0
 40
0.0
 40
0.0
 40
0.0
 40
0.0312479809
 40
0.0468745258
 40
0.0625020411
 40
0.0781295427
 40
0.0937559441
 40
0.1093814811
 40
0.125006648
 40
0.1562565049
 40
0.1718815501
 40
0.1875064125
 40
0.2187559229
 40
0.2500059944
 40
0.2812560819
 40
0.3125055099
 40
0.3437548244
 40
0.3750042489
 40
0.406253546
 40
0.4375027075
 40
0.5000000171
 40
0.5624973273
 40
0.5937464874
 40
0.6249957813
 40
0.6562452037
 40
0.6874945159
 40
0.7187439395
 40
0.7499940211
 40
0.7812440894
 40
0.8124935971
 40
0.8281184577
 40
0.843743501
 40
0.8749933548
 40
0.8906185205
 40
0.9062440564
 40
0.9218704571
 40
0.9374979581
 40
0.9531254731
 40
0.9687520181
 40
1.0
 40
1.0
 40
1.0
 40
1.0
 10
13.4957711217
 20
4.4674410273
 30
0.0
 10
13.4798809422
 20
4.4718374337
 30
0.0
 10
13.4559418981
 20
4.4780681763
 30
0.0
 10
13.4238644045
 20
4.485722276
 30
0.0
 10
13.3997321512
 20
4.4911563241
 30
0.0
 10
13.3755371495
 20
4.4963024905
 30
0.0
 10
13.3512877552
 20
4.5011804548
 30
0.0
 10
13.3269891073
 20
4.5058001718
 30
0.0
 10
13.2945310575
 20
4.5116284722
 30
0.0
 10
13.2619893554
 20
4.5169798923
 30
0.0
 10
13.2293809563
 20
4.5218940402
 30
0.0
 10
13.1967318967
 20
4.526529537
 30
0.0
 10
13.1558497538
 20
4.5318137141
 30
0.0
 10
13.1066975057
 20
4.537379461
 30
0.0
 10
13.0574680264
 20
4.5422127238
 30
0.0
 10
13.0081757508
 20
4.5463502831
 30
0.0
 10
12.9588316907
 20
4.5498100844
 30
0.0
 10
12.9094461231
 20
4.5526124115
 30
0.0
 10
12.8600286566
 20
4.5547787202
 30
0.0
 10
12.7941085115
 20
4.55683229
 30
0.0
 10
12.7116679488
 20
4.5578468441
 30
0.0
 10
12.6292273867
 20
4.5568323074
 30
0.0
 10
12.5633072429
 20
4.5547787596
 30
0.0
 10
12.5138897812
 20
4.5526124203
 30
0.0
 10
12.4645042186
 20
4.5498100756
 30
0.0
 10
12.4151601638
 20
4.5463502648
 30
0.0
 10
12.3658678964
 20
4.5422126873
 30
0.0
 10
12.3166384271
 20
4.5373793959
 30
0.0
 10
12.2674861841
 20
4.5318136611
 30
0.0
 10
12.2266040428
 20
4.526529503
 30
0.0
 10
12.1939549847
 20
4.52189402
 30
0.0
 10
12.1613465872
 20
4.5169798859
 30
0.0
 10
12.1288048851
 20
4.5116284865
 30
0.0
 10
12.096346836
 20
4.5058001976
 30
0.0
 10
12.0720481896
 20
4.5011804816
 30
0.0
 10
12.0477987983
 20
4.4963025079
 30
0.0
 10
12.0236038029
 20
4.491156316
 30
0.0
 10
11.9994715565
 20
4.4857222388
 30
0.0
 10
11.9673940685
 20
4.4780681141
 30
0.0
 10
11.9434550204
 20
4.4718373887
 30
0.0
 10
11.9275648278
 20
4.4674410273
 30
0.0
  0
SPLINE
  5
2AD
100
AcDbEntity
  8
0
100
AcDbSpline
 62
9
  6
CONTINUOUS
 70
0
 71
3
 72
133
 73
129
 74
0
 42
0.0000001
 43
0.0000001
 44
0.0000000001
 40
0.0
 40
0.0
 40
0.0
 40
0.0
 40
0.000000626
 40
0.0000025035
 40
0.0000056324
 40
0.0000100125
 40
0.0000156438
 40
0.0000225262
 40
0.0000400437
 40
0.0000625644
 40
0.0000900873
 40
0.0001226117
 40
0.0001601369
 40
0.0002026619
 40
0.0002501861
 40
0.0003602287
 40
0.0004902584
 40
0.0006402688
 40
0.0008102537
 40
0.0010002067
 40
0.0012101216
 40
0.0014399921
 40
0.0019595718
 40
0.0025587674
 40
0.0032372264
 40
0.0039945845
 40
0.0048304777
 40
0.005744543
 40
0.0067364183
 40
0.0078057427
 40
0.0101753247
 40
0.0128504947
 40
0.0158284849
 40
0.0191062787
 40
0.0226797171
 40
0.0265443653
 40
0.0306958321
 40
0.0351298748
 40
0.0398423845
 40
0.0500864101
 40
0.0613933177
 40
0.0737269749
 40
0.0870520655
 40
0.1013340346
 40
0.1165391144
 40
0.1326308328
 40
0.1495673115
 40
0.16730958
 40
0.185821794
 40
0.2050654836
 40
0.224998877
 40
0.2455721453
 40
0.266736438
 40
0.2884492296
 40
0.3106644456
 40
0.333330965
 40
0.3563941353
 40
0.3797981978
 40
0.3916114255
 40
0.4034899713
 40
0.4274143804
 40
0.4394454823
 40
0.4515126572
 40
0.4757267646
 40
0.4999999661
 40
0.5242731659
 40
0.5484872838
 40
0.5605544792
 40
0.5725856137
 40
0.5965100436
 40
0.6083885335
 40
0.6202016714
 40
0.6436056738
 40
0.6666691136
 40
0.6893357142
 40
0.7115506078
 40
0.7332633371
 40
0.7544278972
 40
0.7750012714
 40
0.7949345889
 40
0.8141781902
 40
0.8326903629
 40
0.8504326495
 40
0.8673691683
 40
0.8834609119
 40
0.8986659766
 40
0.9129479168
 40
0.9262730083
 40
0.9386066729
 40
0.949913575
 40
0.9601576138
 40
0.9648701379
 40
0.9693041919
 40
0.9734556596
 40
0.9773202973
 40
0.9808937192
 40
0.9841714956
 40
0.9871494719
 40
0.9898246336
 40
0.9921942168
 40
0.9932635465
 40
0.9942554302
 40
0.9951695061
 40
0.9960054107
 40
0.9967627797
 40
0.9974412481
 40
0.9980404501
 40
0.9985600318
 40
0.9987899011
 40
0.9989998138
 40
0.9991897637
 40
0.9993597449
 40
0.9995097515
 40
0.9996397773
 40
0.9997498164
 40
0.999797339
 40
0.9998398627
 40
0.9998773868
 40
0.9999099103
 40
0.9999374327
 40
0.9999599531
 40
0.9999774708
 40
0.9999843534
 40
0.999989985
 40
0.9999943656
 40
0.999997495
 40
0.9999993732
 40
1.0
 40
1.0
 40
1.0
 40
1.0
 10
11.8104122752
 20
4.5273336926
 30
0.0
 10
11.8104123349
 20
4.5273340689
 30
0.0
 10
11.8104145012
 20
4.5273339673
 30
0.0
 10
11.8104170304
 20
4.5273356904
 30
0.0
 10
11.8104228211
 20
4.5273372494
 30
0.0
 10
11.8104301881
 20
4.527340047
 30
0.0
 10
11.8104399568
 20
4.5273433954
 30
0.0
 10
11.8104571677
 20
4.5273494753
 30
0.0
 10
11.8104841318
 20
4.5273589101
 30
0.0
 10
11.8105229195
 20
4.5273725228
 30
0.0
 10
11.8105703403
 20
4.5273891392
 30
0.0
 10
11.8106263764
 20
4.5274087707
 30
0.0
 10
11.8106910336
 20
4.5274314092
 30
0.0
 10
11.8107643092
 20
4.5274570532
 30
0.0
 10
11.8108792436
 20
4.5274972562
 30
0.0
 10
11.8110444552
 20
4.5275550011
 30
0.0
 10
11.8112685646
 20
4.5276332553
 30
0.0
 10
11.8115271394
 20
4.5277234556
 30
0.0
 10
11.811820176
 20
4.5278255772
 30
0.0
 10
11.8121476709
 20
4.5279395952
 30
0.0
 10
11.8125096204
 20
4.5280654852
 30
0.0
 10
11.8130610861
 20
4.5282570999
 30
0.0
 10
11.8138364412
 20
4.5285261154
 30
0.0
 10
11.8148699561
 20
4.5288838609
 30
0.0
 10
11.8160406218
 20
4.5292877387
 30
0.0
 10
11.8173479858
 20
4.5297370381
 30
0.0
 10
11.8187915958
 20
4.5302310263
 30
0.0
 10
11.8203709967
 20
4.5307689763
 30
0.0
 10
11.822085737
 20
4.5313501533
 30
0.0
 10
11.8246406776
 20
4.5322116829
 30
0.0
 10
11.8281693663
 20
4.5333912973
 30
0.0
 10
11.8328055266
 20
4.5349213986
 30
0.0
 10
11.8379735515
 20
4.5366032721
 30
0.0
 10
11.843669468
 20
4.5384292523
 30
0.0
 10
11.8498886044
 20
4.5403903566
 30
0.0
 10
11.8566254289
 20
4.5424773277
 30
0.0
 10
11.8638742963
 20
4.5446808702
 30
0.0
 10
11.8716297036
 20
4.5469916696
 30
0.0
 10
11.8829573742
 20
4.5502964253
 30
0.0
 10
11.8983405942
 20
4.5546324807
 30
0.0
 10
11.9182549509
 20
4.559982466
 30
0.0
 10
11.9400522735
 20
4.5655434168
 30
0.0
 10
11.9636788375
 20
4.5712500971
 30
0.0
 10
11.9890808854
 20
4.5770393733
 30
0.0
 10
12.016202163
 20
4.5828514158
 30
0.0
 10
12.0449801576
 20
4.5886299827
 30
0.0
 10
12.075346263
 20
4.594329713
 30
0.0
 10
12.1072320232
 20
4.5999042004
 30
0.0
 10
12.1405701911
 20
4.6053088282
 30
0.0
 10
12.1752908375
 20
4.6105016787
 30
0.0
 10
12.2113148862
 20
4.6154405365
 30
0.0
 10
12.2485534214
 20
4.6201064876
 30
0.0
 10
12.2869179385
 20
4.6244761327
 30
0.0
 10
12.3263237982
 20
4.628509936
 30
0.0
 10
12.3666833301
 20
4.6321787851
 30
0.0
 10
12.4079007763
 20
4.6354580611
 30
0.0
 10
12.4498732206
 20
4.6383370446
 30
0.0
 10
12.4852801274
 20
4.6403905029
 30
0.0
 10
12.5139040175
 20
4.64182021
 30
0.0
 10
12.5428515934
 20
4.6431082235
 30
0.0
 10
12.5719416487
 20
4.6441671279
 30
0.0
 10
12.6011531796
 20
4.6450057265
 30
0.0
 10
12.6305448401
 20
4.6457005313
 30
0.0
 10
12.6673903978
 20
4.646287358
 30
0.0
 10
12.7116678917
 20
4.6465225811
 30
0.0
 10
12.75594539
 20
4.6462870797
 30
0.0
 10
12.7927909643
 20
4.6457002552
 30
0.0
 10
12.8221826684
 20
4.645005668
 30
0.0
 10
12.8513942549
 20
4.6441674519
 30
0.0
 10
12.8804843242
 20
4.6431089226
 30
0.0
 10
12.909431813
 20
4.6418206406
 30
0.0
 10
12.9380555464
 20
4.6403902914
 30
0.0
 10
12.9734624752
 20
4.6383360349
 30
0.0
 10
13.015435178
 20
4.635458313
 30
0.0
 10
13.0566527096
 20
4.6321797873
 30
0.0
 10
13.0970119229
 20
4.6285094395
 30
0.0
 10
13.1364176687
 20
4.6244753049
 30
0.0
 10
13.1747825023
 20
4.6201067709
 30
0.0
 10
13.2120212346
 20
4.6154408984
 30
0.0
 10
13.2480451826
 20
4.610501572
 30
0.0
 10
13.2827657086
 20
4.6053087745
 30
0.0
 10
13.3161038285
 20
4.5999042702
 30
0.0
 10
13.3479895866
 20
4.5943297086
 30
0.0
 10
13.3783557348
 20
4.5886299335
 30
0.0
 10
13.4071337675
 20
4.5828514016
 30
0.0
 10
13.4342550388
 20
4.5770393834
 30
0.0
 10
13.4596570594
 20
4.5712501048
 30
0.0
 10
13.4832836063
 20
4.5655434075
 30
0.0
 10
13.5050809289
 20
4.5599824507
 30
0.0
 10
13.5249953006
 20
4.5546324859
 30
0.0
 10
13.5403785364
 20
4.5502964364
 30
0.0
 10
13.5517062283
 20
4.5469916693
 30
0.0
 10
13.5594616496
 20
4.5446808598
 30
0.0
 10
13.5667105161
 20
4.5424773111
 30
0.0
 10
13.573447324
 20
4.5403903402
 30
0.0
 10
13.5796664344
 20
4.5384292432
 30
0.0
 10
13.5853623246
 20
4.5366032765
 30
0.0
 10
13.590530331
 20
4.5349214237
 30
0.0
 10
13.595166484
 20
4.5333913412
 30
0.0
 10
13.5986951741
 20
4.5322117342
 30
0.0
 10
13.6012501223
 20
4.5313501988
 30
0.0
 10
13.6029648745
 20
4.5307690111
 30
0.0
 10
13.6045442902
 20
4.5302310469
 30
0.0
 10
13.605987916
 20
4.5297370434
 30
0.0
 10
13.6072952954
 20
4.5292877293
 30
0.0
 10
13.6084659742
 20
4.5288838398
 30
0.0
 10
13.6094994984
 20
4.5285260877
 30
0.0
 10
13.6102748582
 20
4.5282570722
 30
0.0
 10
13.6108263248
 20
4.5280654629
 30
0.0
 10
13.6111882722
 20
4.5279395788
 30
0.0
 10
13.6115157637
 20
4.5278255677
 30
0.0
 10
13.6118087961
 20
4.5277234536
 30
0.0
 10
13.6120673661
 20
4.5276332606
 30
0.0
 10
13.6122914705
 20
4.5275550129
 30
0.0
 10
13.6124566779
 20
4.5274972726
 30
0.0
 10
13.6125716091
 20
4.5274570722
 30
0.0
 10
13.6126448826
 20
4.5274314294
 30
0.0
 10
13.6127095378
 20
4.5274087916
 30
0.0
 10
13.6127655723
 20
4.5273891599
 30
0.0
 10
13.6128129917
 20
4.5273725426
 30
0.0
 10
13.6128517782
 20
4.5273589283
 30
0.0
 10
13.612878742
 20
4.5273494911
 30
0.0
 10
13.6128959519
 20
4.5273434089
 30
0.0
 10
13.6129057216
 20
4.5273400582
 30
0.0
 10
13.6129130861
 20
4.5273372591
 30
0.0
 10
13.6129188829
 20
4.5273356961
 30
0.0
 10
13.6129214019
 20
4.527333973
 30
0.0
 10
13.6129235799
 20
4.5273340702
 30
0.0
 10
13.6129236345
 20
4.5273336926
 30
0.0
  0
SPLINE
  5
2AE
100
AcDbEntity
  8
0
100
AcDbSpline
 62
9
  6
CONTINUOUS
 70
0
 71
3
 72
72
 73
68
 74
0
 42
0.0000001
 43
0.0000001
 44
0.0000000001
 40
0.0
 40
0.0
 40
0.0
 40
0.0
 40
0.0000012499
 40
0.0000049974
 40
0.0000112421
 40
0.0000199836
 40
0.0000312215
 40
0.0000449555
 40
0.0000799101
 40
0.0001248442
 40
0.0001797546
 40
0.0002446383
 40
0.0003194922
 40
0.0004043131
 40
0.0004990979
 40
0.0007185469
 40
0.0009778142
 40
0.001276875
 40
0.0016157044
 40
0.0019942776
 40
0.0024125697
 40
0.0028705559
 40
0.0039055026
 40
0.0050987242
 40
0.0064496515
 40
0.00795771
 40
0.0096223269
 40
0.0114429311
 40
0.0134189536
 40
0.0155497834
 40
0.0202726791
 40
0.0256050647
 40
0.0315403958
 40
0.0380717604
 40
0.0451913681
 40
0.0528913849
 40
0.061163983
 40
0.0700009234
 40
0.079393871
 40
0.099814574
 40
0.1223589562
 40
0.1469595082
 40
0.1735479989
 40
0.2020553822
 40
0.2324111903
 40
0.2645443167
 40
0.2983823017
 40
0.3338488171
 40
0.3708651304
 40
0.4093492657
 40
0.4492166259
 40
0.4903793998
 40
0.5327457765
 40
0.576220285
 40
0.5983419149
 40
0.6207029984
 40
0.6660918337
 40
0.6890934839
 40
0.7122819811
 40
0.7591641811
 40
0.8066278936
 40
0.8545584067
 40
0.8786629511
 40
0.9028418183
 40
0.9270811747
 40
0.9513657046
 40
1.0
 40
1.0
 40
1.0
 40
1.0
 10
11.8366679548
 20
4.5648982192
 30
0.0
 10
11.8366679945
 20
4.5648985865
 30
0.0
 10
11.8366701274
 20
4.564898515
 30
0.0
 10
11.8366725253
 20
4.5649002227
 30
0.0
 10
11.8366781343
 20
4.5649018111
 30
0.0
 10
11.8366852292
 20
4.5649046232
 30
0.0
 10
11.8366946548
 20
4.5649080004
 30
0.0
 10
11.8367112509
 20
4.5649141251
 30
0.0
 10
11.836737255
 20
4.5649236315
 30
0.0
 10
11.8367746573
 20
4.564937344
 30
0.0
 10
11.8368203823
 20
4.5649540809
 30
0.0
 10
11.8368744105
 20
4.5649738523
 30
0.0
 10
11.8369367467
 20
4.5649966494
 30
0.0
 10
11.8370073873
 20
4.5650224702
 30
0.0
 10
11.8371181762
 20
4.5650629442
 30
0.0
 10
11.8372774119
 20
4.5651210683
 30
0.0
 10
11.837493393
 20
4.5651998219
 30
0.0
 10
11.8377425559
 20
4.5652905783
 30
0.0
 10
11.8380248879
 20
4.5653933075
 30
0.0
 10
11.8383403767
 20
4.5655079793
 30
0.0
 10
11.8386890095
 20
4.5656345642
 30
0.0
 10
11.8392200678
 20
4.5658271779
 30
0.0
 10
11.8399665857
 20
4.5660975153
 30
0.0
 10
11.8409615748
 20
4.5664568594
 30
0.0
 10
11.8420885625
 20
4.5668623913
 30
0.0
 10
11.8433472582
 20
4.5673134147
 30
0.0
 10
11.844737375
 20
4.567809216
 30
0.0
 10
11.846258625
 20
4.5683490854
 30
0.0
 10
11.8479107086
 20
4.5689323073
 30
0.0
 10
11.8503732014
 20
4.5697968596
 30
0.0
 10
11.8537752142
 20
4.5709801211
 30
0.0
 10
11.8582458637
 20
4.5725139002
 30
0.0
 10
11.8632298481
 20
4.57419847
 30
0.0
 10
11.8687232099
 20
4.576025563
 30
0.0
 10
11.8747218939
 20
4.5779857973
 30
0.0
 10
11.8812214674
 20
4.5800698242
 30
0.0
 10
11.888217314
 20
4.5822681766
 30
0.0
 10
11.8957045702
 20
4.5845714223
 30
0.0
 10
11.9066444764
 20
4.5878624376
 30
0.0
 10
11.9215079061
 20
4.5921741453
 30
0.0
 10
11.9407601852
 20
4.5974846511
 30
0.0
 10
11.9618463798
 20
4.6029954168
 30
0.0
 10
11.9847165287
 20
4.6086422685
 30
0.0
 10
12.0093185127
 20
4.6143620905
 30
0.0
 10
12.0355982117
 20
4.6200917126
 30
0.0
 10
12.0634965233
 20
4.6257815759
 30
0.0
 10
12.0929503639
 20
4.631390939
 30
0.0
 10
12.1238952803
 20
4.6368721357
 30
0.0
 10
12.1562630462
 20
4.6421789339
 30
0.0
 10
12.1899818803
 20
4.6472679695
 30
0.0
 10
12.2249753098
 20
4.6521058005
 30
0.0
 10
12.2611623246
 20
4.656669986
 30
0.0
 10
12.2984581189
 20
4.6609432348
 30
0.0
 10
12.3302003988
 20
4.6642274407
 30
0.0
 10
12.356083061
 20
4.6666743702
 30
0.0
 10
12.3825439955
 20
4.6690109498
 30
0.0
 10
12.4092845738
 20
4.6711314368
 30
0.0
 10
12.4362841223
 20
4.6730623302
 30
0.0
 10
12.4637335357
 20
4.6748860361
 30
0.0
 10
12.4984153797
 20
4.6769121151
 30
0.0
 10
12.540423209
 20
4.6788853115
 30
0.0
 10
12.5757213854
 20
4.6801680954
 30
0.0
 10
12.6041480693
 20
4.6809875223
 30
0.0
 10
12.6255779526
 20
4.681498744
 30
0.0
 10
12.6470632633
 20
4.6819068096
 30
0.0
 10
12.6757779869
 20
4.6823105725
 30
0.0
 10
12.6973311644
 20
4.6824412297
 30
0.0
 10
12.7117062294
 20
4.6824410273
 30
0.0
  0
SPLINE
  5
2AF
100
AcDbEntity
  8
0
100
AcDbSpline
 62
9
  6
CONTINUOUS
 70
0
 71
3
 72
43
 73
39
 74
0
 42
0.0000001
 43
0.0000001
 44
0.0000000001
 40
0.0
 40
0.0
 40
0.0
 40
0.0
 40
0.133734879
 40
0.2674011492
 40
0.3341748448
 40
0.4008805158
 40
0.4674862306
 40
0.5339457593
 40
0.6001902034
 40
0.6661126343
 40
0.6989024785
 40
0.7315376636
 40
0.763975165
 40
0.7961553219
 40
0.8279912391
 40
0.8593535699
 40
0.8900390132
 40
0.90502986
 40
0.9197053574
 40
0.9339790576
 40
0.9477261208
 40
0.9607625612
 40
0.9669360761
 40
0.9728208568
 40
0.9783586349
 40
0.9834872961
 40
0.9881153606
 40
0.9921372265
 40
0.9938873102
 40
0.9954447061
 40
0.9967951614
 40
0.9979244234
 40
0.9988190514
 40
0.9994691463
 40
0.999699702
 40
0.9998657741
 40
0.9999662458
 40
1.0
 40
1.0
 40
1.0
 40
1.0
 10
13.4957711215
 20
4.4674410274
 30
0.0
 10
13.5035206606
 20
4.4667609995
 30
0.0
 10
13.5190129469
 20
4.4653689681
 30
0.0
 10
13.538366059
 20
4.4635445003
 30
0.0
 10
13.5538321676
 20
4.462032977
 30
0.0
 10
13.565413208
 20
4.4608738718
 30
0.0
 10
13.5769732748
 20
4.4596890496
 30
0.0
 10
13.5885037723
 20
4.4584791894
 30
0.0
 10
13.5999917308
 20
4.4572451332
 30
0.0
 10
13.6095297735
 20
4.45619668
 30
0.0
 10
13.617122899
 20
4.455347658
 30
0.0
 10
13.6227794784
 20
4.4547079594
 30
0.0
 10
13.6284000088
 20
4.454065139
 30
0.0
 10
13.6339735471
 20
4.4534206456
 30
0.0
 10
13.6394841688
 20
4.4527765569
 30
0.0
 10
13.6449076577
 20
4.4521359788
 30
0.0
 10
13.6493574066
 20
4.4516050184
 30
0.0
 10
13.652842957
 20
4.4511860049
 30
0.0
 10
13.6553804906
 20
4.4508794851
 30
0.0
 10
13.6578460283
 20
4.4505802584
 30
0.0
 10
13.6602167562
 20
4.4502911955
 30
0.0
 10
13.6621196422
 20
4.4500581768
 30
0.0
 10
13.6635685178
 20
4.4498803027
 30
0.0
 10
13.6645844212
 20
4.4497553542
 30
0.0
 10
13.6655399688
 20
4.4496375688
 30
0.0
 10
13.6664229223
 20
4.4495283997
 30
0.0
 10
13.6672183425
 20
4.4494298935
 30
0.0
 10
13.6678187351
 20
4.4493556489
 30
0.0
 10
13.6682418803
 20
4.4493035055
 30
0.0
 10
13.6685108
 20
4.4492703915
 30
0.0
 10
13.6687438731
 20
4.449241659
 30
0.0
 10
13.6689386763
 20
4.4492175837
 30
0.0
 10
13.6690930206
 20
4.4491983058
 30
0.0
 10
13.6691954939
 20
4.449185501
 30
0.0
 10
13.6692558834
 20
4.4491777573
 30
0.0
 10
13.6692845967
 20
4.4491742835
 30
0.0
 10
13.6693018756
 20
4.4491717727
 30
0.0
 10
13.6693096716
 20
4.4491710973
 30
0.0
 10
13.669311598
 20
4.4491707175
 30
0.0
  0
SPLINE
  5
2B0
100
AcDbEntity
  8
0
100
AcDbSpline
 62
9
  6
CONTINUOUS
 70
0
 71
3
 72
22
 73
18
 74
0
 42
0.0000001
 43
0.0000001
 44
0.0000000001
 40
0.0
 40
0.0
 40
0.0
 40
0.0
 40
0.1838771982
 40
0.2699188764
 40
0.3514014283
 40
0.4279461583
 40
0.4992412817
 40
0.5650870894
 40
0.6254285719
 40
0.6804380726
 40
0.7305970805
 40
0.7768026225
 40
0.8203889941
 40
0.863002456
 40
0.9063103373
 40
0.9516901547
 40
1.0
 40
1.0
 40
1.0
 40
1.0
 10
12.6437399259
 20
6.803611271
 30
0.0
 10
12.6425225837
 20
6.8031846947
 30
0.0
 10
12.6407161937
 20
6.8026130045
 30
0.0
 10
12.6383425821
 20
6.8019475354
 30
0.0
 10
12.6366875109
 20
6.8015088781
 30
0.0
 10
12.6351305434
 20
6.8011041554
 30
0.0
 10
12.6336829463
 20
6.8007146647
 30
0.0
 10
12.6323541124
 20
6.8003220819
 30
0.0
 10
12.6311518792
 20
6.7999073193
 30
0.0
 10
12.6300823327
 20
6.7994519291
 30
0.0
 10
12.629150852
 20
6.7989368522
 30
0.0
 10
12.6283619717
 20
6.7983458204
 30
0.0
 10
12.6277214856
 20
6.7976658328
 30
0.0
 10
12.6272336762
 20
6.7968925964
 30
0.0
 10
12.6268973868
 20
6.7960295436
 30
0.0
 10
12.6267054406
 20
6.7950839287
 30
0.0
 10
12.6266679636
 20
6.7944256193
 30
0.0
 10
12.6266679548
 20
6.7940867206
 30
0.0
  0
SPLINE
  5
2B1
100
AcDbEntity
  8
0
100
AcDbSpline
 62
9
  6
CONTINUOUS
 70
0
 71
3
 72
51
 73
47
 74
0
 42
0.0000001
 43
0.0000001
 44
0.0000000001
 40
0.0
 40
0.0
 40
0.0
 40
0.0
 40
0.0000339722
 40
0.0000762258
 40
0.0001351156
 40
0.0003021774
 40
0.0005339051
 40
0.0008290462
 40
0.0011863486
 40
0.00160456
 40
0.0020824284
 40
0.0032116034
 40
0.004560901
 40
0.006116643
 40
0.0078651507
 40
0.0097927488
 40
0.0118858816
 40
0.0165151469
 40
0.0216458024
 40
0.0271828786
 40
0.0330653696
 40
0.0392381905
 40
0.0456531443
 40
0.0522766931
 40
0.0660254722
 40
0.0802969331
 40
0.0949720056
 40
0.1099638622
 40
0.1252057739
 40
0.1406500889
 40
0.1720118328
 40
0.2038475721
 40
0.2360277569
 40
0.2684651268
 40
0.301100175
 40
0.3338898815
 40
0.3668017502
 40
0.3998120934
 40
0.4660562935
 40
0.53251555
 40
0.5991209843
 40
0.665826391
 40
0.7325998249
 40
0.7994184585
 40
0.8662656493
 40
1.0
 40
1.0
 40
1.0
 40
1.0
 10
11.7540242263
 20
4.4491706487
 30
0.0
 10
11.7540223851
 20
4.4491699311
 30
0.0
 10
11.7540327673
 20
4.449172034
 30
0.0
 10
11.7540374811
 20
4.4491722562
 30
0.0
 10
11.7540546953
 20
4.4491747024
 30
0.0
 10
11.7540798154
 20
4.4491777722
 30
0.0
 10
11.7541204679
 20
4.4491830532
 30
0.0
 10
11.7541712527
 20
4.4491894834
 30
0.0
 10
11.7542331248
 20
4.4491973168
 30
0.0
 10
11.7543054367
 20
4.4492063977
 30
0.0
 10
11.7544223503
 20
4.4492209906
 30
0.0
 10
11.7545930158
 20
4.4492420696
 30
0.0
 10
11.7548259372
 20
4.4492706824
 30
0.0
 10
11.7550946179
 20
4.449303641
 30
0.0
 10
11.7553966834
 20
4.4493407443
 30
0.0
 10
11.755729757
 20
4.4493818053
 30
0.0
 10
11.7562291172
 20
4.4494435923
 30
0.0
 10
11.7569133651
 20
4.449528446
 30
0.0
 10
11.7577964535
 20
4.4496377126
 30
0.0
 10
11.758751966
 20
4.4497553152
 30
0.0
 10
11.759767686
 20
4.4498800055
 30
0.0
 10
11.7608341031
 20
4.4500108223
 30
0.0
 10
11.7619433026
 20
4.4501469216
 30
0.0
 10
11.7634899427
 20
4.4503364511
 30
0.0
 10
11.7654903341
 20
4.4505804793
 30
0.0
 10
11.7679558804
 20
4.4508791944
 30
0.0
 10
11.7704933245
 20
4.4511856708
 30
0.0
 10
11.7730869459
 20
4.4514978075
 30
0.0
 10
11.775725197
 20
4.4518135945
 30
0.0
 10
11.7793092164
 20
4.4522401652
 30
0.0
 10
11.783852244
 20
4.4527764859
 30
0.0
 10
11.7893628336
 20
4.4534205191
 30
0.0
 10
11.7949363359
 20
4.4540652228
 30
0.0
 10
11.8005568597
 20
4.4547080214
 30
0.0
 10
11.806213428
 20
4.455347651
 30
0.0
 10
11.8118982248
 20
4.4559832502
 30
0.0
 10
11.817605495
 20
4.4566142804
 30
0.0
 10
11.8252480601
 20
4.4574496947
 30
0.0
 10
11.8348324673
 20
4.4584792112
 30
0.0
 10
11.8463629207
 20
4.4596891385
 30
0.0
 10
11.8579229634
 20
4.4608738301
 30
0.0
 10
11.8695039653
 20
4.4620329438
 30
0.0
 10
11.8810999795
 20
4.4631662712
 30
0.0
 10
11.892706765
 20
4.4642738695
 30
0.0
 10
11.9081943017
 20
4.4657168332
 30
0.0
 10
11.9198153123
 20
4.4667609977
 30
0.0
 10
11.9275648271
 20
4.4674410271
 30
0.0
  0
SPLINE
  5
2B2
100
AcDbEntity
  8
0
100
AcDbSpline
 62
9
  6
CONTINUOUS
 70
0
 71
3
 72
26
 73
22
 74
0
 42
0.0000001
 43
0.0000001
 44
0.0000000001
 40
0.0
 40
0.0
 40
0.0
 40
0.0
 40
0.0621738691
 40
0.1244814469
 40
0.1869019887
 40
0.249410493
 40
0.3119911007
 40
0.3433036253
 40
0.3746281497
 40
0.4059624851
 40
0.4373042826
 40
0.5000003291
 40
0.562696393
 40
0.5940382125
 40
0.6253725768
 40
0.6880096426
 40
0.7505901912
 40
0.8130985172
 40
0.8755188655
 40
0.9378263164
 40
1.0
 40
1.0
 40
1.0
 40
1.0
 10
12.4906806313
 20
4.5913302893
 30
0.0
 10
12.499828113
 20
4.5918411759
 30
0.0
 10
12.5181531936
 20
4.5926821678
 30
0.0
 10
12.5456828885
 20
4.5935071935
 30
0.0
 10
12.5732694724
 20
4.5940032318
 30
0.0
 10
12.6008991527
 20
4.5942739698
 30
0.0
 10
12.6239458732
 20
4.5943675648
 30
0.0
 10
12.6423975111
 20
4.594397782
 30
0.0
 10
12.6562448248
 20
4.5944064009
 30
0.0
 10
12.6700964519
 20
4.5944104159
 30
0.0
 10
12.6885708839
 20
4.5944150663
 30
0.0
 10
12.7116666777
 20
4.5944174549
 30
0.0
 10
12.7347624747
 20
4.5944155727
 30
0.0
 10
12.7532369169
 20
4.5944108956
 30
0.0
 10
12.7717026638
 20
4.5944050726
 30
0.0
 10
12.7947716512
 20
4.5943861733
 30
0.0
 10
12.822434194
 20
4.5942738064
 30
0.0
 10
12.8500638126
 20
4.5940031784
 30
0.0
 10
12.8776503217
 20
4.5935070842
 30
0.0
 10
12.9051799465
 20
4.5926822311
 30
0.0
 10
12.9235049863
 20
4.5918413467
 30
0.0
 10
12.9326524429
 20
4.5913305012
 30
0.0
  0
SPLINE
  5
2B3
100
AcDbEntity
  8
0
100
AcDbSpline
 62
9
  6
CONTINUOUS
 70
0
 71
3
 72
9
 73
5
 74
0
 42
0.0000001
 43
0.0000001
 44
0.0000000001
 40
0.0
 40
0.0
 40
0.0
 40
0.0
 40
0.5117718269
 40
1.0
 40
1.0
 40
1.0
 40
1.0
 10
12.6566679548
 20
6.805802161
 30
0.0
 10
12.6544231405
 20
6.8058021098
 30
0.0
 10
12.6500285039
 20
6.805426677
 30
0.0
 10
12.6457602627
 20
6.8043215155
 30
0.0
 10
12.6437399259
 20
6.803611271
 30
0.0
  0
SPLINE
  5
2B4
100
AcDbEntity
  8
0
100
AcDbSpline
 62
9
  6
CONTINUOUS
 70
0
 71
3
 72
9
 73
5
 74
0
 42
0.0000001
 43
0.0000001
 44
0.0000000001
 40
0.0
 40
0.0
 40
0.0
 40
0.0
 40
0.4882293772
 40
1.0
 40
1.0
 40
1.0
 40
1.0
 10
12.7795959885
 20
6.8036114617
 30
0.0
 10
12.7775756862
 20
6.8043218019
 30
0.0
 10
12.7733073472
 20
6.8054266121
 30
0.0
 10
12.7689127574
 20
6.8058020828
 30
0.0
 10
12.7666679548
 20
6.805802161
 30
0.0
  0
SPLINE
  5
2B5
100
AcDbEntity
  8
0
100
AcDbSpline
 62
9
  6
CONTINUOUS
 70
0
 71
3
 72
22
 73
18
 74
0
 42
0.0000001
 43
0.0000001
 44
0.0000000001
 40
0.0
 40
0.0
 40
0.0
 40
0.0
 40
0.0482482318
 40
0.0936087187
 40
0.1369789517
 40
0.1796157666
 40
0.223184751
 40
0.2693922695
 40
0.3195610812
 40
0.3745697726
 40
0.434908828
 40
0.5007548803
 40
0.5720519712
 40
0.6485971809
 40
0.7300796824
 40
0.8161203464
 40
1.0
 40
1.0
 40
1.0
 40
1.0
 10
12.7966679548
 20
6.7940868149
 30
0.0
 10
12.7966679243
 20
6.7944252814
 30
0.0
 10
12.7966303954
 20
6.795083038
 30
0.0
 10
12.7964380884
 20
6.7960283988
 30
0.0
 10
12.7961025149
 20
6.7968921906
 30
0.0
 10
12.795614805
 20
6.7976661554
 30
0.0
 10
12.7949737836
 20
6.7983457319
 30
0.0
 10
12.7941850494
 20
6.7989367906
 30
0.0
 10
12.7932538564
 20
6.7994525786
 30
0.0
 10
12.7921841612
 20
6.7999077985
 30
0.0
 10
12.7909818787
 20
6.8003223207
 30
0.0
 10
12.7896530786
 20
6.8007150053
 30
0.0
 10
12.7882055299
 20
6.8011047467
 30
0.0
 10
12.7866485987
 20
6.8015096764
 30
0.0
 10
12.7849934749
 20
6.8019481092
 30
0.0
 10
12.7826196224
 20
6.8026127604
 30
0.0
 10
12.780813301
 20
6.8031847493
 30
0.0
 10
12.7795959885
 20
6.8036114617
 30
0.0
  0
SPLINE
  5
2B6
100
AcDbEntity
  8
0
100
AcDbSpline
 62
9
  6
CONTINUOUS
 70
0
 71
3
 72
15
 73
11
 74
0
 42
0.0000001
 43
0.0000001
 44
0.0000000001
 40
0.0
 40
0.0
 40
0.0
 40
0.0
 40
0.1538463042
 40
0.3009258044
 40
0.4398308305
 40
0.5695751731
 40
0.6897290916
 40
0.8005777411
 40
0.9032852736
 40
1.0
 40
1.0
 40
1.0
 40
1.0
 10
12.8777892695
 20
8.6119546916
 30
0.0
 10
12.8769242204
 20
8.6120500744
 30
0.0
 10
12.8752389252
 20
8.6123081196
 30
0.0
 10
12.8728211786
 20
8.6129111813
 30
0.0
 10
12.8706050807
 20
8.6137120935
 30
0.0
 10
12.8686320086
 20
8.6146966732
 30
0.0
 10
12.8669385552
 20
8.6158480833
 30
0.0
 10
12.8655568629
 20
8.6171481148
 30
0.0
 10
12.8645160155
 20
8.618575078
 30
0.0
 10
12.8640571976
 20
8.6196182916
 30
0.0
 10
12.8638988467
 20
8.6201419791
 30
0.0
  0
SPLINE
  5
2B7
100
AcDbEntity
  8
0
100
AcDbSpline
 62
9
  6
CONTINUOUS
 70
0
 71
3
 72
23
 73
19
 74
0
 42
0.0000001
 43
0.0000001
 44
0.0000000001
 40
0.0
 40
0.0
 40
0.0
 40
0.0
 40
0.0112529219
 40
0.0229019534
 40
0.0352893405
 40
0.0486969495
 40
0.0793451722
 40
0.1160064645
 40
0.1591837003
 40
0.2089988379
 40
0.2653689868
 40
0.328044074
 40
0.3966818711
 40
0.4708408945
 40
0.5500239559
 40
0.6336546906
 40
0.8118034012
 40
1.0
 40
1.0
 40
1.0
 40
1.0
 10
12.9326524272
 20
4.5913304661
 30
0.0
 10
12.9325478357
 20
4.5913363071
 30
0.0
 10
12.9323356173
 20
4.5913692869
 30
0.0
 10
12.932024669
 20
4.5914803669
 30
0.0
 10
12.9317196465
 20
4.5916521225
 30
0.0
 10
12.9313033357
 20
4.5919752503
 30
0.0
 10
12.9308041768
 20
4.5925451729
 30
0.0
 10
12.9302629532
 20
4.5934229919
 30
0.0
 10
12.9297544496
 20
4.5945200216
 30
0.0
 10
12.9292816839
 20
4.5958289643
 30
0.0
 10
12.9288485603
 20
4.5973410468
 30
0.0
 10
12.9284582779
 20
4.5990447531
 30
0.0
 10
12.9281144632
 20
4.6009268962
 30
0.0
 10
12.9278197176
 20
4.6029726215
 30
0.0
 10
12.9275768238
 20
4.6051655679
 30
0.0
 10
12.9273191255
 20
4.6083295141
 30
0.0
 10
12.9271464532
 20
4.6125166243
 30
0.0
 10
12.9271595357
 20
4.6159281247
 30
0.0
 10
12.9272025641
 20
4.6176795367
 30
0.0
  0
LINE
  5
2B8
100
AcDbEntity
  8
0
100
AcDbLine
 62
9
  6
CONTINUOUS
 10
12.8399148955
 20
6.8244664782
 11
12.8407229632
 21
6.8643825286
  0
LINE
  5
2B9
100
AcDbEntity
  8
0
100
AcDbLine
 62
9
  6
CONTINUOUS
 10
12.5820803643
 20
6.8983661496
 11
12.5961691562
 21
6.8983098696
  0
SPLINE
  5
2BA
100
AcDbEntity
  8
0
100
AcDbSpline
 62
9
  6
CONTINUOUS
 70
0
 71
3
 72
15
 73
11
 74
0
 42
0.0000001
 43
0.0000001
 44
0.0000000001
 40
0.0
 40
0.0
 40
0.0
 40
0.0
 40
0.1571503361
 40
0.3080905256
 40
0.4508069695
 40
0.5836028761
 40
0.7052204126
 40
0.7616352512
 40
0.8150729127
 40
1.0
 40
1.0
 40
1.0
 40
1.0
 10
12.5814119138
 20
6.8820772295
 30
0.0
 10
12.5822839824
 20
6.8819045785
 30
0.0
 10
12.5839830764
 20
6.8815091265
 30
0.0
 10
12.5864212087
 20
6.8807536848
 30
0.0
 10
12.5886647784
 20
6.8798592553
 30
0.0
 10
12.5906718524
 20
6.8788424365
 30
0.0
 10
12.5921521426
 20
6.8778860827
 30
0.0
 10
12.5931785338
 20
6.8770700593
 30
0.0
 10
12.5944048055
 20
6.8759445296
 30
0.0
 10
12.5952506924
 20
6.8748298724
 30
0.0
 10
12.5956426516
 20
6.8738599498
 30
0.0
  0
SPLINE
  5
2BB
100
AcDbEntity
  8
0
100
AcDbSpline
 62
9
  6
CONTINUOUS
 70
0
 71
3
 72
15
 73
11
 74
0
 42
0.0000001
 43
0.0000001
 44
0.0000000001
 40
0.0
 40
0.0
 40
0.0
 40
0.0
 40
0.1538439456
 40
0.3009213602
 40
0.4398246798
 40
0.569567867
 40
0.6897214268
 40
0.8005708561
 40
0.9032807617
 40
1.0
 40
1.0
 40
1.0
 40
1.0
 10
12.5455467206
 20
8.6119544275
 30
0.0
 10
12.5464117658
 20
8.6120498388
 30
0.0
 10
12.5480970523
 20
8.6123079342
 30
0.0
 10
12.5505147851
 20
8.6129110541
 30
0.0
 10
12.5527308715
 20
8.6137120153
 30
0.0
 10
12.5547039358
 20
8.614696641
 30
0.0
 10
12.5563973862
 20
8.6158481008
 30
0.0
 10
12.5577790812
 20
8.6171481928
 30
0.0
 10
12.5588199368
 20
8.6185752356
 30
0.0
 10
12.5592787572
 20
8.6196185079
 30
0.0
 10
12.5594371132
 20
8.6201422287
 30
0.0
  0
SPLINE
  5
2BC
100
AcDbEntity
  8
0
100
AcDbSpline
 62
9
  6
CONTINUOUS
 70
0
 71
3
 72
16
 73
12
 74
0
 42
0.0000001
 43
0.0000001
 44
0.0000000001
 40
0.0
 40
0.0
 40
0.0
 40
0.0
 40
0.1601399597
 40
0.3134876895
 40
0.4578595084
 40
0.5913946494
 40
0.712681006
 40
0.8209281835
 40
0.8701864459
 40
0.9163205579
 40
1.0
 40
1.0
 40
1.0
 40
1.0
 10
12.5456945955
 20
8.6045190007
 30
0.0
 10
12.5465594934
 20
8.6047190842
 30
0.0
 10
12.5482412442
 20
8.6051624372
 30
0.0
 10
12.5506492814
 20
8.6059708414
 30
0.0
 10
12.552856169
 20
8.6068962987
 30
0.0
 10
12.5548208594
 20
8.6079214315
 30
0.0
 10
12.5565069912
 20
8.6090272489
 30
0.0
 10
12.5576904984
 20
8.6100298373
 30
0.0
 10
12.5584581128
 20
8.6108597092
 30
0.0
 10
12.5590641628
 20
8.6116465219
 30
0.0
 10
12.5594177385
 20
8.6122831573
 30
0.0
 10
12.5595846289
 20
8.6127159752
 30
0.0
  0
LINE
  5
2BD
100
AcDbEntity
  8
0
100
AcDbLine
 62
9
  6
CONTINUOUS
 10
12.5455286106
 20
8.672137476
 11
12.5465024814
 21
8.624257437
  0
LINE
  5
2BE
100
AcDbEntity
  8
0
100
AcDbLine
 62
9
  6
CONTINUOUS
 10
12.5470645465
 20
8.5878793571
 11
12.5611533438
 21
8.5878228154
  0
LINE
  5
2BF
100
AcDbEntity
  8
0
100
AcDbLine
 62
9
  6
CONTINUOUS
 10
12.8762713625
 20
8.5878793244
 11
12.8621825645
 21
8.5878227508
  0
SPLINE
  5
2C0
100
AcDbEntity
  8
0
100
AcDbSpline
 62
9
  6
CONTINUOUS
 70
0
 71
3
 72
16
 73
12
 74
0
 42
0.0000001
 43
0.0000001
 44
0.0000000001
 40
0.0
 40
0.0
 40
0.0
 40
0.0
 40
0.1601447933
 40
0.3134969133
 40
0.4578724558
 40
0.5914103046
 40
0.7126978131
 40
0.8209437404
 40
0.8702000833
 40
0.9163311162
 40
1.0
 40
1.0
 40
1.0
 40
1.0
 10
12.8776413243
 20
8.6045199459
 30
0.0
 10
12.876776431
 20
8.6047200162
 30
0.0
 10
12.8750946901
 20
8.6051633441
 30
0.0
 10
12.8726866669
 20
8.6059717074
 30
0.0
 10
12.8704797921
 20
8.6068971109
 30
0.0
 10
12.8685151122
 20
8.6079221683
 30
0.0
 10
12.8668289872
 20
8.6090278786
 30
0.0
 10
12.8656454713
 20
8.6100303436
 30
0.0
 10
12.8648778404
 20
8.6108600931
 30
0.0
 10
12.8642717895
 20
8.6116467469
 30
0.0
 10
12.8639181865
 20
8.6122832468
 30
0.0
 10
12.8637512744
 20
8.6127159744
 30
0.0
  0
SPLINE
  5
2C1
100
AcDbEntity
  8
0
100
AcDbSpline
 62
9
  6
CONTINUOUS
 70
0
 71
3
 72
15
 73
11
 74
0
 42
0.0000001
 43
0.0000001
 44
0.0000000001
 40
0.0
 40
0.0
 40
0.0
 40
0.0
 40
0.1513251712
 40
0.296451317
 40
0.4340935282
 40
0.563365944
 40
0.6839030389
 40
0.7959949535
 40
0.9007173039
 40
1.0
 40
1.0
 40
1.0
 40
1.0
 10
12.8418313967
 20
6.8753245905
 30
0.0
 10
12.840962538
 20
6.8752466612
 30
0.0
 10
12.8392659339
 20
6.8750189457
 30
0.0
 10
12.8368251337
 20
6.8744490253
 30
0.0
 10
12.8345770645
 20
6.8736668835
 30
0.0
 10
12.8325636964
 20
6.8726862628
 30
0.0
 10
12.8308224581
 20
6.8715239206
 30
0.0
 10
12.8293865048
 20
6.8701985498
 30
0.0
 10
12.8282858061
 20
6.8687328282
 30
0.0
 10
12.8277835009
 20
6.8676573648
 30
0.0
 10
12.8276020887
 20
6.8671145401
 30
0.0
  0
SPLINE
  5
2C2
100
AcDbEntity
  8
0
100
AcDbSpline
 62
9
  6
CONTINUOUS
 70
0
 71
3
 72
15
 73
11
 74
0
 42
0.0000001
 43
0.0000001
 44
0.0000000001
 40
0.0
 40
0.0
 40
0.0
 40
0.0
 40
0.1571445403
 40
0.3080794996
 40
0.4507915068
 40
0.5835841776
 40
0.7052003375
 40
0.7616155052
 40
0.8150543887
 40
1.0
 40
1.0
 40
1.0
 40
1.0
 10
12.8419240546
 20
6.882078546
 30
0.0
 10
12.8410519786
 20
6.8819058637
 30
0.0
 10
12.8393528697
 20
6.8815103523
 30
0.0
 10
12.836914715
 20
6.880754831
 30
0.0
 10
12.8346711236
 20
6.8798603133
 30
0.0
 10
12.8326640303
 20
6.8788433857
 30
0.0
 10
12.8311837343
 20
6.8778869141
 30
0.0
 10
12.8301573478
 20
6.8770707736
 30
0.0
 10
12.8289310212
 20
6.8759450063
 30
0.0
 10
12.8280851736
 20
6.8748300725
 30
0.0
 10
12.8276932793
 20
6.8738599519
 30
0.0
  0
LINE
  5
2C3
100
AcDbEntity
  8
0
100
AcDbLine
 62
9
  6
CONTINUOUS
 10
12.8412555449
 20
6.8983661244
 11
12.8271667525
 21
6.8983098207
  0
SPLINE
  5
2C4
100
AcDbEntity
  8
0
100
AcDbSpline
 62
9
  6
CONTINUOUS
 70
0
 71
3
 72
23
 73
19
 74
0
 42
0.0000001
 43
0.0000001
 44
0.0000000001
 40
0.0
 40
0.0
 40
0.0
 40
0.0
 40
0.0112505591
 40
0.0228973416
 40
0.0352826753
 40
0.048688471
 40
0.0793338264
 40
0.115993177
 40
0.1591692526
 40
0.2089838828
 40
0.2653540762
 40
0.3280296779
 40
0.3966683934
 40
0.4708286812
 40
0.5500133023
 40
0.6336458442
 40
0.8117987416
 40
1.0
 40
1.0
 40
1.0
 40
1.0
 10
12.4906805793
 20
4.5913302772
 30
0.0
 10
12.4907851464
 20
4.5913361171
 30
0.0
 10
12.4909973169
 20
4.5913690955
 30
0.0
 10
12.4913081921
 20
4.5914801739
 30
0.0
 10
12.4916131409
 20
4.591651928
 30
0.0
 10
12.4920293551
 20
4.5919750583
 30
0.0
 10
12.4925283895
 20
4.5925449838
 30
0.0
 10
12.4930694698
 20
4.5934227966
 30
0.0
 10
12.4935778363
 20
4.594519821
 30
0.0
 10
12.4940504714
 20
4.5958287598
 30
0.0
 10
12.4944834714
 20
4.5973408397
 30
0.0
 10
12.4948736377
 20
4.5990445446
 30
0.0
 10
12.4952173448
 20
4.6009266873
 30
0.0
 10
12.495511992
 20
4.6029724131
 30
0.0
 10
12.4957547972
 20
4.6051653608
 30
0.0
 10
12.4960123894
 20
4.6083293118
 30
0.0
 10
12.4961849598
 20
4.6125164268
 30
0.0
 10
12.4961718297
 20
4.6159279293
 30
0.0
 10
12.4961287852
 20
4.6176793435
 30
0.0
  0
SPLINE
  5
2C5
100
AcDbEntity
  8
0
100
AcDbSpline
 62
9
  6
CONTINUOUS
 70
0
 71
3
 72
15
 73
11
 74
0
 42
0.0000001
 43
0.0000001
 44
0.0000000001
 40
0.0
 40
0.0
 40
0.0
 40
0.0
 40
0.1293700338
 40
0.2577888777
 40
0.3849928175
 40
0.5108276287
 40
0.6351993926
 40
0.7581046123
 40
0.8796511821
 40
1.0
 40
1.0
 40
1.0
 40
1.0
 10
12.5465024832
 20
8.6242573529
 30
0.0
 10
12.547304643
 20
8.6244580244
 30
0.0
 10
12.5488816913
 20
8.6249500246
 30
0.0
 10
12.5511347189
 20
8.6259527849
 30
0.0
 10
12.55323456
 20
8.6272032985
 30
0.0
 10
12.5551480583
 20
8.628681964
 30
0.0
 10
12.5568452136
 20
8.6303661462
 30
0.0
 10
12.5582994921
 20
8.6322297881
 30
0.0
 10
12.5594874399
 20
8.6342435022
 30
0.0
 10
12.5600923395
 20
8.6356722839
 30
0.0
 10
12.5603436451
 20
8.6363992943
 30
0.0
  0
SPLINE
  5
2C6
100
AcDbEntity
  8
0
100
AcDbSpline
 62
9
  6
CONTINUOUS
 70
0
 71
3
 72
15
 73
11
 74
0
 42
0.0000001
 43
0.0000001
 44
0.0000000001
 40
0.0
 40
0.0
 40
0.0
 40
0.0
 40
0.151330927
 40
0.296461735
 40
0.4341071658
 40
0.5633810433
 40
0.6839175802
 40
0.796006749
 40
0.9007241653
 40
1.0
 40
1.0
 40
1.0
 40
1.0
 10
12.5815044853
 20
6.8753237397
 30
0.0
 10
12.5823733491
 20
6.8752458259
 30
0.0
 10
12.5840699599
 20
6.8750181499
 30
0.0
 10
12.5865107724
 20
6.8744483129
 30
0.0
 10
12.588758849
 20
6.8736662761
 30
0.0
 10
12.5907722192
 20
6.8726857802
 30
0.0
 10
12.5925134544
 20
6.8715235809
 30
0.0
 10
12.5939493995
 20
6.870198369
 30
0.0
 10
12.5950500853
 20
6.8687328194
 30
0.0
 10
12.5955523819
 20
6.8676574697
 30
0.0
 10
12.5957337858
 20
6.8671147043
 30
0.0
  0
SPLINE
  5
2C7
100
AcDbEntity
  8
0
100
AcDbSpline
 62
9
  6
CONTINUOUS
 70
0
 71
3
 72
13
 73
9
 74
0
 42
0.0000001
 43
0.0000001
 44
0.0000000001
 40
0.0
 40
0.0
 40
0.0
 40
0.0
 40
0.2584460206
 40
0.5115184641
 40
0.6359040708
 40
0.7586763946
 40
0.8799740186
 40
1.0
 40
1.0
 40
1.0
 40
1.0
 10
12.5826128999
 20
6.8643824963
 30
0.0
 10
12.5842514185
 20
6.864030725
 30
0.0
 10
12.5874265743
 20
6.8629556094
 30
0.0
 10
12.5909407576
 20
6.8607149235
 30
0.0
 10
12.5933017935
 20
6.8584794145
 30
0.0
 10
12.5948141412
 20
6.856620513
 30
0.0
 10
12.5960509042
 20
6.8546015158
 30
0.0
 10
12.5966815573
 20
6.8531629796
 30
0.0
 10
12.5969435965
 20
6.8524301283
 30
0.0
  0
SPLINE
  5
2C8
100
AcDbEntity
  8
0
100
AcDbSpline
 62
9
  6
CONTINUOUS
 70
0
 71
3
 72
13
 73
9
 74
0
 42
0.0000001
 43
0.0000001
 44
0.0000000001
 40
0.0
 40
0.0
 40
0.0
 40
0.0
 40
0.2584450928
 40
0.5115172431
 40
0.6359029694
 40
0.7586755699
 40
0.8799735821
 40
1.0
 40
1.0
 40
1.0
 40
1.0
 10
12.8407229647
 20
6.864382608
 30
0.0
 10
12.8390844486
 20
6.8640308356
 30
0.0
 10
12.8359092952
 20
6.8629557132
 30
0.0
 10
12.832395118
 20
6.8607150141
 30
0.0
 10
12.830034083
 20
6.858479493
 30
0.0
 10
12.8285217328
 20
6.8566205803
 30
0.0
 10
12.8272849651
 20
6.8546015716
 30
0.0
 10
12.8266543073
 20
6.8531630281
 30
0.0
 10
12.8263922653
 20
6.8524301728
 30
0.0
  0
SPLINE
  5
2C9
100
AcDbEntity
  8
0
100
AcDbSpline
 62
9
  6
CONTINUOUS
 70
0
 71
3
 72
15
 73
11
 74
0
 42
0.0000001
 43
0.0000001
 44
0.0000000001
 40
0.0
 40
0.0
 40
0.0
 40
0.0
 40
0.1293706411
 40
0.2577898722
 40
0.3849939245
 40
0.5108285835
 40
0.6351999949
 40
0.7581047917
 40
0.8796510774
 40
1.0
 40
1.0
 40
1.0
 40
1.0
 10
12.87683347
 20
8.6242574767
 30
0.0
 10
12.8760313091
 20
8.62445815
 30
0.0
 10
12.8744542596
 20
8.6249501512
 30
0.0
 10
12.8722012288
 20
8.6259529037
 30
0.0
 10
12.8701013849
 20
8.6272034032
 30
0.0
 10
12.8681878846
 20
8.6286820507
 30
0.0
 10
12.8664907283
 20
8.6303662141
 30
0.0
 10
12.8650364504
 20
8.6322298394
 30
0.0
 10
12.8638485049
 20
8.6342435431
 30
0.0
 10
12.8632436102
 20
8.6356723211
 30
0.0
 10
12.8629923071
 20
8.6363993308
 30
0.0
  0
SPLINE
  5
2CA
100
AcDbEntity
  8
0
100
AcDbSpline
 62
9
  6
CONTINUOUS
 70
0
 71
3
 72
21
 73
17
 74
0
 42
0.0000001
 43
0.0000001
 44
0.0000000001
 40
0.0
 40
0.0
 40
0.0
 40
0.0
 40
0.0655528872
 40
0.1310394548
 40
0.196330602
 40
0.2613433119
 40
0.3900729007
 40
0.5167295034
 40
0.5792103218
 40
0.6410565768
 40
0.7022654235
 40
0.7628546081
 40
0.8228589872
 40
0.8823312301
 40
0.941357477
 40
1.0
 40
1.0
 40
1.0
 40
1.0
 10
12.5987428954
 20
8.649233839
 30
0.0
 10
12.5975897497
 20
8.6492287583
 30
0.0
 10
12.5952840212
 20
8.6491304223
 30
0.0
 10
12.5918517432
 20
8.6487184269
 30
0.0
 10
12.5884704324
 20
8.6480443231
 30
0.0
 10
12.5840804941
 20
8.6468088077
 30
0.0
 10
12.5788475497
 20
8.6446486366
 30
0.0
 10
12.574065825
 20
8.6416980819
 30
0.0
 10
12.5706259899
 20
8.6389230802
 30
0.0
 10
12.5682666473
 20
8.6366618063
 30
0.0
 10
12.5661351774
 20
8.6342287112
 30
0.0
 10
12.5642473845
 20
8.6316418281
 30
0.0
 10
12.5626176121
 20
8.6289205343
 30
0.0
 10
12.5612580641
 20
8.6260848906
 30
0.0
 10
12.5601794527
 20
8.6231566598
 30
0.0
 10
12.5596512899
 20
8.6211513439
 30
0.0
 10
12.559437113
 20
8.6201422272
 30
0.0
  0
SPLINE
  5
2CB
100
AcDbEntity
  8
0
100
AcDbSpline
 62
9
  6
CONTINUOUS
 70
0
 71
3
 72
9
 73
5
 74
0
 42
0.0000001
 43
0.0000001
 44
0.0000000001
 40
0.0
 40
0.0
 40
0.0
 40
0.0
 40
0.2408247225
 40
1.0
 40
1.0
 40
1.0
 40
1.0
 10
12.559437113
 20
8.6201422272
 30
0.0
 10
12.5593802199
 20
8.6195479964
 30
0.0
 10
12.5592199519
 20
8.6170734367
 30
0.0
 10
12.5593512346
 20
8.6145832645
 30
0.0
 10
12.5595846287
 20
8.6127159764
 30
0.0
  0
SPLINE
  5
2CC
100
AcDbEntity
  8
0
100
AcDbSpline
 62
9
  6
CONTINUOUS
 70
0
 71
3
 72
14
 73
10
 74
0
 42
0.0000001
 43
0.0000001
 44
0.0000000001
 40
0.0
 40
0.0
 40
0.0
 40
0.0
 40
0.0945681863
 40
0.1982467342
 40
0.3108037811
 40
0.4320749188
 40
0.5618870118
 40
0.6999991282
 40
1.0
 40
1.0
 40
1.0
 40
1.0
 10
12.5603436451
 20
8.6363992949
 30
0.0
 10
12.5603540775
 20
8.6358859561
 30
0.0
 10
12.5603574465
 20
8.6348094216
 30
0.0
 10
12.5603193032
 20
8.6331222555
 30
0.0
 10
12.5602400434
 20
8.6312914219
 30
0.0
 10
12.5601244268
 20
8.6293204224
 30
0.0
 10
12.5599772645
 20
8.627212444
 30
0.0
 10
12.5597432429
 20
8.6241378655
 30
0.0
 10
12.5595554397
 20
8.621766598
 30
0.0
 10
12.5594370839
 20
8.620142091
 30
0.0
  0
LINE
  5
2CD
100
AcDbEntity
  8
0
100
AcDbLine
 62
9
  6
CONTINUOUS
 10
12.5593463465
 20
8.6854354774
 11
12.5603436451
 21
8.6363992949
  0
LINE
  5
2CE
100
AcDbEntity
  8
0
100
AcDbLine
 62
9
  6
CONTINUOUS
 10
12.5969435965
 20
6.8524301286
 11
12.5977792161
 21
6.8111608565
  0
LINE
  5
2CF
100
AcDbEntity
  8
0
100
AcDbLine
 62
9
  6
CONTINUOUS
 10
12.6162514266
 20
6.8107739025
 11
12.6163944347
 21
6.7884900031
  0
SPLINE
  5
2D0
100
AcDbEntity
  8
0
100
AcDbSpline
 62
9
  6
CONTINUOUS
 70
0
 71
3
 72
23
 73
19
 74
0
 42
0.0000001
 43
0.0000001
 44
0.0000000001
 40
0.0
 40
0.0
 40
0.0
 40
0.0
 40
0.1073891598
 40
0.2076982818
 40
0.3006278537
 40
0.3860701089
 40
0.4641520136
 40
0.5351421648
 40
0.5994332652
 40
0.6575260399
 40
0.7100484263
 40
0.7577729779
 40
0.8016037901
 40
0.8425954681
 40
0.8818650161
 40
0.9205420619
 40
0.9596465109
 40
1.0
 40
1.0
 40
1.0
 40
1.0
 10
12.6351212375
 20
6.8219031231
 30
0.0
 10
12.6343196428
 20
6.8216606463
 30
0.0
 10
12.6327669862
 20
6.8211993278
 30
0.0
 10
12.6305161909
 20
6.8205434171
 30
0.0
 10
12.6284305407
 20
6.8199325017
 30
0.0
 10
12.6265175324
 20
6.8193490348
 30
0.0
 10
12.6247792298
 20
6.8187801104
 30
0.0
 10
12.6232145556
 20
6.8182130124
 30
0.0
 10
12.6218203137
 20
6.8176366248
 30
0.0
 10
12.6205927113
 20
6.8170396476
 30
0.0
 10
12.6195266221
 20
6.8164134036
 30
0.0
 10
12.6186177353
 20
6.8157489677
 30
0.0
 10
12.6178610694
 20
6.8150403734
 30
0.0
 10
12.6172533075
 20
6.8142826329
 30
0.0
 10
12.6167907573
 20
6.8134741018
 30
0.0
 10
12.6164695306
 20
6.81261547
 30
0.0
 10
12.6162846186
 20
6.8117094919
 30
0.0
 10
12.6162494216
 20
6.8110885896
 30
0.0
 10
12.6162514266
 20
6.8107739025
 30
0.0
  0
SPLINE
  5
2D1
100
AcDbEntity
  8
0
100
AcDbSpline
 62
9
  6
CONTINUOUS
 70
0
 71
3
 72
21
 73
17
 74
0
 42
0.0000001
 43
0.0000001
 44
0.0000000001
 40
0.0
 40
0.0
 40
0.0
 40
0.0
 40
0.0659989049
 40
0.1318790302
 40
0.1975074712
 40
0.2627964829
 40
0.3918914775
 40
0.5186491587
 40
0.5810799526
 40
0.6428133383
 40
0.7038495766
 40
0.7642104336
 40
0.8239358518
 40
0.8830845754
 40
0.9417488638
 40
1.0
 40
1.0
 40
1.0
 40
1.0
 10
12.6347813197
 20
6.8399046211
 30
0.0
 10
12.6336553018
 20
6.8398991323
 30
0.0
 10
12.6314039865
 20
6.8399709504
 30
0.0
 10
12.6280502397
 20
6.8403277151
 30
0.0
 10
12.624743967
 20
6.8409315737
 30
0.0
 10
12.6204486984
 20
6.8420543707
 30
0.0
 10
12.6153173237
 20
6.8440397
 30
0.0
 10
12.6105997931
 20
6.8467794633
 30
0.0
 10
12.6071865417
 20
6.8493704498
 30
0.0
 10
12.6048351106
 20
6.8514869545
 30
0.0
 10
12.6026972938
 20
6.8537708384
 30
0.0
 10
12.6007882299
 20
6.8562059595
 30
0.0
 10
12.5991217617
 20
6.8587749246
 30
0.0
 10
12.5977097974
 20
6.8614596732
 30
0.0
 10
12.5965629533
 20
6.8642405461
 30
0.0
 10
12.5959785648
 20
6.8661514757
 30
0.0
 10
12.5957337859
 20
6.867114704
 30
0.0
  0
SPLINE
  5
2D2
100
AcDbEntity
  8
0
100
AcDbSpline
 62
9
  6
CONTINUOUS
 70
0
 71
3
 72
11
 73
7
 74
0
 42
0.0000001
 43
0.0000001
 44
0.0000000001
 40
0.0
 40
0.0
 40
0.0
 40
0.0
 40
0.295295081
 40
0.561486841
 40
0.7968473731
 40
1.0
 40
1.0
 40
1.0
 40
1.0
 10
12.5957337858
 20
6.8671147043
 30
0.0
 10
12.595880602
 20
6.8656714727
 30
0.0
 10
12.5961676169
 20
6.8629280734
 30
0.0
 10
12.5965503402
 20
6.859032083
 30
0.0
 10
12.5968230672
 20
6.8555806073
 30
0.0
 10
12.5969233675
 20
6.8534279404
 30
0.0
 10
12.5969435965
 20
6.8524301286
 30
0.0
  0
SPLINE
  5
2D3
100
AcDbEntity
  8
0
100
AcDbSpline
 62
9
  6
CONTINUOUS
 70
0
 71
3
 72
9
 73
5
 74
0
 42
0.0000001
 43
0.0000001
 44
0.0000000001
 40
0.0
 40
0.0
 40
0.0
 40
0.0
 40
0.2595616973
 40
1.0
 40
1.0
 40
1.0
 40
1.0
 10
12.5956426516
 20
6.8738599497
 30
0.0
 10
12.5955927623
 20
6.8732778503
 30
0.0
 10
12.5954528925
 20
6.8710314146
 30
0.0
 10
12.5955291348
 20
6.8687687037
 30
0.0
 10
12.5957337859
 20
6.867114704
 30
0.0
  0
SPLINE
  5
2D4
100
AcDbEntity
  8
0
100
AcDbSpline
 62
9
  6
CONTINUOUS
 70
0
 71
3
 72
18
 73
14
 74
0
 42
0.0000001
 43
0.0000001
 44
0.0000000001
 40
0.0
 40
0.0
 40
0.0
 40
0.0
 40
0.1733559026
 40
0.3416652321
 40
0.500063738
 40
0.6439574035
 40
0.7691813361
 40
0.8236354825
 40
0.8721136404
 40
0.9142654502
 40
0.9497872014
 40
0.9784330175
 40
1.0
 40
1.0
 40
1.0
 40
1.0
 10
12.6347813197
 20
6.873838557
 30
0.0
 10
12.6325196649
 20
6.8737917155
 30
0.0
 10
12.6280619842
 20
6.8737092193
 30
0.0
 10
12.621537213
 20
6.8736180782
 30
0.0
 10
12.6153965031
 20
6.873562631
 30
0.0
 10
12.6098177983
 20
6.8735443485
 30
0.0
 10
12.6055954461
 20
6.873560484
 30
0.0
 10
12.6026183983
 20
6.8735951205
 30
0.0
 10
12.6007254658
 20
6.8736290182
 30
0.0
 10
12.5990798356
 20
6.8736716872
 30
0.0
 10
12.5976933381
 20
6.8737225071
 30
0.0
 10
12.5965760948
 20
6.8737810379
 30
0.0
 10
12.5959225707
 20
6.8738308276
 30
0.0
 10
12.5956426516
 20
6.8738599498
 30
0.0
  0
SPLINE
  5
2D5
100
AcDbEntity
  8
0
100
AcDbSpline
 62
9
  6
CONTINUOUS
 70
0
 71
3
 72
11
 73
7
 74
0
 42
0.0000001
 43
0.0000001
 44
0.0000000001
 40
0.0
 40
0.0
 40
0.0
 40
0.0
 40
0.2449536211
 40
0.4944719174
 40
0.7467161956
 40
1.0
 40
1.0
 40
1.0
 40
1.0
 10
12.5595846289
 20
8.6127159751
 30
0.0
 10
12.5597681928
 20
8.6106872443
 30
0.0
 10
12.5601344127
 20
8.6065915545
 30
0.0
 10
12.5606103367
 20
8.6003998946
 30
0.0
 10
12.5609691274
 20
8.5941307579
 30
0.0
 10
12.5611096396
 20
8.5899286536
 30
0.0
 10
12.5611533438
 20
8.5878228154
 30
0.0
  0
SPLINE
  5
2D6
100
AcDbEntity
  8
0
100
AcDbSpline
 62
9
  6
CONTINUOUS
 70
0
 71
3
 72
11
 73
7
 74
0
 42
0.0000001
 43
0.0000001
 44
0.0000000001
 40
0.0
 40
0.0
 40
0.0
 40
0.0
 40
0.2547964278
 40
0.5075353258
 40
0.7565425695
 40
1.0
 40
1.0
 40
1.0
 40
1.0
 10
12.5961691562
 20
6.8983098696
 30
0.0
 10
12.5962122162
 20
6.8962327993
 30
0.0
 10
12.596245986
 20
6.8920941807
 30
0.0
 10
12.5961504064
 20
6.8859258778
 30
0.0
 10
12.5959360412
 20
6.8798532527
 30
0.0
 10
12.5957417222
 20
6.8758425386
 30
0.0
 10
12.5956426516
 20
6.8738599498
 30
0.0
  0
SPLINE
  5
2D7
100
AcDbEntity
  8
0
100
AcDbSpline
 62
9
  6
CONTINUOUS
 70
0
 71
3
 72
18
 73
14
 74
0
 42
0.0000001
 43
0.0000001
 44
0.0000000001
 40
0.0
 40
0.0
 40
0.0
 40
0.0
 40
0.1735704679
 40
0.342070463
 40
0.5006131006
 40
0.6445839772
 40
0.7698013424
 40
0.8242166911
 40
0.8726308212
 40
0.9146926346
 40
0.9500980533
 40
0.9786012484
 40
1.0
 40
1.0
 40
1.0
 40
1.0
 10
12.5987428954
 20
8.6126925287
 30
0.0
 10
12.5964773017
 20
8.6126456055
 30
0.0
 10
12.5920120873
 20
8.6125629868
 30
0.0
 10
12.5854768593
 20
8.6124717783
 30
0.0
 10
12.5793276786
 20
8.6124163923
 30
0.0
 10
12.5737433611
 20
8.6123983026
 30
0.0
 10
12.5695184685
 20
8.6124147095
 30
0.0
 10
12.5665413539
 20
8.6124496512
 30
0.0
 10
12.5646499901
 20
8.6124837865
 30
0.0
 10
12.5630070689
 20
8.612526715
 30
0.0
 10
12.5616244397
 20
8.6125778028
 30
0.0
 10
12.5605122332
 20
8.6126366124
 30
0.0
 10
12.5598624609
 20
8.6126866516
 30
0.0
 10
12.5595846289
 20
8.6127159751
 30
0.0
  0
SPLINE
  5
2D8
100
AcDbEntity
  8
0
100
AcDbSpline
 62
9
  6
CONTINUOUS
 70
0
 71
3
 72
11
 73
7
 74
0
 42
0.0000001
 43
0.0000001
 44
0.0000000001
 40
0.0
 40
0.0
 40
0.0
 40
0.0
 40
0.2031640981
 40
0.4385498529
 40
0.7047062877
 40
1.0
 40
1.0
 40
1.0
 40
1.0
 10
12.8263922663
 20
6.8524301924
 30
0.0
 10
12.8264126022
 20
6.8534280433
 30
0.0
 10
12.8265127986
 20
6.8555808604
 30
0.0
 10
12.8267857943
 20
6.8590322713
 30
0.0
 10
12.8271681897
 20
6.8629281746
 30
0.0
 10
12.827455309
 20
6.865671341
 30
0.0
 10
12.8276020906
 20
6.8671145473
 30
0.0
  0
SPLINE
  5
2D9
100
AcDbEntity
  8
0
100
AcDbSpline
 62
9
  6
CONTINUOUS
 70
0
 71
3
 72
23
 73
19
 74
0
 42
0.0000001
 43
0.0000001
 44
0.0000000001
 40
0.0
 40
0.0
 40
0.0
 40
0.0
 40
0.0403431277
 40
0.0794349776
 40
0.1181155755
 40
0.1573880232
 40
0.1983767576
 40
0.242214575
 40
0.2899490817
 40
0.3424651159
 40
0.400546368
 40
0.4648416591
 40
0.5358423695
 40
0.6139231682
 40
0.6993567707
 40
0.7922810906
 40
0.8925976574
 40
1.0
 40
1.0
 40
1.0
 40
1.0
 10
12.8070844832
 20
6.8107739254
 30
0.0
 10
12.807086479
 20
6.8110885232
 30
0.0
 10
12.807050649
 20
6.8117092501
 30
0.0
 10
12.8068641788
 20
6.8126146927
 30
0.0
 10
12.8065431095
 20
6.813473182
 30
0.0
 10
12.8060821011
 20
6.814282565
 30
0.0
 10
12.8054750622
 20
6.8150410302
 30
0.0
 10
12.804717882
 20
6.8157492539
 30
0.0
 10
12.8038086774
 20
6.8164132809
 30
0.0
 10
12.8027429578
 20
6.8170399266
 30
0.0
 10
12.8015157142
 20
6.8176373469
 30
0.0
 10
12.8001214043
 20
6.8182135537
 30
0.0
 10
12.7985565709
 20
6.8187803776
 30
0.0
 10
12.7968183556
 20
6.8193494187
 30
0.0
 10
12.7949055933
 20
6.8199331053
 30
0.0
 10
12.7928201004
 20
6.820544169
 30
0.0
 10
12.7905691974
 20
6.8211999089
 30
0.0
 10
12.7890163624
 20
6.8216610373
 30
0.0
 10
12.7882146805
 20
6.8219035021
 30
0.0
  0
LINE
  5
2DA
100
AcDbEntity
  8
0
100
AcDbLine
 62
9
  6
CONTINUOUS
 10
12.8069413926
 20
6.7884902657
 11
12.8070844832
 21
6.8107739254
  0
LINE
  5
2DB
100
AcDbEntity
  8
0
100
AcDbLine
 62
9
  6
CONTINUOUS
 10
12.8245930142
 20
8.649233839
 11
12.8258303094
 21
8.7134410273
  0
LINE
  5
2DC
100
AcDbEntity
  8
0
100
AcDbLine
 62
9
  6
CONTINUOUS
 10
12.5975055998
 20
8.7134410272
 11
12.5987428954
 21
8.649233839
  0
LINE
  5
2DD
100
AcDbEntity
  8
0
100
AcDbLine
 62
9
  6
CONTINUOUS
 10
12.8255566424
 20
6.8111609751
 11
12.8263922663
 21
6.8524301924
  0
SPLINE
  5
2DE
100
AcDbEntity
  8
0
100
AcDbSpline
 62
9
  6
CONTINUOUS
 70
0
 71
3
 72
21
 73
17
 74
0
 42
0.0000001
 43
0.0000001
 44
0.0000000001
 40
0.0
 40
0.0
 40
0.0
 40
0.0
 40
0.0659987055
 40
0.1318785603
 40
0.1975069944
 40
0.2627959317
 40
0.3918907993
 40
0.5186484464
 40
0.5810792595
 40
0.6428126859
 40
0.7038489874
 40
0.7642099296
 40
0.8239354522
 40
0.8830842967
 40
0.94174872
 40
1.0
 40
1.0
 40
1.0
 40
1.0
 10
12.78855459
 20
6.8399046211
 30
0.0
 10
12.7896806029
 20
6.8398991324
 30
0.0
 10
12.7919319082
 20
6.8399708439
 30
0.0
 10
12.795285655
 20
6.8403275323
 30
0.0
 10
12.7985919079
 20
6.8409314424
 30
0.0
 10
12.8028871693
 20
6.842054223
 30
0.0
 10
12.8080185324
 20
6.8440395544
 30
0.0
 10
12.812736054
 20
6.8467793121
 30
0.0
 10
12.8161493011
 20
6.8493702954
 30
0.0
 10
12.8185007312
 20
6.8514867977
 30
0.0
 10
12.8206385487
 20
6.8537706795
 30
0.0
 10
12.8225476152
 20
6.8562057987
 30
0.0
 10
12.8242140878
 20
6.8587747622
 30
0.0
 10
12.8256260583
 20
6.8614595097
 30
0.0
 10
12.8267729108
 20
6.864240382
 30
0.0
 10
12.8273573062
 20
6.8661513116
 30
0.0
 10
12.8276020887
 20
6.8671145401
 30
0.0
  0
SPLINE
  5
2DF
100
AcDbEntity
  8
0
100
AcDbSpline
 62
9
  6
CONTINUOUS
 70
0
 71
3
 72
9
 73
5
 74
0
 42
0.0000001
 43
0.0000001
 44
0.0000000001
 40
0.0
 40
0.0
 40
0.0
 40
0.0
 40
0.2405752509
 40
1.0
 40
1.0
 40
1.0
 40
1.0
 10
12.8276020887
 20
6.8671145401
 30
0.0
 10
12.8276685821
 20
6.8676519815
 30
0.0
 10
12.8278795179
 20
6.8698939078
 30
0.0
 10
12.8278392925
 20
6.87215672
 30
0.0
 10
12.8276932794
 20
6.873859951
 30
0.0
  0
SPLINE
  5
2E0
100
AcDbEntity
  8
0
100
AcDbSpline
 62
9
  6
CONTINUOUS
 70
0
 71
3
 72
21
 73
17
 74
0
 42
0.0000001
 43
0.0000001
 44
0.0000000001
 40
0.0
 40
0.0
 40
0.0
 40
0.0
 40
0.0655529817
 40
0.1310396929
 40
0.1963308643
 40
0.2613436291
 40
0.3900733077
 40
0.5167299385
 40
0.5792107469
 40
0.6410569775
 40
0.7022657853
 40
0.7628549162
 40
0.8228592312
 40
0.8823314045
 40
0.9413575642
 40
1.0
 40
1.0
 40
1.0
 40
1.0
 10
12.8245930142
 20
8.649233839
 30
0.0
 10
12.8257461657
 20
8.6492287583
 30
0.0
 10
12.828051905
 20
8.6491303608
 30
0.0
 10
12.8314841915
 20
8.6487183195
 30
0.0
 10
12.8348655233
 20
8.6480442408
 30
0.0
 10
12.8392554772
 20
8.6468087085
 30
0.0
 10
12.8444884407
 20
8.6446485261
 30
0.0
 10
12.849270179
 20
8.6416979515
 30
0.0
 10
12.85271002
 20
8.6389229329
 30
0.0
 10
12.855069364
 20
8.6366616459
 30
0.0
 10
12.8572008325
 20
8.6342285373
 30
0.0
 10
12.859088621
 20
8.6316416407
 30
0.0
 10
12.8607183857
 20
8.6289203332
 30
0.0
 10
12.862077924
 20
8.6260846771
 30
0.0
 10
12.86315652
 20
8.6231564335
 30
0.0
 10
12.8636846706
 20
8.6211511102
 30
0.0
 10
12.8638988432
 20
8.6201419904
 30
0.0
  0
SPLINE
  5
2E1
100
AcDbEntity
  8
0
100
AcDbSpline
 62
9
  6
CONTINUOUS
 70
0
 71
3
 72
14
 73
10
 74
0
 42
0.0000001
 43
0.0000001
 44
0.0000000001
 40
0.0
 40
0.0
 40
0.0
 40
0.0
 40
0.3000130273
 40
0.4381214681
 40
0.5679241774
 40
0.6892041095
 40
0.8017696242
 40
0.9054384367
 40
1.0
 40
1.0
 40
1.0
 40
1.0
 10
12.8638988472
 20
8.6201419719
 30
0.0
 10
12.8637805094
 20
8.6217665635
 30
0.0
 10
12.8635926046
 20
8.6241378945
 30
0.0
 10
12.8633586444
 20
8.6272125053
 30
0.0
 10
12.8632115278
 20
8.6293204856
 30
0.0
 10
12.8630958382
 20
8.631291544
 30
0.0
 10
12.8630165183
 20
8.6331224359
 30
0.0
 10
12.8629785032
 20
8.634809581
 30
0.0
 10
12.8629819219
 20
8.6358860358
 30
0.0
 10
12.8629923074
 20
8.6363993449
 30
0.0
  0
LINE
  5
2E2
100
AcDbEntity
  8
0
100
AcDbLine
 62
9
  6
CONTINUOUS
 10
12.8629923074
 20
8.6363993449
 11
12.8639896293
 21
8.6854356061
  0
SPLINE
  5
2E3
100
AcDbEntity
  8
0
100
AcDbSpline
 62
9
  6
CONTINUOUS
 70
0
 71
3
 72
9
 73
5
 74
0
 42
0.0000001
 43
0.0000001
 44
0.0000000001
 40
0.0
 40
0.0
 40
0.0
 40
0.0
 40
0.2592993147
 40
1.0
 40
1.0
 40
1.0
 40
1.0
 10
12.8637512743
 20
8.6127159735
 30
0.0
 10
12.863830975
 20
8.6133536984
 30
0.0
 10
12.8640775808
 20
8.6158198902
 30
0.0
 10
12.8640738146
 20
8.6183144848
 30
0.0
 10
12.8638988432
 20
8.6201419904
 30
0.0
  0
LINE
  5
2E4
100
AcDbEntity
  8
0
100
AcDbLine
 62
9
  6
CONTINUOUS
 10
12.7882146777
 20
6.8219009237
 11
12.7885545899
 21
6.8399046211
  0
SPLINE
  5
2E5
100
AcDbEntity
  8
0
100
AcDbSpline
 62
9
  6
CONTINUOUS
 70
0
 71
3
 72
11
 73
7
 74
0
 42
0.0000001
 43
0.0000001
 44
0.0000000001
 40
0.0
 40
0.0
 40
0.0
 40
0.0
 40
0.2401214862
 40
0.4886122576
 40
0.7428476272
 40
1.0
 40
1.0
 40
1.0
 40
1.0
 10
12.7882146777
 20
6.8219009237
 30
0.0
 10
12.7865136673
 20
6.822244853
 30
0.0
 10
12.7830330917
 20
6.8228522857
 30
0.0
 10
12.7777024209
 20
6.8235085845
 30
0.0
 10
12.7722230492
 20
6.8239093178
 30
0.0
 10
12.7685264741
 20
6.8239995501
 30
0.0
 10
12.7666679548
 20
6.8239995595
 30
0.0
  0
SPLINE
  5
2E6
100
AcDbEntity
  8
0
100
AcDbSpline
 62
9
  6
CONTINUOUS
 70
0
 71
3
 72
11
 73
7
 74
0
 42
0.0000001
 43
0.0000001
 44
0.0000000001
 40
0.0
 40
0.0
 40
0.0
 40
0.0
 40
0.257154446
 40
0.5113881887
 40
0.7598787031
 40
1.0
 40
1.0
 40
1.0
 40
1.0
 10
12.6566679548
 20
6.8239995595
 30
0.0
 10
12.6548094204
 20
6.8239995562
 30
0.0
 10
12.6511128319
 20
6.8239095775
 30
0.0
 10
12.6456334824
 20
6.8235084663
 30
0.0
 10
12.6403028209
 20
6.8228522563
 30
0.0
 10
12.636822251
 20
6.8222447966
 30
0.0
 10
12.6351212402
 20
6.8219008754
 30
0.0
  0
LINE
  5
2E7
100
AcDbEntity
  8
0
100
AcDbLine
 62
9
  6
CONTINUOUS
 10
12.6347813197
 20
6.8399046211
 11
12.6351212402
 21
6.8219008754
  0
SPLINE
  5
2E8
100
AcDbEntity
  8
0
100
AcDbSpline
 62
9
  6
CONTINUOUS
 70
0
 71
3
 72
46
 73
42
 74
0
 42
0.0000001
 43
0.0000001
 44
0.0000000001
 40
0.0
 40
0.0
 40
0.0
 40
0.0
 40
0.1029636228
 40
0.1534744245
 40
0.2032070989
 40
0.2999843092
 40
0.3927489711
 40
0.4809003193
 40
0.5638246251
 40
0.6031697039
 40
0.6410259747
 40
0.6773343509
 40
0.7120267799
 40
0.7762965508
 40
0.8057678179
 40
0.8333888806
 40
0.8590994631
 40
0.8828403961
 40
0.9045529354
 40
0.9241806209
 40
0.9416676319
 40
0.9569559332
 40
0.9637570566
 40
0.9699880051
 40
0.9756447296
 40
0.9807232028
 40
0.985219304
 40
0.9891282109
 40
0.992444619
 40
0.9951631949
 40
0.9962966498
 40
0.9972790471
 40
0.9981103614
 40
0.9987905733
 40
0.9993196631
 40
0.9995275309
 40
0.9996976108
 40
0.9998299002
 40
0.9999243965
 40
0.9999810973
 40
1.0
 40
1.0
 40
1.0
 40
1.0
 10
12.9272026002
 20
4.6176795348
 30
0.0
 10
12.9518184411
 20
4.6163476796
 30
0.0
 10
12.9884922554
 20
4.6140081345
 30
0.0
 10
13.0369957413
 20
4.6101968434
 30
0.0
 10
13.0839835709
 20
4.6060328885
 30
0.0
 10
13.1409683399
 20
4.6001065604
 30
0.0
 10
13.2069476175
 20
4.591874415
 30
0.0
 10
13.2694552478
 20
4.582721179
 30
0.0
 10
13.3191344796
 20
4.574322298
 30
0.0
 10
13.3568199923
 20
4.5672767402
 30
0.0
 10
13.3834753415
 20
4.5619752693
 30
0.0
 10
13.4089770459
 20
4.5565928796
 30
0.0
 10
13.4405851833
 20
4.5495311038
 30
0.0
 10
13.4704766788
 20
4.5423009164
 30
0.0
 10
13.4985879215
 20
4.5349462174
 30
0.0
 10
13.517706327
 20
4.529698993
 30
0.0
 10
13.5354422324
 20
4.5246034897
 30
0.0
 10
13.5517624521
 20
4.5197078672
 30
0.0
 10
13.5666356753
 20
4.5150609851
 30
0.0
 10
13.5800329084
 20
4.5107138925
 30
0.0
 10
13.5919265326
 20
4.5067187854
 30
0.0
 10
13.6008796672
 20
4.5036156834
 30
0.0
 10
13.6072713348
 20
4.5013523697
 30
0.0
 10
13.6114831848
 20
4.4998418064
 30
0.0
 10
13.6153015524
 20
4.4984559266
 30
0.0
 10
13.6187250799
 20
4.4971997089
 30
0.0
 10
13.6217523268
 20
4.4960783584
 30
0.0
 10
13.6243812615
 20
4.4950962884
 30
0.0
 10
13.6266093996
 20
4.4942574824
 30
0.0
 10
13.6282143146
 20
4.4936492914
 30
0.0
 10
13.6292961992
 20
4.4932378687
 30
0.0
 10
13.6299555906
 20
4.4929866692
 30
0.0
 10
13.630513442
 20
4.4927737535
 30
0.0
 10
13.6309697923
 20
4.4925992684
 30
0.0
 10
13.6312866387
 20
4.4924778807
 30
0.0
 10
13.6314894044
 20
4.4924001203
 30
0.0
 10
13.6316034319
 20
4.4923562834
 30
0.0
 10
13.6316921691
 20
4.4923223169
 30
0.0
 10
13.6317554194
 20
4.4922976762
 30
0.0
 10
13.6317935971
 20
4.4922835222
 30
0.0
 10
13.6318103105
 20
4.4922765189
 30
0.0
 10
13.6318146062
 20
4.4922750944
 30
0.0
  0
SPLINE
  5
2E9
100
AcDbEntity
  8
0
100
AcDbSpline
 62
9
  6
CONTINUOUS
 70
0
 71
3
 72
18
 73
14
 74
0
 42
0.0000001
 43
0.0000001
 44
0.0000000001
 40
0.0
 40
0.0
 40
0.0
 40
0.0
 40
0.1735703983
 40
0.3420703315
 40
0.5006129224
 40
0.6445837739
 40
0.7698011412
 40
0.8242165026
 40
0.8726306534
 40
0.914692496
 40
0.9500979525
 40
0.9786011936
 40
1.0
 40
1.0
 40
1.0
 40
1.0
 10
12.8245930142
 20
8.6126925287
 30
0.0
 10
12.8268586067
 20
8.6126456056
 30
0.0
 10
12.8313238186
 20
8.6125629869
 30
0.0
 10
12.8378590432
 20
8.6124717784
 30
0.0
 10
12.8440082212
 20
8.6124163924
 30
0.0
 10
12.8495925369
 20
8.6123983026
 30
0.0
 10
12.8538174287
 20
8.6124147094
 30
0.0
 10
12.8567945432
 20
8.6124496511
 30
0.0
 10
12.8586859075
 20
8.6124837862
 30
0.0
 10
12.8603288297
 20
8.6125267147
 30
0.0
 10
12.8617114602
 20
8.6125778024
 30
0.0
 10
12.8628236683
 20
8.6126366119
 30
0.0
 10
12.8634734418
 20
8.612686651
 30
0.0
 10
12.8637512744
 20
8.6127159744
 30
0.0
  0
SPLINE
  5
2EA
100
AcDbEntity
  8
0
100
AcDbSpline
 62
9
  6
CONTINUOUS
 70
0
 71
3
 72
11
 73
7
 74
0
 42
0.0000001
 43
0.0000001
 44
0.0000000001
 40
0.0
 40
0.0
 40
0.0
 40
0.0
 40
0.2434589526
 40
0.4924653222
 40
0.745201965
 40
1.0
 40
1.0
 40
1.0
 40
1.0
 10
12.8276932793
 20
6.873859952
 30
0.0
 10
12.8275942381
 20
6.8758425507
 30
0.0
 10
12.8273999965
 20
6.8798532654
 30
0.0
 10
12.827185433
 20
6.8859258572
 30
0.0
 10
12.8270898113
 20
6.8920941379
 30
0.0
 10
12.8271237412
 20
6.8962327404
 30
0.0
 10
12.8271667525
 20
6.8983098207
 30
0.0
  0
SPLINE
  5
2EB
100
AcDbEntity
  8
0
100
AcDbSpline
 62
9
  6
CONTINUOUS
 70
0
 71
3
 72
11
 73
7
 74
0
 42
0.0000001
 43
0.0000001
 44
0.0000000001
 40
0.0
 40
0.0
 40
0.0
 40
0.0
 40
0.2532833497
 40
0.5055329355
 40
0.7550464275
 40
1.0
 40
1.0
 40
1.0
 40
1.0
 10
12.8621825645
 20
8.5878227508
 30
0.0
 10
12.8622262636
 20
8.5899285906
 30
0.0
 10
12.8623669511
 20
8.5941307396
 30
0.0
 10
12.8627255642
 20
8.6003998997
 30
0.0
 10
12.8632013619
 20
8.6065915911
 30
0.0
 10
12.8635678028
 20
8.6106872306
 30
0.0
 10
12.8637512744
 20
8.6127159744
 30
0.0
  0
SPLINE
  5
2EC
100
AcDbEntity
  8
0
100
AcDbSpline
 62
9
  6
CONTINUOUS
 70
0
 71
3
 72
18
 73
14
 74
0
 42
0.0000001
 43
0.0000001
 44
0.0000000001
 40
0.0
 40
0.0
 40
0.0
 40
0.0
 40
0.1733561338
 40
0.3416656686
 40
0.5000643296
 40
0.6439580783
 40
0.7691820038
 40
0.8236361085
 40
0.8721141975
 40
0.9142659103
 40
0.9497875362
 40
0.9784331988
 40
1.0
 40
1.0
 40
1.0
 40
1.0
 10
12.7885545899
 20
6.873838557
 30
0.0
 10
12.790816249
 20
6.8737917154
 30
0.0
 10
12.7952739378
 20
6.8737092191
 30
0.0
 10
12.8017987204
 20
6.873618078
 30
0.0
 10
12.8079394394
 20
6.8735626308
 30
0.0
 10
12.8135181503
 20
6.8735443485
 30
0.0
 10
12.8177405052
 20
6.8735604842
 30
0.0
 10
12.820717553
 20
6.8735951211
 30
0.0
 10
12.8226104839
 20
6.8736290191
 30
0.0
 10
12.8242561111
 20
6.8736716883
 30
0.0
 10
12.8256426045
 20
6.8737225085
 30
0.0
 10
12.8267598425
 20
6.8737810396
 30
0.0
 10
12.8274133625
 20
6.8738308296
 30
0.0
 10
12.8276932793
 20
6.873859952
 30
0.0
  0
SPLINE
  5
2ED
100
AcDbEntity
  8
0
100
AcDbSpline
 62
9
  6
CONTINUOUS
 70
0
 71
3
 72
15
 73
11
 74
0
 42
0.0000001
 43
0.0000001
 44
0.0000000001
 40
0.0
 40
0.0
 40
0.0
 40
0.0
 40
0.1307707817
 40
0.2601352716
 40
0.3877381535
 40
0.5133872371
 40
0.6371058092
 40
0.7591328032
 40
0.8798982327
 40
1.0
 40
1.0
 40
1.0
 40
1.0
 10
12.5465024852
 20
8.624257438
 30
0.0
 10
12.5445413744
 20
8.6237666117
 30
0.0
 10
12.5407075057
 20
8.6224924293
 30
0.0
 10
12.535357913
 20
8.6197370561
 30
0.0
 10
12.5305720875
 20
8.6162173249
 30
0.0
 10
12.5264832149
 20
8.6120274
 30
0.0
 10
12.5232043276
 20
8.6072801393
 30
0.0
 10
12.5208278665
 20
8.6021038735
 30
0.0
 10
12.5194213342
 20
8.5966431163
 30
0.0
 10
12.5191575322
 20
8.5929044548
 30
0.0
 10
12.5191960041
 20
8.591048187
 30
0.0
  0
SPLINE
  5
2EE
100
AcDbEntity
  8
0
100
AcDbSpline
 62
9
  6
CONTINUOUS
 70
0
 71
3
 72
11
 73
7
 74
0
 42
0.0000001
 43
0.0000001
 44
0.0000000001
 40
0.0
 40
0.0
 40
0.0
 40
0.0
 40
0.2389317269
 40
0.4874052462
 40
0.742262127
 40
1.0
 40
1.0
 40
1.0
 40
1.0
 10
12.545694596
 20
8.6045189965
 30
0.0
 10
12.545855951
 20
8.6031985096
 30
0.0
 10
12.5461810608
 20
8.6005042745
 30
0.0
 10
12.546605756
 20
8.5963930518
 30
0.0
 10
12.5469210549
 20
8.5921666882
 30
0.0
 10
12.5470348162
 20
8.5893141959
 30
0.0
 10
12.5470645483
 20
8.5878794877
 30
0.0
  0
SPLINE
  5
2EF
100
AcDbEntity
  8
0
100
AcDbSpline
 62
9
  6
CONTINUOUS
 70
0
 71
3
 72
9
 73
5
 74
0
 42
0.0000001
 43
0.0000001
 44
0.0000000001
 40
0.0
 40
0.0
 40
0.0
 40
0.0
 40
0.4875766038
 40
1.0
 40
1.0
 40
1.0
 40
1.0
 10
12.5455467203
 20
8.6119544218
 30
0.0
 10
12.5454349272
 20
8.6107491913
 30
0.0
 10
12.5453560202
 20
8.6082619354
 30
0.0
 10
12.5455402878
 20
8.6057816888
 30
0.0
 10
12.545694596
 20
8.6045189965
 30
0.0
  0
SPLINE
  5
2F0
100
AcDbEntity
  8
0
100
AcDbSpline
 62
9
  6
CONTINUOUS
 70
0
 71
3
 72
14
 73
10
 74
0
 42
0.0000001
 43
0.0000001
 44
0.0000000001
 40
0.0
 40
0.0
 40
0.0
 40
0.0
 40
0.0878621829
 40
0.1875355353
 40
0.2984504255
 40
0.4200672746
 40
0.5517918456
 40
0.6928965699
 40
1.0
 40
1.0
 40
1.0
 40
1.0
 10
12.5465024852
 20
8.624257438
 30
0.0
 10
12.546509764
 20
8.6238959377
 30
0.0
 10
12.5465054897
 20
8.6231239276
 30
0.0
 10
12.5464566193
 20
8.621896561
 30
0.0
 10
12.5463673362
 20
8.6205322638
 30
0.0
 10
12.5462428774
 20
8.6190383899
 30
0.0
 10
12.5460888142
 20
8.6174224568
 30
0.0
 10
12.5458492177
 20
8.6150479612
 30
0.0
 10
12.5456634242
 20
8.6132128249
 30
0.0
 10
12.5455467203
 20
8.6119544218
 30
0.0
  0
SPLINE
  5
2F1
100
AcDbEntity
  8
0
100
AcDbSpline
 62
9
  6
CONTINUOUS
 70
0
 71
3
 72
29
 73
25
 74
0
 42
0.0000001
 43
0.0000001
 44
0.0000000001
 40
0.0
 40
0.0
 40
0.0
 40
0.0
 40
0.2067818499
 40
0.3050404828
 40
0.3989840254
 40
0.4879797092
 40
0.5714160687
 40
0.6487291229
 40
0.7193967049
 40
0.7829374562
 40
0.8389246399
 40
0.8869809011
 40
0.9267844754
 40
0.9435096285
 40
0.9580794402
 40
0.9704721322
 40
0.9806744995
 40
0.9849517197
 40
0.9886790931
 40
0.9918581887
 40
0.9944933827
 40
0.9965931656
 40
0.9981754936
 40
1.0
 40
1.0
 40
1.0
 40
1.0
 10
12.5470645438
 20
8.5878794877
 30
0.0
 10
12.5451449709
 20
8.5878526087
 30
0.0
 10
12.5423131594
 20
8.5878192252
 30
0.0
 10
12.5386091069
 20
8.5877899859
 30
0.0
 10
12.5359984983
 20
8.5877766559
 30
0.0
 10
12.5335254704
 20
8.5877716099
 30
0.0
 10
12.5312068359
 20
8.58777488
 30
0.0
 10
12.5290583869
 20
8.5877864201
 30
0.0
 10
12.5270947141
 20
8.5878061144
 30
0.0
 10
12.5253291467
 20
8.5878337996
 30
0.0
 10
12.52377368
 20
8.5878691786
 30
0.0
 10
12.5224388715
 20
8.5879119581
 30
0.0
 10
12.5214688249
 20
8.5879553544
 30
0.0
 10
12.5208099304
 20
8.5879950896
 30
0.0
 10
12.5204054045
 20
8.5880247439
 30
0.0
 10
12.5200617572
 20
8.5880559276
 30
0.0
 10
12.5198138689
 20
8.5880844151
 30
0.0
 10
12.5196465616
 20
8.5881087053
 30
0.0
 10
12.5195442304
 20
8.5881261466
 30
0.0
 10
12.5194573279
 20
8.5881439869
 30
0.0
 10
12.5193863386
 20
8.5881618315
 30
0.0
 10
12.5193298
 20
8.5881805914
 30
0.0
 10
12.5192851512
 20
8.5882002998
 30
0.0
 10
12.5192545307
 20
8.5882242799
 30
0.0
 10
12.5192541797
 20
8.588241215
 30
0.0
  0
SPLINE
  5
2F2
100
AcDbEntity
  8
0
100
AcDbSpline
 62
9
  6
CONTINUOUS
 70
0
 71
3
 72
15
 73
11
 74
0
 42
0.0000001
 43
0.0000001
 44
0.0000000001
 40
0.0
 40
0.0
 40
0.0
 40
0.0
 40
0.130770785
 40
0.2601352766
 40
0.3877381597
 40
0.5133872446
 40
0.6371058172
 40
0.759132809
 40
0.8798982347
 40
1.0
 40
1.0
 40
1.0
 40
1.0
 10
12.876833469
 20
8.6242574261
 30
0.0
 10
12.8787945772
 20
8.6237665979
 30
0.0
 10
12.8826284406
 20
8.6224924124
 30
0.0
 10
12.8879780253
 20
8.6197370366
 30
0.0
 10
12.892763843
 20
8.6162173049
 30
0.0
 10
12.8968527085
 20
8.6120273814
 30
0.0
 10
12.9001315897
 20
8.6072801237
 30
0.0
 10
12.9025080464
 20
8.6021038623
 30
0.0
 10
12.903914576
 20
8.5966431105
 30
0.0
 10
12.9041783774
 20
8.5929044529
 30
0.0
 10
12.9041399056
 20
8.591048187
 30
0.0
  0
LINE
  5
2F3
100
AcDbEntity
  8
0
100
AcDbLine
 62
9
  6
CONTINUOUS
 10
12.876833469
 20
8.6242574261
 11
12.8778072993
 21
8.6721374764
  0
SPLINE
  5
2F4
100
AcDbEntity
  8
0
100
AcDbSpline
 62
9
  6
CONTINUOUS
 70
0
 71
3
 72
29
 73
25
 74
0
 42
0.0000001
 43
0.0000001
 44
0.0000000001
 40
0.0
 40
0.0
 40
0.0
 40
0.0
 40
0.2067818473
 40
0.3050404791
 40
0.3989840204
 40
0.4879797032
 40
0.5714160618
 40
0.6487291151
 40
0.7193966963
 40
0.7829374469
 40
0.8389246302
 40
0.8869808912
 40
0.9267844654
 40
0.9435096187
 40
0.9580794305
 40
0.9704721229
 40
0.9806744908
 40
0.9849517113
 40
0.9886790851
 40
0.9918581813
 40
0.994493376
 40
0.9965931599
 40
0.998175489
 40
1.0
 40
1.0
 40
1.0
 40
1.0
 10
12.8762713658
 20
8.5878794867
 30
0.0
 10
12.8781909387
 20
8.5878526076
 30
0.0
 10
12.8810227503
 20
8.5878192239
 30
0.0
 10
12.8847268027
 20
8.5877899844
 30
0.0
 10
12.8873374113
 20
8.5877766543
 30
0.0
 10
12.8898104393
 20
8.5877716083
 30
0.0
 10
12.8921290737
 20
8.5877748783
 30
0.0
 10
12.8942775227
 20
8.5877864185
 30
0.0
 10
12.8962411956
 20
8.5878061128
 30
0.0
 10
12.898006763
 20
8.5878337981
 30
0.0
 10
12.8995622296
 20
8.5878691772
 30
0.0
 10
12.9008970381
 20
8.5879119568
 30
0.0
 10
12.9018670847
 20
8.5879553532
 30
0.0
 10
12.9025259792
 20
8.5879950886
 30
0.0
 10
12.9029305051
 20
8.588024743
 30
0.0
 10
12.9032741524
 20
8.5880559269
 30
0.0
 10
12.9035220408
 20
8.5880844144
 30
0.0
 10
12.903689348
 20
8.5881087047
 30
0.0
 10
12.9037916792
 20
8.5881261462
 30
0.0
 10
12.9038785818
 20
8.5881439865
 30
0.0
 10
12.9039495711
 20
8.5881618312
 30
0.0
 10
12.9040061096
 20
8.5881805911
 30
0.0
 10
12.9040507585
 20
8.5882002997
 30
0.0
 10
12.904081379
 20
8.5882242799
 30
0.0
 10
12.90408173
 20
8.588241215
 30
0.0
  0
SPLINE
  5
2F5
100
AcDbEntity
  8
0
100
AcDbSpline
 62
9
  6
CONTINUOUS
 70
0
 71
3
 72
11
 73
7
 74
0
 42
0.0000001
 43
0.0000001
 44
0.0000000001
 40
0.0
 40
0.0
 40
0.0
 40
0.0
 40
0.2577372006
 40
0.5125922671
 40
0.7610713239
 40
1.0
 40
1.0
 40
1.0
 40
1.0
 10
12.87627136
 20
8.5878794868
 30
0.0
 10
12.8763010919
 20
8.5893142685
 30
0.0
 10
12.8764148959
 20
8.5921668989
 30
0.0
 10
12.8767302112
 20
8.5963935071
 30
0.0
 10
12.8771550239
 20
8.6005049452
 30
0.0
 10
12.8774801023
 20
8.6031993438
 30
0.0
 10
12.8776413201
 20
8.6045199024
 30
0.0
  0
SPLINE
  5
2F6
100
AcDbEntity
  8
0
100
AcDbSpline
 62
9
  6
CONTINUOUS
 70
0
 71
3
 72
9
 73
5
 74
0
 42
0.0000001
 43
0.0000001
 44
0.0000000001
 40
0.0
 40
0.0
 40
0.0
 40
0.0
 40
0.5124463797
 40
1.0
 40
1.0
 40
1.0
 40
1.0
 10
12.8776413201
 20
8.6045199024
 30
0.0
 10
12.8777954705
 20
8.6057825608
 30
0.0
 10
12.8779799589
 20
8.6082625768
 30
0.0
 10
12.8779008464
 20
8.6107496022
 30
0.0
 10
12.8777892696
 20
8.6119546904
 30
0.0
  0
SPLINE
  5
2F7
100
AcDbEntity
  8
0
100
AcDbSpline
 62
9
  6
CONTINUOUS
 70
0
 71
3
 72
14
 73
10
 74
0
 42
0.0000001
 43
0.0000001
 44
0.0000000001
 40
0.0
 40
0.0
 40
0.0
 40
0.0
 40
0.3071175079
 40
0.4482271956
 40
0.5799557332
 40
0.7015796556
 40
0.812493851
 40
0.9121503112
 40
1.0
 40
1.0
 40
1.0
 40
1.0
 10
12.8777892696
 20
8.6119546904
 30
0.0
 10
12.8776727513
 20
8.6132131412
 30
0.0
 10
12.87748657
 20
8.6150482787
 30
0.0
 10
12.8772470527
 20
8.6174228249
 30
0.0
 10
12.8770931493
 20
8.6190388036
 30
0.0
 10
12.8769685935
 20
8.6205326779
 30
0.0
 10
12.8768791559
 20
8.6218968926
 30
0.0
 10
12.8768303785
 20
8.6231241147
 30
0.0
 10
12.8768261987
 20
8.6238959857
 30
0.0
 10
12.8768334658
 20
8.6242574269
 30
0.0
  0
SPLINE
  5
2F8
100
AcDbEntity
  8
0
100
AcDbSpline
 62
9
  6
CONTINUOUS
 70
0
 71
3
 72
29
 73
25
 74
0
 42
0.0000001
 43
0.0000001
 44
0.0000000001
 40
0.0
 40
0.0
 40
0.0
 40
0.0
 40
0.2067818499
 40
0.3050404829
 40
0.3989840254
 40
0.4879797092
 40
0.5714160688
 40
0.648729123
 40
0.719396705
 40
0.7829374562
 40
0.8389246399
 40
0.8869809011
 40
0.9267844754
 40
0.9435096285
 40
0.9580794402
 40
0.9704721322
 40
0.9806744995
 40
0.9849517197
 40
0.9886790931
 40
0.9918581887
 40
0.9944933827
 40
0.9965931656
 40
0.9981754936
 40
1.0
 40
1.0
 40
1.0
 40
1.0
 10
12.8412555426
 20
6.898366017
 30
0.0
 10
12.8431751155
 20
6.898339138
 30
0.0
 10
12.8460069271
 20
6.8983057545
 30
0.0
 10
12.8497109796
 20
6.8982765152
 30
0.0
 10
12.8523215881
 20
6.8982631852
 30
0.0
 10
12.8547946161
 20
6.8982581392
 30
0.0
 10
12.8571132505
 20
6.8982614093
 30
0.0
 10
12.8592616995
 20
6.8982729494
 30
0.0
 10
12.8612253724
 20
6.8982926437
 30
0.0
 10
12.8629909398
 20
6.8983203289
 30
0.0
 10
12.8645464064
 20
6.8983557079
 30
0.0
 10
12.8658812149
 20
6.8983984874
 30
0.0
 10
12.8668512615
 20
6.8984418837
 30
0.0
 10
12.867510156
 20
6.8984816189
 30
0.0
 10
12.8679146819
 20
6.8985112732
 30
0.0
 10
12.8682583292
 20
6.8985424569
 30
0.0
 10
12.8685062176
 20
6.8985709444
 30
0.0
 10
12.8686735248
 20
6.8985952346
 30
0.0
 10
12.868775856
 20
6.8986126759
 30
0.0
 10
12.8688627585
 20
6.8986305162
 30
0.0
 10
12.8689337478
 20
6.8986483608
 30
0.0
 10
12.8689902864
 20
6.8986671207
 30
0.0
 10
12.8690349352
 20
6.8986868291
 30
0.0
 10
12.8690655558
 20
6.8987108092
 30
0.0
 10
12.8690659068
 20
6.8987277443
 30
0.0
  0
SPLINE
  5
2F9
100
AcDbEntity
  8
0
100
AcDbSpline
 62
9
  6
CONTINUOUS
 70
0
 71
3
 72
13
 73
9
 74
0
 42
0.0000001
 43
0.0000001
 44
0.0000000001
 40
0.0
 40
0.0
 40
0.0
 40
0.0
 40
0.0911744684
 40
0.1929754822
 40
0.3049262449
 40
0.4265960425
 40
0.6971570934
 40
1.0
 40
1.0
 40
1.0
 40
1.0
 10
12.8407229596
 20
6.8643825279
 30
0.0
 10
12.8407296816
 20
6.8647168303
 30
0.0
 10
12.8407575634
 20
6.8654241389
 30
0.0
 10
12.8408320453
 20
6.8665400222
 30
0.0
 10
12.8409398463
 20
6.8677654745
 30
0.0
 10
12.8411306431
 20
6.8696046768
 30
0.0
 10
12.8414365079
 20
6.8721354489
 30
0.0
 10
12.8416979976
 20
6.8742219892
 30
0.0
 10
12.8418313962
 20
6.8753245841
 30
0.0
  0
SPLINE
  5
2FA
100
AcDbEntity
  8
0
100
AcDbSpline
 62
9
  6
CONTINUOUS
 70
0
 71
3
 72
9
 73
5
 74
0
 42
0.0000001
 43
0.0000001
 44
0.0000000001
 40
0.0
 40
0.0
 40
0.0
 40
0.0
 40
0.4872322102
 40
1.0
 40
1.0
 40
1.0
 40
1.0
 10
12.8418313962
 20
6.8753245841
 30
0.0
 10
12.841963334
 20
6.8764150548
 30
0.0
 10
12.8421049701
 20
6.8786699562
 30
0.0
 10
12.8420194721
 20
6.880926497
 30
0.0
 10
12.8419240548
 20
6.8820785436
 30
0.0
  0
SPLINE
  5
2FB
100
AcDbEntity
  8
0
100
AcDbSpline
 62
9
  6
CONTINUOUS
 70
0
 71
3
 72
11
 73
7
 74
0
 42
0.0000001
 43
0.0000001
 44
0.0000000001
 40
0.0
 40
0.0
 40
0.0
 40
0.0
 40
0.2368221241
 40
0.4845116845
 40
0.7400382841
 40
1.0
 40
1.0
 40
1.0
 40
1.0
 10
12.8419240548
 20
6.8820785436
 30
0.0
 10
12.8418178024
 20
6.8833615761
 30
0.0
 10
12.8416062065
 20
6.8859870415
 30
0.0
 10
12.8413572094
 20
6.890002766
 30
0.0
 10
12.841220849
 20
6.8941500386
 30
0.0
 10
12.8412262525
 20
6.8969531033
 30
0.0
 10
12.8412555391
 20
6.898366017
 30
0.0
  0
SPLINE
  5
2FC
100
AcDbEntity
  8
0
100
AcDbSpline
 62
9
  6
CONTINUOUS
 70
0
 71
3
 72
15
 73
11
 74
0
 42
0.0000001
 43
0.0000001
 44
0.0000000001
 40
0.0
 40
0.0
 40
0.0
 40
0.0
 40
0.1312311627
 40
0.260928715
 40
0.388720202
 40
0.5144076574
 40
0.6380211377
 40
0.7598196125
 40
0.8802657967
 40
1.0
 40
1.0
 40
1.0
 40
1.0
 10
12.8407229596
 20
6.8643825279
 30
0.0
 10
12.8426820334
 20
6.8648028601
 30
0.0
 10
12.8465214404
 20
6.8659314612
 30
0.0
 10
12.8519148052
 20
6.8684624455
 30
0.0
 10
12.8567784184
 20
6.8717589362
 30
0.0
 10
12.8609791346
 20
6.8757344135
 30
0.0
 10
12.864402608
 20
6.88028368
 30
0.0
 10
12.8669538274
 20
6.8852858823
 30
0.0
 10
12.8685612912
 20
6.8906034855
 30
0.0
 10
12.8689735495
 20
6.8942715077
 30
0.0
 10
12.8690114299
 20
6.8960992367
 30
0.0
  0
SPLINE
  5
2FD
100
AcDbEntity
  8
0
100
AcDbSpline
 62
9
  6
CONTINUOUS
 70
0
 71
3
 72
9
 73
5
 74
0
 42
0.0000001
 43
0.0000001
 44
0.0000000001
 40
0.0
 40
0.0
 40
0.0
 40
0.0
 40
0.5127712688
 40
1.0
 40
1.0
 40
1.0
 40
1.0
 10
12.5814119139
 20
6.8820772313
 30
0.0
 10
12.5813165354
 20
6.8809252537
 30
0.0
 10
12.5812309099
 20
6.8786688754
 30
0.0
 10
12.5813725734
 20
6.8764141283
 30
0.0
 10
12.5815044854
 20
6.8753237386
 30
0.0
  0
SPLINE
  5
2FE
100
AcDbEntity
  8
0
100
AcDbSpline
 62
9
  6
CONTINUOUS
 70
0
 71
3
 72
11
 73
7
 74
0
 42
0.0000001
 43
0.0000001
 44
0.0000000001
 40
0.0
 40
0.0
 40
0.0
 40
0.0
 40
0.2599602243
 40
0.5154857908
 40
0.7631782605
 40
1.0
 40
1.0
 40
1.0
 40
1.0
 10
12.5820803693
 20
6.8983660184
 30
0.0
 10
12.5821096745
 20
6.8969529996
 30
0.0
 10
12.5821150474
 20
6.8941497257
 30
0.0
 10
12.5819789414
 20
6.8900021055
 30
0.0
 10
12.5817295183
 20
6.8859860746
 30
0.0
 10
12.5815181482
 20
6.8833603671
 30
0.0
 10
12.5814119139
 20
6.8820772313
 30
0.0
  0
SPLINE
  5
2FF
100
AcDbEntity
  8
0
100
AcDbSpline
 62
9
  6
CONTINUOUS
 70
0
 71
3
 72
29
 73
25
 74
0
 42
0.0000001
 43
0.0000001
 44
0.0000000001
 40
0.0
 40
0.0
 40
0.0
 40
0.0
 40
0.2067818539
 40
0.3050404888
 40
0.3989840331
 40
0.4879797186
 40
0.5714160797
 40
0.6487291353
 40
0.7193967185
 40
0.7829374707
 40
0.8389246552
 40
0.8869809168
 40
0.926784491
 40
0.9435096439
 40
0.958079455
 40
0.9704721463
 40
0.9806745127
 40
0.9849517321
 40
0.9886791048
 40
0.9918581995
 40
0.9944933923
 40
0.9965931739
 40
0.9981755
 40
1.0
 40
1.0
 40
1.0
 40
1.0
 10
12.582080367
 20
6.8983660184
 30
0.0
 10
12.5801607941
 20
6.8983391397
 30
0.0
 10
12.5773289826
 20
6.8983057565
 30
0.0
 10
12.5736249301
 20
6.8982765176
 30
0.0
 10
12.5710143215
 20
6.8982631878
 30
0.0
 10
12.5685412935
 20
6.8982581419
 30
0.0
 10
12.5662226591
 20
6.8982614121
 30
0.0
 10
12.5640742101
 20
6.8982729522
 30
0.0
 10
12.5621105372
 20
6.8982926464
 30
0.0
 10
12.5603449698
 20
6.8983203315
 30
0.0
 10
12.5587895032
 20
6.8983557103
 30
0.0
 10
12.5574546947
 20
6.8983984896
 30
0.0
 10
12.5564846481
 20
6.8984418856
 30
0.0
 10
12.5558257536
 20
6.8984816205
 30
0.0
 10
12.5554212277
 20
6.8985112746
 30
0.0
 10
12.5550775804
 20
6.8985424581
 30
0.0
 10
12.5548296921
 20
6.8985709454
 30
0.0
 10
12.5546623848
 20
6.8985952354
 30
0.0
 10
12.5545600536
 20
6.8986126766
 30
0.0
 10
12.5544731511
 20
6.8986305168
 30
0.0
 10
12.5544021618
 20
6.8986483613
 30
0.0
 10
12.5543456233
 20
6.898667121
 30
0.0
 10
12.5543009745
 20
6.8986868293
 30
0.0
 10
12.5542703539
 20
6.8987108093
 30
0.0
 10
12.5542700029
 20
6.8987277443
 30
0.0
  0
SPLINE
  5
300
100
AcDbEntity
  8
0
100
AcDbSpline
 62
9
  6
CONTINUOUS
 70
0
 71
3
 72
13
 73
9
 74
0
 42
0.0000001
 43
0.0000001
 44
0.0000000001
 40
0.0
 40
0.0
 40
0.0
 40
0.0
 40
0.3028517707
 40
0.5734351565
 40
0.6951101286
 40
0.8070534675
 40
0.9088347962
 40
1.0
 40
1.0
 40
1.0
 40
1.0
 10
12.5815044854
 20
6.8753237386
 30
0.0
 10
12.5816378666
 20
6.8742211945
 30
0.0
 10
12.5818996609
 20
6.8721347385
 30
0.0
 10
12.5822054142
 20
6.8696040148
 30
0.0
 10
12.5823962286
 20
6.8677648831
 30
0.0
 10
12.5825040304
 20
6.8665396055
 30
0.0
 10
12.582578399
 20
6.8654239333
 30
0.0
 10
12.5826061945
 20
6.8647167822
 30
0.0
 10
12.5826128999
 20
6.8643825391
 30
0.0
  0
SPLINE
  5
301
100
AcDbEntity
  8
0
100
AcDbSpline
 62
9
  6
CONTINUOUS
 70
0
 71
3
 72
15
 73
11
 74
0
 42
0.0000001
 43
0.0000001
 44
0.0000000001
 40
0.0
 40
0.0
 40
0.0
 40
0.0
 40
0.1312311637
 40
0.2609287151
 40
0.3887202008
 40
0.5144076558
 40
0.6380211363
 40
0.7598196111
 40
0.8802657951
 40
1.0
 40
1.0
 40
1.0
 40
1.0
 10
12.582612899
 20
6.8643825393
 30
0.0
 10
12.5806538281
 20
6.8648028736
 30
0.0
 10
12.5768144269
 20
6.8659314783
 30
0.0
 10
12.5714210712
 20
6.8684624657
 30
0.0
 10
12.5665574668
 20
6.8717589572
 30
0.0
 10
12.5623567588
 20
6.8757344333
 30
0.0
 10
12.5589332923
 20
6.8802836966
 30
0.0
 10
12.5563820781
 20
6.8852858943
 30
0.0
 10
12.5547746176
 20
6.8906034918
 30
0.0
 10
12.5543623601
 20
6.8942715098
 30
0.0
 10
12.5543244798
 20
6.8960992367
 30
0.0
  0
LINE
  5
302
100
AcDbEntity
  8
0
100
AcDbLine
 62
9
  6
CONTINUOUS
 10
12.582612899
 20
6.8643825393
 11
12.5834210146
 21
6.8244664782
  0
ENDSEC
  0
SECTION
  2
OBJECTS
  0
DICTIONARY
  5
C
100
AcDbDictionary
280
0
281
1
  3
ACAD_GROUP
350
D
  3
ACAD_MLINESTYLE
350
17
  3
ACAD_LAYOUT
350
1A
  3
ACAD_PLOTSETTINGS
350
19
  3
ACAD_PLOTSTYLENAME
350
E
  0
DICTIONARY
  5
D
102
{ACAD_REACTORS
330
C
102
}
100
AcDbDictionary
280
0
281
1
  0
ACDBDICTIONARYWDFLT
  5
E
102
{ACAD_REACTORS
330
C
102
}
100
AcDbDictionary
281
1
  3
Normal
350
F
100
AcDbDictionaryWithDefault
340
F
  0
DICTIONARY
  5
17
102
{ACAD_REACTORS
330
C
102
}
100
AcDbDictionary
280
0
281
1
  3
Standard
350
18
  0
DICTIONARY
  5
19
102
{ACAD_REACTORS
330
C
102
}
100
AcDbDictionary
281
1
  0
DICTIONARY
  5
1A
102
{ACAD_REACTORS
330
C
102
}
100
AcDbDictionary
281
1
  3
Model
350
303
  3
Layout1
350
304
  0
ACDBPLACEHOLDER
  5
F
102
{ACAD_REACTORS
330
E
102
}
  0
MLINESTYLE
  5
18
102
{ACAD_REACTORS
330
17
102
}
100
AcDbMlineStyle
  2
STANDARD
 70
0
  3

 62
256
 51
90.0
 52
90.0
 71
2
 49
0.5
 62
256
  6
BYLAYER
 49
-0.5
 62
256
  6
BYLAYER
  0
LAYOUT
  5
303
102
{ACAD_REACTORS
330
1A
102
}
100
AcDbPlotSettings
  1

  2
none_device
  4
ANSI_C_(22.00_x_17.00_Inches)
  6

 40
0.0
 41
0.0
 42
0.0
 43
0.0
 44
558.8
 45
431.8
 46
0.0
 47
0.0
 48
0.0
 49
0.0
140
0.0
141
0.0
142
1.0
143
1.0
 70
1024
 72
0
 73
0
 74
0
  7

 75
0
147
1.0
148
0.0
149
0.0
100
AcDbLayout
  1
Model
 70
0
 71
0
 10
0.0
 20
0.0
 11
22.0
 21
17.0
 12
0.0
 22
0.0
 32
0.0
 14
0.0
 24
0.0
 34
0.0
 15
0.0
 25
0.0
 35
0.0
146
0.0
 13
0.0
 23
0.0
 33
0.0
 16
1.0
 26
0.0
 36
0.0
 17
0.0
 27
1.0
 37
0.0
 76
0
330
205
345
0
346
0
  0
LAYOUT
  5
304
102
{ACAD_REACTORS
330
1A
102
}
100
AcDbPlotSettings
  1

  2
none_device
  4
ANSI_C_(22.00_x_17.00_Inches)
  6

 40
0.0
 41
0.0
 42
0.0
 43
0.0
 44
558.8
 45
431.8
 46
0.0
 47
0.0
 48
0.0
 49
0.0
140
0.0
141
0.0
142
1.0
143
1.0
 70
0
 72
0
 73
0
 74
0
  7

 75
0
147
1.0
148
0.0
149
0.0
100
AcDbLayout
  1
Layout1
 70
0
 71
1
 10
0.0
 20
0.0
 11
22.0
 21
17.0
 12
0.0
 22
0.0
 32
0.0
 14
0.0
 24
0.0
 34
0.0
 15
0.0
 25
0.0
 35
0.0
146
0.0
 13
0.0
 23
0.0
 33
0.0
 16
1.0
 26
0.0
 36
0.0
 17
0.0
 27
1.0
 37
0.0
 76
0
330
206
345
0
346
0
  0
ENDSEC
  0
EOF
