999
DXF file: E:\BT Custom\CADOUTPUT\_TOP.dxf
999
Pro/ENGINEER 2018400 by Parametric Technology Corporation
  0
SECTION
  2
HEADER
  9
$ACADVER
  1
AC1018
  9
$DWGCODEPAGE
  3
ANSI_1252
  9
$EXTMAX
 10
22.0
 20
17.0
 30
0.0
  9
$EXTMIN
 10
0.0
 20
0.0
 30
0.0
  9
$LIMMIN
 10
0.0
 20
0.0
  9
$LIMMAX
 10
22.0
 20
17.0
  9
$VIEWCTR
 10
11.0
 20
8.5
  9
$VIEWSIZE
 40
17.0
  9
$CLAYER
  8
0
  9
$LTSCALE
 40
1.21
  9
$CELTYPE
  6
BYLAYER
  9
$DIMSCALE
 40
1.0
  9
$DIMASZ
 40
0.1
  9
$DIMEXO
 40
0.0625
  9
$DIMDLI
 40
0.836
  9
$DIMEXE
 40
0.125
  9
$DIMCEN
 40
0.198
  9
$DIMLFAC
 40
1.0
  9
$DIMBLK
  1
_FILLED
  9
$DIMALT
 70
1
  9
$DIMALTD
 70
2
  9
$DIMALTTD
 70
2
  9
$DIMALTF
 40
25.4
  9
$DIMTXT
 40
0.08
  9
$DIMTOL
 70
1
  9
$DIMLIM
 70
0
  9
$DIMTFAC
 40
1.0
  9
$DIMTP
 40
0.001
  9
$DIMTM
 40
0.001
  9
$DIMGAP
 40
0.09
  9
$DIMDSEP
 70
46
  9
$AUNITS
 70
0
  9
$PDMODE
 70
3
  9
$PDSIZE
 40
0.06
  9
$HANDSEED
  5
389
  9
$TILEMODE
 70
1
  9
$MEASUREMENT
 70
0
  9
$INSUNITS
 70
1
  0
ENDSEC
  0
SECTION
  2
CLASSES
  0
CLASS
  1
ACDBDICTIONARYWDFLT
  2
AcDbDictionaryWithDefault
  3
AutoCAD 2000
 90
0
 91
1
280
0
281
0
  0
CLASS
  1
ACDBPLACEHOLDER
  2
AcDbPlaceHolder
  3
AutoCAD 2000
 90
0
 91
1
280
0
281
0
  0
CLASS
  1
LAYOUT
  2
AcDbLayout
  3
AutoCAD 2000
 90
0
 91
0
280
0
281
0
  0
ENDSEC
  0
SECTION
  2
TABLES
  0
TABLE
  2
VPORT
  5
8
100
AcDbSymbolTable
 70
2
  0
VPORT
  5
1F4
100
AcDbSymbolTableRecord
100
AcDbViewportTableRecord
  2
*ACTIVE
 70
0
 10
0.0
 20
0.0
 11
1.0
 21
1.0
 12
11.0
 22
8.5
 13
0.0
 23
0.0
 14
1.0
 24
1.0
 15
0.0
 25
0.0
 16
0.0
 26
0.0
 36
1.0
 17
0.0
 27
0.0
 37
0.0
 40
17.0
 41
1.2941176471
 42
50.0
 43
0.0
 44
0.0
 50
0.0
 51
0.0
 71
0
 72
100
 73
1
 74
1
 75
0
 76
0
 77
0
 78
0
  0
ENDTAB
  0
TABLE
  2
LTYPE
  5
5
100
AcDbSymbolTable
 70
6
  0
LTYPE
  5
14
100
AcDbSymbolTableRecord
100
AcDbLinetypeTableRecord
  2
BYBLOCK
 70
0
  3

 72
65
 73
0
 40
0.0
  0
LTYPE
  5
15
100
AcDbSymbolTableRecord
100
AcDbLinetypeTableRecord
  2
BYLAYER
 70
0
  3

 72
65
 73
0
 40
0.0
  0
LTYPE
  5
16
100
AcDbSymbolTableRecord
100
AcDbLinetypeTableRecord
  2
CONTINUOUS
 70
64
  3
Solid line
 72
65
 73
0
 40
0.0
  0
LTYPE
  5
1F5
100
AcDbSymbolTableRecord
100
AcDbLinetypeTableRecord
  2
CENTER
 70
64
  3
____ _ ____ _ ____ _ ____ _ ____ _ ____ _ ____
 72
65
 73
4
 40
0.6
 49
0.375
 74
0
 49
-0.075
 74
0
 49
0.075
 74
0
 49
-0.075
 74
0
  0
LTYPE
  5
1F6
100
AcDbSymbolTableRecord
100
AcDbLinetypeTableRecord
  2
HIDDEN
 70
64
  3
- - - - - - - - - - - - - - - - - - - -
 72
65
 73
2
 40
0.2
 49
0.1
 74
0
 49
-0.1
 74
0
  0
LTYPE
  5
1F7
100
AcDbSymbolTableRecord
100
AcDbLinetypeTableRecord
  2
PHANTOM
 70
64
  3
_____ _ _ _____ _ _ _____ _ _ _____
 72
65
 73
6
 40
0.8
 49
0.45
 74
0
 49
-0.05
 74
0
 49
0.1
 74
0
 49
-0.05
 74
0
 49
0.1
 74
0
 49
-0.05
 74
0
  0
LTYPE
  5
1F8
100
AcDbSymbolTableRecord
100
AcDbLinetypeTableRecord
  2
DOT
 70
64
  3
. . . . . . . . . . . . . . . . . . . .
 72
65
 73
2
 40
0.2
 49
0.1
 74
0
 49
-0.1
 74
0
  0
LTYPE
  5
1F9
100
AcDbSymbolTableRecord
100
AcDbLinetypeTableRecord
  2
DASHED
 70
64
  3
- - - - - - - - - - - - - - - - - - - -
 72
65
 73
2
 40
0.2
 49
0.1
 74
0
 49
-0.1
 74
0
  0
ENDTAB
  0
TABLE
  2
LAYER
  5
2
100
AcDbSymbolTable
 70
36
  0
LAYER
  5
10
100
AcDbSymbolTableRecord
100
AcDbLayerTableRecord
  2
0
 70
0
 62
7
  6
CONTINUOUS
370
-3
390
F
  0
LAYER
  5
1FA
100
AcDbSymbolTableRecord
100
AcDbLayerTableRecord
  2
DEFAULT_1
 70
0
 62
7
  6
CENTER
370
-3
390
F
  0
LAYER
  5
1FB
100
AcDbSymbolTableRecord
100
AcDbLayerTableRecord
  2
DEFAULT_2
 70
0
 62
8
  6
HIDDEN
370
-3
390
F
  0
LAYER
  5
1FC
100
AcDbSymbolTableRecord
100
AcDbLayerTableRecord
  2
DEFAULT_3
 70
0
 62
7
  6
PHANTOM
370
-3
390
F
  0
LAYER
  5
1FD
100
AcDbSymbolTableRecord
100
AcDbLayerTableRecord
  2
ALL_FEATURES
 70
0
 62
7
  6
CONTINUOUS
370
-3
390
F
  0
LAYER
  5
1FE
100
AcDbSymbolTableRecord
100
AcDbLayerTableRecord
  2
AXES_FEATURES
 70
0
 62
7
  6
CONTINUOUS
370
-3
390
F
  0
LAYER
  5
1FF
100
AcDbSymbolTableRecord
100
AcDbLayerTableRecord
  2
DEFAULT_COORDINATE_SYSTEM
 70
0
 62
7
  6
CONTINUOUS
370
-3
390
F
  0
LAYER
  5
200
100
AcDbSymbolTableRecord
100
AcDbLayerTableRecord
  2
DEFAULT_DATUM_AXES
 70
0
 62
7
  6
CONTINUOUS
370
-3
390
F
  0
LAYER
  5
201
100
AcDbSymbolTableRecord
100
AcDbLayerTableRecord
  2
DEFAULT_DATUM_PLANES
 70
0
 62
7
  6
CONTINUOUS
370
-3
390
F
  0
LAYER
  5
202
100
AcDbSymbolTableRecord
100
AcDbLayerTableRecord
  2
DIMENSIONS
 70
0
 62
7
  6
CONTINUOUS
370
-3
390
F
  0
ENDTAB
  0
TABLE
  2
STYLE
  5
3
100
AcDbSymbolTable
 70
1
  0
STYLE
  5
11
100
AcDbSymbolTableRecord
100
AcDbTextStyleTableRecord
  2
STANDARD
 70
0
 40
0.0
 41
0.8
 50
0.0
 71
0
 42
0.2
  3
txt
  4

  0
STYLE
  5
203
100
AcDbSymbolTableRecord
100
AcDbTextStyleTableRecord
  2
TEXTSTYLE_1
 70
0
 40
0.0
 41
0.8
 50
0.0
 71
0
 42
0.2
  3
gdt
  4

  0
ENDTAB
  0
TABLE
  2
VIEW
  5
6
100
AcDbSymbolTable
 70
0
  0
ENDTAB
  0
TABLE
  2
UCS
  5
7
100
AcDbSymbolTable
 70
0
  0
ENDTAB
  0
TABLE
  2
APPID
  5
9
100
AcDbSymbolTable
 70
1
  0
APPID
  5
204
100
AcDbSymbolTableRecord
100
AcDbRegAppTableRecord
  2
ACAD
 70
0
  0
ENDTAB
  0
TABLE
  2
BLOCK_RECORD
  5
1
100
AcDbSymbolTable
 70
0
  0
BLOCK_RECORD
  5
205
100
AcDbSymbolTableRecord
100
AcDbBlockTableRecord
  2
*Model_Space
  0
BLOCK_RECORD
  5
206
100
AcDbSymbolTableRecord
100
AcDbBlockTableRecord
  2
*Paper_Space
  0
BLOCK_RECORD
  5
207
100
AcDbSymbolTableRecord
100
AcDbBlockTableRecord
  2
_FILLED
  0
ENDTAB
  0
TABLE
  2
DIMSTYLE
  5
A
100
AcDbSymbolTable
 70
1
100
AcDbDimStyleTable
 71
0
  0
DIMSTYLE
105
208
100
AcDbSymbolTableRecord
100
AcDbDimStyleTableRecord
  2
STANDARD
 70
0
  3

  4

 40
1.0
 41
0.1
 42
0.0625
 43
0.38
 44
0.125
 45
0.0
 46
0.0
 47
0.001
 48
0.001
140
0.08
141
0.09
142
0.0
143
25.4
144
1.0
145
0.0
146
1.0
147
0.09
 71
1.0
 72
0.0
 73
1
 74
1
 75
0
 76
0
 77
0
 78
4
 79
1
170
1
171
2
172
0
173
0
174
0
175
0
176
0
177
0
178
0
270
2
179
3
271
3
272
3
273
2
274
2
275
0
280
0
281
0
282
0
283
1
284
4
285
0
286
0
287
3
288
0
340
11
278
46
341
207
342
207
343
207
344
207
  0
ENDTAB
  0
ENDSEC
  0
SECTION
  2
BLOCKS
  0
BLOCK
  5
20
100
AcDbEntity
  8
0
100
AcDbBlockBegin
  2
*Model_Space
 70
0
 10
0.0
 20
0.0
 30
0.0
  3
*Model_Space
  1

  0
ENDBLK
  5
21
100
AcDbEntity
  8
0
100
AcDbBlockEnd
  0
BLOCK
  5
1C
100
AcDbEntity
  8
0
100
AcDbBlockBegin
  2
*Paper_Space
 70
0
 10
0.0
 20
0.0
 30
0.0
  3
*Paper_Space
  1

  0
ENDBLK
  5
1D
100
AcDbEntity
  8
0
100
AcDbBlockEnd
  0
BLOCK
  5
209
100
AcDbEntity
  8
0
100
AcDbBlockBegin
  2
_FILLED
 70
64
 10
0.0
 20
0.0
  3
_FILLED
  1

  0
SOLID
  5
20A
100
AcDbEntity
  8
0
  6
BYBLOCK
 62
0
100
AcDbTrace
 10
0.0
 20
0.0
 11
-1.0
 21
0.2
 12
-1.0
 22
-0.2
 13
-1.0
 23
-0.2
  0
ENDBLK
  5
20B
100
AcDbEntity
  8
0
  6
BYBLOCK
 62
0
100
AcDbBlockEnd
  0
ENDSEC
  0
SECTION
  2
ENTITIES
  0
LWPOLYLINE
  5
20C
100
AcDbEntity
  8
0
100
AcDbPolyline
 62
7
  6
CONTINUOUS
 90
3
 70
0
 10
8.6740073815
 20
9.6370532326
 10
8.6732010903
 20
9.6365577996
 10
8.6726017023
 20
9.6362285342
  0
LWPOLYLINE
  5
20D
100
AcDbEntity
  8
0
100
AcDbPolyline
 62
7
  6
CONTINUOUS
 90
10
 70
0
 10
8.6822675416
 20
9.6486513649
 10
8.682140549
 20
9.6481812368
 10
8.6814460698
 20
9.6461528082
 10
8.6805744621
 20
9.644280102
 10
8.6795624352
 20
9.6425814277
 10
8.6784496014
 20
9.641069451
 10
8.6772831017
 20
9.6397566153
 10
8.6761141017
 20
9.6386486872
 10
8.6749984543
 20
9.6377463937
 10
8.6740073815
 20
9.6370532326
  0
LINE
  5
20E
100
AcDbEntity
  8
0
100
AcDbLine
 62
7
  6
CONTINUOUS
 10
8.4848183383
 20
9.1265566592
 11
8.4848183383
 21
9.8414757046
  0
LINE
  5
20F
100
AcDbEntity
  8
0
100
AcDbLine
 62
7
  6
CONTINUOUS
 10
8.5848183383
 20
9.8640163261
 11
8.5848183383
 21
9.1040163261
  0
LINE
  5
210
100
AcDbEntity
  8
0
100
AcDbLine
 62
7
  6
CONTINUOUS
 10
8.6404431221
 20
9.3710912667
 11
8.6404431221
 21
9.5969413855
  0
LINE
  5
211
100
AcDbEntity
  8
0
100
AcDbLine
 62
9
  6
CONTINUOUS
 10
8.6619997095
 20
9.3710912667
 11
8.6619997095
 21
9.5969413855
  0
LINE
  5
212
100
AcDbEntity
  8
0
100
AcDbLine
 62
9
  6
CONTINUOUS
 10
8.7798183383
 20
9.2866392433
 11
8.7798183383
 21
9.2912608936
  0
LINE
  5
213
100
AcDbEntity
  8
0
100
AcDbLine
 62
9
  6
CONTINUOUS
 10
8.9248129169
 20
9.3178769816
 11
8.9248125383
 21
9.3316946691
  0
LINE
  5
214
100
AcDbEntity
  8
0
100
AcDbLine
 62
9
  6
CONTINUOUS
 10
8.9248253087
 20
9.6501556703
 11
8.9248257258
 21
9.6363379829
  0
LINE
  5
215
100
AcDbEntity
  8
0
100
AcDbLine
 62
9
  6
CONTINUOUS
 10
8.7798183383
 20
9.6813934089
 11
8.7798183383
 21
9.6767717586
  0
LWPOLYLINE
  5
216
100
AcDbEntity
  8
0
100
AcDbPolyline
 62
7
  6
CONTINUOUS
 90
12
 70
0
 10
9.167369136
 20
9.3193812801
 10
9.1674963191
 20
9.3198520805
 10
9.168191074
 20
9.3218809913
 10
9.1690630019
 20
9.3237540253
 10
9.1700753685
 20
9.325452908
 10
9.1711885483
 20
9.3269650044
 10
9.1723553901
 20
9.3282778924
 10
9.1735247292
 20
9.3293858302
 10
9.1746405951
 20
9.33028802
 10
9.1756315857
 20
9.3309808977
 10
9.1764374508
 20
9.3314759158
 10
9.1770362773
 20
9.3318047865
  0
LINE
  5
217
100
AcDbEntity
  8
0
100
AcDbLine
 62
7
  6
CONTINUOUS
 10
10.3945658062
 20
10.1306016675
 11
10.3945513539
 21
10.1305869373
  0
LINE
  5
218
100
AcDbEntity
  8
0
100
AcDbLine
 62
9
  6
CONTINUOUS
 10
9.0698183383
 20
9.6813934089
 11
9.0698183383
 21
9.6767717586
  0
LINE
  5
219
100
AcDbEntity
  8
0
100
AcDbLine
 62
9
  6
CONTINUOUS
 10
9.0698183383
 20
9.2866392433
 11
9.0698183383
 21
9.2912608936
  0
LINE
  5
21A
100
AcDbEntity
  8
0
100
AcDbLine
 62
9
  6
CONTINUOUS
 10
9.1876369671
 20
9.3710912667
 11
9.1876369671
 21
9.5969413855
  0
LINE
  5
21B
100
AcDbEntity
  8
0
100
AcDbLine
 62
7
  6
CONTINUOUS
 10
9.2091935545
 20
9.3710912667
 11
9.2091935545
 21
9.5969413855
  0
LINE
  5
21C
100
AcDbEntity
  8
0
100
AcDbLine
 62
9
  6
CONTINUOUS
 10
9.3148183383
 20
9.1040163261
 11
9.3148183383
 21
9.8640163261
  0
LINE
  5
21D
100
AcDbEntity
  8
0
100
AcDbLine
 62
7
  6
CONTINUOUS
 10
9.3748183383
 20
9.0140163261
 11
9.3748183383
 21
9.9540163261
  0
LINE
  5
21E
100
AcDbEntity
  8
0
100
AcDbLine
 62
9
  6
CONTINUOUS
 10
9.4648183383
 20
8.9840163261
 11
9.4648183383
 21
9.9840163261
  0
LWPOLYLINE
  5
21F
100
AcDbEntity
  8
0
100
AcDbPolyline
 62
7
  6
CONTINUOUS
 90
45
 70
0
 10
8.682267551
 20
9.3193812088
 10
8.682606905
 20
9.3181496304
 10
8.6830810638
 20
9.3166556167
 10
8.6836088724
 20
9.315206707
 10
8.6841866874
 20
9.3138037435
 10
8.6848110017
 20
9.3124473486
 10
8.68547845
 20
9.3111379454
 10
8.6861858123
 20
9.3098757762
 10
8.6869300168
 20
9.3086609213
 10
8.687708141
 20
9.3074933159
 10
8.6885174114
 20
9.3063727677
 10
8.6893552033
 20
9.3052989707
 10
8.6902190394
 20
9.3042715198
 10
8.6911065878
 20
9.3032899243
 10
8.6920156587
 20
9.3023536208
 10
8.6929442005
 20
9.3014619856
 10
8.6938902958
 20
9.3006143456
 10
8.694852156
 20
9.2998099891
 10
8.6958280995
 20
9.2990481878
 10
8.6968163112
 20
9.2983283666
 10
8.6978148752
 20
9.2976500264
 10
8.6988219572
 20
9.2970125953
 10
8.6998358107
 20
9.296415432
 10
8.7008547807
 20
9.2958578327
 10
8.7018773062
 20
9.2953390374
 10
8.7029019191
 20
9.2948582385
 10
8.7039272323
 20
9.2944145928
 10
8.7049519009
 20
9.2940072408
 10
8.7059745331
 20
9.2936353355
 10
8.7069934456
 20
9.2932981032
 10
8.7080040317
 20
9.2929955385
 10
8.7090024812
 20
9.2927270169
 10
8.7099875511
 20
9.2924910362
 10
8.7109598265
 20
9.2922857351
 10
8.7119206628
 20
9.2921093068
 10
8.7128645796
 20
9.2919611631
 10
8.7137682321
 20
9.2918423359
 10
8.7146301267
 20
9.2917495844
 10
8.7154359713
 20
9.2916806111
 10
8.7161731158
 20
9.2916319369
 10
8.7168398699
 20
9.2915988838
 10
8.7174728699
 20
9.2915758534
 10
8.718116151
 20
9.2915590498
 10
8.7188460041
 20
9.2915459266
 10
8.7482440007
 20
9.2912882173
  0
LINE
  5
220
100
AcDbEntity
  8
0
100
AcDbLine
 62
9
  6
CONTINUOUS
 10
9.5335719607
 20
9.0135037351
 11
9.5335719607
 21
9.9545289171
  0
LINE
  5
221
100
AcDbEntity
  8
0
100
AcDbLine
 62
9
  6
CONTINUOUS
 10
9.8710046063
 20
8.8430241697
 11
9.8710046063
 21
10.1250084825
  0
LINE
  5
222
100
AcDbEntity
  8
0
100
AcDbLine
 62
7
  6
CONTINUOUS
 10
9.9748183383
 20
8.8840163261
 11
9.9748183383
 21
10.0840163261
  0
LINE
  5
223
100
AcDbEntity
  8
0
100
AcDbLine
 62
7
  6
CONTINUOUS
 10
10.0198183383
 20
10.4690163261
 11
10.0198183383
 21
9.9690163261
  0
LINE
  5
224
100
AcDbEntity
  8
0
100
AcDbLine
 62
7
  6
CONTINUOUS
 10
10.0198183383
 20
8.9990163261
 11
10.0198183383
 21
8.4990163261
  0
LINE
  5
225
100
AcDbEntity
  8
0
100
AcDbLine
 62
9
  6
CONTINUOUS
 10
11.3413976824
 20
5.0440017487
 11
11.3413932107
 21
5.0440087938
  0
LWPOLYLINE
  5
226
100
AcDbEntity
  8
0
100
AcDbPolyline
 62
7
  6
CONTINUOUS
 90
45
 70
0
 10
9.1673691285
 20
9.6486514579
 10
9.167029609
 20
9.6498835981
 10
9.1665553347
 20
9.651377873
 10
9.1660273918
 20
9.6528270281
 10
9.1654494254
 20
9.6542302205
 10
9.1648249446
 20
9.6555868271
 10
9.1641573165
 20
9.6568964246
 10
9.1634497628
 20
9.6581587703
 10
9.162705357
 20
9.6593737839
 10
9.161927023
 20
9.6605415299
 10
9.1611175361
 20
9.6616622008
 10
9.1602795223
 20
9.6627361028
 10
9.1594154603
 20
9.6637636412
 10
9.1585276834
 20
9.664745307
 10
9.1576183825
 20
9.6656816637
 10
9.1566896103
 20
9.6665733358
 10
9.1557432854
 20
9.6674209967
 10
9.1547811975
 20
9.6682253585
 10
9.1538050292
 20
9.6689871499
 10
9.1528165974
 20
9.6697069461
 10
9.1518178179
 20
9.6703852475
 10
9.1508105247
 20
9.6710226275
 10
9.1497964636
 20
9.6716197286
 10
9.148777289
 20
9.6721772558
 10
9.147754561
 20
9.6726959701
 10
9.1467297468
 20
9.67317668
 10
9.1457042327
 20
9.6736202291
 10
9.1446793628
 20
9.6740274776
 10
9.1436565291
 20
9.6743992723
 10
9.1426374201
 20
9.6747363856
 10
9.1416266638
 20
9.6750388179
 10
9.1406280586
 20
9.6753071998
 10
9.1396428479
 20
9.6755430345
 10
9.1386704468
 20
9.6757481846
 10
9.1377095251
 20
9.6759244531
 10
9.1367656736
 20
9.6760724165
 10
9.1358623889
 20
9.6761910405
 10
9.1350007979
 20
9.6762836219
 10
9.1341947598
 20
9.6763524877
 10
9.1334577844
 20
9.6764010444
 10
9.1327916057
 20
9.6764339885
 10
9.1321600911
 20
9.6764569132
 10
9.1315185359
 20
9.6764736459
 10
9.1307901461
 20
9.6764867331
 10
9.1013927451
 20
9.6767444343
  0
LINE
  5
227
100
AcDbEntity
  8
0
100
AcDbLine
 62
9
  6
CONTINUOUS
 10
10.0598183383
 20
8.9990163261
 11
10.0598183383
 21
8.4590163261
  0
LINE
  5
228
100
AcDbEntity
  8
0
100
AcDbLine
 62
9
  6
CONTINUOUS
 10
10.0598183383
 20
9.9690163261
 11
10.0598183382
 21
10.5090163261
  0
LINE
  5
229
100
AcDbEntity
  8
0
100
AcDbLine
 62
9
  6
CONTINUOUS
 10
10.0672920225
 20
10.2681194967
 11
10.0672920225
 21
9.9690163261
  0
LINE
  5
22A
100
AcDbEntity
  8
0
100
AcDbLine
 62
9
  6
CONTINUOUS
 10
10.0672920225
 20
8.9990163261
 11
10.0672920225
 21
8.6999132417
  0
LINE
  5
22B
100
AcDbEntity
  8
0
100
AcDbLine
 62
7
  6
CONTINUOUS
 10
10.0872920225
 20
10.2681194967
 11
10.0872920225
 21
9.9690163261
  0
LINE
  5
22C
100
AcDbEntity
  8
0
100
AcDbLine
 62
7
  6
CONTINUOUS
 10
10.0872920225
 20
8.9990163261
 11
10.0872920225
 21
8.6999132417
  0
LINE
  5
22D
100
AcDbEntity
  8
0
100
AcDbLine
 62
9
  6
CONTINUOUS
 10
10.1272920225
 20
8.518236864
 11
10.1272920225
 21
8.9990163261
  0
LINE
  5
22E
100
AcDbEntity
  8
0
100
AcDbLine
 62
9
  6
CONTINUOUS
 10
10.1272920225
 20
9.9690163261
 11
10.1272920225
 21
10.449795856
  0
LINE
  5
22F
100
AcDbEntity
  8
0
100
AcDbLine
 62
7
  6
CONTINUOUS
 10
11.3413976875
 20
5.0440017519
 11
11.3481114905
 21
5.0329468957
  0
LINE
  5
230
100
AcDbEntity
  8
0
100
AcDbLine
 62
7
  6
CONTINUOUS
 10
11.3485364615
 20
5.0322126811
 11
11.3481208995
 21
5.0329306401
  0
LINE
  5
231
100
AcDbEntity
  8
0
100
AcDbLine
 62
7
  6
CONTINUOUS
 10
10.7948183383
 20
9.4840163261
 11
10.7948183383
 21
4.8905544333
  0
LINE
  5
232
100
AcDbEntity
  8
0
100
AcDbLine
 62
7
  6
CONTINUOUS
 10
11.6950899646
 20
8.8374497938
 11
11.6951049052
 21
8.8374650222
  0
LWPOLYLINE
  5
233
100
AcDbEntity
  8
0
100
AcDbPolyline
 62
7
  6
CONTINUOUS
 90
3
 70
0
 10
13.420629295
 20
9.3309794196
 10
13.4214355863
 20
9.3314748526
 10
13.4220349743
 20
9.331804118
  0
LINE
  5
234
100
AcDbEntity
  8
0
100
AcDbLine
 62
9
  6
CONTINUOUS
 10
11.0448183383
 20
10.4218580048
 11
11.0448183372
 21
10.3730714442
  0
LINE
  5
235
100
AcDbEntity
  8
0
100
AcDbLine
 62
7
  6
CONTINUOUS
 10
11.2948183383
 20
9.4840163261
 11
11.2948183383
 21
4.8905544333
  0
LINE
  5
236
100
AcDbEntity
  8
0
100
AcDbLine
 62
7
  6
CONTINUOUS
 10
8.6733533629
 20
9.3313860171
 11
8.6741918848
 21
9.3308577634
  0
LWPOLYLINE
  5
237
100
AcDbEntity
  8
0
100
AcDbPolyline
 62
7
  6
CONTINUOUS
 90
10
 70
0
 10
8.6741918848
 20
9.3308577634
 10
8.6751886539
 20
9.3301422026
 10
8.6762874563
 20
9.3292310987
 10
8.6774303954
 20
9.3281229451
 10
8.6785690924
 20
9.326814665
 10
8.6796531568
 20
9.3253137211
 10
8.680637037
 20
9.3236336148
 10
8.6814825828
 20
9.321788774
 10
8.6821551911
 20
9.3197994402
 10
8.6822675239
 20
9.3193813289
  0
LWPOLYLINE
  5
238
100
AcDbEntity
  8
0
100
AcDbPolyline
 62
7
  6
CONTINUOUS
 90
11
 70
0
 10
10.3942966637
 20
8.8377046014
 10
10.4137403587
 20
8.8184467117
 10
10.4546795423
 20
8.7813606579
 10
10.4976424129
 20
8.7469070758
 10
10.5424721815
 20
8.7151790292
 10
10.5889834318
 20
8.6862670814
 10
10.6369145393
 20
8.6602921287
 10
10.6860206887
 20
8.6373476587
 10
10.7360930872
 20
8.6174726873
 10
10.7869063058
 20
8.6006937487
 10
10.7948183383
 20
8.5985887305
  0
LINE
  5
239
100
AcDbEntity
  8
0
100
AcDbLine
 62
7
  6
CONTINUOUS
 10
10.3942842348
 20
8.8377172795
 11
10.3942967512
 21
8.8377045122
  0
LWPOLYLINE
  5
23A
100
AcDbEntity
  8
0
100
AcDbPolyline
 62
7
  6
CONTINUOUS
 90
3
 70
0
 10
8.672280625
 20
9.33196503
 10
8.6727110724
 20
9.331746614
 10
8.6733533629
 20
9.3313860171
  0
LINE
  5
23B
100
AcDbEntity
  8
0
100
AcDbLine
 62
7
  6
CONTINUOUS
 10
9.1761272786
 20
9.6367400245
 11
9.1752550545
 21
9.6373035739
  0
LWPOLYLINE
  5
23C
100
AcDbEntity
  8
0
100
AcDbPolyline
 62
7
  6
CONTINUOUS
 90
10
 70
0
 10
9.1752550545
 20
9.6373035739
 10
9.1742581215
 20
9.6380382813
 10
9.173181683
 20
9.6389530076
 10
9.1720655386
 20
9.640059287
 10
9.1709533256
 20
9.6413629312
 10
9.1698958149
 20
9.6428543595
 10
9.1689379942
 20
9.6445182138
 10
9.1681172478
 20
9.6463371527
 10
9.1674662856
 20
9.6482877375
 10
9.1673691529
 20
9.648651332
  0
LINE
  5
23D
100
AcDbEntity
  8
0
100
AcDbLine
 62
9
  6
CONTINUOUS
 10
11.9623446541
 20
10.449795912
 11
11.9623446541
 21
9.9690163261
  0
LINE
  5
23E
100
AcDbEntity
  8
0
100
AcDbLine
 62
9
  6
CONTINUOUS
 10
11.9623446541
 20
8.5182367749
 11
11.9623446541
 21
8.9990163261
  0
LINE
  5
23F
100
AcDbEntity
  8
0
100
AcDbLine
 62
7
  6
CONTINUOUS
 10
12.0023446541
 20
10.268119493
 11
12.0023446541
 21
9.9690163261
  0
LINE
  5
240
100
AcDbEntity
  8
0
100
AcDbLine
 62
7
  6
CONTINUOUS
 10
12.0023446541
 20
8.9990163261
 11
12.0023446541
 21
8.6999131991
  0
LINE
  5
241
100
AcDbEntity
  8
0
100
AcDbLine
 62
9
  6
CONTINUOUS
 10
12.0223446541
 20
8.6999131991
 11
12.0223446541
 21
8.9990163261
  0
LINE
  5
242
100
AcDbEntity
  8
0
100
AcDbLine
 62
9
  6
CONTINUOUS
 10
12.0223446541
 20
9.9690163261
 11
12.0223446541
 21
10.268119493
  0
LINE
  5
243
100
AcDbEntity
  8
0
100
AcDbLine
 62
9
  6
CONTINUOUS
 10
12.0298183384
 20
8.4590163261
 11
12.0298183383
 21
8.9990163261
  0
LINE
  5
244
100
AcDbEntity
  8
0
100
AcDbLine
 62
9
  6
CONTINUOUS
 10
12.0298183383
 20
9.9690163261
 11
12.0298183383
 21
10.5090163261
  0
LINE
  5
245
100
AcDbEntity
  8
0
100
AcDbLine
 62
7
  6
CONTINUOUS
 10
12.0698183383
 20
8.4990163261
 11
12.0698183383
 21
8.9990163261
  0
LINE
  5
246
100
AcDbEntity
  8
0
100
AcDbLine
 62
7
  6
CONTINUOUS
 10
12.0698183383
 20
9.9690163261
 11
12.0698183383
 21
10.4690163261
  0
LINE
  5
247
100
AcDbEntity
  8
0
100
AcDbLine
 62
7
  6
CONTINUOUS
 10
12.1198183383
 20
10.0840163261
 11
12.1198183383
 21
8.8840163261
  0
LINE
  5
248
100
AcDbEntity
  8
0
100
AcDbLine
 62
7
  6
CONTINUOUS
 10
10.7415157471
 20
5.0329305884
 11
10.7411002592
 21
5.0322127576
  0
LINE
  5
249
100
AcDbEntity
  8
0
100
AcDbLine
 62
7
  6
CONTINUOUS
 10
10.741525156
 20
5.032946844
 11
10.7482387951
 21
5.0440014464
  0
LINE
  5
24A
100
AcDbEntity
  8
0
100
AcDbLine
 62
9
  6
CONTINUOUS
 10
10.7482434659
 20
5.0440087938
 11
10.7482388003
 21
5.0440014431
  0
LWPOLYLINE
  5
24B
100
AcDbEntity
  8
0
100
AcDbPolyline
 62
7
  6
CONTINUOUS
 90
11
 70
0
 10
11.2948183383
 20
8.5985904622
 10
11.3028103661
 20
8.6007175759
 10
11.3536179542
 20
8.6174996982
 10
11.4036845218
 20
8.6373772444
 10
11.4527846497
 20
8.660323633
 10
11.5007095326
 20
8.6862997665
 10
11.5472145067
 20
8.7152122373
 10
11.5920381089
 20
8.7469401516
 10
11.6349948524
 20
8.7813927748
 10
11.6759284575
 20
8.8184777066
 10
11.6950896868
 20
8.8374495105
  0
LINE
  5
24C
100
AcDbEntity
  8
0
100
AcDbLine
 62
7
  6
CONTINUOUS
 10
10.0598183383
 20
8.4590163261
 11
10.7948183383
 21
8.4590163261
  0
LINE
  5
24D
100
AcDbEntity
  8
0
100
AcDbLine
 62
7
  6
CONTINUOUS
 10
11.2948183383
 20
8.4590163261
 11
12.0298183383
 21
8.4590163261
  0
LINE
  5
24E
100
AcDbEntity
  8
0
100
AcDbLine
 62
9
  6
CONTINUOUS
 10
10.0198183383
 20
8.499016326
 11
10.7948183383
 21
8.4990163261
  0
LINE
  5
24F
100
AcDbEntity
  8
0
100
AcDbLine
 62
9
  6
CONTINUOUS
 10
11.2948183383
 20
8.4990163261
 11
12.0698183383
 21
8.4990163261
  0
LINE
  5
250
100
AcDbEntity
  8
0
100
AcDbLine
 62
9
  6
CONTINUOUS
 10
10.1272920225
 20
8.518236864
 11
10.7948183383
 21
8.5182368316
  0
LINE
  5
251
100
AcDbEntity
  8
0
100
AcDbLine
 62
9
  6
CONTINUOUS
 10
11.2948183383
 20
8.5182368073
 11
11.9623446541
 21
8.5182367749
  0
LINE
  5
252
100
AcDbEntity
  8
0
100
AcDbLine
 62
9
  6
CONTINUOUS
 10
10.1272920225
 20
8.5263728722
 11
10.7948183383
 21
8.5263728153
  0
LINE
  5
253
100
AcDbEntity
  8
0
100
AcDbLine
 62
9
  6
CONTINUOUS
 10
11.2948183383
 20
8.5263727728
 11
11.9623446541
 21
8.5263727159
  0
LINE
  5
254
100
AcDbEntity
  8
0
100
AcDbLine
 62
9
  6
CONTINUOUS
 10
12.2236320703
 20
10.1250084825
 11
12.2236320703
 21
8.8430241697
  0
LWPOLYLINE
  5
255
100
AcDbEntity
  8
0
100
AcDbPolyline
 62
7
  6
CONTINUOUS
 90
12
 70
0
 10
12.9272675406
 20
9.6486513721
 10
12.9271403575
 20
9.6481805717
 10
12.9264456026
 20
9.6461516609
 10
12.9255736747
 20
9.644278627
 10
12.924561308
 20
9.6425797442
 10
12.9234481283
 20
9.6410676478
 10
12.9222812865
 20
9.6397547598
 10
12.9211119474
 20
9.638646822
 10
12.9199960814
 20
9.6377446323
 10
12.9190050908
 20
9.6370517545
 10
12.9181992257
 20
9.6365567364
 10
12.9176003993
 20
9.6362278657
  0
LINE
  5
256
100
AcDbEntity
  8
0
100
AcDbLine
 62
7
  6
CONTINUOUS
 10
13.4212811374
 20
9.3317032302
 11
13.4217883303
 21
9.3318188988
  0
LINE
  5
257
100
AcDbEntity
  8
0
100
AcDbLine
 62
9
  6
CONTINUOUS
 10
12.0223446541
 20
8.6999131991
 11
12.0023446541
 21
8.6999131991
  0
LINE
  5
258
100
AcDbEntity
  8
0
100
AcDbLine
 62
9
  6
CONTINUOUS
 10
10.0672920225
 20
8.6999132417
 11
10.0872920225
 21
8.6999132417
  0
LINE
  5
259
100
AcDbEntity
  8
0
100
AcDbLine
 62
7
  6
CONTINUOUS
 10
8.6728481337
 20
9.3318189432
 11
8.6733556491
 21
9.331703199
  0
LWPOLYLINE
  5
25A
100
AcDbEntity
  8
0
100
AcDbPolyline
 62
7
  6
CONTINUOUS
 90
4
 70
0
 10
9.177356693
 20
9.6360674563
 10
9.1773034558
 20
9.636092636
 10
9.1768127276
 20
9.6363466162
 10
9.1761272786
 20
9.6367400245
  0
LINE
  5
25B
100
AcDbEntity
  8
0
100
AcDbLine
 62
9
  6
CONTINUOUS
 10
12.5610647158
 20
9.9545289171
 11
12.5610647158
 21
9.0135037351
  0
LINE
  5
25C
100
AcDbEntity
  8
0
100
AcDbLine
 62
9
  6
CONTINUOUS
 10
12.6298183383
 20
9.9840163261
 11
12.6298183383
 21
8.9840163261
  0
LINE
  5
25D
100
AcDbEntity
  8
0
100
AcDbLine
 62
7
  6
CONTINUOUS
 10
12.1198183383
 20
8.9990163261
 11
11.7894537449
 21
8.9990163261
  0
LINE
  5
25E
100
AcDbEntity
  8
0
100
AcDbLine
 62
7
  6
CONTINUOUS
 10
9.9748183383
 20
8.9990163261
 11
10.3001829316
 21
8.9990163261
  0
LINE
  5
25F
100
AcDbEntity
  8
0
100
AcDbLine
 62
7
  6
CONTINUOUS
 10
13.5098183383
 20
9.1040163261
 11
12.7798183383
 21
9.1040163261
  0
LINE
  5
260
100
AcDbEntity
  8
0
100
AcDbLine
 62
7
  6
CONTINUOUS
 10
8.5848183383
 20
9.1040163261
 11
9.3148183383
 21
9.1040163261
  0
LINE
  5
261
100
AcDbEntity
  8
0
100
AcDbLine
 62
7
  6
CONTINUOUS
 10
12.7198183383
 20
9.9540163261
 11
12.7198183383
 21
9.0140163261
  0
LINE
  5
262
100
AcDbEntity
  8
0
100
AcDbLine
 62
9
  6
CONTINUOUS
 10
12.7798183383
 20
9.8640163261
 11
12.7798183383
 21
9.1040163261
  0
LINE
  5
263
100
AcDbEntity
  8
0
100
AcDbLine
 62
7
  6
CONTINUOUS
 10
12.8854431221
 20
9.5969413855
 11
12.8854431221
 21
9.3710912667
  0
LINE
  5
264
100
AcDbEntity
  8
0
100
AcDbLine
 62
9
  6
CONTINUOUS
 10
12.9069997095
 20
9.5969413855
 11
12.9069997095
 21
9.3710912667
  0
LWPOLYLINE
  5
265
100
AcDbEntity
  8
0
100
AcDbPolyline
 62
7
  6
CONTINUOUS
 90
10
 70
0
 10
13.4123691349
 20
9.3193812873
 10
13.4124961276
 20
9.3198514154
 10
13.4131906068
 20
9.321879844
 10
13.4140622144
 20
9.3237525502
 10
13.4150742413
 20
9.3254512245
 10
13.4161870752
 20
9.3269632012
 10
13.4173535749
 20
9.3282760369
 10
13.4185225749
 20
9.329383965
 10
13.4196382223
 20
9.3302862586
 10
13.420629295
 20
9.3309794196
  0
LINE
  5
266
100
AcDbEntity
  8
0
100
AcDbLine
 62
7
  6
CONTINUOUS
 10
12.9183555501
 20
9.6363294238
 11
12.9178483751
 21
9.6362137598
  0
LWPOLYLINE
  5
267
100
AcDbEntity
  8
0
100
AcDbPolyline
 62
7
  6
CONTINUOUS
 90
41
 70
0
 10
13.3757771731
 20
9.2915457331
 10
13.3765355989
 20
9.2915593808
 10
13.3772135761
 20
9.2915774071
 10
13.3778667489
 20
9.2916019002
 10
13.3785419379
 20
9.2916364849
 10
13.3792759536
 20
9.2916863411
 10
13.3800532273
 20
9.2917540928
 10
13.3808842375
 20
9.2918442081
 10
13.3817374878
 20
9.2919561824
 10
13.3826148448
 20
9.2920922209
 10
13.3835343778
 20
9.2922579009
 10
13.3844856307
 20
9.2924545831
 10
13.3854615437
 20
9.2926835687
 10
13.3864612367
 20
9.2929472816
 10
13.3874835587
 20
9.2932481745
 10
13.3885257516
 20
9.2935882539
 10
13.389585447
 20
9.2939695834
 10
13.390660491
 20
9.294394286
 10
13.391748657
 20
9.2948644677
 10
13.392847534
 20
9.2953821687
 10
13.3939544567
 20
9.295949312
 10
13.3950665069
 20
9.2965676718
 10
13.3961807387
 20
9.2972389797
 10
13.3972940651
 20
9.2979648642
 10
13.3984032355
 20
9.2987468252
 10
13.3995048317
 20
9.299586215
 10
13.4005953133
 20
9.3004842579
 10
13.4016710891
 20
9.3014421103
 10
13.4027284111
 20
9.3024607765
 10
13.4037633566
 20
9.3035410748
 10
13.4047718309
 20
9.3046836176
 10
13.4057495728
 20
9.3058887916
 10
13.4066921628
 20
9.307156737
 10
13.4075950322
 20
9.3084873274
 10
13.4084534751
 20
9.3098801494
 10
13.4092626633
 20
9.311334484
 10
13.4100176614
 20
9.3128492858
 10
13.4107134441
 20
9.3144231628
 10
13.4113449164
 20
9.3160543567
 10
13.4119069358
 20
9.3177407241
 10
13.4123691339
 20
9.3193811097
  0
LWPOLYLINE
  5
268
100
AcDbEntity
  8
0
100
AcDbPolyline
 62
7
  6
CONTINUOUS
 90
41
 70
0
 10
9.130777211
 20
9.291545734
 10
9.1315356813
 20
9.2915593825
 10
9.1322136206
 20
9.2915774084
 10
9.1328667572
 20
9.2916019007
 10
9.1335419925
 20
9.2916364882
 10
9.1342760294
 20
9.291686347
 10
9.1350532563
 20
9.2917540953
 10
9.1358843969
 20
9.2918442264
 10
9.1367376253
 20
9.2919562008
 10
9.137614904
 20
9.2920922293
 10
9.1385343861
 20
9.2922579008
 10
9.1394856077
 20
9.292454576
 10
9.1404614856
 20
9.2926835521
 10
9.1414611403
 20
9.2929472523
 10
9.1424834257
 20
9.2932481307
 10
9.1435255865
 20
9.2935881945
 10
9.1445852541
 20
9.2939695078
 10
9.1456602748
 20
9.2943941936
 10
9.1467484226
 20
9.2948643587
 10
9.1478472868
 20
9.2953820439
 10
9.1489542029
 20
9.295949173
 10
9.1500662522
 20
9.2965675207
 10
9.151180488
 20
9.2972388187
 10
9.152293822
 20
9.2979646953
 10
9.1534030033
 20
9.2987466507
 10
9.1545046124
 20
9.2995860368
 10
9.1555951084
 20
9.3004840778
 10
9.1566708997
 20
9.3014419301
 10
9.1577282382
 20
9.302460598
 10
9.1587632008
 20
9.3035408999
 10
9.1597716924
 20
9.3046834483
 10
9.1607494518
 20
9.3058886298
 10
9.161692059
 20
9.3071565846
 10
9.1625949451
 20
9.3084871862
 10
9.1634534039
 20
9.3098800209
 10
9.1642626072
 20
9.31133437
 10
9.1650176191
 20
9.3128491876
 10
9.1657134141
 20
9.3144230818
 10
9.1663448972
 20
9.3160542938
 10
9.1669069257
 20
9.3177406803
 10
9.167369136
 20
9.3193811057
  0
LINE
  5
269
100
AcDbEntity
  8
0
100
AcDbLine
 62
9
  6
CONTINUOUS
 10
8.7798183383
 20
9.2866392433
 11
9.0698183383
 21
9.2866392433
  0
LINE
  5
26A
100
AcDbEntity
  8
0
100
AcDbLine
 62
9
  6
CONTINUOUS
 10
13.0248183383
 20
9.2866392433
 11
13.3148183383
 21
9.2866392433
  0
LWPOLYLINE
  5
26B
100
AcDbEntity
  8
0
100
AcDbPolyline
 62
7
  6
CONTINUOUS
 90
13
 70
0
 10
8.7482440007
 20
9.2912882173
 10
8.7792628933
 20
9.2910662623
 10
8.8109201326
 20
9.2908875138
 10
8.8430812361
 20
9.2907527231
 10
8.8756030309
 20
9.2906624978
 10
8.9083427904
 20
9.2906172355
 10
8.9411566639
 20
9.2906171408
 10
8.9738997787
 20
9.2906622196
 10
9.0064265172
 20
9.2907522743
 10
9.0385925795
 20
9.2908869047
 10
9.0702517388
 20
9.2910654817
 10
9.1012716017
 20
9.2912872604
 10
9.130777211
 20
9.291545734
  0
LWPOLYLINE
  5
26C
100
AcDbEntity
  8
0
100
AcDbPolyline
 62
7
  6
CONTINUOUS
 90
13
 70
0
 10
12.9932439315
 20
9.2912882179
 10
13.024262795
 20
9.2910662629
 10
13.0559200276
 20
9.2908875143
 10
13.0880811569
 20
9.2907527234
 10
13.120602989
 20
9.2906624978
 10
13.1533427841
 20
9.2906172355
 10
13.1861566789
 20
9.2906171408
 10
13.2188997979
 20
9.2906622196
 10
13.2514265296
 20
9.2907522744
 10
13.2835925791
 20
9.2908869048
 10
13.3152517342
 20
9.2910654817
 10
13.3462715905
 20
9.2912872602
 10
13.3757771731
 20
9.2915457331
  0
LINE
  5
26D
100
AcDbEntity
  8
0
100
AcDbLine
 62
7
  6
CONTINUOUS
 10
9.1767885467
 20
9.6362137075
 11
9.1762810151
 21
9.6363294556
  0
LINE
  5
26E
100
AcDbEntity
  8
0
100
AcDbLine
 62
9
  6
CONTINUOUS
 10
13.0248183383
 20
9.2866392433
 11
13.0248183383
 21
9.2912608936
  0
LINE
  5
26F
100
AcDbEntity
  8
0
100
AcDbLine
 62
9
  6
CONTINUOUS
 10
13.0248183383
 20
9.6813934089
 11
13.0248183383
 21
9.6767717586
  0
LINE
  5
270
100
AcDbEntity
  8
0
100
AcDbLine
 62
9
  6
CONTINUOUS
 10
13.1698113679
 20
9.3178769819
 11
13.1698109507
 21
9.3316946693
  0
LINE
  5
271
100
AcDbEntity
  8
0
100
AcDbLine
 62
9
  6
CONTINUOUS
 10
13.1698237597
 20
9.6501556706
 11
13.1698241383
 21
9.6363379831
  0
LINE
  5
272
100
AcDbEntity
  8
0
100
AcDbLine
 62
9
  6
CONTINUOUS
 10
8.6404431221
 20
9.3710912667
 11
8.6619997095
 21
9.3710912667
  0
LINE
  5
273
100
AcDbEntity
  8
0
100
AcDbLine
 62
9
  6
CONTINUOUS
 10
9.1876369671
 20
9.3710912667
 11
9.2091935545
 21
9.3710912667
  0
LINE
  5
274
100
AcDbEntity
  8
0
100
AcDbLine
 62
9
  6
CONTINUOUS
 10
12.8854431221
 20
9.3710912667
 11
12.9069997095
 21
9.3710912667
  0
LINE
  5
275
100
AcDbEntity
  8
0
100
AcDbLine
 62
9
  6
CONTINUOUS
 10
13.4326369671
 20
9.3710912667
 11
13.4541935545
 21
9.3710912667
  0
LINE
  5
276
100
AcDbEntity
  8
0
100
AcDbLine
 62
9
  6
CONTINUOUS
 10
13.4541935545
 20
9.5969413855
 11
13.4326369671
 21
9.5969413855
  0
LINE
  5
277
100
AcDbEntity
  8
0
100
AcDbLine
 62
9
  6
CONTINUOUS
 10
12.9069997095
 20
9.5969413855
 11
12.8854431221
 21
9.5969413855
  0
LINE
  5
278
100
AcDbEntity
  8
0
100
AcDbLine
 62
9
  6
CONTINUOUS
 10
9.2091935545
 20
9.5969413855
 11
9.1876369671
 21
9.5969413855
  0
LINE
  5
279
100
AcDbEntity
  8
0
100
AcDbLine
 62
9
  6
CONTINUOUS
 10
8.6619997095
 20
9.5969413855
 11
8.6404431221
 21
9.5969413855
  0
LINE
  5
27A
100
AcDbEntity
  8
0
100
AcDbLine
 62
9
  6
CONTINUOUS
 10
13.3148183383
 20
9.6813934089
 11
13.3148183383
 21
9.6767717586
  0
LINE
  5
27B
100
AcDbEntity
  8
0
100
AcDbLine
 62
9
  6
CONTINUOUS
 10
13.4326369671
 20
9.5969413855
 11
13.4326369671
 21
9.3710912667
  0
LINE
  5
27C
100
AcDbEntity
  8
0
100
AcDbLine
 62
7
  6
CONTINUOUS
 10
13.4541935545
 20
9.5969413855
 11
13.4541935545
 21
9.3710912667
  0
LINE
  5
27D
100
AcDbEntity
  8
0
100
AcDbLine
 62
9
  6
CONTINUOUS
 10
13.3148183383
 20
9.2866392433
 11
13.3148183383
 21
9.2912608936
  0
LINE
  5
27E
100
AcDbEntity
  8
0
100
AcDbLine
 62
7
  6
CONTINUOUS
 10
9.1762811265
 20
9.3317032284
 11
9.1767883015
 21
9.3318188924
  0
LWPOLYLINE
  5
27F
100
AcDbEntity
  8
0
100
AcDbPolyline
 62
7
  6
CONTINUOUS
 90
41
 70
0
 10
12.9638594656
 20
9.6764869182
 10
12.9631009952
 20
9.6764732697
 10
12.962423056
 20
9.6764552438
 10
12.9617699194
 20
9.6764307515
 10
12.9610946841
 20
9.676396164
 10
12.9603606472
 20
9.6763463052
 10
12.9595834203
 20
9.6762785569
 10
12.9587522796
 20
9.6761884259
 10
12.9578990513
 20
9.6760764514
 10
12.9570217725
 20
9.6759404229
 10
12.9561022904
 20
9.6757747514
 10
12.9551510688
 20
9.6755780762
 10
12.9541751909
 20
9.6753491001
 10
12.9531755363
 20
9.6750853999
 10
12.9521532509
 20
9.6747845215
 10
12.9511110901
 20
9.6744444577
 10
12.9500514225
 20
9.6740631444
 10
12.9489764018
 20
9.6736384586
 10
12.947888254
 20
9.6731682935
 10
12.9467893897
 20
9.6726506083
 10
12.9456824737
 20
9.6720834792
 10
12.9445704243
 20
9.6714651315
 10
12.9434561886
 20
9.6707938335
 10
12.9423428545
 20
9.6700679569
 10
12.9412336733
 20
9.6692860015
 10
12.9401320642
 20
9.6684466154
 10
12.9390415681
 20
9.6675485744
 10
12.9379657768
 20
9.6665907221
 10
12.9369084383
 20
9.6655720542
 10
12.9358734758
 20
9.6644917523
 10
12.9348649842
 20
9.6633492039
 10
12.9338872248
 20
9.6621440224
 10
12.9329446176
 20
9.6608760676
 10
12.9320417315
 20
9.659545466
 10
12.9311832726
 20
9.6581526313
 10
12.9303740694
 20
9.6566982822
 10
12.9296190575
 20
9.6551834646
 10
12.9289232624
 20
9.6536095704
 10
12.9282917794
 20
9.6519783584
 10
12.9277297509
 20
9.6502919719
 10
12.9272675406
 20
9.6486515465
  0
LWPOLYLINE
  5
280
100
AcDbEntity
  8
0
100
AcDbPolyline
 62
7
  6
CONTINUOUS
 90
41
 70
0
 10
8.7188595034
 20
9.6764869191
 10
8.7181010777
 20
9.6764732714
 10
8.7174231004
 20
9.6764552451
 10
8.7167699277
 20
9.676430752
 10
8.7160947387
 20
9.6763961673
 10
8.7153607229
 20
9.6763463111
 10
8.7145834492
 20
9.6762785594
 10
8.7137524391
 20
9.6761884441
 10
8.7128991888
 20
9.6760764698
 10
8.7120218318
 20
9.6759404313
 10
8.7111022988
 20
9.6757747513
 10
8.7101510459
 20
9.6755780691
 10
8.7091751329
 20
9.6753490835
 10
8.7081754398
 20
9.6750853706
 10
8.7071531179
 20
9.6747844777
 10
8.7061109249
 20
9.6744443984
 10
8.7050512295
 20
9.6740630688
 10
8.7039761856
 20
9.6736383662
 10
8.7028880195
 20
9.6731681845
 10
8.7017891426
 20
9.6726504835
 10
8.7006822199
 20
9.6720833402
 10
8.6995701697
 20
9.6714649804
 10
8.6984559378
 20
9.6707936725
 10
8.6973426115
 20
9.6700677881
 10
8.696233441
 20
9.669285827
 10
8.6951318449
 20
9.6684464372
 10
8.6940413632
 20
9.6675483943
 10
8.6929655875
 20
9.6665905419
 10
8.6919082654
 20
9.6655718757
 10
8.6908733199
 20
9.6644915775
 10
8.6898648457
 20
9.6633490346
 10
8.6888871037
 20
9.6621438606
 10
8.6879445137
 20
9.6608759152
 10
8.6870416444
 20
9.6595453248
 10
8.6861832015
 20
9.6581525028
 10
8.6853740132
 20
9.6566981683
 10
8.6846190151
 20
9.6551833664
 10
8.6839232325
 20
9.6536094895
 10
8.6832917602
 20
9.6519782956
 10
8.6827297407
 20
9.6502919281
 10
8.6822675426
 20
9.6486515425
  0
LINE
  5
281
100
AcDbEntity
  8
0
100
AcDbLine
 62
9
  6
CONTINUOUS
 10
13.3148183383
 20
9.6813934089
 11
13.0248183383
 21
9.6813934089
  0
LINE
  5
282
100
AcDbEntity
  8
0
100
AcDbLine
 62
9
  6
CONTINUOUS
 10
9.0698183383
 20
9.6813934089
 11
8.7798183383
 21
9.6813934089
  0
LINE
  5
283
100
AcDbEntity
  8
0
100
AcDbLine
 62
7
  6
CONTINUOUS
 10
13.5098183383
 20
9.8640163261
 11
12.7798183383
 21
9.8640163261
  0
LINE
  5
284
100
AcDbEntity
  8
0
100
AcDbLine
 62
7
  6
CONTINUOUS
 10
8.5848183383
 20
9.8640163261
 11
9.3148183383
 21
9.8640163261
  0
LWPOLYLINE
  5
285
100
AcDbEntity
  8
0
100
AcDbPolyline
 62
7
  6
CONTINUOUS
 90
13
 70
0
 10
9.1013927451
 20
9.6767444343
 10
9.0703738816
 20
9.6769663893
 10
9.038716649
 20
9.6771451379
 10
9.0065555197
 20
9.6772799288
 10
8.9740336876
 20
9.6773701544
 10
8.9412938925
 20
9.6774154167
 10
8.9084799977
 20
9.6774155114
 10
8.8757368786
 20
9.6773704326
 10
8.843210147
 20
9.6772803778
 10
8.8110440975
 20
9.6771457475
 10
8.7793849424
 20
9.6769671705
 10
8.748365086
 20
9.676745392
 10
8.7188595034
 20
9.6764869191
  0
LWPOLYLINE
  5
286
100
AcDbEntity
  8
0
100
AcDbPolyline
 62
7
  6
CONTINUOUS
 90
13
 70
0
 10
13.3463926758
 20
9.6767444349
 10
13.3153737832
 20
9.6769663899
 10
13.283716544
 20
9.6771451384
 10
13.2515554405
 20
9.6772799291
 10
13.2190336457
 20
9.6773701545
 10
13.1862938862
 20
9.6774154167
 10
13.1534800126
 20
9.6774155114
 10
13.1207368978
 20
9.6773704326
 10
13.0882101594
 20
9.6772803779
 10
13.0560440971
 20
9.6771457475
 10
13.0243849377
 20
9.6769671705
 10
12.9933650749
 20
9.6767453919
 10
12.9638594656
 20
9.6764869182
  0
LINE
  5
287
100
AcDbEntity
  8
0
100
AcDbLine
 62
7
  6
CONTINUOUS
 10
12.9178481299
 20
9.3318189447
 11
12.9183556614
 21
9.3317031966
  0
LWPOLYLINE
  5
288
100
AcDbEntity
  8
0
100
AcDbPolyline
 62
7
  6
CONTINUOUS
 90
15
 70
0
 10
11.6948628934
 20
10.1308137196
 10
11.675941429
 20
10.1495424108
 10
11.6350024083
 20
10.1866337274
 10
11.5920408885
 20
10.2210903666
 10
11.5472114644
 20
10.2528223595
 10
11.5007003683
 20
10.2817381309
 10
11.452768322
 20
10.3077172683
 10
11.4036597062
 20
10.330666043
 10
11.3535840773
 20
10.3505452529
 10
11.3027668526
 20
10.3673280403
 10
11.2513785232
 20
10.3810022166
 10
11.1995653882
 20
10.3915838862
 10
11.1475064588
 20
10.3990968771
 10
11.0954482314
 20
10.4035424771
 10
11.0448183383
 20
10.4049637655
  0
LINE
  5
289
100
AcDbEntity
  8
0
100
AcDbLine
 62
7
  6
CONTINUOUS
 10
11.6948796466
 20
10.1307966543
 11
11.6948634985
 21
10.1308131022
  0
LWPOLYLINE
  5
28A
100
AcDbEntity
  8
0
100
AcDbPolyline
 62
7
  6
CONTINUOUS
 90
45
 70
0
 10
12.9272675481
 20
9.3193811943
 10
12.9276070676
 20
9.3181490542
 10
12.9280813419
 20
9.3166547792
 10
12.9286092848
 20
9.3152056241
 10
12.9291872512
 20
9.3138024317
 10
12.929811732
 20
9.3124458251
 10
12.93047936
 20
9.3111362276
 10
12.9311869137
 20
9.3098738819
 10
12.9319313196
 20
9.3086588684
 10
12.9327096536
 20
9.3074911223
 10
12.9335191405
 20
9.3063704514
 10
12.9343571542
 20
9.3052965494
 10
12.9352212162
 20
9.304269011
 10
12.9361089932
 20
9.3032873453
 10
12.9370182941
 20
9.3023509885
 10
12.9379470662
 20
9.3014593164
 10
12.9388933911
 20
9.3006116555
 10
12.9398554791
 20
9.2998072937
 10
12.9408316474
 20
9.2990455023
 10
12.9418200792
 20
9.2983257061
 10
12.9428188587
 20
9.2976474047
 10
12.9438261519
 20
9.2970100247
 10
12.944840213
 20
9.2964129236
 10
12.9458593876
 20
9.2958553964
 10
12.9468821155
 20
9.2953366821
 10
12.9479069298
 20
9.2948559722
 10
12.9489324439
 20
9.2944124231
 10
12.9499573138
 20
9.2940051746
 10
12.9509801474
 20
9.2936333799
 10
12.9519992564
 20
9.2932962666
 10
12.9530100128
 20
9.2929938343
 10
12.954008618
 20
9.2927254524
 10
12.9549938287
 20
9.2924896177
 10
12.9559662297
 20
9.2922844677
 10
12.9569271515
 20
9.2921081991
 10
12.957871003
 20
9.2919602357
 10
12.9587742876
 20
9.2918416117
 10
12.9596358787
 20
9.2917490303
 10
12.9604419168
 20
9.2916801645
 10
12.9611788922
 20
9.2916316078
 10
12.9618450709
 20
9.2915986637
 10
12.9624765855
 20
9.291575739
 10
12.9631181407
 20
9.2915590063
 10
12.9638465305
 20
9.2915459191
 10
12.9932439315
 20
9.2912882179
  0
LINE
  5
28B
100
AcDbEntity
  8
0
100
AcDbLine
 62
7
  6
CONTINUOUS
 10
13.5098183383
 20
9.1040163261
 11
13.5098183383
 21
9.8640163261
  0
LINE
  5
28C
100
AcDbEntity
  8
0
100
AcDbLine
 62
7
  6
CONTINUOUS
 10
13.6098183383
 20
9.1265566592
 11
13.6098183383
 21
9.841475993
  0
LINE
  5
28D
100
AcDbEntity
  8
0
100
AcDbLine
 62
7
  6
CONTINUOUS
 10
8.6733555392
 20
9.636329422
 11
8.6728483463
 21
9.6362137534
  0
LINE
  5
28E
100
AcDbEntity
  8
0
100
AcDbLine
 62
7
  6
CONTINUOUS
 10
12.1198183383
 20
9.9690163261
 11
11.7894537449
 21
9.9690163261
  0
LINE
  5
28F
100
AcDbEntity
  8
0
100
AcDbLine
 62
7
  6
CONTINUOUS
 10
9.9748183383
 20
9.9690163261
 11
10.3001829316
 21
9.9690163261
  0
LINE
  5
290
100
AcDbEntity
  8
0
100
AcDbLine
 62
7
  6
CONTINUOUS
 10
13.4217885429
 20
9.636213709
 11
13.4212810275
 21
9.6363294532
  0
LWPOLYLINE
  5
291
100
AcDbEntity
  8
0
100
AcDbPolyline
 62
7
  6
CONTINUOUS
 90
4
 70
0
 10
12.9172799835
 20
9.3319651959
 10
12.9173332208
 20
9.3319400162
 10
12.917823949
 20
9.331686036
 10
12.918509398
 20
9.3312926277
  0
LINE
  5
292
100
AcDbEntity
  8
0
100
AcDbLine
 62
7
  6
CONTINUOUS
 10
12.918509398
 20
9.3312926277
 11
12.919381622
 21
9.3307290783
  0
LWPOLYLINE
  5
293
100
AcDbEntity
  8
0
100
AcDbPolyline
 62
7
  6
CONTINUOUS
 90
10
 70
0
 10
12.919381622
 20
9.3307290783
 10
12.9203785551
 20
9.3299943709
 10
12.9214549935
 20
9.3290796446
 10
12.922571138
 20
9.3279733652
 10
12.923683351
 20
9.326669721
 10
12.9247408617
 20
9.3251782927
 10
12.9256986824
 20
9.3235144384
 10
12.9265194288
 20
9.3216954995
 10
12.9271703909
 20
9.3197449147
 10
12.9272675237
 20
9.3193813202
  0
LWPOLYLINE
  5
294
100
AcDbEntity
  8
0
100
AcDbPolyline
 62
7
  6
CONTINUOUS
 90
15
 70
0
 10
11.0448183383
 20
10.4049637655
 10
10.9940867565
 20
10.4035367485
 10
10.9420338542
 20
10.3990858144
 10
10.8899805335
 20
10.3915681037
 10
10.8381731032
 20
10.380982243
 10
10.786790588
 20
10.3673044363
 10
10.7359790632
 20
10.3505185391
 10
10.6859093236
 20
10.3306368356
 10
10.636806782
 20
10.3076862335
 10
10.5888810069
 20
10.2817060157
 10
10.5423762361
 20
10.2527898345
 10
10.4975530138
 20
10.2210580912
 10
10.4545976623
 20
10.1866025557
 10
10.4136642743
 20
10.1495125388
 10
10.3945661066
 20
10.130601974
  0
LINE
  5
295
100
AcDbEntity
  8
0
100
AcDbLine
 62
9
  6
CONTINUOUS
 10
12.0223446541
 20
10.268119493
 11
12.0023446541
 21
10.268119493
  0
LINE
  5
296
100
AcDbEntity
  8
0
100
AcDbLine
 62
9
  6
CONTINUOUS
 10
10.0672920225
 20
10.2681194967
 11
10.0872920225
 21
10.2681194967
  0
LWPOLYLINE
  5
297
100
AcDbEntity
  8
0
100
AcDbPolyline
 62
7
  6
CONTINUOUS
 90
45
 70
0
 10
13.4123691256
 20
9.6486514434
 10
13.4120297716
 20
9.6498830218
 10
13.4115556128
 20
9.6513770355
 10
13.4110278042
 20
9.6528259452
 10
13.4104499892
 20
9.6542289088
 10
13.4098256748
 20
9.6555853036
 10
13.4091582266
 20
9.6568947068
 10
13.4084508643
 20
9.658156876
 10
13.4077066598
 20
9.6593717309
 10
13.4069285355
 20
9.6605393363
 10
13.4061192651
 20
9.6616598845
 10
13.4052814733
 20
9.6627336815
 10
13.4044176371
 20
9.6637611324
 10
13.4035300887
 20
9.6647427279
 10
13.4026210179
 20
9.6656790314
 10
13.4016924761
 20
9.6665706666
 10
13.4007463808
 20
9.6674183066
 10
13.3997845206
 20
9.6682226631
 10
13.398808577
 20
9.6689844644
 10
13.3978203654
 20
9.6697042856
 10
13.3968218013
 20
9.6703826258
 10
13.3958147194
 20
9.6710200569
 10
13.3948008658
 20
9.6716172202
 10
13.3937818958
 20
9.6721748195
 10
13.3927593704
 20
9.6726936148
 10
13.3917347574
 20
9.6731744138
 10
13.3907094443
 20
9.6736180594
 10
13.3896847756
 20
9.6740254114
 10
13.3886621435
 20
9.6743973167
 10
13.387643231
 20
9.674734549
 10
13.3866326448
 20
9.6750371137
 10
13.3856341953
 20
9.6753056353
 10
13.3846491255
 20
9.675541616
 10
13.38367685
 20
9.6757469171
 10
13.3827160137
 20
9.6759233455
 10
13.381772097
 20
9.6760714891
 10
13.3808684444
 20
9.6761903163
 10
13.3800065499
 20
9.6762830678
 10
13.3792007053
 20
9.6763520411
 10
13.3784635607
 20
9.6764007153
 10
13.3777968066
 20
9.6764337684
 10
13.3771638067
 20
9.6764567988
 10
13.3765205255
 20
9.6764736024
 10
13.3757906725
 20
9.6764867256
 10
13.3463926758
 20
9.6767444349
  0
LINE
  5
298
100
AcDbEntity
  8
0
100
AcDbLine
 62
9
  6
CONTINUOUS
 10
11.9623446541
 20
10.4416599229
 11
10.1272920225
 21
10.4416598468
  0
LINE
  5
299
100
AcDbEntity
  8
0
100
AcDbLine
 62
9
  6
CONTINUOUS
 10
11.9623446541
 20
10.449795912
 11
10.1272920225
 21
10.449795856
  0
LINE
  5
29A
100
AcDbEntity
  8
0
100
AcDbLine
 62
9
  6
CONTINUOUS
 10
10.0198183383
 20
10.4690163261
 11
12.0698183383
 21
10.4690163262
  0
LINE
  5
29B
100
AcDbEntity
  8
0
100
AcDbLine
 62
7
  6
CONTINUOUS
 10
12.0298183383
 20
10.5090163261
 11
10.0598183383
 21
10.5090163261
  0
LWPOLYLINE
  5
29C
100
AcDbEntity
  8
0
100
AcDbPolyline
 62
7
  6
CONTINUOUS
 90
3
 70
0
 10
13.4223560516
 20
9.6360676222
 10
13.4219256042
 20
9.6362860382
 10
13.4212833136
 20
9.6366466351
  0
LINE
  5
29D
100
AcDbEntity
  8
0
100
AcDbLine
 62
7
  6
CONTINUOUS
 10
13.4212833136
 20
9.6366466351
 11
13.4204447918
 21
9.6371748888
  0
LWPOLYLINE
  5
29E
100
AcDbEntity
  8
0
100
AcDbPolyline
 62
7
  6
CONTINUOUS
 90
10
 70
0
 10
13.4204447918
 20
9.6371748888
 10
13.4194480226
 20
9.6378904496
 10
13.4183492203
 20
9.6388015535
 10
13.4172062811
 20
9.6399097071
 10
13.4160675842
 20
9.6412179872
 10
13.4149835198
 20
9.6427189312
 10
13.4139996395
 20
9.6443990374
 10
13.4131540938
 20
9.6462438782
 10
13.4124814854
 20
9.648233212
 10
13.4123691527
 20
9.6486513233
  0
ARC
  5
29F
100
AcDbEntity
  8
0
100
AcDbCircle
 62
9
  6
CONTINUOUS
 10
8.9310974628
 20
-17.1059898264
 40
26.7041666516
100
AcDbArc
 50
89.4495668447
 51
90.0134987835
  0
ARC
  5
2A0
100
AcDbEntity
  8
0
100
AcDbCircle
 62
9
  6
CONTINUOUS
 10
8.9185386828
 20
-17.1058597408
 40
26.7040365642
100
AcDbArc
 50
89.9865529219
 51
90.5504346973
  0
ARC
  5
2A1
100
AcDbEntity
  8
0
100
AcDbCircle
 62
9
  6
CONTINUOUS
 10
8.9264341199
 20
-15.4674431849
 40
25.103782326
100
AcDbArc
 50
89.4894450485
 51
90.0036710622
  0
ARC
  5
2A2
100
AcDbEntity
  8
0
100
AcDbCircle
 62
9
  6
CONTINUOUS
 10
8.9208617336
 20
-14.9211313993
 40
24.5574696537
100
AcDbArc
 50
89.9907516255
 51
90.5164515118
  0
ARC
  5
2A3
100
AcDbEntity
  8
0
100
AcDbCircle
 62
9
  6
CONTINUOUS
 10
8.9264095772
 20
-14.832957586
 40
24.4831143657
100
AcDbArc
 50
89.4891379805
 51
90.0037076631
  0
ARC
  5
2A4
100
AcDbEntity
  8
0
100
AcDbCircle
 62
9
  6
CONTINUOUS
 10
8.9209681463
 20
-14.3043721849
 40
23.9545281657
100
AcDbArc
 50
89.9907743583
 51
90.5167317855
  0
ARC
  5
2A5
100
AcDbEntity
  8
0
100
AcDbCircle
 62
9
  6
CONTINUOUS
 10
11.0410112577
 20
9.4793699548
 40
0.916452327
100
AcDbArc
 50
315.5388404732
 51
328.3691139302
  0
ARC
  5
2A6
100
AcDbEntity
  8
0
100
AcDbCircle
 62
7
  6
CONTINUOUS
 10
9.4693787294
 20
8.467262736
 40
0.55
100
AcDbArc
 50
43.0944157882
 51
83.2974484373
  0
ARC
  5
2A7
100
AcDbEntity
  8
0
100
AcDbCircle
 62
7
  6
CONTINUOUS
 10
11.0267881361
 20
4.8669514125
 40
0.330055222
100
AcDbArc
 50
134.667243614
 51
147.5578523548
  0
ARC
  5
2A8
100
AcDbEntity
  8
0
100
AcDbCircle
 62
7
  6
CONTINUOUS
 10
11.0184382449
 20
4.8721546335
 40
0.3202108021
100
AcDbArc
 50
147.6796580631
 51
149.8613613114
  0
ARC
  5
2A9
100
AcDbEntity
  8
0
100
AcDbCircle
 62
9
  6
CONTINUOUS
 10
11.0184367016
 20
4.8725043132
 40
0.3200283867
100
AcDbArc
 50
147.6776491395
 51
149.9178006367
  0
ARC
  5
2AA
100
AcDbEntity
  8
0
100
AcDbCircle
 62
9
  6
CONTINUOUS
 10
11.0167610028
 20
4.8734797659
 40
0.3180894456
100
AcDbArc
 50
150.0680424013
 51
152.0026637388
  0
ARC
  5
2AB
100
AcDbEntity
  8
0
100
AcDbCircle
 62
9
  6
CONTINUOUS
 10
11.0156668978
 20
4.8740701271
 40
0.3168462508
100
AcDbArc
 50
152.0040497526
 51
152.3083768684
  0
ARC
  5
2AC
100
AcDbEntity
  8
0
100
AcDbCircle
 62
9
  6
CONTINUOUS
 10
11.0145680673
 20
4.8746383392
 40
0.3156092234
100
AcDbArc
 50
152.3070134252
 51
156.172974002
  0
ARC
  5
2AD
100
AcDbEntity
  8
0
100
AcDbCircle
 62
7
  6
CONTINUOUS
 10
11.0114974639
 20
4.8737630727
 40
0.3131065058
100
AcDbArc
 50
179.2568738993
 51
179.9999498817
  0
ARC
  5
2AE
100
AcDbEntity
  8
0
100
AcDbCircle
 62
9
  6
CONTINUOUS
 10
11.0070930857
 20
4.8775208282
 40
0.3076016131
100
AcDbArc
 50
156.1016526014
 51
179.9509060272
  0
ARC
  5
2AF
100
AcDbEntity
  8
0
100
AcDbCircle
 62
9
  6
CONTINUOUS
 10
11.0039694659
 20
4.8774401263
 40
0.3046511254
100
AcDbArc
 50
179.9987360771
 51
180.6835300549
  0
ARC
  5
2B0
100
AcDbEntity
  8
0
100
AcDbCircle
 62
7
  6
CONTINUOUS
 10
9.5248183383
 20
8.9390163261
 40
0.075
100
AcDbArc
 50
83.2974484373
 51
143.1301023542
  0
ARC
  5
2B1
100
AcDbEntity
  8
0
100
AcDbCircle
 62
7
  6
CONTINUOUS
 10
9.9148183383
 20
8.8840163261
 40
0.06
100
AcDbArc
 50
223.0944157882
 51
360.0
  0
ARC
  5
2B2
100
AcDbEntity
  8
0
100
AcDbCircle
 62
7
  6
CONTINUOUS
 10
9.3148183383
 20
9.0440163261
 40
0.06
100
AcDbArc
 50
0.0000000001
 51
90.0
  0
ARC
  5
2B3
100
AcDbEntity
  8
0
100
AcDbCircle
 62
7
  6
CONTINUOUS
 10
8.5373586714
 20
9.1265566592
 40
0.0525403331
100
AcDbArc
 50
180.0
 51
334.5952455743
  0
ARC
  5
2B4
100
AcDbEntity
  8
0
100
AcDbCircle
 62
7
  6
CONTINUOUS
 10
9.4248183383
 20
9.0140163261
 40
0.05
100
AcDbArc
 50
180.0
 51
323.1301023542
  0
ARC
  5
2B5
100
AcDbEntity
  8
0
100
AcDbCircle
 62
7
  6
CONTINUOUS
 10
9.1691934739
 20
9.3710913334
 40
0.0400000806
100
AcDbArc
 50
280.9453813904
 51
359.9999045081
  0
ARC
  5
2B6
100
AcDbEntity
  8
0
100
AcDbCircle
 62
7
  6
CONTINUOUS
 10
8.6804432026
 20
9.3710913334
 40
0.0400000806
100
AcDbArc
 50
180.0000954914
 51
259.0544374371
  0
ARC
  5
2B7
100
AcDbEntity
  8
0
100
AcDbCircle
 62
7
  6
CONTINUOUS
 10
10.0598183383
 20
8.4990163261
 40
0.04
100
AcDbArc
 50
180.0
 51
270.0
  0
ARC
  5
2B8
100
AcDbEntity
  8
0
100
AcDbCircle
 62
9
  6
CONTINUOUS
 10
9.1751046789
 20
9.3405601165
 40
0.0089018836
100
AcDbArc
 50
277.5958456777
 51
280.9017407308
  0
ARC
  5
2B9
100
AcDbEntity
  8
0
100
AcDbCircle
 62
9
  6
CONTINUOUS
 10
8.918538959
 20
36.0739807457
 40
26.7041249181
100
AcDbArc
 50
269.4495665311
 51
270.0134957881
  0
ARC
  5
2BA
100
AcDbEntity
  8
0
100
AcDbCircle
 62
9
  6
CONTINUOUS
 10
8.9310979798
 20
36.0738959097
 40
26.7040400809
100
AcDbArc
 50
269.9865493906
 51
270.5504346548
  0
ARC
  5
2BB
100
AcDbEntity
  8
0
100
AcDbCircle
 62
9
  6
CONTINUOUS
 10
8.9232024943
 20
34.4354463668
 40
25.1037528556
100
AcDbArc
 50
269.489444584
 51
270.0036748321
  0
ARC
  5
2BC
100
AcDbEntity
  8
0
100
AcDbCircle
 62
9
  6
CONTINUOUS
 10
8.9287749587
 20
33.8891527713
 40
24.5574583738
100
AcDbArc
 50
269.9907552884
 51
270.5164516592
  0
ARC
  5
2BD
100
AcDbEntity
  8
0
100
AcDbCircle
 62
9
  6
CONTINUOUS
 10
8.9232271462
 20
33.8009835421
 40
24.4831076699
100
AcDbArc
 50
269.489137731
 51
270.003711179
  0
ARC
  5
2BE
100
AcDbEntity
  8
0
100
AcDbCircle
 62
9
  6
CONTINUOUS
 10
8.9286685669
 20
33.2723955878
 40
23.9545189165
100
AcDbArc
 50
269.9907779718
 51
270.5167318987
  0
ARC
  5
2BF
100
AcDbEntity
  8
0
100
AcDbCircle
 62
9
  6
CONTINUOUS
 10
11.0412349745
 20
9.4888325022
 40
0.9161724575
100
AcDbArc
 50
31.6292588664
 51
44.4834696872
  0
ARC
  5
2C0
100
AcDbEntity
  8
0
100
AcDbCircle
 62
7
  6
CONTINUOUS
 10
11.0448183383
 20
9.4840163261
 40
0.8890551181
100
AcDbArc
 50
286.3376780079
 51
253.6623219921
  0
ARC
  5
2C1
100
AcDbEntity
  8
0
100
AcDbCircle
 62
9
  6
CONTINUOUS
 10
11.0448183383
 20
9.4840163261
 40
0.8408117029
100
AcDbArc
 50
287.3002515325
 51
252.6997484675
  0
ARC
  5
2C2
100
AcDbEntity
  8
0
100
AcDbCircle
 62
7
  6
CONTINUOUS
 10
9.4693787294
 20
10.5007699162
 40
0.55
100
AcDbArc
 50
276.7025515627
 51
316.9055842118
  0
ARC
  5
2C3
100
AcDbEntity
  8
0
100
AcDbCircle
 62
7
  6
CONTINUOUS
 10
11.0448183383
 20
9.4840163261
 40
0.517
100
AcDbArc
 50
298.9359036956
 51
241.0640963044
  0
ARC
  5
2C4
100
AcDbEntity
  8
0
100
AcDbCircle
 62
9
  6
CONTINUOUS
 10
11.0448183383
 20
9.4840163261
 40
0.467
100
AcDbArc
 50
302.3732158071
 51
237.6267854609
  0
ARC
  5
2C5
100
AcDbEntity
  8
0
100
AcDbCircle
 62
7
  6
CONTINUOUS
 10
11.0448183383
 20
9.4840163261
 40
0.25
100
AcDbArc
 50
0.0
 51
180.0
  0
ARC
  5
2C6
100
AcDbEntity
  8
0
100
AcDbCircle
 62
7
  6
CONTINUOUS
 10
9.5248183383
 20
10.0290163261
 40
0.075
100
AcDbArc
 50
216.8698976458
 51
276.7025515627
  0
ARC
  5
2C7
100
AcDbEntity
  8
0
100
AcDbCircle
 62
7
  6
CONTINUOUS
 10
9.9148183383
 20
10.0840163261
 40
0.06
100
AcDbArc
 50
0.0
 51
136.9055842117
  0
ARC
  5
2C8
100
AcDbEntity
  8
0
100
AcDbCircle
 62
7
  6
CONTINUOUS
 10
9.3148183383
 20
9.9240163261
 40
0.06
100
AcDbArc
 50
270.0
 51
359.9999999999
  0
ARC
  5
2C9
100
AcDbEntity
  8
0
100
AcDbCircle
 62
7
  6
CONTINUOUS
 10
8.5373586714
 20
9.841475993
 40
0.0525403331
100
AcDbArc
 50
25.4047544257
 51
180.0
  0
ARC
  5
2CA
100
AcDbEntity
  8
0
100
AcDbCircle
 62
7
  6
CONTINUOUS
 10
9.4248183383
 20
9.9540163261
 40
0.05
100
AcDbArc
 50
36.8698976458
 51
180.0
  0
ARC
  5
2CB
100
AcDbEntity
  8
0
100
AcDbCircle
 62
7
  6
CONTINUOUS
 10
8.6804432026
 20
9.5969413188
 40
0.0400000806
100
AcDbArc
 50
100.9454065483
 51
179.9999045081
  0
ARC
  5
2CC
100
AcDbEntity
  8
0
100
AcDbCircle
 62
7
  6
CONTINUOUS
 10
9.1691934739
 20
9.5969413188
 40
0.0400000806
100
AcDbArc
 50
0.0000954914
 51
79.0544582592
  0
ARC
  5
2CD
100
AcDbEntity
  8
0
100
AcDbCircle
 62
7
  6
CONTINUOUS
 10
10.0598183383
 20
10.4690163261
 40
0.04
100
AcDbArc
 50
90.0
 51
180.0
  0
ARC
  5
2CE
100
AcDbEntity
  8
0
100
AcDbCircle
 62
9
  6
CONTINUOUS
 10
8.6745320144
 20
9.6274723571
 40
0.0089020619
100
AcDbArc
 50
97.595872597
 51
100.9017967833
  0
ARC
  5
2CF
100
AcDbEntity
  8
0
100
AcDbCircle
 62
9
  6
CONTINUOUS
 10
13.1760977244
 20
-17.1059480935
 40
26.7041249181
100
AcDbArc
 50
89.4495665459
 51
90.0134958028
  0
ARC
  5
2D0
100
AcDbEntity
  8
0
100
AcDbCircle
 62
9
  6
CONTINUOUS
 10
13.1635386933
 20
-17.1058632577
 40
26.704040081
100
AcDbArc
 50
89.9865493833
 51
90.5504346475
  0
ARC
  5
2D1
100
AcDbEntity
  8
0
100
AcDbCircle
 62
9
  6
CONTINUOUS
 10
13.1714341795
 20
-15.4674137142
 40
25.1037528553
100
AcDbArc
 50
89.4894445779
 51
90.003674826
  0
ARC
  5
2D2
100
AcDbEntity
  8
0
100
AcDbCircle
 62
9
  6
CONTINUOUS
 10
13.1658617178
 20
-14.921120119
 40
24.5574583737
100
AcDbArc
 50
89.9907552884
 51
90.5164516592
  0
ARC
  5
2D3
100
AcDbEntity
  8
0
100
AcDbCircle
 62
9
  6
CONTINUOUS
 10
13.1714095189
 20
-14.8329508898
 40
24.4831076699
100
AcDbArc
 50
89.4891377042
 51
90.0037111522
  0
ARC
  5
2D4
100
AcDbEntity
  8
0
100
AcDbCircle
 62
9
  6
CONTINUOUS
 10
13.1659681097
 20
-14.3043629355
 40
23.9545189164
100
AcDbArc
 50
89.9907779718
 51
90.5167318987
  0
ARC
  5
2D5
100
AcDbEntity
  8
0
100
AcDbCircle
 62
9
  6
CONTINUOUS
 10
11.0483740707
 20
9.4791711719
 40
0.9161326791
100
AcDbArc
 50
211.6286241853
 51
224.4411932815
  0
ARC
  5
2D6
100
AcDbEntity
  8
0
100
AcDbCircle
 62
7
  6
CONTINUOUS
 10
12.6252579471
 20
8.467262736
 40
0.55
100
AcDbArc
 50
96.7025515627
 51
136.9055842118
  0
ARC
  5
2D7
100
AcDbEntity
  8
0
100
AcDbCircle
 62
7
  6
CONTINUOUS
 10
11.0628483803
 20
4.8669512941
 40
0.3300554207
100
AcDbArc
 50
32.4421500704
 51
45.3331760221
  0
ARC
  5
2D8
100
AcDbEntity
  8
0
100
AcDbCircle
 62
9
  6
CONTINUOUS
 10
11.0714526987
 20
4.872657382
 40
0.3197329786
100
AcDbArc
 50
30.0811749809
 51
32.3234185775
  0
ARC
  5
2D9
100
AcDbEntity
  8
0
100
AcDbCircle
 62
9
  6
CONTINUOUS
 10
11.0731326659
 20
4.8736219777
 40
0.3177957719
100
AcDbArc
 50
28.0174482022
 51
29.9328409047
  0
ARC
  5
2DA
100
AcDbEntity
  8
0
100
AcDbCircle
 62
9
  6
CONTINUOUS
 10
11.0739644934
 20
4.8740673506
 40
0.3168522212
100
AcDbArc
 50
27.680649364
 51
28.0170080215
  0
ARC
  5
2DB
100
AcDbEntity
  8
0
100
AcDbCircle
 62
9
  6
CONTINUOUS
 10
11.0754869526
 20
4.8748400112
 40
0.3151450733
100
AcDbArc
 50
23.8743306952
 51
27.6848341599
  0
ARC
  5
2DC
100
AcDbEntity
  8
0
100
AcDbCircle
 62
7
  6
CONTINUOUS
 10
11.0781392153
 20
4.8737630727
 40
0.3131065033
100
AcDbArc
 50
0.0000501272
 51
0.7431248819
  0
ARC
  5
2DD
100
AcDbEntity
  8
0
100
AcDbCircle
 62
9
  6
CONTINUOUS
 10
11.0856672107
 20
4.8774401263
 40
0.3046511254
100
AcDbArc
 50
359.3164699451
 51
0.0012639229
  0
ARC
  5
2DE
100
AcDbEntity
  8
0
100
AcDbCircle
 62
7
  6
CONTINUOUS
 10
12.5698183383
 20
8.9390163261
 40
0.075
100
AcDbArc
 50
36.8698976458
 51
96.7025515627
  0
ARC
  5
2DF
100
AcDbEntity
  8
0
100
AcDbCircle
 62
7
  6
CONTINUOUS
 10
12.1798183383
 20
8.8840163261
 40
0.06
100
AcDbArc
 50
180.0
 51
316.9055842117
  0
ARC
  5
2E0
100
AcDbEntity
  8
0
100
AcDbCircle
 62
7
  6
CONTINUOUS
 10
12.7798183383
 20
9.0440163261
 40
0.06
100
AcDbArc
 50
90.0
 51
179.9999999999
  0
ARC
  5
2E1
100
AcDbEntity
  8
0
100
AcDbCircle
 62
7
  6
CONTINUOUS
 10
13.5572780052
 20
9.1265566592
 40
0.0525403331
100
AcDbArc
 50
205.4047544257
 51
360.0
  0
ARC
  5
2E2
100
AcDbEntity
  8
0
100
AcDbCircle
 62
7
  6
CONTINUOUS
 10
12.6698183383
 20
9.0140163261
 40
0.05
100
AcDbArc
 50
216.8698976458
 51
360.0
  0
ARC
  5
2E3
100
AcDbEntity
  8
0
100
AcDbCircle
 62
7
  6
CONTINUOUS
 10
13.4141934739
 20
9.3710913334
 40
0.0400000806
100
AcDbArc
 50
280.9454065483
 51
359.9999045081
  0
ARC
  5
2E4
100
AcDbEntity
  8
0
100
AcDbCircle
 62
7
  6
CONTINUOUS
 10
12.9254432026
 20
9.3710913334
 40
0.0400000806
100
AcDbArc
 50
180.0000954914
 51
259.0544582592
  0
ARC
  5
2E5
100
AcDbEntity
  8
0
100
AcDbCircle
 62
7
  6
CONTINUOUS
 10
12.0298183383
 20
8.4990163261
 40
0.04
100
AcDbArc
 50
270.0
 51
360.0
  0
ARC
  5
2E6
100
AcDbEntity
  8
0
100
AcDbCircle
 62
9
  6
CONTINUOUS
 10
13.4201046622
 20
9.3405602951
 40
0.0089020619
100
AcDbArc
 50
277.5958725977
 51
280.9017967826
  0
ARC
  5
2E7
100
AcDbEntity
  8
0
100
AcDbCircle
 62
9
  6
CONTINUOUS
 10
13.1635392039
 20
36.0740224786
 40
26.7041666515
100
AcDbArc
 50
269.4495668659
 51
270.0134988047
  0
ARC
  5
2E8
100
AcDbEntity
  8
0
100
AcDbCircle
 62
9
  6
CONTINUOUS
 10
13.1760979906
 20
36.073892393
 40
26.7040365642
100
AcDbArc
 50
269.9865529288
 51
270.5504347041
  0
ARC
  5
2E9
100
AcDbEntity
  8
0
100
AcDbCircle
 62
9
  6
CONTINUOUS
 10
13.1682025617
 20
34.4354758373
 40
25.1037823262
100
AcDbArc
 50
269.4894450371
 51
270.0036710509
  0
ARC
  5
2EA
100
AcDbEntity
  8
0
100
AcDbCircle
 62
9
  6
CONTINUOUS
 10
13.173774943
 20
33.8891640517
 40
24.5574696538
100
AcDbArc
 50
269.9907516255
 51
270.5164515117
  0
ARC
  5
2EB
100
AcDbEntity
  8
0
100
AcDbCircle
 62
9
  6
CONTINUOUS
 10
13.1682271047
 20
33.8009902385
 40
24.4831143661
100
AcDbArc
 50
269.489137968
 51
270.0037076506
  0
ARC
  5
2EC
100
AcDbEntity
  8
0
100
AcDbCircle
 62
9
  6
CONTINUOUS
 10
13.1736685303
 20
33.2724048372
 40
23.9545281659
100
AcDbArc
 50
269.9907743583
 51
270.5167317855
  0
ARC
  5
2ED
100
AcDbEntity
  8
0
100
AcDbCircle
 62
9
  6
CONTINUOUS
 10
11.0485847274
 20
9.4886866619
 40
0.916405872
100
AcDbArc
 50
135.5364084594
 51
148.3690004648
  0
ARC
  5
2EE
100
AcDbEntity
  8
0
100
AcDbCircle
 62
7
  6
CONTINUOUS
 10
12.6252579471
 20
10.5007699162
 40
0.55
100
AcDbArc
 50
223.0944157882
 51
263.2974484373
  0
ARC
  5
2EF
100
AcDbEntity
  8
0
100
AcDbCircle
 62
7
  6
CONTINUOUS
 10
12.5698183383
 20
10.0290163261
 40
0.075
100
AcDbArc
 50
263.2974484373
 51
323.1301023542
  0
ARC
  5
2F0
100
AcDbEntity
  8
0
100
AcDbCircle
 62
7
  6
CONTINUOUS
 10
12.1798183383
 20
10.0840163261
 40
0.06
100
AcDbArc
 50
43.0944157882
 51
180.0
  0
ARC
  5
2F1
100
AcDbEntity
  8
0
100
AcDbCircle
 62
7
  6
CONTINUOUS
 10
12.7798183383
 20
9.9240163261
 40
0.06
100
AcDbArc
 50
180.0000000001
 51
270.0
  0
ARC
  5
2F2
100
AcDbEntity
  8
0
100
AcDbCircle
 62
7
  6
CONTINUOUS
 10
13.5572780052
 20
9.841475993
 40
0.0525403331
100
AcDbArc
 50
0.0
 51
154.5952455743
  0
ARC
  5
2F3
100
AcDbEntity
  8
0
100
AcDbCircle
 62
7
  6
CONTINUOUS
 10
12.6698183383
 20
9.9540163261
 40
0.05
100
AcDbArc
 50
0.0
 51
143.1301023542
  0
ARC
  5
2F4
100
AcDbEntity
  8
0
100
AcDbCircle
 62
7
  6
CONTINUOUS
 10
12.9254432026
 20
9.5969413188
 40
0.0400000806
100
AcDbArc
 50
100.9453813904
 51
179.9999045081
  0
ARC
  5
2F5
100
AcDbEntity
  8
0
100
AcDbCircle
 62
7
  6
CONTINUOUS
 10
13.4141934739
 20
9.5969413188
 40
0.0400000806
100
AcDbArc
 50
0.0000954914
 51
79.0544374371
  0
ARC
  5
2F6
100
AcDbEntity
  8
0
100
AcDbCircle
 62
7
  6
CONTINUOUS
 10
12.0298183383
 20
10.4690163261
 40
0.04
100
AcDbArc
 50
0.0
 51
90.0
  0
ARC
  5
2F7
100
AcDbEntity
  8
0
100
AcDbCircle
 62
9
  6
CONTINUOUS
 10
12.9195319976
 20
9.6274725357
 40
0.0089018836
100
AcDbArc
 50
97.5958456783
 51
100.9017407299
  0
LINE
  5
2F8
100
AcDbEntity
  8
0
100
AcDbLine
 62
7
  6
CONTINUOUS
 10
11.390318336
 20
4.8774468468
 11
11.3903181493
 21
4.8777910642
  0
SPLINE
  5
2F9
100
AcDbEntity
  8
0
100
AcDbSpline
 62
7
  6
CONTINUOUS
 70
0
 71
3
 72
15
 73
11
 74
0
 42
0.0000001
 43
0.0000001
 44
0.0000000001
 40
0.0
 40
0.0
 40
0.0
 40
0.0
 40
0.1243649184
 40
0.2488000418
 40
0.373355153
 40
0.4980989086
 40
0.6230845742
 40
0.7483657886
 40
0.8739902195
 40
1.0
 40
1.0
 40
1.0
 40
1.0
 10
11.3903181493
 20
4.8777910642
 30
0.0
 10
11.3903107212
 20
4.884497774
 30
0.0
 10
11.3898525503
 20
4.8979186849
 30
0.0
 10
11.387840128
 20
4.9179659733
 30
0.0
 10
11.3845096276
 20
4.9378584281
 30
0.0
 10
11.3798742802
 20
4.9575180872
 30
0.0
 10
11.3739517422
 20
4.9768698943
 30
0.0
 10
11.3667648065
 20
4.9958394936
 30
0.0
 10
11.3583417061
 20
5.0143530943
 30
0.0
 10
11.3519329323
 20
5.026326964
 30
0.0
 10
11.3485364341
 20
5.032212667
 30
0.0
  0
SPLINE
  5
2FA
100
AcDbEntity
  8
0
100
AcDbSpline
 62
7
  6
CONTINUOUS
 70
0
 71
3
 72
39
 73
35
 74
0
 42
0.0000001
 43
0.0000001
 44
0.0000000001
 40
0.0
 40
0.0
 40
0.0
 40
0.0
 40
0.03053989
 40
0.0611197534
 40
0.0917624661
 40
0.1224885373
 40
0.1533154907
 40
0.1842573772
 40
0.2153242228
 40
0.2465216397
 40
0.2778506333
 40
0.3093074964
 40
0.34088398
 40
0.3725675218
 40
0.4043417468
 40
0.4361869889
 40
0.4680810523
 40
0.4999999716
 40
0.5319188915
 40
0.563812957
 40
0.5956582023
 40
0.6274324313
 40
0.6591159782
 40
0.6906924675
 40
0.7221493362
 40
0.7534783354
 40
0.784675758
 40
0.8157426086
 40
0.8466844994
 40
0.8775114564
 40
0.9082375306
 40
0.9388802455
 40
0.9694601106
 40
1.0
 40
1.0
 40
1.0
 40
1.0
 10
11.3591937769
 20
4.7355586026
 30
0.0
 10
11.358568337
 20
4.7261503328
 30
0.0
 10
11.3563747143
 20
4.7073706151
 30
0.0
 10
11.3502976153
 20
4.6796534629
 30
0.0
 10
11.3414902632
 20
4.6526163056
 30
0.0
 10
11.3300375086
 20
4.6265072596
 30
0.0
 10
11.316048116
 20
4.6015594085
 30
0.0
 10
11.299653651
 20
4.5779944713
 30
0.0
 10
11.2810064975
 20
4.5560193446
 30
0.0
 10
11.2602780301
 20
4.5358249752
 30
0.0
 10
11.2376566044
 20
4.5175850706
 30
0.0
 10
11.2133456518
 20
4.5014551156
 30
0.0
 10
11.1875618147
 20
4.4875715342
 30
0.0
 10
11.1605330788
 20
4.4760509745
 30
0.0
 10
11.1324969547
 20
4.4669896611
 30
0.0
 10
11.1036985589
 20
4.4604629787
 30
0.0
 10
11.0743887621
 20
4.4565250719
 30
0.0
 10
11.0448222787
 20
4.4552085611
 30
0.0
 10
11.0152557633
 20
4.4565243689
 30
0.0
 10
10.9859458713
 20
4.4604615814
 30
0.0
 10
10.9571473177
 20
4.4669875793
 30
0.0
 10
10.9291109728
 20
4.4760482213
 30
0.0
 10
10.9020819529
 20
4.4875681254
 30
0.0
 10
10.8762977692
 20
4.5014510734
 30
0.0
 10
10.8519864121
 20
4.5175804278
 30
0.0
 10
10.8293645237
 20
4.5358197664
 30
0.0
 10
10.8086355373
 20
4.5560136098
 30
0.0
 10
10.7899878106
 20
4.5779882556
 30
0.0
 10
10.7735927225
 20
4.6015527638
 30
0.0
 10
10.7596026641
 20
4.626500245
 30
0.0
 10
10.7481492053
 20
4.6526089848
 30
0.0
 10
10.7393411169
 20
4.6796459043
 30
0.0
 10
10.733263258
 20
4.7073628907
 30
0.0
 10
10.7310691177
 20
4.7261425482
 30
0.0
 10
10.7304434184
 20
4.7355508006
 30
0.0
  0
SPLINE
  5
2FB
100
AcDbEntity
  8
0
100
AcDbSpline
 62
7
  6
CONTINUOUS
 70
0
 71
3
 72
15
 73
11
 74
0
 42
0.0000001
 43
0.0000001
 44
0.0000000001
 40
0.0
 40
0.0
 40
0.0
 40
0.0
 40
0.1256269086
 40
0.2510153897
 40
0.3761917096
 40
0.5011850761
 40
0.6260279824
 40
0.7507524814
 40
0.8753974008
 40
1.0
 40
1.0
 40
1.0
 40
1.0
 10
11.3485364462
 20
5.032212661
 30
0.0
 10
11.3519252406
 20
5.0263402823
 30
0.0
 10
11.3583305796
 20
5.0143910507
 30
0.0
 10
11.3667807327
 20
4.995916037
 30
0.0
 10
11.3740314469
 20
4.9769738169
 30
0.0
 10
11.3800530339
 20
4.9576367234
 30
0.0
 10
11.3848211249
 20
4.9379780388
 30
0.0
 10
11.3883164134
 20
4.9180724582
 30
0.0
 10
11.3905244137
 20
4.8979971683
 30
0.0
 10
11.3911321711
 20
4.8845481221
 30
0.0
 10
11.3912193835
 20
4.8778239427
 30
0.0
  0
SPLINE
  5
2FC
100
AcDbEntity
  8
0
100
AcDbSpline
 62
7
  6
CONTINUOUS
 70
0
 71
3
 72
15
 73
11
 74
0
 42
0.0000001
 43
0.0000001
 44
0.0000000001
 40
0.0
 40
0.0
 40
0.0
 40
0.0
 40
0.1260097815
 40
0.251634213
 40
0.3769154277
 40
0.5019010933
 40
0.6266448487
 40
0.7511999594
 40
0.8756350822
 40
1.0
 40
1.0
 40
1.0
 40
1.0
 10
10.7411002866
 20
5.0322127436
 30
0.0
 10
10.7377037849
 20
5.0263270382
 30
0.0
 10
10.7312950045
 20
5.0143531635
 30
0.0
 10
10.7228718952
 20
4.9958395545
 30
0.0
 10
10.715684952
 20
4.9768699462
 30
0.0
 10
10.7097624076
 20
4.9575181295
 30
0.0
 10
10.7051270553
 20
4.9378584603
 30
0.0
 10
10.7017965513
 20
4.917965995
 30
0.0
 10
10.6997841268
 20
4.8979186958
 30
0.0
 10
10.6993259554
 20
4.8844977776
 30
0.0
 10
10.6993185273
 20
4.8777910642
 30
0.0
  0
LINE
  5
2FD
100
AcDbEntity
  8
0
100
AcDbLine
 62
7
  6
CONTINUOUS
 10
10.6993185273
 20
4.8777910642
 11
10.6993183406
 21
4.8774468468
  0
SPLINE
  5
2FE
100
AcDbEntity
  8
0
100
AcDbSpline
 62
7
  6
CONTINUOUS
 70
0
 71
3
 72
15
 73
11
 74
0
 42
0.0000001
 43
0.0000001
 44
0.0000000001
 40
0.0
 40
0.0
 40
0.0
 40
0.0
 40
0.1246025321
 40
0.2492474127
 40
0.3739718855
 40
0.4988147884
 40
0.6238081676
 40
0.7489845148
 40
0.874373038
 40
1.0
 40
1.0
 40
1.0
 40
1.0
 10
10.6984172932
 20
4.8778239494
 30
0.0
 10
10.6985045057
 20
4.8845481287
 30
0.0
 10
10.6991122635
 20
4.897997176
 30
0.0
 10
10.7013202646
 20
4.918072469
 30
0.0
 10
10.7048155554
 20
4.937978056
 30
0.0
 10
10.7095836498
 20
4.9576367495
 30
0.0
 10
10.715605242
 20
4.9769738543
 30
0.0
 10
10.7228559645
 20
4.9959160871
 30
0.0
 10
10.7313061296
 20
5.014391114
 30
0.0
 10
10.7377114756
 20
5.0263403555
 30
0.0
 10
10.7411002757
 20
5.0322127383
 30
0.0
  0
SPLINE
  5
2FF
100
AcDbEntity
  8
0
100
AcDbSpline
 62
7
  6
CONTINUOUS
 70
0
 71
3
 72
39
 73
35
 74
0
 42
0.0000001
 43
0.0000001
 44
0.0000000001
 40
0.0
 40
0.0
 40
0.0
 40
0.0
 40
0.0306220592
 40
0.061267399
 40
0.0919596761
 40
0.1227197494
 40
0.1535664661
 40
0.184515412
 40
0.2155784229
 40
0.2467629975
 40
0.2780720499
 40
0.30950364
 40
0.3410510935
 40
0.3727031244
 40
0.4044443408
 40
0.4362557632
 40
0.4681156265
 40
0.5000001987
 40
0.5318847673
 40
0.56374462
 40
0.5955560247
 40
0.6272972174
 40
0.6589492193
 40
0.6904966396
 40
0.7219281928
 40
0.7532372067
 40
0.7844217425
 40
0.8154847156
 40
0.8464336262
 40
0.8772803117
 40
0.9080403594
 40
0.9387326168
 40
0.9693779447
 40
1.0
 40
1.0
 40
1.0
 40
1.0
 10
11.3912457186
 20
4.8737633466
 30
0.0
 10
11.3912457186
 20
4.8629306235
 30
0.0
 10
11.3901192445
 20
4.8412401404
 30
0.0
 10
11.385068731
 20
4.8090472953
 30
0.0
 10
11.3767114676
 20
4.7774968184
 30
0.0
 10
11.3651357799
 20
4.7469053968
 30
0.0
 10
11.3504633535
 20
4.717571702
 30
0.0
 10
11.3328464276
 20
4.6897801579
 30
0.0
 10
11.3124652275
 20
4.6637964727
 30
0.0
 10
11.2895253024
 20
4.6398659364
 30
0.0
 10
11.2642549476
 20
4.6182114304
 30
0.0
 10
11.2369022835
 20
4.5990322761
 30
0.0
 10
11.2077327059
 20
4.5825032362
 30
0.0
 10
11.1770264289
 20
4.5687735235
 30
0.0
 10
11.145076005
 20
4.5579661135
 30
0.0
 10
11.1121837932
 20
4.5501773178
 30
0.0
 10
11.0786595776
 20
4.5454763436
 30
0.0
 10
11.0448181281
 20
4.5439047501
 30
0.0
 10
11.0109766846
 20
4.545476387
 30
0.0
 10
10.9774524848
 20
4.5501773914
 30
0.0
 10
10.9445602989
 20
4.5579662176
 30
0.0
 10
10.9126099114
 20
4.5687736574
 30
0.0
 10
10.8819036769
 20
4.5825033898
 30
0.0
 10
10.8527341414
 20
4.5990324326
 30
0.0
 10
10.8253815252
 20
4.6182115885
 30
0.0
 10
10.8001112184
 20
4.639866088
 30
0.0
 10
10.7771713349
 20
4.6637966073
 30
0.0
 10
10.7567901696
 20
4.6897802692
 30
0.0
 10
10.7391732752
 20
4.7175717895
 30
0.0
 10
10.7245008714
 20
4.7469054588
 30
0.0
 10
10.7129251972
 20
4.7774968564
 30
0.0
 10
10.7045679419
 20
4.8090473145
 30
0.0
 10
10.6995174316
 20
4.8412401474
 30
0.0
 10
10.6983909581
 20
4.8629306249
 30
0.0
 10
10.6983909581
 20
4.8737633466
 30
0.0
  0
SPLINE
  5
300
100
AcDbEntity
  8
0
100
AcDbSpline
 62
9
  6
CONTINUOUS
 70
0
 71
3
 72
34
 73
30
 74
0
 42
0.0000001
 43
0.0000001
 44
0.0000000001
 40
0.0
 40
0.0
 40
0.0
 40
0.0
 40
0.1249744704
 40
0.1874642473
 40
0.2499536169
 40
0.3124433387
 40
0.374933426
 40
0.4374232286
 40
0.499912988
 40
0.5624027979
 40
0.6248919562
 40
0.6561400256
 40
0.6873886298
 40
0.718638006
 40
0.7498874697
 40
0.7811391218
 40
0.8123900407
 40
0.8280201914
 40
0.8436492961
 40
0.8749032208
 40
0.8905357963
 40
0.9061722112
 40
0.9218076332
 40
0.937448802
 40
0.9530829645
 40
0.9609042191
 40
0.9687261545
 40
0.9843693798
 40
1.0
 40
1.0
 40
1.0
 40
1.0
 10
12.0223446541
 20
10.268119493
 30
0.0
 10
12.0223446536
 20
10.2766090443
 30
0.0
 10
12.0221536161
 20
10.2893452013
 30
0.0
 10
12.0214393458
 20
10.3063104021
 30
0.0
 10
12.0206472927
 20
10.3190215651
 30
0.0
 10
12.019568927
 20
10.3317118625
 30
0.0
 10
12.0181667882
 20
10.3443708974
 30
0.0
 10
12.0163936489
 20
10.3569838226
 30
0.0
 10
12.0141910159
 20
10.3695297433
 30
0.0
 10
12.0114832192
 20
10.3819772819
 30
0.0
 10
12.0087220701
 20
10.3922305143
 30
0.0
 10
12.0061416828
 20
10.4003206351
 30
0.0
 10
12.0039978455
 20
10.4063186738
 30
0.0
 10
12.001619296
 20
10.4122281159
 30
0.0
 10
11.9989735139
 20
10.4180238467
 30
0.0
 10
11.9960229458
 20
10.423671545
 30
0.0
 10
11.9932679608
 20
10.4282137146
 30
0.0
 10
11.9908597998
 20
10.4317126617
 30
0.0
 10
11.9883023842
 20
10.4351037055
 30
0.0
 10
11.985503824
 20
10.4383111036
 30
0.0
 10
11.9824292305
 20
10.4412449982
 30
0.0
 10
11.9799764405
 20
10.4432832364
 30
0.0
 10
11.9773706512
 20
10.4451241751
 30
0.0
 10
11.9746125286
 20
10.4467292629
 30
0.0
 10
11.9721895749
 20
10.447830438
 30
0.0
 10
11.9701868774
 20
10.4485431522
 30
0.0
 10
11.9681457928
 20
10.4491392627
 30
0.0
 10
11.9655331655
 20
10.4496529172
 30
0.0
 10
11.9634064465
 20
10.4497961419
 30
0.0
 10
11.9623446541
 20
10.449795912
 30
0.0
  0
SPLINE
  5
301
100
AcDbEntity
  8
0
100
AcDbSpline
 62
9
  6
CONTINUOUS
 70
0
 71
3
 72
34
 73
30
 74
0
 42
0.0000001
 43
0.0000001
 44
0.0000000001
 40
0.0
 40
0.0
 40
0.0
 40
0.0
 40
0.0312629574
 40
0.0625077
 40
0.0937345704
 40
0.124944685
 40
0.1561393509
 40
0.1873194566
 40
0.2184862671
 40
0.249641846
 40
0.280787965
 40
0.311926518
 40
0.343060054
 40
0.3741916591
 40
0.4053242035
 40
0.4364602622
 40
0.4987467317
 40
0.5610841626
 40
0.5922835444
 40
0.6235043919
 40
0.6547489054
 40
0.6860187937
 40
0.7173149706
 40
0.7486381725
 40
0.779988533
 40
0.8113651209
 40
0.8741807642
 40
0.9370703215
 40
1.0
 40
1.0
 40
1.0
 40
1.0
 10
11.8539033753
 20
9.9693264148
 30
0.0
 10
11.8486912652
 20
9.9779817183
 30
0.0
 10
11.8379924594
 20
9.9951218603
 30
0.0
 10
11.8211317657
 20
10.0202948566
 30
0.0
 10
11.8034733153
 20
10.0448943374
 30
0.0
 10
11.7850279195
 20
10.0688889254
 30
0.0
 10
11.7658175818
 20
10.0922559777
 30
0.0
 10
11.7458656182
 20
10.1149743935
 30
0.0
 10
11.7251952349
 20
10.137023802
 30
0.0
 10
11.7038308769
 20
10.1583858652
 30
0.0
 10
11.6817969543
 20
10.1790432531
 30
0.0
 10
11.6591124879
 20
10.1989733867
 30
0.0
 10
11.6357945183
 20
10.2181512681
 30
0.0
 10
11.6118623609
 20
10.2365536797
 30
0.0
 10
11.5873418422
 20
10.2541663178
 30
0.0
 10
11.553896634
 20
10.2765768211
 30
0.0
 10
11.5107313947
 20
10.3025475315
 30
0.0
 10
11.4659556622
 20
10.3256756651
 30
0.0
 10
11.4292702688
 20
10.3424169036
 30
0.0
 10
11.4013341645
 20
10.3540873971
 30
0.0
 10
11.3730155566
 20
10.3648596809
 30
0.0
 10
11.3443426476
 20
10.3747252184
 30
0.0
 10
11.3153438803
 20
10.3836739361
 30
0.0
 10
11.2860478897
 20
10.3916943615
 30
0.0
 10
11.2564849982
 20
10.3987804179
 30
0.0
 10
11.2167447928
 20
10.4069835727
 30
0.0
 10
11.1665617584
 20
10.4148909467
 30
0.0
 10
11.105829546
 20
10.4205948713
 30
0.0
 10
11.0651557916
 20
10.4218579956
 30
0.0
 10
11.0448183383
 20
10.4218580048
 30
0.0
  0
SPLINE
  5
302
100
AcDbEntity
  8
0
100
AcDbSpline
 62
9
  6
CONTINUOUS
 70
0
 71
3
 72
33
 73
29
 74
0
 42
0.0000001
 43
0.0000001
 44
0.0000000001
 40
0.0
 40
0.0
 40
0.0
 40
0.0
 40
0.062929682
 40
0.1258191871
 40
0.1886348388
 40
0.2200114332
 40
0.2513617908
 40
0.2826849918
 40
0.3139812943
 40
0.3764880861
 40
0.4077093016
 40
0.4389090892
 40
0.5012473404
 40
0.5635345776
 40
0.5946710912
 40
0.6258040034
 40
0.6569359219
 40
0.6880698351
 40
0.7192088146
 40
0.7503553273
 40
0.7815112444
 40
0.8126784284
 40
0.8438589314
 40
0.8750539134
 40
0.9062643818
 40
0.9374916881
 40
0.9687367924
 40
1.0
 40
1.0
 40
1.0
 40
1.0
 10
11.0448183383
 20
10.4218580048
 30
0.0
 10
11.0244819301
 20
10.4218578604
 30
0.0
 10
10.983810348
 20
10.4205943358
 30
0.0
 10
10.9230809987
 20
10.4148931482
 30
0.0
 10
10.8729008622
 20
10.406984259
 30
0.0
 10
10.8331624669
 20
10.3987826213
 30
0.0
 10
10.8036009328
 20
10.391697963
 30
0.0
 10
10.7743060974
 20
10.3836777272
 30
0.0
 10
10.7356629199
 20
10.371753504
 30
0.0
 10
10.6976416424
 20
10.3579887415
 30
0.0
 10
10.6603845207
 20
10.34242475
 30
0.0
 10
10.6237001276
 20
10.3256840601
 30
0.0
 10
10.5789252983
 20
10.3025589171
 30
0.0
 10
10.5357611535
 20
10.2765899833
 30
0.0
 10
10.5023164395
 20
10.2541815723
 30
0.0
 10
10.477796149
 20
10.2365706387
 30
0.0
 10
10.4538646346
 20
10.2181693638
 30
0.0
 10
10.4305474627
 20
10.1989923972
 30
0.0
 10
10.4078630362
 20
10.1790640055
 30
0.0
 10
10.3858286614
 20
10.1584088207
 30
0.0
 10
10.3644643629
 20
10.1370483779
 30
0.0
 10
10.34379433
 20
10.115000278
 30
0.0
 10
10.3238426338
 20
10.0922832362
 30
0.0
 10
10.3046321906
 20
10.0689178376
 30
0.0
 10
10.2861868288
 20
10.0449247418
 30
0.0
 10
10.2685274533
 20
10.0203273994
 30
0.0
 10
10.2516655368
 20
9.9951566829
 30
0.0
 10
10.240966602
 20
9.978017599
 30
0.0
 10
10.235754615
 20
9.9693627339
 30
0.0
  0
SPLINE
  5
303
100
AcDbEntity
  8
0
100
AcDbSpline
 62
9
  6
CONTINUOUS
 70
0
 71
3
 72
27
 73
23
 74
0
 42
0.0000001
 43
0.0000001
 44
0.0000000001
 40
0.0
 40
0.0
 40
0.0
 40
0.0
 40
0.0628453884
 40
0.0942661334
 40
0.1256733112
 40
0.1570656434
 40
0.1884417949
 40
0.2511304322
 40
0.3137362701
 40
0.3762601824
 40
0.4074974127
 40
0.4387174093
 40
0.5011059437
 40
0.5634497979
 40
0.6257670481
 40
0.6569249151
 40
0.6880826453
 40
0.7503988851
 40
0.8127375687
 40
0.8751109582
 40
0.937529254
 40
1.0
 40
1.0
 40
1.0
 40
1.0
 10
11.0448183383
 20
10.3852720058
 30
0.0
 10
11.0259657361
 20
10.3852720027
 30
0.0
 10
10.9976764946
 20
10.3843734741
 30
0.0
 10
10.9600912789
 20
10.3813798632
 30
0.0
 10
10.9319965928
 20
10.3782392991
 30
0.0
 10
10.9040290542
 20
10.3742119918
 30
0.0
 10
10.8669612187
 20
10.3676727765
 30
0.0
 10
10.8210822057
 20
10.3573174642
 30
0.0
 10
10.7669837764
 20
10.3414473542
 30
0.0
 10
10.7228602477
 20
10.3254287596
 30
0.0
 10
10.6882546299
 20
10.3109884558
 30
0.0
 10
10.6541561354
 20
10.2954862089
 30
0.0
 10
10.6124940506
 20
10.2741306372
 30
0.0
 10
10.5642243723
 20
10.245451902
 30
0.0
 10
10.5255762331
 20
10.2191015255
 30
0.0
 10
10.4956998439
 20
10.1966150308
 30
0.0
 10
10.4665412366
 20
10.173205625
 30
0.0
 10
10.4314786194
 20
10.1422472695
 30
0.0
 10
10.3917725025
 20
10.1025589827
 30
0.0
 10
10.3545849211
 20
10.0604578942
 30
0.0
 10
10.3200765239
 20
10.0160864524
 30
0.0
 10
10.2989609283
 20
9.9851043918
 30
0.0
 10
10.2888898116
 20
9.9693003326
 30
0.0
  0
SPLINE
  5
304
100
AcDbEntity
  8
0
100
AcDbSpline
 62
9
  6
CONTINUOUS
 70
0
 71
3
 72
24
 73
20
 74
0
 42
0.0000001
 43
0.0000001
 44
0.0000000001
 40
0.0
 40
0.0
 40
0.0
 40
0.0
 40
0.0625833706
 40
0.0938620752
 40
0.1251313968
 40
0.1876401711
 40
0.2501172607
 40
0.3125680924
 40
0.3749993437
 40
0.4374171761
 40
0.499829402
 40
0.5622452664
 40
0.6246736031
 40
0.6871236222
 40
0.7496048856
 40
0.8121258687
 40
0.8746948723
 40
0.9373180715
 40
1.0
 40
1.0
 40
1.0
 40
1.0
 10
10.2888903573
 20
8.9987328799
 30
0.0
 10
10.2961368505
 20
8.9873615478
 30
0.0
 10
10.3073860978
 20
8.9705451205
 30
0.0
 10
10.3231236191
 20
8.9486525613
 30
0.0
 10
10.33934237
 20
8.9271336964
 30
0.0
 10
10.3605107369
 20
8.9009392827
 30
0.0
 10
10.3872876476
 20
8.8706907003
 30
0.0
 10
10.415379187
 20
8.8416818119
 30
0.0
 10
10.4447245014
 20
8.813960751
 30
0.0
 10
10.4752706622
 20
8.7875811667
 30
0.0
 10
10.5069691924
 20
8.7626032701
 30
0.0
 10
10.5397596543
 20
8.7390734162
 30
0.0
 10
10.5735785435
 20
8.7170324098
 30
0.0
 10
10.608363501
 20
8.6965221647
 30
0.0
 10
10.644051704
 20
8.6775845522
 30
0.0
 10
10.6805786823
 20
8.6602601166
 30
0.0
 10
10.7178788258
 20
8.6445900019
 30
0.0
 10
10.7558798805
 20
8.6306074726
 30
0.0
 10
10.7816229229
 20
8.622436153
 30
0.0
 10
10.7945846281
 20
8.6186432421
 30
0.0
  0
SPLINE
  5
305
100
AcDbEntity
  8
0
100
AcDbSpline
 62
9
  6
CONTINUOUS
 70
0
 71
3
 72
18
 73
14
 74
0
 42
0.0000001
 43
0.0000001
 44
0.0000000001
 40
0.0
 40
0.0
 40
0.0
 40
0.0
 40
0.0108939131
 40
0.0282121518
 40
0.0525505315
 40
0.0840583616
 40
0.1227499386
 40
0.1685951313
 40
0.2815315474
 40
0.4221882862
 40
0.5895910397
 40
0.7826398634
 40
1.0
 40
1.0
 40
1.0
 40
1.0
 10
12.9272675343
 20
9.3193812333
 30
0.0
 10
12.9272710294
 20
9.319367658
 30
0.0
 10
12.9272943424
 20
9.3193375823
 30
0.0
 10
12.9273461065
 20
9.3192948636
 30
0.0
 10
12.9274252341
 20
9.3192430719
 30
0.0
 10
12.9275312037
 20
9.3191834711
 30
0.0
 10
12.9276645617
 20
9.3191161133
 30
0.0
 10
12.9278951031
 20
9.3190092187
 30
0.0
 10
12.9282510689
 20
9.3188613307
 30
0.0
 10
12.9287586711
 20
9.3186718657
 30
0.0
 10
12.9293699344
 20
9.3184662264
 30
0.0
 10
12.9300815659
 20
9.3182504911
 30
0.0
 10
12.9305913683
 20
9.3181123151
 30
0.0
 10
12.9308623248
 20
9.3180429556
 30
0.0
  0
SPLINE
  5
306
100
AcDbEntity
  8
0
100
AcDbSpline
 62
9
  6
CONTINUOUS
 70
0
 71
3
 72
34
 73
30
 74
0
 42
0.0000001
 43
0.0000001
 44
0.0000000001
 40
0.0
 40
0.0
 40
0.0
 40
0.0
 40
0.0156296681
 40
0.0312761524
 40
0.0469124893
 40
0.0625445271
 40
0.0781871259
 40
0.0938239671
 40
0.1094590965
 40
0.1250908566
 40
0.1407234876
 40
0.1563566742
 40
0.1719857282
 40
0.1876154083
 40
0.2188658821
 40
0.2501173925
 40
0.2813665533
 40
0.3126156505
 40
0.3438640116
 40
0.3751118894
 40
0.4376006066
 40
0.5000900122
 40
0.5625793812
 40
0.6250688006
 40
0.6875585056
 40
0.750047857
 40
0.8125368537
 40
0.8750262653
 40
1.0
 40
1.0
 40
1.0
 40
1.0
 10
10.1272920225
 20
10.449795856
 30
0.0
 10
10.1262302875
 20
10.4497964426
 30
0.0
 10
10.1241033539
 20
10.4496493332
 30
0.0
 10
10.1209696072
 20
10.4490322041
 30
0.0
 10
10.1179290943
 20
10.448052937
 30
0.0
 10
10.1150220695
 20
10.4467319647
 30
0.0
 10
10.1122657428
 20
10.4451233941
 30
0.0
 10
10.1096598634
 20
10.4432826091
 30
0.0
 10
10.1072058625
 20
10.4412459442
 30
0.0
 10
10.1048987853
 20
10.4390455419
 30
0.0
 10
10.1027316108
 20
10.4367080539
 30
0.0
 10
10.1006940626
 20
10.434257543
 30
0.0
 10
10.0987756083
 20
10.4317132504
 30
0.0
 10
10.0963677133
 20
10.4282143808
 30
0.0
 10
10.0936131309
 20
10.4236718984
 30
0.0
 10
10.0906630443
 20
10.4180240087
 30
0.0
 10
10.0880172971
 20
10.4122282635
 30
0.0
 10
10.0856388132
 20
10.4063188086
 30
0.0
 10
10.0834950297
 20
10.4003207551
 30
0.0
 10
10.0809147143
 20
10.3922306126
 30
0.0
 10
10.0781535406
 20
10.3819773852
 30
0.0
 10
10.0754457479
 20
10.3695298397
 30
0.0
 10
10.0732431688
 20
10.3569839015
 30
0.0
 10
10.0714700089
 20
10.3443709701
 30
0.0
 10
10.0700678284
 20
10.3317119283
 30
0.0
 10
10.0689894731
 20
10.3190216181
 30
0.0
 10
10.0681973934
 20
10.306310444
 30
0.0
 10
10.0674830765
 20
10.2893452275
 30
0.0
 10
10.067292022
 20
10.2766090569
 30
0.0
 10
10.0672920225
 20
10.2681194967
 30
0.0
  0
SPLINE
  5
307
100
AcDbEntity
  8
0
100
AcDbSpline
 62
9
  6
CONTINUOUS
 70
0
 71
3
 72
24
 73
20
 74
0
 42
0.0000001
 43
0.0000001
 44
0.0000000001
 40
0.0
 40
0.0
 40
0.0
 40
0.0
 40
0.0626819215
 40
0.125305114
 40
0.1878741099
 40
0.2503950953
 40
0.3128763651
 40
0.3753263864
 40
0.4377547262
 40
0.5001705958
 40
0.5625828197
 40
0.6250006462
 40
0.6874319011
 40
0.7498827393
 40
0.8123598212
 40
0.8748685887
 40
0.9061379131
 40
0.9374166238
 40
1.0
 40
1.0
 40
1.0
 40
1.0
 10
11.2950519218
 20
8.618643176
 30
0.0
 10
11.3080135849
 20
8.6224361006
 30
0.0
 10
11.3337565378
 20
8.6306074587
 30
0.0
 10
11.3717574971
 20
8.6445899243
 30
0.0
 10
11.4090575718
 20
8.6602599249
 30
0.0
 10
11.4455844727
 20
8.6775842811
 30
0.0
 10
11.4812725939
 20
8.6965218293
 30
0.0
 10
11.5160574709
 20
8.717032009
 30
0.0
 10
11.5498762925
 20
8.7390729304
 30
0.0
 10
11.5826667079
 20
8.7626026713
 30
0.0
 10
11.614365192
 20
8.7875804571
 30
0.0
 10
11.6449112775
 20
8.8139599675
 30
0.0
 10
11.6742565315
 20
8.8416809399
 30
0.0
 10
11.7023480574
 20
8.8706896955
 30
0.0
 10
11.7291249491
 20
8.9009381532
 30
0.0
 10
11.750293294
 20
8.9271324681
 30
0.0
 10
11.7665120776
 20
8.9486512209
 30
0.0
 10
11.7822496666
 20
8.9705436487
 30
0.0
 10
11.7934989601
 20
8.9873599865
 30
0.0
 10
11.8007454507
 20
8.9987312802
 30
0.0
  0
SPLINE
  5
308
100
AcDbEntity
  8
0
100
AcDbSpline
 62
9
  6
CONTINUOUS
 70
0
 71
3
 72
27
 73
23
 74
0
 42
0.0000001
 43
0.0000001
 44
0.0000000001
 40
0.0
 40
0.0
 40
0.0
 40
0.0
 40
0.0624707521
 40
0.1248890463
 40
0.1872624397
 40
0.2496011234
 40
0.3119173651
 40
0.3430750972
 40
0.3742329648
 40
0.4365502136
 40
0.4988940698
 40
0.5612826077
 40
0.5925026054
 40
0.6237398368
 40
0.6862637522
 40
0.7488695975
 40
0.8115582295
 40
0.8429343882
 40
0.8743267396
 40
0.9057339276
 40
0.9371546534
 40
1.0
 40
1.0
 40
1.0
 40
1.0
 10
11.8007464117
 20
9.9693007578
 30
0.0
 10
11.7906752892
 20
9.9851048006
 30
0.0
 10
11.7695598262
 20
10.0160869211
 30
0.0
 10
11.7350514372
 20
10.0604583309
 30
0.0
 10
11.6978638508
 20
10.1025593637
 30
0.0
 10
11.6581577519
 20
10.1422476192
 30
0.0
 10
11.6230951078
 20
10.1732058992
 30
0.0
 10
11.5939365033
 20
10.1966152699
 30
0.0
 10
11.5640601339
 20
10.2191017495
 30
0.0
 10
11.5254120155
 20
10.2454521031
 30
0.0
 10
11.4771423401
 20
10.2741307717
 30
0.0
 10
11.4354802816
 20
10.2954863279
 30
0.0
 10
11.4013818124
 20
10.3109885743
 30
0.0
 10
11.3667762209
 20
10.3254288798
 30
0.0
 10
11.3226527071
 20
10.34144744
 30
0.0
 10
11.2685542846
 20
10.3573174373
 30
0.0
 10
11.2226753173
 20
10.3676728132
 30
0.0
 10
11.1856075023
 20
10.3742120412
 30
0.0
 10
11.1576399677
 20
10.378239321
 30
0.0
 10
11.1295452943
 20
10.3813798544
 30
0.0
 10
11.0919601192
 20
10.384373461
 30
0.0
 10
11.0636709153
 20
10.3852719971
 30
0.0
 10
11.0448183383
 20
10.3852720058
 30
0.0
  0
SPLINE
  5
309
100
AcDbEntity
  8
0
100
AcDbSpline
 62
9
  6
CONTINUOUS
 70
0
 71
3
 72
34
 73
30
 74
0
 42
0.0000001
 43
0.0000001
 44
0.0000000001
 40
0.0
 40
0.0
 40
0.0
 40
0.0
 40
0.1249744685
 40
0.1874642437
 40
0.2499536134
 40
0.3124433344
 40
0.3749334193
 40
0.4374232221
 40
0.49991298
 40
0.5624027899
 40
0.6248919427
 40
0.6561400171
 40
0.6873886218
 40
0.7186379939
 40
0.7498874587
 40
0.7811391057
 40
0.812390029
 40
0.8280201828
 40
0.843649285
 40
0.8749032081
 40
0.8905357907
 40
0.9061722064
 40
0.9218076316
 40
0.9374488028
 40
0.9530829612
 40
0.9609042103
 40
0.9687261438
 40
0.9843693853
 40
1.0
 40
1.0
 40
1.0
 40
1.0
 10
10.0672920225
 20
8.6999132417
 30
0.0
 10
10.0672920202
 20
8.6914236912
 30
0.0
 10
10.0674830522
 20
8.6786875353
 30
0.0
 10
10.068197332
 20
8.6617223365
 30
0.0
 10
10.0689893837
 20
8.6490111748
 30
0.0
 10
10.0700677347
 20
8.6363208773
 30
0.0
 10
10.0714698855
 20
8.6236618448
 30
0.0
 10
10.0732430324
 20
8.6110489223
 30
0.0
 10
10.0754456426
 20
8.598502999
 30
0.0
 10
10.0781534414
 20
8.5860554614
 30
0.0
 10
10.0809146227
 20
8.5758022392
 30
0.0
 10
10.0834949844
 20
8.5677121116
 30
0.0
 10
10.085638779
 20
8.561714058
 30
0.0
 10
10.0880173351
 20
8.5558046181
 30
0.0
 10
10.0906631721
 20
8.5500089134
 30
0.0
 10
10.0936137598
 20
8.5443612273
 30
0.0
 10
10.096368702
 20
8.5398190343
 30
0.0
 10
10.0987767961
 20
8.5363200414
 30
0.0
 10
10.1013341542
 20
8.5329289543
 30
0.0
 10
10.1041327162
 20
8.5297215532
 30
0.0
 10
10.107207345
 20
8.5267876948
 30
0.0
 10
10.1096601684
 20
8.5247494956
 30
0.0
 10
10.1122659916
 20
8.5229086046
 30
0.0
 10
10.1150241425
 20
8.521303566
 30
0.0
 10
10.1174471105
 20
8.5202024256
 30
0.0
 10
10.1194498119
 20
8.519489726
 30
0.0
 10
10.1214908969
 20
8.5188936166
 30
0.0
 10
10.1241035123
 20
8.5183799143
 30
0.0
 10
10.1262302305
 20
8.5182366368
 30
0.0
 10
10.1272920225
 20
8.518236864
 30
0.0
  0
SPLINE
  5
30A
100
AcDbEntity
  8
0
100
AcDbSpline
 62
9
  6
CONTINUOUS
 70
0
 71
3
 72
34
 73
30
 74
0
 42
0.0000001
 43
0.0000001
 44
0.0000000001
 40
0.0
 40
0.0
 40
0.0
 40
0.0
 40
0.1251027467
 40
0.2501546851
 40
0.3126621217
 40
0.3751557368
 40
0.437635302
 40
0.5001007169
 40
0.5625520313
 40
0.6249898738
 40
0.6562059188
 40
0.6874194927
 40
0.7186312002
 40
0.7498420749
 40
0.7810530173
 40
0.8122655963
 40
0.8434822997
 40
0.8747067634
 40
0.890328764
 40
0.8981425537
 40
0.9059595788
 40
0.9215955576
 40
0.9372444998
 40
0.9450762054
 40
0.9529169284
 40
0.9607605874
 40
0.9686073413
 40
0.984301389
 40
1.0
 40
1.0
 40
1.0
 40
1.0
 10
12.0023446541
 20
10.2681194928
 30
0.0
 10
12.0023446539
 20
10.275867977
 30
0.0
 10
12.0021961088
 20
10.2913622947
 30
0.0
 10
12.0015650947
 20
10.3107197045
 30
0.0
 10
12.0007274581
 20
10.3261851145
 30
0.0
 10
11.999910087
 20
10.3377688909
 30
0.0
 10
11.9988762061
 20
10.3493329148
 30
0.0
 10
11.9975904736
 20
10.3608693527
 30
0.0
 10
11.9960067715
 20
10.3723664042
 30
0.0
 10
11.9943870882
 20
10.3819007425
 30
0.0
 10
11.992867385
 20
10.3894844
 30
0.0
 10
11.9916003256
 20
10.3951447422
 30
0.0
 10
11.9901881811
 20
10.4007704844
 30
0.0
 10
11.9886082748
 20
10.4063515694
 30
0.0
 10
11.986830704
 20
10.4118733715
 30
0.0
 10
11.9848161761
 20
10.417314479
 30
0.0
 10
11.9825110365
 20
10.4226409189
 30
0.0
 10
11.9802836231
 20
10.4269390794
 30
0.0
 10
11.9785146511
 20
10.4298275587
 30
0.0
 10
11.9774325136
 20
10.4314328852
 30
0.0
 10
11.97630008
 20
10.4330041841
 30
0.0
 10
11.9747798092
 20
10.4348925225
 30
0.0
 10
11.9730984847
 20
10.4366431791
 30
0.0
 10
11.9716401797
 20
10.4379241816
 30
0.0
 10
11.9704862203
 20
10.4388146887
 30
0.0
 10
11.9692691081
 20
10.439619387
 30
0.0
 10
11.9675613917
 20
10.440552022
 30
0.0
 10
11.9652683438
 20
10.4414095764
 30
0.0
 10
11.9633169784
 20
10.4416599587
 30
0.0
 10
11.9623446541
 20
10.4416599693
 30
0.0
  0
SPLINE
  5
30B
100
AcDbEntity
  8
0
100
AcDbSpline
 62
9
  6
CONTINUOUS
 70
0
 71
3
 72
18
 73
14
 74
0
 42
0.0000001
 43
0.0000001
 44
0.0000000001
 40
0.0
 40
0.0
 40
0.0
 40
0.0
 40
0.0108967665
 40
0.0282198445
 40
0.0525630312
 40
0.084074015
 40
0.122766718
 40
0.1686107355
 40
0.2815366681
 40
0.4221770852
 40
0.5895718487
 40
0.7826279415
 40
1.0
 40
1.0
 40
1.0
 40
1.0
 10
13.4123691404
 20
9.6486514067
 30
0.0
 10
13.4123656448
 20
9.6486649855
 30
0.0
 10
13.4123423229
 20
9.6486950676
 30
0.0
 10
13.4122905459
 20
9.6487377932
 30
0.0
 10
13.4122114017
 20
9.648789588
 30
0.0
 10
13.4121054178
 20
9.6488491833
 30
0.0
 10
13.4119720523
 20
9.6489165303
 30
0.0
 10
13.41174152
 20
9.649023403
 30
0.0
 10
13.4113855947
 20
9.6491712785
 30
0.0
 10
13.4108780542
 20
9.6493607579
 30
0.0
 10
13.4102668284
 20
9.6495664108
 30
0.0
 10
13.4095551943
 20
9.6497821501
 30
0.0
 10
13.4090453753
 20
9.6499203295
 30
0.0
 10
13.4087744079
 20
9.6499896914
 30
0.0
  0
SPLINE
  5
30C
100
AcDbEntity
  8
0
100
AcDbSpline
 62
9
  6
CONTINUOUS
 70
0
 71
3
 72
18
 73
14
 74
0
 42
0.0000001
 43
0.0000001
 44
0.0000000001
 40
0.0
 40
0.0
 40
0.0
 40
0.0
 40
0.0108939131
 40
0.0282121518
 40
0.0525505315
 40
0.0840583616
 40
0.1227499386
 40
0.1685951313
 40
0.2815315474
 40
0.4221882862
 40
0.5895910397
 40
0.7826398634
 40
1.0
 40
1.0
 40
1.0
 40
1.0
 10
9.1673691422
 20
9.6486514189
 30
0.0
 10
9.1673656472
 20
9.6486649942
 30
0.0
 10
9.1673423342
 20
9.6486950699
 30
0.0
 10
9.1672905701
 20
9.6487377886
 30
0.0
 10
9.1672114424
 20
9.6487895803
 30
0.0
 10
9.1671054728
 20
9.6488491811
 30
0.0
 10
9.1669721149
 20
9.6489165389
 30
0.0
 10
9.1667415735
 20
9.6490234335
 30
0.0
 10
9.1663856076
 20
9.6491713215
 30
0.0
 10
9.1658780054
 20
9.6493607866
 30
0.0
 10
9.1652667422
 20
9.6495664258
 30
0.0
 10
9.1645551107
 20
9.6497821611
 30
0.0
 10
9.1640453083
 20
9.6499203371
 30
0.0
 10
9.1637743518
 20
9.6499896966
 30
0.0
  0
SPLINE
  5
30D
100
AcDbEntity
  8
0
100
AcDbSpline
 62
9
  6
CONTINUOUS
 70
0
 71
3
 72
34
 73
30
 74
0
 42
0.0000001
 43
0.0000001
 44
0.0000000001
 40
0.0
 40
0.0
 40
0.0
 40
0.0
 40
0.0156997977
 40
0.031395104
 40
0.0392418127
 40
0.0470850757
 40
0.0549266895
 40
0.0627590501
 40
0.0784075146
 40
0.0940429222
 40
0.1018601006
 40
0.1096741902
 40
0.1252960572
 40
0.1565200743
 40
0.1877366612
 40
0.2189492099
 40
0.250160107
 40
0.2813707918
 40
0.3125823839
 40
0.3437959025
 40
0.3750118701
 40
0.437449481
 40
0.4999006211
 40
0.5623658539
 40
0.6248452868
 40
0.6873387371
 40
0.7498459927
 40
0.8748975824
 40
1.0
 40
1.0
 40
1.0
 40
1.0
 10
11.962344654
 20
8.5263725976
 30
0.0
 10
11.9633170514
 20
8.5263725838
 30
0.0
 10
11.9652682709
 20
8.5266249538
 30
0.0
 10
11.9675618777
 20
8.5274808825
 30
0.0
 10
11.9692698333
 20
8.5284133111
 30
0.0
 10
11.9704867676
 20
8.529218336
 30
0.0
 10
11.971640498
 20
8.5301092403
 30
0.0
 10
11.9730991615
 20
8.5313899039
 30
0.0
 10
11.9747810895
 20
8.5331399963
 30
0.0
 10
11.9763006802
 20
8.5350288458
 30
0.0
 10
11.9774326619
 20
8.5366004519
 30
0.0
 10
11.9785147957
 20
8.5382057949
 30
0.0
 10
11.9802847945
 20
8.5410936273
 30
0.0
 10
11.982511307
 20
8.5453922713
 30
0.0
 10
11.9848161265
 20
8.5507187589
 30
0.0
 10
11.986830987
 20
8.5561597334
 30
0.0
 10
11.9886085543
 20
8.5616815211
 30
0.0
 10
11.9901882847
 20
8.56726263
 30
0.0
 10
11.9916004424
 20
8.5728883419
 30
0.0
 10
11.9928674945
 20
8.5785486679
 30
0.0
 10
11.9943871902
 20
8.5861323004
 30
0.0
 10
11.996006822
 20
8.5956666133
 30
0.0
 10
11.9975904776
 20
8.6071636288
 30
0.0
 10
11.9988762112
 20
8.6187000307
 30
0.0
 10
11.9999101251
 20
8.6302640168
 30
0.0
 10
12.0007274795
 20
8.6418477598
 30
0.0
 10
12.0015650994
 20
8.6573131207
 30
0.0
 10
12.0021961094
 20
8.6766704689
 30
0.0
 10
12.0023446545
 20
8.6921647378
 30
0.0
 10
12.0023446541
 20
8.6999131983
 30
0.0
  0
SPLINE
  5
30E
100
AcDbEntity
  8
0
100
AcDbSpline
 62
9
  6
CONTINUOUS
 70
0
 71
3
 72
34
 73
30
 74
0
 42
0.0000001
 43
0.0000001
 44
0.0000000001
 40
0.0
 40
0.0
 40
0.0
 40
0.0
 40
0.1251027486
 40
0.2501546792
 40
0.3126621132
 40
0.3751557238
 40
0.4376352934
 40
0.5001006937
 40
0.5625520193
 40
0.6249898558
 40
0.6562058896
 40
0.6874194622
 40
0.7186311795
 40
0.7498420691
 40
0.7810530084
 40
0.8122655555
 40
0.843482229
 40
0.8747067256
 40
0.89032876
 40
0.8981425668
 40
0.9059596022
 40
0.9215955867
 40
0.9372445278
 40
0.9450762293
 40
0.9529169481
 40
0.9607606016
 40
0.9686073513
 40
0.984301392
 40
1.0
 40
1.0
 40
1.0
 40
1.0
 10
10.0872920225
 20
8.6999132405
 30
0.0
 10
10.0872920218
 20
8.6921647647
 30
0.0
 10
10.0874405611
 20
8.6766704643
 30
0.0
 10
10.0880715838
 20
8.6573130765
 30
0.0
 10
10.0889092136
 20
8.6418476843
 30
0.0
 10
10.089726567
 20
8.6302639194
 30
0.0
 10
10.0907604748
 20
8.6186999117
 30
0.0
 10
10.0920461852
 20
8.6071634845
 30
0.0
 10
10.0936298712
 20
8.5956664438
 30
0.0
 10
10.0952495742
 20
8.58613212
 30
0.0
 10
10.0967692693
 20
8.5785484709
 30
0.0
 10
10.0980362994
 20
8.5728881291
 30
0.0
 10
10.0994484056
 20
8.567262382
 30
0.0
 10
10.1010283521
 20
8.5616813127
 30
0.0
 10
10.1028059796
 20
8.5561595373
 30
0.0
 10
10.104820466
 20
8.5507184284
 30
0.0
 10
10.1071254259
 20
8.5453919214
 30
0.0
 10
10.1093527814
 20
8.5410937267
 30
0.0
 10
10.1111218419
 20
8.5382052983
 30
0.0
 10
10.1122040357
 20
8.5366000079
 30
0.0
 10
10.1133365227
 20
8.5350287475
 30
0.0
 10
10.1148568514
 20
8.5331404587
 30
0.0
 10
10.1165382088
 20
8.5313898386
 30
0.0
 10
10.1179965307
 20
8.5301088595
 30
0.0
 10
10.1191504989
 20
8.529218368
 30
0.0
 10
10.1203676147
 20
8.5284136804
 30
0.0
 10
10.1220753253
 20
8.5274810418
 30
0.0
 10
10.1243683428
 20
8.5266234373
 30
0.0
 10
10.1263196994
 20
8.5263729679
 30
0.0
 10
10.1272920225
 20
8.5263729534
 30
0.0
  0
SPLINE
  5
30F
100
AcDbEntity
  8
0
100
AcDbSpline
 62
9
  6
CONTINUOUS
 70
0
 71
3
 72
34
 73
30
 74
0
 42
0.0000001
 43
0.0000001
 44
0.0000000001
 40
0.0
 40
0.0
 40
0.0
 40
0.0
 40
0.0156997973
 40
0.0313951031
 40
0.0392418138
 40
0.0470850782
 40
0.0549266928
 40
0.0627590552
 40
0.0784075379
 40
0.0940429756
 40
0.1018601643
 40
0.1096742614
 40
0.1252961373
 40
0.1565201186
 40
0.1877366815
 40
0.218949224
 40
0.250160145
 40
0.2813708507
 40
0.3125824199
 40
0.3437959198
 40
0.3750118859
 40
0.4374495202
 40
0.499900633
 40
0.5623658796
 40
0.6248452988
 40
0.687338751
 40
0.7498460069
 40
0.8748975888
 40
1.0
 40
1.0
 40
1.0
 40
1.0
 10
10.1272920225
 20
10.4416598104
 30
0.0
 10
10.126319626
 20
10.4416598241
 30
0.0
 10
10.1243684093
 20
10.4414074503
 30
0.0
 10
10.1220748003
 20
10.4405515404
 30
0.0
 10
10.1203668307
 20
10.4396191414
 30
0.0
 10
10.1191498803
 20
10.4388141429
 30
0.0
 10
10.1179961308
 20
10.4379232651
 30
0.0
 10
10.1165374399
 20
10.4366426334
 30
0.0
 10
10.1148554715
 20
10.4348925792
 30
0.0
 10
10.1133358282
 20
10.4330037694
 30
0.0
 10
10.1122038269
 20
10.4314321756
 30
0.0
 10
10.111121699
 20
10.4298268284
 30
0.0
 10
10.1093517631
 20
10.4269389608
 30
0.0
 10
10.1071253953
 20
10.4226402523
 30
0.0
 10
10.1048205785
 20
10.4173137776
 30
0.0
 10
10.1028056611
 20
10.4118728299
 30
0.0
 10
10.1010280587
 20
10.406351056
 30
0.0
 10
10.099448334
 20
10.4007699488
 30
0.0
 10
10.0980362371
 20
10.3951442282
 30
0.0
 10
10.0967691895
 20
10.3894839099
 30
0.0
 10
10.0952494492
 20
10.3819002931
 30
0.0
 10
10.093629848
 20
10.3723659836
 30
0.0
 10
10.0920461869
 20
10.3608689791
 30
0.0
 10
10.090760464
 20
10.3493325881
 30
0.0
 10
10.0897265404
 20
10.3377686133
 30
0.0
 10
10.0889091944
 20
10.3261848808
 30
0.0
 10
10.0880715771
 20
10.3107195341
 30
0.0
 10
10.0874405665
 20
10.2913622042
 30
0.0
 10
10.0872920223
 20
10.2758679501
 30
0.0
 10
10.0872920225
 20
10.2681194969
 30
0.0
  0
SPLINE
  5
310
100
AcDbEntity
  8
0
100
AcDbSpline
 62
9
  6
CONTINUOUS
 70
0
 71
3
 72
18
 73
14
 74
0
 42
0.0000001
 43
0.0000001
 44
0.0000000001
 40
0.0
 40
0.0
 40
0.0
 40
0.0
 40
0.0108967665
 40
0.0282198445
 40
0.0525630312
 40
0.084074015
 40
0.122766718
 40
0.1686107355
 40
0.2815366681
 40
0.4221770852
 40
0.5895718487
 40
0.7826279415
 40
1.0
 40
1.0
 40
1.0
 40
1.0
 10
8.6822675362
 20
9.3193812455
 30
0.0
 10
8.6822710318
 20
9.3193676667
 30
0.0
 10
8.6822943536
 20
9.3193375846
 30
0.0
 10
8.6823461307
 20
9.319294859
 30
0.0
 10
8.6824252749
 20
9.3192430642
 30
0.0
 10
8.6825312588
 20
9.3191834689
 30
0.0
 10
8.6826646242
 20
9.319116122
 30
0.0
 10
8.6828951566
 20
9.3190092492
 30
0.0
 10
8.6832510819
 20
9.3188613737
 30
0.0
 10
8.6837586224
 20
9.3186718943
 30
0.0
 10
8.6843698482
 20
9.3184662414
 30
0.0
 10
8.6850814823
 20
9.3182505021
 30
0.0
 10
8.6855913012
 20
9.3181123227
 30
0.0
 10
8.6858622687
 20
9.3180429608
 30
0.0
  0
SPLINE
  5
311
100
AcDbEntity
  8
0
100
AcDbSpline
 62
7
  6
CONTINUOUS
 70
0
 71
3
 72
23
 73
19
 74
0
 42
0.0000001
 43
0.0000001
 44
0.0000000001
 40
0.0
 40
0.0
 40
0.0
 40
0.0
 40
0.0644190997
 40
0.1287648207
 40
0.1929698107
 40
0.256968282
 40
0.3207033396
 40
0.3841271814
 40
0.4472034251
 40
0.5099085553
 40
0.5722330284
 40
0.6341818863
 40
0.6957748238
 40
0.7570456723
 40
0.8180412704
 40
0.8788197326
 40
0.9394481771
 40
1.0
 40
1.0
 40
1.0
 40
1.0
 10
11.0448183383
 20
4.6556312781
 30
0.0
 10
11.0366414758
 20
4.6556312781
 30
0.0
 10
11.0202870129
 20
4.6563856189
 30
0.0
 10
10.9959943362
 20
4.6597702003
 30
0.0
 10
10.972168402
 20
4.6653750135
 30
0.0
 10
10.9490407103
 20
4.6731467717
 30
0.0
 10
10.9268329231
 20
4.6830110848
 30
0.0
 10
10.905758838
 20
4.6948737286
 30
0.0
 10
10.886021294
 20
4.7086211906
 30
0.0
 10
10.8678105255
 20
4.7241218256
 30
0.0
 10
10.8513022773
 20
4.741227064
 30
0.0
 10
10.836656119
 20
4.7597727755
 30
0.0
 10
10.8240138768
 20
4.7795807585
 30
0.0
 10
10.8134981826
 20
4.8004604815
 30
0.0
 10
10.8052111762
 20
4.8222104924
 30
0.0
 10
10.7992334917
 20
4.8446218216
 30
0.0
 10
10.7956233802
 20
4.8674746889
 30
0.0
 10
10.7948183383
 20
4.882868453
 30
0.0
 10
10.7948183383
 20
4.8905544333
 30
0.0
  0
SPLINE
  5
312
100
AcDbEntity
  8
0
100
AcDbSpline
 62
9
  6
CONTINUOUS
 70
0
 71
3
 72
23
 73
19
 74
0
 42
0.0000001
 43
0.0000001
 44
0.0000000001
 40
0.0
 40
0.0
 40
0.0
 40
0.0
 40
0.0644190799
 40
0.1287648112
 40
0.19296982
 40
0.2569682764
 40
0.3207033379
 40
0.3841271809
 40
0.4472034284
 40
0.509908559
 40
0.5722330288
 40
0.6341818823
 40
0.695774819
 40
0.7570456713
 40
0.8180412732
 40
0.8788197363
 40
0.9394481794
 40
1.0
 40
1.0
 40
1.0
 40
1.0
 10
11.0448183383
 20
4.8847847741
 30
0.0
 10
11.0366414783
 20
4.8847847741
 30
0.0
 10
11.0202870168
 20
4.8855391132
 30
0.0
 10
10.995994339
 20
4.8889236943
 30
0.0
 10
10.9721684034
 20
4.8945285102
 30
0.0
 10
10.9490407151
 20
4.9023002812
 30
0.0
 10
10.9268329311
 20
4.9121645963
 30
0.0
 10
10.9057588349
 20
4.9240272215
 30
0.0
 10
10.8860212797
 20
4.9377746693
 30
0.0
 10
10.8678105167
 20
4.9532753118
 30
0.0
 10
10.8513022848
 20
4.9703805647
 30
0.0
 10
10.8366561449
 20
4.9889262887
 30
0.0
 10
10.8240138992
 20
5.0087342675
 30
0.0
 10
10.81349817
 20
5.0296139732
 30
0.0
 10
10.8052111419
 20
5.0513639782
 30
0.0
 10
10.7992334753
 20
5.0737753136
 30
0.0
 10
10.7956233984
 20
5.0966281859
 30
0.0
 10
10.7948183722
 20
5.1120219494
 30
0.0
 10
10.7948183722
 20
5.1197079293
 30
0.0
  0
SPLINE
  5
313
100
AcDbEntity
  8
0
100
AcDbSpline
 62
9
  6
CONTINUOUS
 70
0
 71
3
 72
45
 73
41
 74
0
 42
0.0000001
 43
0.0000001
 44
0.0000000001
 40
0.0
 40
0.0
 40
0.0
 40
0.0
 40
0.0302505319
 40
0.0605644531
 40
0.0757594363
 40
0.0909815938
 40
0.1062342289
 40
0.1215203647
 40
0.1521948199
 40
0.1830316552
 40
0.214042707
 40
0.2452336362
 40
0.260900772
 40
0.2766121345
 40
0.3081548617
 40
0.3398575557
 40
0.3717023483
 40
0.4036667209
 40
0.4357242899
 40
0.4678456884
 40
0.4999995196
 40
0.532153359
 40
0.5642747816
 40
0.59633239
 40
0.6282968158
 40
0.6601416741
 40
0.6918444437
 40
0.7233872543
 40
0.7390986605
 40
0.7547658407
 40
0.78595686
 40
0.8169680006
 40
0.8478049203
 40
0.8784794525
 40
0.8937656231
 40
0.9090182902
 40
0.9242404765
 40
0.939435485
 40
0.9697494458
 40
1.0
 40
1.0
 40
1.0
 40
1.0
 10
11.3580622395
 20
4.7334266184
 30
0.0
 10
11.3572783481
 20
4.7242846994
 30
0.0
 10
11.354799592
 20
4.7060475822
 30
0.0
 10
11.3494642862
 20
4.6836568145
 30
0.0
 10
11.3438863995
 20
4.6660943393
 30
0.0
 10
11.3390503307
 20
4.6531075125
 30
0.0
 10
11.333576053
 20
4.6403464569
 30
0.0
 10
11.325434102
 20
4.6236532387
 30
0.0
 10
11.3137112629
 20
4.6034787497
 30
0.0
 10
11.2973323794
 20
4.5806395707
 30
0.0
 10
11.2787657313
 20
4.559332848
 30
0.0
 10
11.2616257411
 20
4.5430288785
 30
0.0
 10
11.2469981155
 20
4.5309281994
 30
0.0
 10
11.231744482
 20
4.5194483455
 30
0.0
 10
11.2116359042
 20
4.5063748092
 30
0.0
 10
11.1860992362
 20
4.492885641
 30
0.0
 10
11.159339278
 20
4.4816862831
 30
0.0
 10
11.1315889669
 20
4.4728741202
 30
0.0
 10
11.1030881372
 20
4.4665247444
 30
0.0
 10
11.0740834241
 20
4.4626928708
 30
0.0
 10
11.0448256428
 20
4.4614114672
 30
0.0
 10
11.0155677984
 20
4.4626915944
 30
0.0
 10
10.9865628963
 20
4.4665222029
 30
0.0
 10
10.9580617535
 20
4.4728703353
 30
0.0
 10
10.9303110077
 20
4.4816812875
 30
0.0
 10
10.9035504971
 20
4.4928794775
 30
0.0
 10
10.8780131635
 20
4.506367531
 30
0.0
 10
10.8579039415
 20
4.5194401886
 30
0.0
 10
10.8426497417
 20
4.5309193763
 30
0.0
 10
10.8280215179
 20
4.543019417
 30
0.0
 10
10.8108807226
 20
4.5593226379
 30
0.0
 10
10.7923130223
 20
4.5806285492
 30
0.0
 10
10.7759330106
 20
4.603467012
 30
0.0
 10
10.7642091737
 20
4.6236409897
 30
0.0
 10
10.7560663973
 20
4.6403338537
 30
0.0
 10
10.7505914887
 20
4.6530946702
 30
0.0
 10
10.7457547781
 20
4.6660812858
 30
0.0
 10
10.740176024
 20
4.6836435153
 30
0.0
 10
10.7348396119
 20
4.7060340464
 30
0.0
 10
10.7323599534
 20
4.7242710597
 30
0.0
 10
10.7315756098
 20
4.7334129468
 30
0.0
  0
SPLINE
  5
314
100
AcDbEntity
  8
0
100
AcDbSpline
 62
9
  6
CONTINUOUS
 70
0
 71
3
 72
45
 73
41
 74
0
 42
0.0000001
 43
0.0000001
 44
0.0000000001
 40
0.0
 40
0.0
 40
0.0
 40
0.0
 40
0.0151189506
 40
0.0302572039
 40
0.0454179287
 40
0.0606042198
 40
0.0910567771
 40
0.12164228
 40
0.1369936622
 40
0.1523837169
 40
0.1832770034
 40
0.2143356623
 40
0.2455607627
 40
0.2769484554
 40
0.3084901605
 40
0.3401728831
 40
0.3719796414
 40
0.4038899894
 40
0.4358806175
 40
0.4679260158
 40
0.4999991822
 40
0.5320723608
 40
0.5641177954
 40
0.596108483
 40
0.6280189119
 40
0.6598257706
 40
0.6915086099
 40
0.723050445
 40
0.7544382772
 40
0.7856635227
 40
0.8167223279
 40
0.8476157574
 40
0.8630058812
 40
0.8783573299
 40
0.9089429569
 40
0.9393956228
 40
0.9545819613
 40
0.9697427283
 40
0.9848810182
 40
1.0
 40
1.0
 40
1.0
 40
1.0
 10
11.345268564
 20
4.7096282899
 30
0.0
 10
11.3444341863
 20
4.7055677724
 30
0.0
 10
11.3425784748
 20
4.6974784713
 30
0.0
 10
11.3392427167
 20
4.6854765536
 30
0.0
 10
11.33535937
 20
4.6736205319
 30
0.0
 10
11.3294565952
 20
4.6580253034
 30
0.0
 10
11.3207393038
 20
4.6389975364
 30
0.0
 10
11.3103321781
 20
4.6207875782
 30
0.0
 10
11.3010351242
 20
4.60677105
 30
0.0
 10
11.2910790931
 20
4.5931101479
 30
0.0
 10
11.2774680229
 20
4.5768106003
 30
0.0
 10
11.2594303028
 20
4.5586748221
 30
0.0
 10
11.2397980625
 20
4.5420670573
 30
0.0
 10
11.2187182064
 20
4.5271113644
 30
0.0
 10
11.1963473734
 20
4.5139181625
 30
0.0
 10
11.1728519228
 20
4.5025851217
 30
0.0
 10
11.1484063922
 20
4.4931960147
 30
0.0
 10
11.1231922981
 20
4.48582024
 30
0.0
 10
11.0973967804
 20
4.4805122929
 30
0.0
 10
11.0712112376
 20
4.4773113838
 30
0.0
 10
11.0448299225
 20
4.4762411545
 30
0.0
 10
11.0184485216
 20
4.4773095092
 30
0.0
 10
10.9922627216
 20
4.4805085575
 30
0.0
 10
10.9664667775
 20
4.4858146714
 30
0.0
 10
10.9412520906
 20
4.493188654
 30
0.0
 10
10.9168058055
 20
4.5025760234
 30
0.0
 10
10.8933094439
 20
4.5139073937
 30
0.0
 10
10.8709375503
 20
4.5270990048
 30
0.0
 10
10.8498564916
 20
4.5420531982
 30
0.0
 10
10.8302229157
 20
4.5586595663
 30
0.0
 10
10.8121837369
 20
4.5767940609
 30
0.0
 10
10.7985713545
 20
4.5930926402
 30
0.0
 10
10.7886142236
 20
4.6067528352
 30
0.0
 10
10.7793160419
 20
4.6207687006
 30
0.0
 10
10.7689074518
 20
4.6389779159
 30
0.0
 10
10.7601886272
 20
4.6580050645
 30
0.0
 10
10.754284596
 20
4.6735998755
 30
0.0
 10
10.7504002949
 20
4.6854556208
 30
0.0
 10
10.7470635702
 20
4.6974573012
 30
0.0
 10
10.7452072071
 20
4.7055464718
 30
0.0
 10
10.7443725025
 20
4.7096069308
 30
0.0
  0
SPLINE
  5
315
100
AcDbEntity
  8
0
100
AcDbSpline
 62
9
  6
CONTINUOUS
 70
0
 71
3
 72
29
 73
25
 74
0
 42
0.0000001
 43
0.0000001
 44
0.0000000001
 40
0.0
 40
0.0
 40
0.0
 40
0.0
 40
0.0305870649
 40
0.0612806173
 40
0.0920808817
 40
0.1229867676
 40
0.1539958921
 40
0.1851045928
 40
0.2475773678
 40
0.3103762793
 40
0.3734339584
 40
0.4366710346
 40
0.4999999106
 40
0.5633287902
 40
0.626565877
 40
0.6896235733
 40
0.7524225077
 40
0.8148953103
 40
0.8460040262
 40
0.8770131664
 40
0.9079190686
 40
0.9387193496
 40
0.9694129186
 40
1.0
 40
1.0
 40
1.0
 40
1.0
 10
11.2662962597
 20
4.6205446969
 30
0.0
 10
11.2629791675
 20
4.6166592681
 30
0.0
 10
11.256111333
 20
4.6090614554
 30
0.0
 10
11.2451681758
 20
4.5982439432
 30
0.0
 10
11.2335986275
 20
4.5880178783
 30
0.0
 10
11.2214394751
 20
4.5784156901
 30
0.0
 10
11.2087280471
 20
4.5694670455
 30
0.0
 10
11.1910757975
 20
4.5584310112
 30
0.0
 10
11.1678243755
 20
4.5464102974
 30
0.0
 10
11.138439757
 20
4.535022776
 30
0.0
 10
11.1078878379
 20
4.5267858157
 30
0.0
 10
11.0765512464
 20
4.5218026921
 30
0.0
 10
11.0448195752
 20
4.5201347229
 30
0.0
 10
11.0130878885
 20
4.5218024329
 30
0.0
 10
10.981751251
 20
4.5267853004
 30
0.0
 10
10.9511992559
 20
4.5350220111
 30
0.0
 10
10.9218145323
 20
4.5464092922
 30
0.0
 10
10.8985629996
 20
4.5584298157
 30
0.0
 10
10.8809106481
 20
4.5694657055
 30
0.0
 10
10.8681991374
 20
4.5784142462
 30
0.0
 10
10.8560398961
 20
4.588016335
 30
0.0
 10
10.8444702531
 20
4.5982423052
 30
0.0
 10
10.8335269958
 20
4.6090597279
 30
0.0
 10
10.8266590909
 20
4.6166574845
 30
0.0
 10
10.8233419628
 20
4.6205428861
 30
0.0
  0
SPLINE
  5
316
100
AcDbEntity
  8
0
100
AcDbSpline
 62
9
  6
CONTINUOUS
 70
0
 71
3
 72
39
 73
35
 74
0
 42
0.0000001
 43
0.0000001
 44
0.0000000001
 40
0.0
 40
0.0
 40
0.0
 40
0.0
 40
0.0302721677
 40
0.0605853705
 40
0.0909768146
 40
0.1214788794
 40
0.1521197832
 40
0.1829221094
 40
0.2139020236
 40
0.2450687503
 40
0.276424331
 40
0.3079636819
 40
0.3396749077
 40
0.3715398413
 40
0.4035347901
 40
0.4356314527
 40
0.4677979579
 40
0.5
 40
0.5322020421
 40
0.5643685473
 40
0.5964652099
 40
0.6284601587
 40
0.6603250923
 40
0.6920363181
 40
0.723575669
 40
0.7549312497
 40
0.7860979764
 40
0.8170778906
 40
0.8478802168
 40
0.8785211206
 40
0.9090231854
 40
0.9394146295
 40
0.9697278323
 40
1.0
 40
1.0
 40
1.0
 40
1.0
 10
11.3902966572
 20
4.8738057703
 30
0.0
 10
11.3901708404
 20
4.8632591995
 30
0.0
 10
11.388821651
 20
4.8421485385
 30
0.0
 10
11.3835292166
 20
4.8108410881
 30
0.0
 10
11.3750179266
 20
4.7801651836
 30
0.0
 10
11.3633694831
 20
4.7504170515
 30
0.0
 10
11.3486956666
 20
4.7218784752
 30
0.0
 10
11.33113702
 20
4.6948207939
 30
0.0
 10
11.3108613386
 20
4.6695005695
 30
0.0
 10
11.2880620659
 20
4.6461576908
 30
0.0
 10
11.2629564802
 20
4.6250128982
 30
0.0
 10
11.2357834067
 20
4.6062659617
 30
0.0
 10
11.2068009618
 20
4.5900938932
 30
0.0
 10
11.176284205
 20
4.5766492164
 30
0.0
 10
11.1445225183
 20
4.5660585813
 30
0.0
 10
11.1118168388
 20
4.5584217646
 30
0.0
 10
11.0784768916
 20
4.5538107688
 30
0.0
 10
11.0448183383
 20
4.5522689455
 30
0.0
 10
11.011159785
 20
4.5538107688
 30
0.0
 10
10.9778198378
 20
4.5584217646
 30
0.0
 10
10.9451141583
 20
4.5660585813
 30
0.0
 10
10.9133524716
 20
4.5766492164
 30
0.0
 10
10.8828357148
 20
4.5900938932
 30
0.0
 10
10.8538532699
 20
4.6062659617
 30
0.0
 10
10.8266801964
 20
4.6250128982
 30
0.0
 10
10.8015746107
 20
4.6461576908
 30
0.0
 10
10.778775338
 20
4.6695005695
 30
0.0
 10
10.7584996566
 20
4.6948207939
 30
0.0
 10
10.74094101
 20
4.7218784752
 30
0.0
 10
10.7262671935
 20
4.7504170515
 30
0.0
 10
10.71461875
 20
4.7801651836
 30
0.0
 10
10.70610746
 20
4.8108410881
 30
0.0
 10
10.7008150256
 20
4.8421485385
 30
0.0
 10
10.6994658362
 20
4.8632591995
 30
0.0
 10
10.6993400194
 20
4.8738057703
 30
0.0
  0
SPLINE
  5
317
100
AcDbEntity
  8
0
100
AcDbSpline
 62
9
  6
CONTINUOUS
 70
0
 71
3
 72
21
 73
17
 74
0
 42
0.0000001
 43
0.0000001
 44
0.0000000001
 40
0.0
 40
0.0
 40
0.0
 40
0.0
 40
0.1729091811
 40
0.3357629424
 40
0.4124461465
 40
0.4854924004
 40
0.5546226291
 40
0.6196194174
 40
0.6803389154
 40
0.7367341805
 40
0.7888719033
 40
0.8369659921
 40
0.8814081487
 40
0.9228006049
 40
0.9619869527
 40
1.0
 40
1.0
 40
1.0
 40
1.0
 10
9.1447036113
 20
9.3188508569
 30
0.0
 10
9.1445048065
 20
9.3169563108
 30
0.0
 10
9.1439901572
 20
9.3132893686
 30
0.0
 10
9.1430083894
 20
9.3088467766
 30
0.0
 10
9.1420344867
 20
9.3055423699
 30
0.0
 10
9.1412380267
 20
9.3032653388
 30
0.0
 10
9.1403663248
 20
9.3011545263
 30
0.0
 10
9.1394249782
 20
9.299223573
 30
0.0
 10
9.1384198832
 20
9.2974849579
 30
0.0
 10
9.1373573825
 20
9.2959497346
 30
0.0
 10
9.1362436649
 20
9.2946277637
 30
0.0
 10
9.1350849472
 20
9.2935277081
 30
0.0
 10
9.1338875047
 20
9.2926572581
 30
0.0
 10
9.1326573407
 20
9.292023896
 30
0.0
 10
9.1314026846
 20
9.2916349536
 30
0.0
 10
9.1305508186
 20
9.2915421177
 30
0.0
 10
9.1301320463
 20
9.2915381117
 30
0.0
  0
SPLINE
  5
318
100
AcDbEntity
  8
0
100
AcDbSpline
 62
9
  6
CONTINUOUS
 70
0
 71
3
 72
11
 73
7
 74
0
 42
0.0000001
 43
0.0000001
 44
0.0000000001
 40
0.0
 40
0.0
 40
0.0
 40
0.0
 40
0.2891840486
 40
0.5548858375
 40
0.7928992624
 40
1.0
 40
1.0
 40
1.0
 40
1.0
 10
9.1447036113
 20
9.3188508569
 30
0.0
 10
9.146126445
 20
9.3188639582
 30
0.0
 10
9.1488574863
 20
9.3188345243
 30
0.0
 10
9.1527544627
 20
9.3186270653
 30
0.0
 10
9.1562373484
 20
9.3182992217
 30
0.0
 10
9.1584107864
 20
9.3180279666
 30
0.0
 10
9.1594211003
 20
9.317895098
 30
0.0
  0
SPLINE
  5
319
100
AcDbEntity
  8
0
100
AcDbSpline
 62
9
  6
CONTINUOUS
 70
0
 71
3
 72
10
 73
6
 74
0
 42
0.0000001
 43
0.0000001
 44
0.0000000001
 40
0.0
 40
0.0
 40
0.0
 40
0.0
 40
0.2764690437
 40
0.5346541036
 40
1.0
 40
1.0
 40
1.0
 40
1.0
 10
9.1594211003
 20
9.317895098
 30
0.0
 10
9.1598210795
 20
9.3178424852
 30
0.0
 10
9.1605987898
 20
9.3177674669
 30
0.0
 10
9.1620581902
 20
9.3177462423
 30
0.0
 10
9.1631170233
 20
9.3178744546
 30
0.0
 10
9.1637748163
 20
9.3180429665
 30
0.0
  0
SPLINE
  5
31A
100
AcDbEntity
  8
0
100
AcDbSpline
 62
9
  6
CONTINUOUS
 70
0
 71
3
 72
18
 73
14
 74
0
 42
0.0000001
 43
0.0000001
 44
0.0000000001
 40
0.0
 40
0.0
 40
0.0
 40
0.0
 40
0.2173637528
 40
0.4103826135
 40
0.577797653
 40
0.718496336
 40
0.8314537774
 40
0.8772952956
 40
0.9159769735
 40
0.9474715422
 40
0.9717964717
 40
0.9891058519
 40
1.0
 40
1.0
 40
1.0
 40
1.0
 10
9.1637748163
 20
9.3180429665
 30
0.0
 10
9.1640457352
 20
9.3181123641
 30
0.0
 10
9.1645554252
 20
9.3182505968
 30
0.0
 10
9.1652669321
 20
9.3184663885
 30
0.0
 10
9.1658781668
 20
9.3186719774
 30
0.0
 10
9.1663858476
 20
9.318861332
 30
0.0
 10
9.1667418737
 20
9.319009163
 30
0.0
 10
9.1669724011
 20
9.3191160433
 30
0.0
 10
9.1671057071
 20
9.3191833897
 30
0.0
 10
9.1672116104
 20
9.3192429867
 30
0.0
 10
9.1672906656
 20
9.3192947831
 30
0.0
 10
9.1673423777
 20
9.3193375168
 30
0.0
 10
9.1673656497
 20
9.3193675965
 30
0.0
 10
9.1673691449
 20
9.3193811704
 30
0.0
  0
SPLINE
  5
31B
100
AcDbEntity
  8
0
100
AcDbSpline
 62
9
  6
CONTINUOUS
 70
0
 71
3
 72
21
 73
17
 74
0
 42
0.0000001
 43
0.0000001
 44
0.0000000001
 40
0.0
 40
0.0
 40
0.0
 40
0.0
 40
0.172909179
 40
0.3357629219
 40
0.4124461132
 40
0.4854923536
 40
0.5546225692
 40
0.6196193458
 40
0.680338835
 40
0.7367340955
 40
0.788871819
 40
0.8369659147
 40
0.8814080845
 40
0.9228005594
 40
0.96198693
 40
1.0
 40
1.0
 40
1.0
 40
1.0
 10
8.7049330689
 20
9.3188508119
 30
0.0
 10
8.7051318743
 20
9.3169562685
 30
0.0
 10
8.7056465245
 20
9.3132893317
 30
0.0
 10
8.706628293
 20
9.3088467464
 30
0.0
 10
8.7076021959
 20
9.305542345
 30
0.0
 10
8.7083986558
 20
9.3032653177
 30
0.0
 10
8.7092703575
 20
9.3011545089
 30
0.0
 10
8.7102117038
 20
9.299223559
 30
0.0
 10
8.7112167982
 20
9.297484947
 30
0.0
 10
8.7122792983
 20
9.2959497265
 30
0.0
 10
8.7133930152
 20
9.2946277581
 30
0.0
 10
8.7145517323
 20
9.2935277045
 30
0.0
 10
8.7157491741
 20
9.2926572561
 30
0.0
 10
8.7169793373
 20
9.2920238952
 30
0.0
 10
8.7182339925
 20
9.2916349535
 30
0.0
 10
8.7190858579
 20
9.2915421177
 30
0.0
 10
8.7195046299
 20
9.2915381117
 30
0.0
  0
LINE
  5
31C
100
AcDbEntity
  8
0
100
AcDbLine
 62
9
  6
CONTINUOUS
 10
11.3901407168
 20
4.8777843933
 11
11.3901405383
 21
4.877454628
  0
SPLINE
  5
31D
100
AcDbEntity
  8
0
100
AcDbSpline
 62
9
  6
CONTINUOUS
 70
0
 71
3
 72
39
 73
35
 74
0
 42
0.0000001
 43
0.0000001
 44
0.0000000001
 40
0.0
 40
0.0
 40
0.0
 40
0.0
 40
0.0302758135
 40
0.0605896451
 40
0.0909791246
 40
0.1214772995
 40
0.1521132169
 40
0.1829102146
 40
0.2138851388
 40
0.2450477849
 40
0.276400628
 40
0.307938865
 40
0.3396507259
 40
0.3715180198
 40
0.4035168913
 40
0.435618758
 40
0.4677913752
 40
0.5
 40
0.5322086248
 40
0.564381242
 40
0.5964831087
 40
0.6284819802
 40
0.6603492741
 40
0.692061135
 40
0.723599372
 40
0.7549522151
 40
0.7861148612
 40
0.8170897854
 40
0.8478867831
 40
0.8785227005
 40
0.9090208754
 40
0.9394103549
 40
0.9697241865
 40
1.0
 40
1.0
 40
1.0
 40
1.0
 10
11.3901405383
 20
4.877454628
 30
0.0
 10
11.3901290534
 20
4.8668447518
 30
0.0
 10
11.3889955487
 20
4.8455962228
 30
0.0
 10
11.3839811416
 20
4.8140546243
 30
0.0
 10
11.3757014671
 20
4.7831249381
 30
0.0
 10
11.3642367392
 20
4.7531099385
 30
0.0
 10
11.3496985037
 20
4.7242977436
 30
0.0
 10
11.3322278708
 20
4.6969658979
 30
0.0
 10
11.311994048
 20
4.6713769652
 30
0.0
 10
11.2891926133
 20
4.6477765912
 30
0.0
 10
11.2640437399
 20
4.6263908943
 30
0.0
 10
11.236789843
 20
4.6074245503
 30
0.0
 10
11.2076932206
 20
4.5910589725
 30
0.0
 10
11.1770336285
 20
4.5774505551
 30
0.0
 10
11.1451056272
 20
4.5667291479
 30
0.0
 10
11.1122156938
 20
4.558997068
 30
0.0
 10
11.078679373
 20
4.5543281684
 30
0.0
 10
11.0448183383
 20
4.5527669222
 30
0.0
 10
11.0109573036
 20
4.5543281684
 30
0.0
 10
10.9774209828
 20
4.558997068
 30
0.0
 10
10.9445310494
 20
4.5667291479
 30
0.0
 10
10.9126030481
 20
4.5774505551
 30
0.0
 10
10.881943456
 20
4.5910589725
 30
0.0
 10
10.8528468336
 20
4.6074245503
 30
0.0
 10
10.8255929367
 20
4.6263908943
 30
0.0
 10
10.8004440633
 20
4.6477765912
 30
0.0
 10
10.7776426286
 20
4.6713769652
 30
0.0
 10
10.7574088058
 20
4.6969658979
 30
0.0
 10
10.739938173
 20
4.7242977436
 30
0.0
 10
10.7253999374
 20
4.7531099385
 30
0.0
 10
10.7139352095
 20
4.7831249381
 30
0.0
 10
10.705655535
 20
4.8140546243
 30
0.0
 10
10.7006411279
 20
4.8455962228
 30
0.0
 10
10.6995076232
 20
4.8668447518
 30
0.0
 10
10.6994961383
 20
4.877454628
 30
0.0
  0
LINE
  5
31E
100
AcDbEntity
  8
0
100
AcDbLine
 62
9
  6
CONTINUOUS
 10
10.6994961383
 20
4.877454628
 11
10.6994959598
 21
4.8777843933
  0
SPLINE
  5
31F
100
AcDbEntity
  8
0
100
AcDbSpline
 62
9
  6
CONTINUOUS
 70
0
 71
3
 72
10
 73
6
 74
0
 42
0.0000001
 43
0.0000001
 44
0.0000000001
 40
0.0
 40
0.0
 40
0.0
 40
0.0
 40
0.4652871508
 40
0.7235242458
 40
1.0
 40
1.0
 40
1.0
 40
1.0
 10
8.6858622687
 20
9.3180429608
 30
0.0
 10
8.6865200557
 20
9.3178745945
 30
0.0
 10
8.6875789086
 20
9.3177461981
 30
0.0
 10
8.6890384094
 20
9.3177675776
 30
0.0
 10
8.6898162604
 20
9.3178424729
 30
0.0
 10
8.6902162855
 20
9.3178950113
 30
0.0
  0
SPLINE
  5
320
100
AcDbEntity
  8
0
100
AcDbSpline
 62
9
  6
CONTINUOUS
 70
0
 71
3
 72
11
 73
7
 74
0
 42
0.0000001
 43
0.0000001
 44
0.0000000001
 40
0.0
 40
0.0
 40
0.0
 40
0.0
 40
0.2070927589
 40
0.4450963591
 40
0.7107968762
 40
1.0
 40
1.0
 40
1.0
 40
1.0
 10
8.6902162855
 20
9.3178950113
 30
0.0
 10
8.6912265358
 20
9.3180276981
 30
0.0
 10
8.6933997132
 20
9.3182995251
 30
0.0
 10
8.6968823978
 20
9.3186267863
 30
0.0
 10
8.7007791936
 20
9.3188348822
 30
0.0
 10
8.7035102071
 20
9.3188638934
 30
0.0
 10
8.7049330686
 20
9.3188508151
 30
0.0
  0
SPLINE
  5
321
100
AcDbEntity
  8
0
100
AcDbSpline
 62
9
  6
CONTINUOUS
 70
0
 71
3
 72
39
 73
35
 74
0
 42
0.0000001
 43
0.0000001
 44
0.0000000001
 40
0.0
 40
0.0
 40
0.0
 40
0.0
 40
0.0302760905
 40
0.0605899731
 40
0.0909793086
 40
0.1214770944
 40
0.1521125234
 40
0.1829090008
 40
0.2138834338
 40
0.2450456743
 40
0.2763982453
 40
0.3079363751
 40
0.3396483028
 40
0.3715158328
 40
0.4035150969
 40
0.4356174858
 40
0.467790716
 40
0.5
 40
0.532209284
 40
0.5643825142
 40
0.5964849031
 40
0.6284841672
 40
0.6603516972
 40
0.6920636249
 40
0.7236017547
 40
0.7549543257
 40
0.7861165662
 40
0.8170909992
 40
0.8478874766
 40
0.8785229056
 40
0.9090206914
 40
0.9394100269
 40
0.9697239095
 40
1.0
 40
1.0
 40
1.0
 40
1.0
 10
11.3413183398
 20
4.8905544333
 30
0.0
 10
11.3413183398
 20
4.8814388067
 30
0.0
 10
11.3403636057
 20
4.8631818456
 30
0.0
 10
11.3360819264
 20
4.836078377
 30
0.0
 10
11.3289924872
 20
4.8094985949
 30
0.0
 10
11.3191640814
 20
4.7837030539
 30
0.0
 10
11.3066924595
 20
4.7589397066
 30
0.0
 10
11.2916987435
 20
4.7354474433
 30
0.0
 10
11.2743284138
 20
4.7134522128
 30
0.0
 10
11.2547496509
 20
4.6931653753
 30
0.0
 10
11.2331516859
 20
4.6747816028
 30
0.0
 10
11.209742933
 20
4.65847714
 30
0.0
 10
11.1847490414
 20
4.6444080674
 30
0.0
 10
11.1584106491
 20
4.6327089533
 30
0.0
 10
11.1309810902
 20
4.6234916422
 30
0.0
 10
11.1027239996
 20
4.6168442422
 30
0.0
 10
11.0739108414
 20
4.6128302728
 30
0.0
 10
11.0448183383
 20
4.6114880139
 30
0.0
 10
11.0157258352
 20
4.6128302728
 30
0.0
 10
10.986912677
 20
4.6168442422
 30
0.0
 10
10.9586555864
 20
4.6234916422
 30
0.0
 10
10.9312260275
 20
4.6327089533
 30
0.0
 10
10.9048876352
 20
4.6444080674
 30
0.0
 10
10.8798937436
 20
4.65847714
 30
0.0
 10
10.8564849907
 20
4.6747816028
 30
0.0
 10
10.8348870257
 20
4.6931653753
 30
0.0
 10
10.8153082628
 20
4.7134522128
 30
0.0
 10
10.7979379331
 20
4.7354474433
 30
0.0
 10
10.7829442171
 20
4.7589397066
 30
0.0
 10
10.7704725952
 20
4.7837030539
 30
0.0
 10
10.7606441895
 20
4.8094985949
 30
0.0
 10
10.7535547502
 20
4.836078377
 30
0.0
 10
10.7492730709
 20
4.8631818456
 30
0.0
 10
10.7483183368
 20
4.8814388067
 30
0.0
 10
10.7483183368
 20
4.8905544333
 30
0.0
  0
SPLINE
  5
322
100
AcDbEntity
  8
0
100
AcDbSpline
 62
9
  6
CONTINUOUS
 70
0
 71
3
 72
39
 73
35
 74
0
 42
0.0000001
 43
0.0000001
 44
0.0000000001
 40
0.0
 40
0.0
 40
0.0
 40
0.0
 40
0.0302761661
 40
0.0605900661
 40
0.0909793753
 40
0.121477165
 40
0.1521125905
 40
0.1829090597
 40
0.2138834863
 40
0.2450457215
 40
0.2763982887
 40
0.3079364125
 40
0.3396483326
 40
0.3715158561
 40
0.4035151157
 40
0.4356174989
 40
0.4677907222
 40
0.5
 40
0.5322092778
 40
0.5643825011
 40
0.5964848843
 40
0.6284841439
 40
0.6603516674
 40
0.6920635875
 40
0.7236017113
 40
0.7549542785
 40
0.7861165137
 40
0.8170909403
 40
0.8478874095
 40
0.878522835
 40
0.9090206247
 40
0.9394099339
 40
0.9697238339
 40
1.0
 40
1.0
 40
1.0
 40
1.0
 10
11.3824849713
 20
4.8836352342
 30
0.0
 10
11.3824849713
 20
4.8732539504
 30
0.0
 10
11.3813976724
 20
4.8524621259
 30
0.0
 10
11.3765215126
 20
4.8215955368
 30
0.0
 10
11.3684477581
 20
4.7913253694
 30
0.0
 10
11.3572547575
 20
4.7619483338
 30
0.0
 10
11.3430515139
 20
4.7337468176
 30
0.0
 10
11.3259760524
 20
4.7069928452
 30
0.0
 10
11.3061940144
 20
4.681943746
 30
0.0
 10
11.283896905
 20
4.6588402427
 30
0.0
 10
11.2593001988
 20
4.6379040839
 30
0.0
 10
11.2326413358
 20
4.6193358835
 30
0.0
 10
11.2041772697
 20
4.6033134027
 30
0.0
 10
11.174182018
 20
4.5899899403
 30
0.0
 10
11.1429440713
 20
4.5794929381
 30
0.0
 10
11.1107637125
 20
4.5719226325
 30
0.0
 10
11.0779500942
 20
4.5673513095
 30
0.0
 10
11.0448183383
 20
4.5658226462
 30
0.0
 10
11.0116865824
 20
4.5673513095
 30
0.0
 10
10.9788729641
 20
4.5719226325
 30
0.0
 10
10.9466926054
 20
4.5794929381
 30
0.0
 10
10.9154546586
 20
4.5899899403
 30
0.0
 10
10.8854594069
 20
4.6033134027
 30
0.0
 10
10.8569953409
 20
4.6193358835
 30
0.0
 10
10.8303364778
 20
4.6379040839
 30
0.0
 10
10.8057397716
 20
4.6588402427
 30
0.0
 10
10.7834426622
 20
4.681943746
 30
0.0
 10
10.7636606242
 20
4.7069928452
 30
0.0
 10
10.7465851627
 20
4.7337468176
 30
0.0
 10
10.7323819191
 20
4.7619483338
 30
0.0
 10
10.7211889185
 20
4.7913253694
 30
0.0
 10
10.713115164
 20
4.8215955368
 30
0.0
 10
10.7082390042
 20
4.8524621259
 30
0.0
 10
10.7071517053
 20
4.8732539504
 30
0.0
 10
10.7071517053
 20
4.8836352342
 30
0.0
  0
LINE
  5
323
100
AcDbEntity
  8
0
100
AcDbLine
 62
9
  6
CONTINUOUS
 10
10.7482388004
 20
5.044001443
 11
10.7479956508
 21
5.0436177446
  0
LINE
  5
324
100
AcDbEntity
  8
0
100
AcDbLine
 62
9
  6
CONTINUOUS
 10
10.7415138382
 20
5.0329159588
 11
10.7410987808
 21
5.0321972342
  0
SPLINE
  5
325
100
AcDbEntity
  8
0
100
AcDbSpline
 62
9
  6
CONTINUOUS
 70
0
 71
3
 72
23
 73
19
 74
0
 42
0.0000001
 43
0.0000001
 44
0.0000000001
 40
0.0
 40
0.0
 40
0.0
 40
0.0
 40
0.0616186898
 40
0.1235602945
 40
0.1857995778
 40
0.2483020835
 40
0.3110253081
 40
0.3739200761
 40
0.436932075
 40
0.5000035055
 40
0.5630748073
 40
0.6260864241
 40
0.6889805677
 40
0.7517029444
 40
0.8142044041
 40
0.8764424752
 40
0.9383827385
 40
1.0
 40
1.0
 40
1.0
 40
1.0
 10
11.2318702421
 20
4.5963716261
 30
0.0
 10
11.2254582491
 20
4.5910787891
 30
0.0
 10
11.2121182788
 20
4.5810352507
 30
0.0
 10
11.1908124527
 20
4.5677644196
 30
0.0
 10
11.1683222549
 20
4.5563484154
 30
0.0
 10
11.1448321316
 20
4.5468810282
 30
0.0
 10
11.1205319416
 20
4.539438165
 30
0.0
 10
11.0956187118
 20
4.5340799428
 30
0.0
 10
11.0702941722
 20
4.5308495105
 30
0.0
 10
11.044763384
 20
4.5297729062
 30
0.0
 10
11.0192330406
 20
4.530858801
 30
0.0
 10
10.9939098321
 20
4.534098449
 30
0.0
 10
10.9689988091
 20
4.5394657379
 30
0.0
 10
10.9447016839
 20
4.5469174459
 30
0.0
 10
10.9212154591
 20
4.5563933843
 30
0.0
 10
10.8987299624
 20
4.5678175769
 30
0.0
 10
10.8774296012
 20
4.5810961661
 30
0.0
 10
10.864093761
 20
4.5911445697
 30
0.0
 10
10.857683947
 20
4.5964397427
 30
0.0
  0
SPLINE
  5
326
100
AcDbEntity
  8
0
100
AcDbSpline
 62
9
  6
CONTINUOUS
 70
0
 71
3
 72
11
 73
7
 74
0
 42
0.0000001
 43
0.0000001
 44
0.0000000001
 40
0.0
 40
0.0
 40
0.0
 40
0.0
 40
0.2891873061
 40
0.5548886292
 40
0.7928971721
 40
1.0
 40
1.0
 40
1.0
 40
1.0
 10
8.7049330658
 20
9.6491817957
 30
0.0
 10
8.7035102271
 20
9.6491686987
 30
0.0
 10
8.700779192
 20
9.6491980564
 30
0.0
 10
8.6968822593
 20
9.6494055999
 30
0.0
 10
8.6933994188
 20
9.6497334423
 30
0.0
 10
8.6912260053
 20
9.6500046513
 30
0.0
 10
8.6902156944
 20
9.6501375607
 30
0.0
  0
SPLINE
  5
327
100
AcDbEntity
  8
0
100
AcDbSpline
 62
9
  6
CONTINUOUS
 70
0
 71
3
 72
10
 73
6
 74
0
 42
0.0000001
 43
0.0000001
 44
0.0000000001
 40
0.0
 40
0.0
 40
0.0
 40
0.0
 40
0.2764644105
 40
0.5346521522
 40
1.0
 40
1.0
 40
1.0
 40
1.0
 10
8.6902156944
 20
9.6501375607
 30
0.0
 10
8.6898157179
 20
9.6501901886
 30
0.0
 10
8.6890379958
 20
9.6502651825
 30
0.0
 10
8.6875785737
 20
9.6502864206
 30
0.0
 10
8.6865197215
 20
9.6501581866
 30
0.0
 10
8.6858619124
 20
9.6499896849
 30
0.0
  0
SPLINE
  5
328
100
AcDbEntity
  8
0
100
AcDbSpline
 62
9
  6
CONTINUOUS
 70
0
 71
3
 72
18
 73
14
 74
0
 42
0.0000001
 43
0.0000001
 44
0.0000000001
 40
0.0
 40
0.0
 40
0.0
 40
0.0
 40
0.2173628595
 40
0.410384804
 40
0.577800282
 40
0.7184964129
 40
0.8314508707
 40
0.8772913552
 40
0.915972585
 40
0.9474675257
 40
0.9717937761
 40
0.9891047894
 40
1.0
 40
1.0
 40
1.0
 40
1.0
 10
8.6858619124
 20
9.6499896849
 30
0.0
 10
8.6855909899
 20
9.6499202918
 30
0.0
 10
8.6850812886
 20
9.6497820646
 30
0.0
 10
8.6843697678
 20
9.6495662749
 30
0.0
 10
8.6837585257
 20
9.6493606783
 30
0.0
 10
8.6832508483
 20
9.6491713139
 30
0.0
 10
8.6828948263
 20
9.649023483
 30
0.0
 10
8.6826642992
 20
9.6489166082
 30
0.0
 10
8.682530991
 20
9.6488492651
 30
0.0
 10
8.6824250833
 20
9.6487896696
 30
0.0
 10
8.6823460223
 20
9.6487378719
 30
0.0
 10
8.6822943048
 20
9.6486951356
 30
0.0
 10
8.682271029
 20
9.6486650534
 30
0.0
 10
8.6822675334
 20
9.648651478
 30
0.0
  0
SPLINE
  5
329
100
AcDbEntity
  8
0
100
AcDbSpline
 62
9
  6
CONTINUOUS
 70
0
 71
3
 72
21
 73
17
 74
0
 42
0.0000001
 43
0.0000001
 44
0.0000000001
 40
0.0
 40
0.0
 40
0.0
 40
0.0
 40
0.1729091869
 40
0.3357629537
 40
0.4124461602
 40
0.4854924165
 40
0.5546226474
 40
0.6196194375
 40
0.6803389367
 40
0.7367342021
 40
0.788871924
 40
0.8369660105
 40
0.8814081634
 40
0.9228006148
 40
0.9619869573
 40
1.0
 40
1.0
 40
1.0
 40
1.0
 10
8.7049330658
 20
9.6491817957
 30
0.0
 10
8.7051318707
 20
9.6510763418
 30
0.0
 10
8.7056465202
 20
9.6547432839
 30
0.0
 10
8.7066282882
 20
9.6591858759
 30
0.0
 10
8.707602191
 20
9.6624902826
 30
0.0
 10
8.708398651
 20
9.6647673136
 30
0.0
 10
8.709270353
 20
9.6668781261
 30
0.0
 10
8.7102116997
 20
9.6688090793
 30
0.0
 10
8.7112167946
 20
9.6705476944
 30
0.0
 10
8.7122792952
 20
9.6720829177
 30
0.0
 10
8.7133930127
 20
9.6734048885
 30
0.0
 10
8.7145517303
 20
9.6745049442
 30
0.0
 10
8.7157491725
 20
9.6753753941
 30
0.0
 10
8.7169793364
 20
9.6760087562
 30
0.0
 10
8.7182339922
 20
9.6763976986
 30
0.0
 10
8.7190858581
 20
9.6764905345
 30
0.0
 10
8.7195046303
 20
9.6764945405
 30
0.0
  0
SPLINE
  5
32A
100
AcDbEntity
  8
0
100
AcDbSpline
 62
9
  6
CONTINUOUS
 70
0
 71
3
 72
21
 73
17
 74
0
 42
0.0000001
 43
0.0000001
 44
0.0000000001
 40
0.0
 40
0.0
 40
0.0
 40
0.0
 40
0.1729091791
 40
0.3357629218
 40
0.4124461131
 40
0.4854923535
 40
0.554622569
 40
0.6196193455
 40
0.6803388347
 40
0.7367340951
 40
0.7888718186
 40
0.8369659144
 40
0.8814080842
 40
0.9228005592
 40
0.9619869299
 40
1.0
 40
1.0
 40
1.0
 40
1.0
 10
9.1447036076
 20
9.6491818406
 30
0.0
 10
9.1445048022
 20
9.651076384
 30
0.0
 10
9.143990152
 20
9.6547433208
 30
0.0
 10
9.1430083835
 20
9.6591859061
 30
0.0
 10
9.1420344806
 20
9.6624903074
 30
0.0
 10
9.1412380207
 20
9.6647673346
 30
0.0
 10
9.140366319
 20
9.6668781434
 30
0.0
 10
9.1394249727
 20
9.6688090933
 30
0.0
 10
9.1384198783
 20
9.6705477053
 30
0.0
 10
9.1373573782
 20
9.6720829258
 30
0.0
 10
9.1362436613
 20
9.6734048942
 30
0.0
 10
9.1350849442
 20
9.6745049478
 30
0.0
 10
9.1338875025
 20
9.6753753961
 30
0.0
 10
9.1326573392
 20
9.6760087571
 30
0.0
 10
9.131402684
 20
9.6763976987
 30
0.0
 10
9.1305508187
 20
9.6764905345
 30
0.0
 10
9.1301320467
 20
9.6764945405
 30
0.0
  0
SPLINE
  5
32B
100
AcDbEntity
  8
0
100
AcDbSpline
 62
9
  6
CONTINUOUS
 70
0
 71
3
 72
11
 73
7
 74
0
 42
0.0000001
 43
0.0000001
 44
0.0000000001
 40
0.0
 40
0.0
 40
0.0
 40
0.0
 40
0.2070937264
 40
0.4450976803
 40
0.710798689
 40
1.0
 40
1.0
 40
1.0
 40
1.0
 10
9.159420343
 20
9.6501376374
 30
0.0
 10
9.1584100937
 20
9.6500049321
 30
0.0
 10
9.156236913
 20
9.6497331373
 30
0.0
 10
9.1527542349
 20
9.6494058326
 30
0.0
 10
9.1488574528
 20
9.6491978028
 30
0.0
 10
9.1461264558
 20
9.6491687584
 30
0.0
 10
9.1447036079
 20
9.6491818375
 30
0.0
  0
SPLINE
  5
32C
100
AcDbEntity
  8
0
100
AcDbSpline
 62
7
  6
CONTINUOUS
 70
0
 71
3
 72
23
 73
19
 74
0
 42
0.0000001
 43
0.0000001
 44
0.0000000001
 40
0.0
 40
0.0
 40
0.0
 40
0.0
 40
0.0605518229
 40
0.1211802674
 40
0.1819587296
 40
0.2429543277
 40
0.3042251762
 40
0.3658181137
 40
0.4277669716
 40
0.4900914447
 40
0.5527965749
 40
0.6158728186
 40
0.6792966604
 40
0.743031718
 40
0.8070301893
 40
0.8712351793
 40
0.9355809003
 40
1.0
 40
1.0
 40
1.0
 40
1.0
 10
11.2948183383
 20
4.8905544333
 30
0.0
 10
11.2948183383
 20
4.882868453
 30
0.0
 10
11.2940132963
 20
4.8674746889
 30
0.0
 10
11.2904031849
 20
4.8446218216
 30
0.0
 10
11.2844255004
 20
4.8222104924
 30
0.0
 10
11.276138494
 20
4.8004604815
 30
0.0
 10
11.2656227998
 20
4.7795807585
 30
0.0
 10
11.2529805576
 20
4.7597727755
 30
0.0
 10
11.2383343993
 20
4.741227064
 30
0.0
 10
11.2218261511
 20
4.7241218256
 30
0.0
 10
11.2036153826
 20
4.7086211906
 30
0.0
 10
11.1838778386
 20
4.6948737286
 30
0.0
 10
11.1628037535
 20
4.6830110848
 30
0.0
 10
11.1405959663
 20
4.6731467717
 30
0.0
 10
11.1174682746
 20
4.6653750135
 30
0.0
 10
11.0936423403
 20
4.6597702003
 30
0.0
 10
11.0693496637
 20
4.6563856189
 30
0.0
 10
11.0529952008
 20
4.6556312781
 30
0.0
 10
11.0448183383
 20
4.6556312781
 30
0.0
  0
SPLINE
  5
32D
100
AcDbEntity
  8
0
100
AcDbSpline
 62
9
  6
CONTINUOUS
 70
0
 71
3
 72
10
 73
6
 74
0
 42
0.0000001
 43
0.0000001
 44
0.0000000001
 40
0.0
 40
0.0
 40
0.0
 40
0.0
 40
0.4652940626
 40
0.723528385
 40
1.0
 40
1.0
 40
1.0
 40
1.0
 10
9.1637743518
 20
9.6499896966
 30
0.0
 10
9.1631165579
 20
9.6501580726
 30
0.0
 10
9.1620576985
 20
9.6502864677
 30
0.0
 10
9.1605982004
 20
9.6502650803
 30
0.0
 10
9.1598203604
 20
9.6501901835
 30
0.0
 10
9.159420343
 20
9.6501376374
 30
0.0
  0
SPLINE
  5
32E
100
AcDbEntity
  8
0
100
AcDbSpline
 62
9
  6
CONTINUOUS
 70
0
 71
3
 72
11
 73
7
 74
0
 42
0.0000001
 43
0.0000001
 44
0.0000000001
 40
0.0
 40
0.0
 40
0.0
 40
0.0
 40
0.2230317861
 40
0.4658060528
 40
0.7256417993
 40
1.0
 40
1.0
 40
1.0
 40
1.0
 10
8.6766932933
 20
9.3317854338
 30
0.0
 10
8.6783863851
 20
9.3319161081
 30
0.0
 10
8.6819229401
 20
9.3321833376
 30
0.0
 10
8.687439124
 20
9.3325019569
 30
0.0
 10
8.6933524204
 20
9.332693981
 30
0.0
 10
8.697420288
 20
9.3327112829
 30
0.0
 10
8.6995091167
 20
9.3326919735
 30
0.0
  0
SPLINE
  5
32F
100
AcDbEntity
  8
0
100
AcDbSpline
 62
9
  6
CONTINUOUS
 70
0
 71
3
 72
22
 73
18
 74
0
 42
0.0000001
 43
0.0000001
 44
0.0000000001
 40
0.0
 40
0.0
 40
0.0
 40
0.0
 40
0.0788199348
 40
0.1571689652
 40
0.310514546
 40
0.3846882406
 40
0.4566354477
 40
0.525984689
 40
0.5924019838
 40
0.6556019173
 40
0.7153563444
 40
0.7715078065
 40
0.8239871018
 40
0.8728290236
 40
0.918197699
 40
0.9604254583
 40
1.0
 40
1.0
 40
1.0
 40
1.0
 10
8.6619997096
 20
9.3710912667
 30
0.0
 10
8.6619899401
 20
9.369939119
 30
0.0
 10
8.6620169002
 20
9.3676409833
 30
0.0
 10
8.6622511042
 20
9.3631071901
 30
0.0
 10
8.6627509332
 20
9.3586575818
 30
0.0
 10
8.6635269904
 20
9.3543481073
 30
0.0
 10
8.6642283714
 20
9.3512761662
 30
0.0
 10
8.6650502917
 20
9.3483517927
 30
0.0
 10
8.6659866433
 20
9.3455965389
 30
0.0
 10
8.6670304673
 20
9.3430307453
 30
0.0
 10
8.6681741775
 20
9.3406732802
 30
0.0
 10
8.6694095435
 20
9.3385413906
 30
0.0
 10
8.670727855
 20
9.3366505858
 30
0.0
 10
8.672120055
 20
9.3350147165
 30
0.0
 10
8.6735772854
 20
9.333645813
 30
0.0
 10
8.6750896389
 20
9.3325552579
 30
0.0
 10
8.6761580776
 20
9.3320050221
 30
0.0
 10
8.6766932835
 20
9.3317854377
 30
0.0
  0
SPLINE
  5
330
100
AcDbEntity
  8
0
100
AcDbSpline
 62
9
  6
CONTINUOUS
 70
0
 71
3
 72
23
 73
19
 74
0
 42
0.0000001
 43
0.0000001
 44
0.0000000001
 40
0.0
 40
0.0
 40
0.0
 40
0.0
 40
0.0605518206
 40
0.1211802637
 40
0.1819587268
 40
0.2429543287
 40
0.304225181
 40
0.3658181177
 40
0.4277669712
 40
0.490091441
 40
0.5527965716
 40
0.6158728191
 40
0.6792966621
 40
0.7430317236
 40
0.80703018
 40
0.8712351888
 40
0.9355809201
 40
1.0
 40
1.0
 40
1.0
 40
1.0
 10
11.2948183044
 20
5.1197079293
 30
0.0
 10
11.2948183044
 20
5.1120219494
 30
0.0
 10
11.2940132781
 20
5.0966281859
 30
0.0
 10
11.2904032012
 20
5.0737753136
 30
0.0
 10
11.2844255346
 20
5.0513639782
 30
0.0
 10
11.2761385066
 20
5.0296139732
 30
0.0
 10
11.2656227773
 20
5.0087342675
 30
0.0
 10
11.2529805317
 20
4.9889262887
 30
0.0
 10
11.2383343918
 20
4.9703805647
 30
0.0
 10
11.2218261599
 20
4.9532753118
 30
0.0
 10
11.2036153969
 20
4.9377746693
 30
0.0
 10
11.1838778416
 20
4.9240272215
 30
0.0
 10
11.1628037455
 20
4.9121645963
 30
0.0
 10
11.1405959615
 20
4.9023002812
 30
0.0
 10
11.1174682732
 20
4.8945285102
 30
0.0
 10
11.0936423375
 20
4.8889236943
 30
0.0
 10
11.0693496598
 20
4.8855391132
 30
0.0
 10
11.0529951982
 20
4.8847847741
 30
0.0
 10
11.0448183383
 20
4.8847847741
 30
0.0
  0
SPLINE
  5
331
100
AcDbEntity
  8
0
100
AcDbSpline
 62
9
  6
CONTINUOUS
 70
0
 71
3
 72
34
 73
30
 74
0
 42
0.0000001
 43
0.0000001
 44
0.0000000001
 40
0.0
 40
0.0
 40
0.0
 40
0.0
 40
0.0156296701
 40
0.0312761503
 40
0.0469124884
 40
0.0625445281
 40
0.0781871248
 40
0.0938239616
 40
0.1094590898
 40
0.1250908502
 40
0.1407234803
 40
0.1563566647
 40
0.1719857209
 40
0.1876154032
 40
0.2188658745
 40
0.2501173889
 40
0.2813665477
 40
0.3126156457
 40
0.3438640079
 40
0.3751118813
 40
0.4376006053
 40
0.5000900082
 40
0.5625793778
 40
0.6250687984
 40
0.6875585036
 40
0.7500478555
 40
0.8125368521
 40
0.8750262645
 40
1.0
 40
1.0
 40
1.0
 40
1.0
 10
11.9623446541
 20
8.5182367749
 30
0.0
 10
11.9634063893
 20
8.5182361886
 30
0.0
 10
11.9655333234
 20
8.5183832915
 30
0.0
 10
11.9686670705
 20
8.5190004261
 30
0.0
 10
11.9717075753
 20
8.5199797212
 30
0.0
 10
11.9746145881
 20
8.5213007206
 30
0.0
 10
11.9773709026
 20
8.5229093118
 30
0.0
 10
11.9799767726
 20
8.5247501095
 30
0.0
 10
11.9824307715
 20
8.5267867762
 30
0.0
 10
11.984737862
 20
8.5289871644
 30
0.0
 10
11.9869050614
 20
8.5313246295
 30
0.0
 10
11.9889426377
 20
8.5337751176
 30
0.0
 10
11.9908611146
 20
8.536319394
 30
0.0
 10
11.9932690274
 20
8.5398182527
 30
0.0
 10
11.9960235842
 20
8.5443607534
 30
0.0
 10
11.9989736167
 20
8.5500086718
 30
0.0
 10
12.0016193478
 20
8.5558044246
 30
0.0
 10
12.0039978523
 20
8.5617138716
 30
0.0
 10
12.0061416749
 20
8.567711912
 30
0.0
 10
12.0087219852
 20
8.5758020586
 30
0.0
 10
12.0114830924
 20
8.5860553045
 30
0.0
 10
12.014190943
 20
8.5985028384
 30
0.0
 10
12.0163935173
 20
8.6110487801
 30
0.0
 10
12.0181666631
 20
8.6236617152
 30
0.0
 10
12.0195688377
 20
8.6363207594
 30
0.0
 10
12.0206472042
 20
8.6490110704
 30
0.0
 10
12.0214392862
 20
8.6617222462
 30
0.0
 10
12.0221535976
 20
8.6786874653
 30
0.0
 10
12.0223446556
 20
8.6914236377
 30
0.0
 10
12.0223446541
 20
8.6999131991
 30
0.0
  0
SPLINE
  5
332
100
AcDbEntity
  8
0
100
AcDbSpline
 62
9
  6
CONTINUOUS
 70
0
 71
3
 72
9
 73
5
 74
0
 42
0.0000001
 43
0.0000001
 44
0.0000000001
 40
0.0
 40
0.0
 40
0.0
 40
0.0
 40
0.5253052095
 40
1.0
 40
1.0
 40
1.0
 40
1.0
 10
9.1729434829
 20
9.3317854867
 30
0.0
 10
9.1735239681
 20
9.331706527
 30
0.0
 10
9.1746379555
 20
9.3316125553
 30
0.0
 10
9.1757566433
 20
9.3316662421
 30
0.0
 10
9.1762813701
 20
9.3317363458
 30
0.0
  0
SPLINE
  5
333
100
AcDbEntity
  8
0
100
AcDbSpline
 62
9
  6
CONTINUOUS
 70
0
 71
3
 72
22
 73
18
 74
0
 42
0.0000001
 43
0.0000001
 44
0.0000000001
 40
0.0
 40
0.0
 40
0.0
 40
0.0
 40
0.0788199536
 40
0.1571690611
 40
0.3105145344
 40
0.3846882399
 40
0.4566354403
 40
0.5259846958
 40
0.5924020161
 40
0.655601981
 40
0.7153564465
 40
0.7715079475
 40
0.8239872771
 40
0.8728292172
 40
0.9181978809
 40
0.9604255932
 40
1.0
 40
1.0
 40
1.0
 40
1.0
 10
9.1876369671
 20
9.3710912667
 30
0.0
 10
9.1876467364
 20
9.3699391238
 30
0.0
 10
9.1876196586
 20
9.367640997
 30
0.0
 10
9.1873853636
 20
9.3631072319
 30
0.0
 10
9.186885618
 20
9.3586576352
 30
0.0
 10
9.1861095541
 20
9.354348182
 30
0.0
 10
9.1854081922
 20
9.3512762508
 30
0.0
 10
9.1845862847
 20
9.3483518869
 30
0.0
 10
9.1836499495
 20
9.34559664
 30
0.0
 10
9.1826061437
 20
9.3430308507
 30
0.0
 10
9.1814624529
 20
9.3406733872
 30
0.0
 10
9.1802271077
 20
9.3385414963
 30
0.0
 10
9.178908818
 20
9.3366506871
 30
0.0
 10
9.1775166409
 20
9.33501481
 30
0.0
 10
9.1760594329
 20
9.3336458965
 30
0.0
 10
9.1745471047
 20
9.332555326
 30
0.0
 10
9.1734786818
 20
9.332005076
 30
0.0
 10
9.1729434829
 20
9.3317854867
 30
0.0
  0
LINE
  5
334
100
AcDbEntity
  8
0
100
AcDbLine
 62
9
  6
CONTINUOUS
 10
8.9248125967
 20
9.3316947172
 11
8.9248262367
 21
9.3698546504
  0
SPLINE
  5
335
100
AcDbEntity
  8
0
100
AcDbSpline
 62
9
  6
CONTINUOUS
 70
0
 71
3
 72
11
 73
7
 74
0
 42
0.0000001
 43
0.0000001
 44
0.0000000001
 40
0.0
 40
0.0
 40
0.0
 40
0.0
 40
0.2743495965
 40
0.5341923437
 40
0.7769608321
 40
1.0
 40
1.0
 40
1.0
 40
1.0
 10
9.1501275346
 20
9.3326920162
 30
0.0
 10
9.1522163012
 20
9.3327114205
 30
0.0
 10
9.1562841632
 20
9.3326937457
 30
0.0
 10
9.1621974256
 20
9.3325020849
 30
0.0
 10
9.1677136712
 20
9.3321831808
 30
0.0
 10
9.1712502663
 20
9.331916238
 30
0.0
 10
9.1729434098
 20
9.3317854572
 30
0.0
  0
LINE
  5
336
100
AcDbEntity
  8
0
100
AcDbLine
 62
9
  6
CONTINUOUS
 10
12.9178482249
 20
9.3318189245
 11
12.9186522787
 21
9.331701453
  0
LINE
  5
337
100
AcDbEntity
  8
0
100
AcDbLine
 62
9
  6
CONTINUOUS
 10
12.9186522787
 20
9.331701453
 11
12.9216932749
 21
9.3317854411
  0
SPLINE
  5
338
100
AcDbEntity
  8
0
100
AcDbSpline
 62
9
  6
CONTINUOUS
 70
0
 71
3
 72
26
 73
22
 74
0
 42
0.0000001
 43
0.0000001
 44
0.0000000001
 40
0.0
 40
0.0
 40
0.0
 40
0.0
 40
0.062731805
 40
0.1253853197
 40
0.1879651501
 40
0.2192321893
 40
0.2504842549
 40
0.3129453704
 40
0.3753658888
 40
0.4377596566
 40
0.5001400115
 40
0.5313310772
 40
0.562523356
 40
0.624913859
 40
0.6873272727
 40
0.7497718348
 40
0.8122559472
 40
0.8435166852
 40
0.8747891542
 40
0.9373677731
 40
1.0
 40
1.0
 40
1.0
 40
1.0
 10
11.2948245881
 20
8.5788029489
 30
0.0
 10
11.3093037082
 20
8.5826676783
 30
0.0
 10
11.3380652774
 20
8.5910806988
 30
0.0
 10
11.380530407
 20
8.6057232635
 30
0.0
 10
11.4152693002
 20
8.6195842568
 30
0.0
 10
11.442612444
 20
8.6316511292
 30
0.0
 10
11.469632124
 20
8.6443594166
 30
0.0
 10
11.5028046477
 20
8.6614459186
 30
0.0
 10
11.541561929
 20
8.6838267971
 30
0.0
 10
11.5791831903
 20
8.7080331015
 30
0.0
 10
11.6095223389
 20
8.7296874141
 30
0.0
 10
11.6331397214
 20
8.7478725514
 30
0.0
 10
11.6563106954
 20
8.7666270577
 30
0.0
 10
11.6844201405
 20
8.7911173415
 30
0.0
 10
11.716717422
 20
8.8220901644
 30
0.0
 10
11.7475138151
 20
8.8545868211
 30
0.0
 10
11.771857098
 20
8.8828848047
 30
0.0
 10
11.7905021623
 20
8.9062183759
 30
0.0
 10
11.8085893792
 20
8.9300155337
 30
0.0
 10
11.8301215137
 20
8.9605921558
 30
0.0
 10
11.8461630914
 20
8.9858538376
 30
0.0
 10
11.8538824756
 20
8.9986710036
 30
0.0
  0
SPLINE
  5
339
100
AcDbEntity
  8
0
100
AcDbSpline
 62
9
  6
CONTINUOUS
 70
0
 71
3
 72
25
 73
21
 74
0
 42
0.0000001
 43
0.0000001
 44
0.0000000001
 40
0.0
 40
0.0
 40
0.0
 40
0.0
 40
0.0626325422
 40
0.1252114206
 40
0.1564840211
 40
0.1877449014
 40
0.2502292986
 40
0.3126741427
 40
0.3750878335
 40
0.4374786038
 40
0.4686710217
 40
0.4998622276
 40
0.5622428445
 40
0.6246368697
 40
0.6870576534
 40
0.7495190386
 40
0.8120339284
 40
0.8746140228
 40
0.9372678334
 40
1.0
 40
1.0
 40
1.0
 40
1.0
 10
10.2357525593
 20
8.9986740088
 30
0.0
 10
10.2434719851
 20
8.985856937
 30
0.0
 10
10.2595134281
 20
8.9605953367
 30
0.0
 10
10.2810450544
 20
8.930018561
 30
0.0
 10
10.2991320367
 20
8.9062214009
 30
0.0
 10
10.3177769031
 20
8.8828878446
 30
0.0
 10
10.342120009
 20
8.8545899256
 30
0.0
 10
10.3729162163
 20
8.8220933718
 30
0.0
 10
10.4052132088
 20
8.7911205449
 30
0.0
 10
10.4333224499
 20
8.7666302871
 30
0.0
 10
10.4564932702
 20
8.7478758093
 30
0.0
 10
10.4801104084
 20
8.7296905897
 30
0.0
 10
10.5104491476
 20
8.7080359723
 30
0.0
 10
10.5480698143
 20
8.6838293251
 30
0.0
 10
10.586827195
 20
8.6614482534
 30
0.0
 10
10.6266403076
 20
8.6409412228
 30
0.0
 10
10.6674268765
 20
8.6223539799
 30
0.0
 10
10.7091001718
 20
8.6057257484
 30
0.0
 10
10.7515653275
 20
8.5910825536
 30
0.0
 10
10.7803266869
 20
8.5826695294
 30
0.0
 10
10.7948057426
 20
8.5788047464
 30
0.0
  0
SPLINE
  5
33A
100
AcDbEntity
  8
0
100
AcDbSpline
 62
9
  6
CONTINUOUS
 70
0
 71
3
 72
11
 73
7
 74
0
 42
0.0000001
 43
0.0000001
 44
0.0000000001
 40
0.0
 40
0.0
 40
0.0
 40
0.0
 40
0.249227981
 40
0.4987690468
 40
0.7489349149
 40
1.0
 40
1.0
 40
1.0
 40
1.0
 10
11.3901407168
 20
4.8777843933
 30
0.0
 10
11.3901407168
 20
4.8884393913
 30
0.0
 10
11.389020757
 20
4.9097794892
 30
0.0
 10
11.3839976962
 20
4.9414585344
 30
0.0
 10
11.3756826854
 20
4.972517799
 30
0.0
 10
11.3680106989
 20
4.9925740479
 30
0.0
 10
11.3636667551
 20
5.0023892905
 30
0.0
  0
LINE
  5
33B
100
AcDbEntity
  8
0
100
AcDbLine
 62
9
  6
CONTINUOUS
 10
11.3485379402
 20
5.0321971571
 11
11.3481228087
 21
5.0329160101
  0
LINE
  5
33C
100
AcDbEntity
  8
0
100
AcDbLine
 62
9
  6
CONTINUOUS
 10
11.3416409281
 20
5.043617899
 11
11.3413976822
 21
5.0440017486
  0
SPLINE
  5
33D
100
AcDbEntity
  8
0
100
AcDbSpline
 62
9
  6
CONTINUOUS
 70
0
 71
3
 72
15
 73
11
 74
0
 42
0.0000001
 43
0.0000001
 44
0.0000000001
 40
0.0
 40
0.0
 40
0.0
 40
0.0
 40
0.1241885713
 40
0.2484632103
 40
0.3728977202
 40
0.4975736821
 40
0.6225606924
 40
0.7479244649
 40
0.8737216812
 40
1.0
 40
1.0
 40
1.0
 40
1.0
 10
11.3413183398
 20
4.8905544333
 30
0.0
 10
11.3413183398
 20
4.8971406341
 30
0.0
 10
11.3408205233
 20
4.9103230051
 30
0.0
 10
11.3385846367
 20
4.9299903578
 30
0.0
 10
11.3348704964
 20
4.949460224
 30
0.0
 10
11.329697238
 20
4.9686328929
 30
0.0
 10
11.3230908408
 20
4.9874122402
 30
0.0
 10
11.315084647
 20
5.0057038821
 30
0.0
 10
11.3057198178
 20
5.0234146689
 30
0.0
 10
11.2986147396
 20
5.0347553535
 30
0.0
 10
11.294855668
 20
5.040297877
 30
0.0
  0
SPLINE
  5
33E
100
AcDbEntity
  8
0
100
AcDbSpline
 62
9
  6
CONTINUOUS
 70
0
 71
3
 72
15
 73
11
 74
0
 42
0.0000001
 43
0.0000001
 44
0.0000000001
 40
0.0
 40
0.0
 40
0.0
 40
0.0
 40
0.1262783188
 40
0.2520755351
 40
0.3774393076
 40
0.5024263179
 40
0.6271022798
 40
0.7515367897
 40
0.8758114287
 40
1.0
 40
1.0
 40
1.0
 40
1.0
 10
10.7947810086
 20
5.0402978769
 30
0.0
 10
10.7910219369
 20
5.0347553534
 30
0.0
 10
10.7839168587
 20
5.0234146688
 30
0.0
 10
10.7745520296
 20
5.005703882
 30
0.0
 10
10.7665458357
 20
4.9874122402
 30
0.0
 10
10.7599394386
 20
4.9686328929
 30
0.0
 10
10.7547661802
 20
4.949460224
 30
0.0
 10
10.7510520399
 20
4.9299903577
 30
0.0
 10
10.7488161533
 20
4.9103230051
 30
0.0
 10
10.7483183368
 20
4.8971406341
 30
0.0
 10
10.7483183368
 20
4.8905544333
 30
0.0
  0
LINE
  5
33F
100
AcDbEntity
  8
0
100
AcDbLine
 62
9
  6
CONTINUOUS
 10
8.9248032477
 20
9.5981779975
 11
8.9248256673
 21
9.6363379345
  0
SPLINE
  5
340
100
AcDbEntity
  8
0
100
AcDbSpline
 62
9
  6
CONTINUOUS
 70
0
 71
3
 72
11
 73
7
 74
0
 42
0.0000001
 43
0.0000001
 44
0.0000000001
 40
0.0
 40
0.0
 40
0.0
 40
0.0
 40
0.2743511754
 40
0.5341937735
 40
0.7769602789
 40
1.0
 40
1.0
 40
1.0
 40
1.0
 10
8.6995091192
 20
9.6353406358
 30
0.0
 10
8.6974203429
 20
9.6353212424
 30
0.0
 10
8.6933524749
 20
9.6353388732
 30
0.0
 10
8.6874392231
 20
9.6355305462
 30
0.0
 10
8.6819229989
 20
9.6358494912
 30
0.0
 10
8.6783864171
 20
9.6361164108
 30
0.0
 10
8.6766932718
 20
9.636247197
 30
0.0
  0
SPLINE
  5
341
100
AcDbEntity
  8
0
100
AcDbSpline
 62
9
  6
CONTINUOUS
 70
0
 71
3
 72
9
 73
5
 74
0
 42
0.0000001
 43
0.0000001
 44
0.0000000001
 40
0.0
 40
0.0
 40
0.0
 40
0.0
 40
0.5253005236
 40
1.0
 40
1.0
 40
1.0
 40
1.0
 10
8.6766931996
 20
9.6362471679
 30
0.0
 10
8.676112717
 20
9.6363261301
 30
0.0
 10
8.6749987233
 20
9.6364201007
 30
0.0
 10
8.6738800301
 20
9.6363664091
 30
0.0
 10
8.6733552955
 20
9.6362963041
 30
0.0
  0
SPLINE
  5
342
100
AcDbEntity
  8
0
100
AcDbSpline
 62
9
  6
CONTINUOUS
 70
0
 71
3
 72
22
 73
18
 74
0
 42
0.0000001
 43
0.0000001
 44
0.0000000001
 40
0.0
 40
0.0
 40
0.0
 40
0.0
 40
0.0788199611
 40
0.157169076
 40
0.3105145614
 40
0.3846882716
 40
0.4566354756
 40
0.5259847332
 40
0.5924020542
 40
0.6556020181
 40
0.7153564811
 40
0.771507978
 40
0.8239873023
 40
0.872829236
 40
0.9181978928
 40
0.9604255983
 40
1.0
 40
1.0
 40
1.0
 40
1.0
 10
8.6619997096
 20
9.5969413855
 30
0.0
 10
8.6619899403
 20
9.5980935287
 30
0.0
 10
8.6620170185
 20
9.600391656
 30
0.0
 10
8.6622513138
 20
9.6049254221
 30
0.0
 10
8.6627510594
 20
9.6093750198
 30
0.0
 10
8.6635271238
 20
9.6136844738
 30
0.0
 10
8.6642284859
 20
9.6167564055
 30
0.0
 10
8.6650503937
 20
9.6196807698
 30
0.0
 10
8.6659867293
 20
9.6224360171
 30
0.0
 10
8.6670305355
 20
9.6250018066
 30
0.0
 10
8.6681742267
 20
9.6273592701
 30
0.0
 10
8.6694095725
 20
9.629491161
 30
0.0
 10
8.6707278626
 20
9.63138197
 30
0.0
 10
8.6721200401
 20
9.6330178467
 30
0.0
 10
8.6735772486
 20
9.6343867597
 30
0.0
 10
8.6750895774
 20
9.6354773295
 30
0.0
 10
8.6761580005
 20
9.6360275789
 30
0.0
 10
8.6766931996
 20
9.6362471679
 30
0.0
  0
SPLINE
  5
343
100
AcDbEntity
  8
0
100
AcDbSpline
 62
9
  6
CONTINUOUS
 70
0
 71
3
 72
11
 73
7
 74
0
 42
0.0000001
 43
0.0000001
 44
0.0000000001
 40
0.0
 40
0.0
 40
0.0
 40
0.0
 40
0.2230321835
 40
0.4658060499
 40
0.7256424243
 40
1.0
 40
1.0
 40
1.0
 40
1.0
 10
9.1729433869
 20
9.636247217
 30
0.0
 10
9.1712502921
 20
9.6361165357
 30
0.0
 10
9.1677137348
 20
9.635849325
 30
0.0
 10
9.1621975456
 20
9.6355306868
 30
0.0
 10
9.1562842497
 20
9.6353386888
 30
0.0
 10
9.1522163811
 20
9.6353213683
 30
0.0
 10
9.1501275566
 20
9.6353406791
 30
0.0
  0
SPLINE
  5
344
100
AcDbEntity
  8
0
100
AcDbSpline
 62
9
  6
CONTINUOUS
 70
0
 71
3
 72
22
 73
18
 74
0
 42
0.0000001
 43
0.0000001
 44
0.0000000001
 40
0.0
 40
0.0
 40
0.0
 40
0.0
 40
0.078819924
 40
0.1571689437
 40
0.3105145073
 40
0.3846881951
 40
0.4566353971
 40
0.5259846354
 40
0.5924019293
 40
0.6556018642
 40
0.7153562951
 40
0.771507763
 40
0.8239870662
 40
0.8728289974
 40
0.9181976826
 40
0.960425452
 40
1.0
 40
1.0
 40
1.0
 40
1.0
 10
9.1876369671
 20
9.5969413855
 30
0.0
 10
9.1876467365
 20
9.5980935328
 30
0.0
 10
9.1876197772
 20
9.6003916677
 30
0.0
 10
9.1873855739
 20
9.6049254596
 30
0.0
 10
9.1868857448
 20
9.6093750664
 30
0.0
 10
9.1861096881
 20
9.6136845398
 30
0.0
 10
9.1854083075
 20
9.6167564801
 30
0.0
 10
9.1845863877
 20
9.6196808529
 30
0.0
 10
9.1836500366
 20
9.6224361063
 30
0.0
 10
9.1826062132
 20
9.6250018997
 30
0.0
 10
9.1814625036
 20
9.6273593646
 30
0.0
 10
9.1802271383
 20
9.6294912544
 30
0.0
 10
9.1789088274
 20
9.6313820595
 30
0.0
 10
9.1775166281
 20
9.6330179293
 30
0.0
 10
9.1760593983
 20
9.6343868335
 30
0.0
 10
9.1745470456
 20
9.6354773896
 30
0.0
 10
9.1734786073
 20
9.6360276264
 30
0.0
 10
9.1729434016
 20
9.6362472111
 30
0.0
  0
SPLINE
  5
345
100
AcDbEntity
  8
0
100
AcDbSpline
 62
9
  6
CONTINUOUS
 70
0
 71
3
 72
15
 73
11
 74
0
 42
0.0000001
 43
0.0000001
 44
0.0000000001
 40
0.0
 40
0.0
 40
0.0
 40
0.0
 40
0.1237058352
 40
0.2475472991
 40
0.3716607814
 40
0.496166865
 40
0.6211744662
 40
0.7467736602
 40
0.8730335522
 40
1.0
 40
1.0
 40
1.0
 40
1.0
 10
11.3824849713
 20
4.8836352342
 30
0.0
 10
11.3824849713
 20
4.8933687488
 30
0.0
 10
11.3815294524
 20
4.9128599031
 30
0.0
 10
11.3772424375
 20
4.9418320787
 30
0.0
 10
11.3701384794
 20
4.9703126058
 30
0.0
 10
11.3602780372
 20
4.9980561761
 30
0.0
 10
11.3477457046
 20
5.0248281829
 30
0.0
 10
11.3326477682
 20
5.0504021593
 30
0.0
 10
11.3151152172
 20
5.0745592999
 30
0.0
 10
11.3019350554
 20
5.0895467299
 30
0.0
 10
11.2949992943
 20
5.0967367709
 30
0.0
  0
SPLINE
  5
346
100
AcDbEntity
  8
0
100
AcDbSpline
 62
9
  6
CONTINUOUS
 70
0
 71
3
 72
15
 73
11
 74
0
 42
0.0000001
 43
0.0000001
 44
0.0000000001
 40
0.0
 40
0.0
 40
0.0
 40
0.0
 40
0.1269664477
 40
0.2532263398
 40
0.3788255338
 40
0.503833135
 40
0.6283392186
 40
0.7524527009
 40
0.8762941648
 40
1.0
 40
1.0
 40
1.0
 40
1.0
 10
10.7946373822
 20
5.0967367708
 30
0.0
 10
10.7877016212
 20
5.0895467299
 30
0.0
 10
10.7745214593
 20
5.0745592998
 30
0.0
 10
10.7569889084
 20
5.0504021592
 30
0.0
 10
10.741890972
 20
5.0248281829
 30
0.0
 10
10.7293586394
 20
4.9980561761
 30
0.0
 10
10.7194981972
 20
4.9703126058
 30
0.0
 10
10.7123942391
 20
4.9418320786
 30
0.0
 10
10.7081072242
 20
4.9128599031
 30
0.0
 10
10.7071517053
 20
4.8933687488
 30
0.0
 10
10.7071517053
 20
4.8836352342
 30
0.0
  0
SPLINE
  5
347
100
AcDbEntity
  8
0
100
AcDbSpline
 62
9
  6
CONTINUOUS
 70
0
 71
3
 72
15
 73
11
 74
0
 42
0.0000001
 43
0.0000001
 44
0.0000000001
 40
0.0
 40
0.0
 40
0.0
 40
0.0
 40
0.1571895632
 40
0.3079622016
 40
0.4505122873
 40
0.5833206814
 40
0.705156764
 40
0.8152220965
 40
0.9133099457
 40
1.0
 40
1.0
 40
1.0
 40
1.0
 10
8.7049331796
 20
9.3188508109
 30
0.0
 10
8.7048498813
 20
9.3196427239
 30
0.0
 10
8.704644631
 20
9.3211902116
 30
0.0
 10
8.7042118676
 20
9.3234323905
 30
0.0
 10
8.703666001
 20
9.3255226619
 30
0.0
 10
8.7030156451
 20
9.3274289545
 30
0.0
 10
8.7022706525
 20
9.3291224851
 30
0.0
 10
8.7014416982
 20
9.3305784715
 30
0.0
 10
8.7005405263
 20
9.3317752303
 30
0.0
 10
8.6998584946
 20
9.3324259557
 30
0.0
 10
8.6995090856
 20
9.3326919738
 30
0.0
  0
LINE
  5
348
100
AcDbEntity
  8
0
100
AcDbLine
 62
9
  6
CONTINUOUS
 10
13.4217884535
 20
9.6362137274
 11
13.4209843679
 21
9.6363312007
  0
LINE
  5
349
100
AcDbEntity
  8
0
100
AcDbLine
 62
9
  6
CONTINUOUS
 10
13.4209843679
 20
9.6363312007
 11
13.4179433931
 21
9.6362472145
  0
SPLINE
  5
34A
100
AcDbEntity
  8
0
100
AcDbSpline
 62
9
  6
CONTINUOUS
 70
0
 71
3
 72
15
 73
11
 74
0
 42
0.0000001
 43
0.0000001
 44
0.0000000001
 40
0.0
 40
0.0
 40
0.0
 40
0.0
 40
0.1571906761
 40
0.3079641178
 40
0.4505145906
 40
0.5833229149
 40
0.7051584955
 40
0.8152230301
 40
0.9133101175
 40
1.0
 40
1.0
 40
1.0
 40
1.0
 10
8.7049328822
 20
9.6491817978
 30
0.0
 10
8.7048495831
 20
9.6483898866
 30
0.0
 10
8.704644337
 20
9.6468424034
 30
0.0
 10
8.7042116035
 20
9.6446002289
 30
0.0
 10
8.7036657833
 20
9.6425099604
 30
0.0
 10
8.7030154848
 20
9.6406036692
 30
0.0
 10
8.7022705541
 20
9.6389101378
 30
0.0
 10
8.7014416584
 20
9.6374541478
 30
0.0
 10
8.7005405325
 20
9.6362573821
 30
0.0
 10
8.6998585202
 20
9.6356066547
 30
0.0
 10
8.699509118
 20
9.6353406358
 30
0.0
  0
SPLINE
  5
34B
100
AcDbEntity
  8
0
100
AcDbSpline
 62
9
  6
CONTINUOUS
 70
0
 71
3
 72
15
 73
11
 74
0
 42
0.0000001
 43
0.0000001
 44
0.0000000001
 40
0.0
 40
0.0
 40
0.0
 40
0.0
 40
0.1571895709
 40
0.3079622151
 40
0.4505123046
 40
0.5833207005
 40
0.7051567823
 40
0.8152221115
 40
0.9133099547
 40
1.0
 40
1.0
 40
1.0
 40
1.0
 10
9.1447034954
 20
9.6491818417
 30
0.0
 10
9.1447867936
 20
9.6483899287
 30
0.0
 10
9.1449920438
 20
9.646842441
 30
0.0
 10
9.1454248068
 20
9.6446002621
 30
0.0
 10
9.1459706733
 20
9.6425099906
 30
0.0
 10
9.1466210289
 20
9.6406036981
 30
0.0
 10
9.1473660212
 20
9.6389101674
 30
0.0
 10
9.1481949754
 20
9.637454181
 30
0.0
 10
9.149096147
 20
9.6362574223
 30
0.0
 10
9.1497781786
 20
9.6356066969
 30
0.0
 10
9.1501275875
 20
9.6353406788
 30
0.0
  0
SPLINE
  5
34C
100
AcDbEntity
  8
0
100
AcDbSpline
 62
9
  6
CONTINUOUS
 70
0
 71
3
 72
13
 73
9
 74
0
 42
0.0000001
 43
0.0000001
 44
0.0000000001
 40
0.0
 40
0.0
 40
0.0
 40
0.0
 40
0.2673289634
 40
0.5243756081
 40
0.6481941212
 40
0.7685483897
 40
0.8856533794
 40
1.0
 40
1.0
 40
1.0
 40
1.0
 10
9.1594203427
 20
9.6501376374
 30
0.0
 10
9.1599287073
 20
9.6484007477
 30
0.0
 10
9.1613130988
 20
9.6450925962
 30
0.0
 10
9.1639515686
 20
9.6415239579
 30
0.0
 10
9.1664797782
 20
9.6392466027
 30
0.0
 10
9.1685157941
 20
9.6378755231
 30
0.0
 10
9.1706746626
 20
9.6368491975
 30
0.0
 10
9.1721853165
 20
9.6364039884
 30
0.0
 10
9.1729433763
 20
9.6362472163
 30
0.0
  0
LINE
  5
34D
100
AcDbEntity
  8
0
100
AcDbLine
 62
9
  6
CONTINUOUS
 10
9.1767884517
 20
9.6362137277
 11
9.1759843979
 21
9.6363311992
  0
LINE
  5
34E
100
AcDbEntity
  8
0
100
AcDbLine
 62
9
  6
CONTINUOUS
 10
9.1759843979
 20
9.6363311992
 11
9.1729434016
 21
9.6362472111
  0
SPLINE
  5
34F
100
AcDbEntity
  8
0
100
AcDbSpline
 62
9
  6
CONTINUOUS
 70
0
 71
3
 72
15
 73
11
 74
0
 42
0.0000001
 43
0.0000001
 44
0.0000000001
 40
0.0
 40
0.0
 40
0.0
 40
0.0
 40
0.130614514
 40
0.2595005266
 40
0.3865611255
 40
0.5118369676
 40
0.6354865206
 40
0.7577938812
 40
0.8791338853
 40
1.0
 40
1.0
 40
1.0
 40
1.0
 10
9.1637748147
 20
9.3180429661
 30
0.0
 10
9.1639590778
 20
9.318870549
 30
0.0
 10
9.1644268042
 20
9.3204941847
 30
0.0
 10
9.1654233504
 20
9.3228042647
 30
0.0
 10
9.1666943383
 20
9.3249360333
 30
0.0
 10
9.1682181651
 20
9.3268521127
 30
0.0
 10
9.1699689814
 20
9.328519272
 30
0.0
 10
9.1719169613
 20
9.3299082044
 30
0.0
 10
9.1740279212
 20
9.3309945251
 30
0.0
 10
9.1755220968
 20
9.331504677
 30
0.0
 10
9.1762811365
 20
9.3317031899
 30
0.0
  0
SPLINE
  5
350
100
AcDbEntity
  8
0
100
AcDbSpline
 62
9
  6
CONTINUOUS
 70
0
 71
3
 72
13
 73
9
 74
0
 42
0.0000001
 43
0.0000001
 44
0.0000000001
 40
0.0
 40
0.0
 40
0.0
 40
0.0
 40
0.267331935
 40
0.5243802465
 40
0.6481988852
 40
0.7685525939
 40
0.885656099
 40
1.0
 40
1.0
 40
1.0
 40
1.0
 10
9.1594210958
 20
9.3178950984
 30
0.0
 10
9.1599294176
 20
9.319631974
 30
0.0
 10
9.1613137279
 20
9.3229400972
 30
0.0
 10
9.1639520891
 20
9.3265087163
 30
0.0
 10
9.1664801974
 20
9.3287860678
 30
0.0
 10
9.1685161224
 20
9.3301571479
 30
0.0
 10
9.1706748842
 20
9.3311834818
 30
0.0
 10
9.1721854624
 20
9.3316287065
 30
0.0
 10
9.1729434819
 20
9.3317854868
 30
0.0
  0
SPLINE
  5
351
100
AcDbEntity
  8
0
100
AcDbSpline
 62
9
  6
CONTINUOUS
 70
0
 71
3
 72
15
 73
11
 74
0
 42
0.0000001
 43
0.0000001
 44
0.0000000001
 40
0.0
 40
0.0
 40
0.0
 40
0.0
 40
0.1306122013
 40
0.2594962238
 40
0.3865552948
 40
0.5118302456
 40
0.635479716
 40
0.7577880083
 40
0.879130174
 40
1.0
 40
1.0
 40
1.0
 40
1.0
 10
8.6858622891
 20
9.3180429566
 30
0.0
 10
8.6856780265
 20
9.3188704764
 30
0.0
 10
8.6852103173
 20
9.3204939899
 30
0.0
 10
8.6842138434
 20
9.3228039074
 30
0.0
 10
8.6829429643
 20
9.3249355467
 30
0.0
 10
8.6814192734
 20
9.3268515392
 30
0.0
 10
8.6796686086
 20
9.328518662
 30
0.0
 10
8.6777207832
 20
9.3299076148
 30
0.0
 10
8.6756099651
 20
9.3309940181
 30
0.0
 10
8.6741158754
 20
9.3315042654
 30
0.0
 10
8.6733568713
 20
9.3317028382
 30
0.0
  0
SPLINE
  5
352
100
AcDbEntity
  8
0
100
AcDbSpline
 62
9
  6
CONTINUOUS
 70
0
 71
3
 72
13
 73
9
 74
0
 42
0.0000001
 43
0.0000001
 44
0.0000000001
 40
0.0
 40
0.0
 40
0.0
 40
0.0
 40
0.2673293677
 40
0.5243761332
 40
0.6481945888
 40
0.7685487336
 40
0.8856535557
 40
1.0
 40
1.0
 40
1.0
 40
1.0
 10
13.4044203902
 20
9.6501376408
 30
0.0
 10
13.404928754
 20
9.648400751
 30
0.0
 10
13.4063131404
 20
9.6450926003
 30
0.0
 10
13.4089516
 20
9.6415239596
 30
0.0
 10
13.4114798006
 20
9.6392466031
 30
0.0
 10
13.4135158088
 20
9.6378755234
 30
0.0
 10
13.4156746698
 20
9.6368491981
 30
0.0
 10
13.4171853188
 20
9.6364039897
 30
0.0
 10
13.4179433763
 20
9.6362472179
 30
0.0
  0
SPLINE
  5
353
100
AcDbEntity
  8
0
100
AcDbSpline
 62
9
  6
CONTINUOUS
 70
0
 71
3
 72
15
 73
11
 74
0
 42
0.0000001
 43
0.0000001
 44
0.0000000001
 40
0.0
 40
0.0
 40
0.0
 40
0.0
 40
0.1306143561
 40
0.2595002355
 40
0.3865607323
 40
0.5118365138
 40
0.6354860594
 40
0.7577934806
 40
0.8791336295
 40
1.0
 40
1.0
 40
1.0
 40
1.0
 10
8.6858619145
 20
9.6499896854
 30
0.0
 10
8.6856776479
 20
9.6491621026
 30
0.0
 10
8.6852099148
 20
9.6475384673
 30
0.0
 10
8.6842133602
 20
9.6452283881
 30
0.0
 10
8.6829423649
 20
9.6430966205
 30
0.0
 10
8.6814185312
 20
9.6411805417
 30
0.0
 10
8.6796677081
 20
9.6395133825
 30
0.0
 10
8.6777197212
 20
9.6381244496
 30
0.0
 10
8.6756087532
 20
9.6370381275
 30
0.0
 10
8.6741145719
 20
9.6365279743
 30
0.0
 10
8.6733555292
 20
9.6363294605
 30
0.0
  0
SPLINE
  5
354
100
AcDbEntity
  8
0
100
AcDbSpline
 62
9
  6
CONTINUOUS
 70
0
 71
3
 72
13
 73
9
 74
0
 42
0.0000001
 43
0.0000001
 44
0.0000000001
 40
0.0
 40
0.0
 40
0.0
 40
0.0
 40
0.2673313342
 40
0.5243794246
 40
0.6481981181
 40
0.7685519904
 40
0.8856557574
 40
1.0
 40
1.0
 40
1.0
 40
1.0
 10
8.6902156985
 20
9.6501375604
 30
0.0
 10
8.6897073723
 20
9.6484006822
 30
0.0
 10
8.6883230489
 20
9.6450925535
 30
0.0
 10
8.6856846657
 20
9.6415239334
 30
0.0
 10
8.6831565373
 20
9.6392465824
 30
0.0
 10
8.6811205953
 20
9.6378755028
 30
0.0
 10
8.6789618158
 20
9.6368491703
 30
0.0
 10
8.6774512259
 20
9.6364039472
 30
0.0
 10
8.6766932006
 20
9.6362471678
 30
0.0
  0
SPLINE
  5
355
100
AcDbEntity
  8
0
100
AcDbSpline
 62
9
  6
CONTINUOUS
 70
0
 71
3
 72
15
 73
11
 74
0
 42
0.0000001
 43
0.0000001
 44
0.0000000001
 40
0.0
 40
0.0
 40
0.0
 40
0.0
 40
0.1306120675
 40
0.259495964
 40
0.3865549306
 40
0.5118298086
 40
0.6354792588
 40
0.7577876037
 40
0.8791299179
 40
1.0
 40
1.0
 40
1.0
 40
1.0
 10
9.1637743319
 20
9.6499897007
 30
0.0
 10
9.1639586003
 20
9.6491621542
 30
0.0
 10
9.1644263286
 20
9.647538589
 30
0.0
 10
9.1654228521
 20
9.6452286036
 30
0.0
 10
9.1666937991
 20
9.6430969103
 30
0.0
 10
9.1682175736
 20
9.641180881
 30
0.0
 10
9.1699683341
 20
9.6395137416
 30
0.0
 10
9.1719162636
 20
9.6381247947
 30
0.0
 10
9.17402719
 20
9.6370384212
 30
0.0
 10
9.175521351
 20
9.6365282108
 30
0.0
 10
9.1762803897
 20
9.6363296603
 30
0.0
  0
SPLINE
  5
356
100
AcDbEntity
  8
0
100
AcDbSpline
 62
9
  6
CONTINUOUS
 70
0
 71
3
 72
15
 73
11
 74
0
 42
0.0000001
 43
0.0000001
 44
0.0000000001
 40
0.0
 40
0.0
 40
0.0
 40
0.0
 40
0.1571907986
 40
0.3079643345
 40
0.4505148682
 40
0.5833232162
 40
0.7051587806
 40
0.8152232578
 40
0.9133102479
 40
1.0
 40
1.0
 40
1.0
 40
1.0
 10
12.9499328652
 20
9.6491817976
 30
0.0
 10
12.9498495674
 20
9.6483898865
 30
0.0
 10
12.9496443242
 20
9.6468424035
 30
0.0
 10
12.9492115954
 20
9.644600229
 30
0.0
 10
12.9486657803
 20
9.6425099606
 30
0.0
 10
12.948015487
 20
9.6406036695
 30
0.0
 10
12.9472705615
 20
9.6389101382
 30
0.0
 10
12.946441671
 20
9.6374541483
 30
0.0
 10
12.9455405502
 20
9.6362573826
 30
0.0
 10
12.944858541
 20
9.635606655
 30
0.0
 10
12.9445091402
 20
9.635340636
 30
0.0
  0
SPLINE
  5
357
100
AcDbEntity
  8
0
100
AcDbSpline
 62
9
  6
CONTINUOUS
 70
0
 71
3
 72
15
 73
11
 74
0
 42
0.0000001
 43
0.0000001
 44
0.0000000001
 40
0.0
 40
0.0
 40
0.0
 40
0.0
 40
0.1571907986
 40
0.3079643345
 40
0.4505148682
 40
0.5833232162
 40
0.7051587806
 40
0.8152232578
 40
0.9133102479
 40
1.0
 40
1.0
 40
1.0
 40
1.0
 10
9.1447038114
 20
9.3188508546
 30
0.0
 10
9.1447871091
 20
9.3196427657
 30
0.0
 10
9.1449923523
 20
9.3211902488
 30
0.0
 10
9.1454250812
 20
9.3234324232
 30
0.0
 10
9.1459708963
 20
9.3255226916
 30
0.0
 10
9.1466211895
 20
9.3274289827
 30
0.0
 10
9.147366115
 20
9.329122514
 30
0.0
 10
9.1481950055
 20
9.3305785039
 30
0.0
 10
9.1490961264
 20
9.3317752696
 30
0.0
 10
9.1497781356
 20
9.3324259972
 30
0.0
 10
9.1501275363
 20
9.3326920162
 30
0.0
  0
SPLINE
  5
358
100
AcDbEntity
  8
0
100
AcDbSpline
 62
9
  6
CONTINUOUS
 70
0
 71
3
 72
13
 73
9
 74
0
 42
0.0000001
 43
0.0000001
 44
0.0000000001
 40
0.0
 40
0.0
 40
0.0
 40
0.0
 40
0.2673293677
 40
0.5243761332
 40
0.6481945888
 40
0.7685487336
 40
0.8856535557
 40
1.0
 40
1.0
 40
1.0
 40
1.0
 10
8.6902162864
 20
9.3178950114
 30
0.0
 10
8.6897079226
 20
9.3196319012
 30
0.0
 10
8.6883235362
 20
9.322940052
 30
0.0
 10
8.6856850765
 20
9.3265086926
 30
0.0
 10
8.683156876
 20
9.3287860491
 30
0.0
 10
8.6811208678
 20
9.3301571288
 30
0.0
 10
8.6789620068
 20
9.3311834541
 30
0.0
 10
8.6774513577
 20
9.3316286625
 30
0.0
 10
8.6766933003
 20
9.3317854343
 30
0.0
  0
SPLINE
  5
359
100
AcDbEntity
  8
0
100
AcDbSpline
 62
9
  6
CONTINUOUS
 70
0
 71
3
 72
15
 73
11
 74
0
 42
0.0000001
 43
0.0000001
 44
0.0000000001
 40
0.0
 40
0.0
 40
0.0
 40
0.0
 40
0.1306120675
 40
0.259495964
 40
0.3865549306
 40
0.5118298086
 40
0.6354792588
 40
0.7577876037
 40
0.8791299179
 40
1.0
 40
1.0
 40
1.0
 40
1.0
 10
12.9308623447
 20
9.3180429515
 30
0.0
 10
12.9306780763
 20
9.318870498
 30
0.0
 10
12.930210348
 20
9.3204940632
 30
0.0
 10
12.9292138245
 20
9.3228040486
 30
0.0
 10
12.9279428775
 20
9.3249357419
 30
0.0
 10
12.926419103
 20
9.3268517712
 30
0.0
 10
12.9246683425
 20
9.3285189106
 30
0.0
 10
12.9227204129
 20
9.3299078575
 30
0.0
 10
12.9206094866
 20
9.330994231
 30
0.0
 10
12.9191153256
 20
9.3315044415
 30
0.0
 10
12.9183562869
 20
9.3317029919
 30
0.0
  0
SPLINE
  5
35A
100
AcDbEntity
  8
0
100
AcDbSpline
 62
9
  6
CONTINUOUS
 70
0
 71
3
 72
13
 73
9
 74
0
 42
0.0000001
 43
0.0000001
 44
0.0000000001
 40
0.0
 40
0.0
 40
0.0
 40
0.0
 40
0.2673313342
 40
0.5243794246
 40
0.6481981181
 40
0.7685519904
 40
0.8856557574
 40
1.0
 40
1.0
 40
1.0
 40
1.0
 10
13.404420978
 20
9.3178950919
 30
0.0
 10
13.4049293042
 20
9.31963197
 30
0.0
 10
13.4063136276
 20
9.3229400987
 30
0.0
 10
13.4089520109
 20
9.3265087189
 30
0.0
 10
13.4114801393
 20
9.3287860698
 30
0.0
 10
13.4135160812
 20
9.3301571494
 30
0.0
 10
13.4156748607
 20
9.3311834819
 30
0.0
 10
13.4171854506
 20
9.331628705
 30
0.0
 10
13.417943476
 20
9.3317854844
 30
0.0
  0
SPLINE
  5
35B
100
AcDbEntity
  8
0
100
AcDbSpline
 62
9
  6
CONTINUOUS
 70
0
 71
3
 72
15
 73
11
 74
0
 42
0.0000001
 43
0.0000001
 44
0.0000000001
 40
0.0
 40
0.0
 40
0.0
 40
0.0
 40
0.1306143561
 40
0.2595002355
 40
0.3865607323
 40
0.5118365138
 40
0.6354860594
 40
0.7577934806
 40
0.8791336295
 40
1.0
 40
1.0
 40
1.0
 40
1.0
 10
13.4087747621
 20
9.3180429668
 30
0.0
 10
13.4089590287
 20
9.3188705496
 30
0.0
 10
13.4094267618
 20
9.3204941849
 30
0.0
 10
13.4104233164
 20
9.3228042641
 30
0.0
 10
13.4116943117
 20
9.3249360317
 30
0.0
 10
13.4132181454
 20
9.3268521105
 30
0.0
 10
13.4149689685
 20
9.3285192697
 30
0.0
 10
13.4169169554
 20
9.3299082026
 30
0.0
 10
13.4190279234
 20
9.3309945247
 30
0.0
 10
13.4205221046
 20
9.3315046779
 30
0.0
 10
13.4212811474
 20
9.3317031917
 30
0.0
  0
SPLINE
  5
35C
100
AcDbEntity
  8
0
100
AcDbSpline
 62
9
  6
CONTINUOUS
 70
0
 71
3
 72
15
 73
11
 74
0
 42
0.0000001
 43
0.0000001
 44
0.0000000001
 40
0.0
 40
0.0
 40
0.0
 40
0.0
 40
0.1306122013
 40
0.2594962238
 40
0.3865552948
 40
0.5118302456
 40
0.635479716
 40
0.7577880083
 40
0.879130174
 40
1.0
 40
1.0
 40
1.0
 40
1.0
 10
13.4087743875
 20
9.6499896956
 30
0.0
 10
13.4089586501
 20
9.6491621759
 30
0.0
 10
13.4094263592
 20
9.6475386623
 30
0.0
 10
13.4104228332
 20
9.6452287448
 30
0.0
 10
13.4116937122
 20
9.6430971055
 30
0.0
 10
13.4132174032
 20
9.641181113
 30
0.0
 10
13.4149680679
 20
9.6395139902
 30
0.0
 10
13.4169158933
 20
9.6381250374
 30
0.0
 10
13.4190267115
 20
9.6370386341
 30
0.0
 10
13.4205208011
 20
9.6365283868
 30
0.0
 10
13.4212798053
 20
9.636329814
 30
0.0
  0
SPLINE
  5
35D
100
AcDbEntity
  8
0
100
AcDbSpline
 62
9
  6
CONTINUOUS
 70
0
 71
3
 72
13
 73
9
 74
0
 42
0.0000001
 43
0.0000001
 44
0.0000000001
 40
0.0
 40
0.0
 40
0.0
 40
0.0
 40
0.267331935
 40
0.5243802465
 40
0.6481988852
 40
0.7685525939
 40
0.885656099
 40
1.0
 40
1.0
 40
1.0
 40
1.0
 10
12.9352155807
 20
9.6501375538
 30
0.0
 10
12.934707259
 20
9.6484006782
 30
0.0
 10
12.9333229486
 20
9.645092555
 30
0.0
 10
12.9306845875
 20
9.6415239359
 30
0.0
 10
12.9281564792
 20
9.6392465844
 30
0.0
 10
12.9261205541
 20
9.6378755043
 30
0.0
 10
12.9239617923
 20
9.6368491704
 30
0.0
 10
12.9224512141
 20
9.6364039457
 30
0.0
 10
12.9216931947
 20
9.6362471654
 30
0.0
  0
SPLINE
  5
35E
100
AcDbEntity
  8
0
100
AcDbSpline
 62
9
  6
CONTINUOUS
 70
0
 71
3
 72
15
 73
11
 74
0
 42
0.0000001
 43
0.0000001
 44
0.0000000001
 40
0.0
 40
0.0
 40
0.0
 40
0.0
 40
0.130614514
 40
0.2595005266
 40
0.3865611255
 40
0.5118369676
 40
0.6354865206
 40
0.7577938812
 40
0.8791338853
 40
1.0
 40
1.0
 40
1.0
 40
1.0
 10
12.9308618618
 20
9.6499896861
 30
0.0
 10
12.9306775988
 20
9.6491621032
 30
0.0
 10
12.9302098724
 20
9.6475384675
 30
0.0
 10
12.9292133262
 20
9.6452283875
 30
0.0
 10
12.9279423383
 20
9.6430966189
 30
0.0
 10
12.9264185114
 20
9.6411805395
 30
0.0
 10
12.9246676951
 20
9.6395133802
 30
0.0
 10
12.9227197153
 20
9.6381244478
 30
0.0
 10
12.9206087553
 20
9.6370381271
 30
0.0
 10
12.9191145797
 20
9.6365279752
 30
0.0
 10
12.9183555401
 20
9.6363294623
 30
0.0
  0
SPLINE
  5
35F
100
AcDbEntity
  8
0
100
AcDbSpline
 62
9
  6
CONTINUOUS
 70
0
 71
3
 72
13
 73
9
 74
0
 42
0.0000001
 43
0.0000001
 44
0.0000000001
 40
0.0
 40
0.0
 40
0.0
 40
0.0
 40
0.2673289634
 40
0.5243756081
 40
0.6481941212
 40
0.7685483897
 40
0.8856533794
 40
1.0
 40
1.0
 40
1.0
 40
1.0
 10
12.9352163339
 20
9.3178950148
 30
0.0
 10
12.9347079692
 20
9.3196319045
 30
0.0
 10
12.9333235777
 20
9.322940056
 30
0.0
 10
12.930685108
 20
9.3265086943
 30
0.0
 10
12.9281568984
 20
9.3287860495
 30
0.0
 10
12.9261208825
 20
9.3301571291
 30
0.0
 10
12.923962014
 20
9.3311834547
 30
0.0
 10
12.9224513601
 20
9.3316286638
 30
0.0
 10
12.9216933002
 20
9.3317854359
 30
0.0
  0
SPLINE
  5
360
100
AcDbEntity
  8
0
100
AcDbSpline
 62
9
  6
CONTINUOUS
 70
0
 71
3
 72
15
 73
11
 74
0
 42
0.0000001
 43
0.0000001
 44
0.0000000001
 40
0.0
 40
0.0
 40
0.0
 40
0.0
 40
0.1571895709
 40
0.3079622151
 40
0.4505123046
 40
0.5833207005
 40
0.7051567823
 40
0.8152221115
 40
0.9133099547
 40
1.0
 40
1.0
 40
1.0
 40
1.0
 10
12.9499331812
 20
9.3188508105
 30
0.0
 10
12.949849883
 20
9.3196427235
 30
0.0
 10
12.9496446328
 20
9.3211902112
 30
0.0
 10
12.9492118697
 20
9.3234323901
 30
0.0
 10
12.9486660033
 20
9.3255226616
 30
0.0
 10
12.9480156477
 20
9.3274289542
 30
0.0
 10
12.9472706553
 20
9.3291224848
 30
0.0
 10
12.9464417012
 20
9.3305784712
 30
0.0
 10
12.9455405296
 20
9.3317752299
 30
0.0
 10
12.944858498
 20
9.3324259553
 30
0.0
 10
12.9445090891
 20
9.3326919734
 30
0.0
  0
SPLINE
  5
361
100
AcDbEntity
  8
0
100
AcDbSpline
 62
9
  6
CONTINUOUS
 70
0
 71
3
 72
15
 73
11
 74
0
 42
0.0000001
 43
0.0000001
 44
0.0000000001
 40
0.0
 40
0.0
 40
0.0
 40
0.0
 40
0.1571906761
 40
0.3079641178
 40
0.4505145906
 40
0.5833229149
 40
0.7051584955
 40
0.8152230301
 40
0.9133101175
 40
1.0
 40
1.0
 40
1.0
 40
1.0
 10
13.3897037943
 20
9.3188508544
 30
0.0
 10
13.3897870935
 20
9.3196427656
 30
0.0
 10
13.3899923395
 20
9.3211902488
 30
0.0
 10
13.3904250731
 20
9.3234324233
 30
0.0
 10
13.3909708932
 20
9.3255226918
 30
0.0
 10
13.3916211917
 20
9.327428983
 30
0.0
 10
13.3923661225
 20
9.3291225144
 30
0.0
 10
13.3931950182
 20
9.3305785044
 30
0.0
 10
13.394096144
 20
9.3317752701
 30
0.0
 10
13.3947781563
 20
9.3324259975
 30
0.0
 10
13.3951275585
 20
9.3326920164
 30
0.0
  0
SPLINE
  5
362
100
AcDbEntity
  8
0
100
AcDbSpline
 62
9
  6
CONTINUOUS
 70
0
 71
3
 72
15
 73
11
 74
0
 42
0.0000001
 43
0.0000001
 44
0.0000000001
 40
0.0
 40
0.0
 40
0.0
 40
0.0
 40
0.1571895632
 40
0.3079622016
 40
0.4505122873
 40
0.5833206814
 40
0.705156764
 40
0.8152220965
 40
0.9133099457
 40
1.0
 40
1.0
 40
1.0
 40
1.0
 10
13.389703497
 20
9.6491818413
 30
0.0
 10
13.3897867953
 20
9.6483899283
 30
0.0
 10
13.3899920456
 20
9.6468424406
 30
0.0
 10
13.3904248089
 20
9.6446002617
 30
0.0
 10
13.3909706756
 20
9.6425099903
 30
0.0
 10
13.3916210314
 20
9.6406036978
 30
0.0
 10
13.392366024
 20
9.6389101671
 30
0.0
 10
13.3931949784
 20
9.6374541807
 30
0.0
 10
13.3940961502
 20
9.6362574219
 30
0.0
 10
13.394778182
 20
9.6356066966
 30
0.0
 10
13.3951275909
 20
9.6353406784
 30
0.0
  0
SPLINE
  5
363
100
AcDbEntity
  8
0
100
AcDbSpline
 62
9
  6
CONTINUOUS
 70
0
 71
3
 72
22
 73
18
 74
0
 42
0.0000001
 43
0.0000001
 44
0.0000000001
 40
0.0
 40
0.0
 40
0.0
 40
0.0
 40
0.078819924
 40
0.1571689437
 40
0.3105145073
 40
0.3846881951
 40
0.4566353971
 40
0.5259846354
 40
0.5924019293
 40
0.6556018642
 40
0.7153562951
 40
0.771507763
 40
0.8239870662
 40
0.8728289974
 40
0.9181976826
 40
0.960425452
 40
1.0
 40
1.0
 40
1.0
 40
1.0
 10
12.9069997095
 20
9.3710912667
 30
0.0
 10
12.9069899401
 20
9.3699391194
 30
0.0
 10
12.9070168994
 20
9.3676409845
 30
0.0
 10
12.9072511027
 20
9.3631071926
 30
0.0
 10
12.9077509318
 20
9.3586575858
 30
0.0
 10
12.9085269885
 20
9.3543481124
 30
0.0
 10
12.9092283691
 20
9.3512761721
 30
0.0
 10
12.9100502889
 20
9.3483517993
 30
0.0
 10
12.9109866399
 20
9.3455965459
 30
0.0
 10
12.9120304633
 20
9.3430307526
 30
0.0
 10
12.913174173
 20
9.3406732876
 30
0.0
 10
12.9144095383
 20
9.3385413979
 30
0.0
 10
12.9157278492
 20
9.3366505927
 30
0.0
 10
12.9171200484
 20
9.335014723
 30
0.0
 10
12.9185772783
 20
9.3336458187
 30
0.0
 10
12.9200896309
 20
9.3325552626
 30
0.0
 10
12.9211580693
 20
9.3320050258
 30
0.0
 10
12.9216932749
 20
9.3317854411
 30
0.0
  0
SPLINE
  5
364
100
AcDbEntity
  8
0
100
AcDbSpline
 62
9
  6
CONTINUOUS
 70
0
 71
3
 72
11
 73
7
 74
0
 42
0.0000001
 43
0.0000001
 44
0.0000000001
 40
0.0
 40
0.0
 40
0.0
 40
0.0
 40
0.2230321835
 40
0.4658060499
 40
0.7256424243
 40
1.0
 40
1.0
 40
1.0
 40
1.0
 10
12.9216932897
 20
9.3317854352
 30
0.0
 10
12.9233863844
 20
9.3319161165
 30
0.0
 10
12.9269229418
 20
9.3321833272
 30
0.0
 10
12.932439131
 20
9.3325019654
 30
0.0
 10
12.9383524269
 20
9.3326939634
 30
0.0
 10
12.9424202955
 20
9.3327112839
 30
0.0
 10
12.94450912
 20
9.3326919731
 30
0.0
  0
SPLINE
  5
365
100
AcDbEntity
  8
0
100
AcDbSpline
 62
9
  6
CONTINUOUS
 70
0
 71
3
 72
22
 73
18
 74
0
 42
0.0000001
 43
0.0000001
 44
0.0000000001
 40
0.0
 40
0.0
 40
0.0
 40
0.0
 40
0.0788199611
 40
0.157169076
 40
0.3105145614
 40
0.3846882716
 40
0.4566354756
 40
0.5259847332
 40
0.5924020542
 40
0.6556020181
 40
0.7153564811
 40
0.771507978
 40
0.8239873023
 40
0.872829236
 40
0.9181978928
 40
0.9604255983
 40
1.0
 40
1.0
 40
1.0
 40
1.0
 10
13.432636967
 20
9.3710912667
 30
0.0
 10
13.4326467363
 20
9.3699391235
 30
0.0
 10
13.4326196581
 20
9.3676409962
 30
0.0
 10
13.4323853627
 20
9.3631072301
 30
0.0
 10
13.4318856171
 20
9.3586576324
 30
0.0
 10
13.4311095528
 20
9.3543481784
 30
0.0
 10
13.4304081906
 20
9.3512762467
 30
0.0
 10
13.4295862828
 20
9.3483518824
 30
0.0
 10
13.4286499472
 20
9.3455966351
 30
0.0
 10
13.427606141
 20
9.3430308456
 30
0.0
 10
13.4264624498
 20
9.3406733821
 30
0.0
 10
13.4252271041
 20
9.3385414912
 30
0.0
 10
13.423908814
 20
9.3366506822
 30
0.0
 10
13.4225166364
 20
9.3350148055
 30
0.0
 10
13.4210594279
 20
9.3336458925
 30
0.0
 10
13.4195470992
 20
9.3325553227
 30
0.0
 10
13.418478676
 20
9.3320050733
 30
0.0
 10
13.417943477
 20
9.3317854843
 30
0.0
  0
SPLINE
  5
366
100
AcDbEntity
  8
0
100
AcDbSpline
 62
9
  6
CONTINUOUS
 70
0
 71
3
 72
9
 73
5
 74
0
 42
0.0000001
 43
0.0000001
 44
0.0000000001
 40
0.0
 40
0.0
 40
0.0
 40
0.0
 40
0.5253005236
 40
1.0
 40
1.0
 40
1.0
 40
1.0
 10
13.417943477
 20
9.3317854843
 30
0.0
 10
13.4185239596
 20
9.3317065221
 30
0.0
 10
13.4196379533
 20
9.3316125515
 30
0.0
 10
13.4207566465
 20
9.3316662431
 30
0.0
 10
13.4212813811
 20
9.3317363482
 30
0.0
  0
SPLINE
  5
367
100
AcDbEntity
  8
0
100
AcDbSpline
 62
9
  6
CONTINUOUS
 70
0
 71
3
 72
11
 73
7
 74
0
 42
0.0000001
 43
0.0000001
 44
0.0000000001
 40
0.0
 40
0.0
 40
0.0
 40
0.0
 40
0.2743511754
 40
0.5341937735
 40
0.7769602789
 40
1.0
 40
1.0
 40
1.0
 40
1.0
 10
13.3951275573
 20
9.3326920164
 30
0.0
 10
13.3972163336
 20
9.3327114098
 30
0.0
 10
13.4012842016
 20
9.332693779
 30
0.0
 10
13.4071974534
 20
9.332502106
 30
0.0
 10
13.4127136777
 20
9.332183161
 30
0.0
 10
13.4162502594
 20
9.3319162414
 30
0.0
 10
13.4179434047
 20
9.3317854552
 30
0.0
  0
LINE
  5
368
100
AcDbEntity
  8
0
100
AcDbLine
 62
9
  6
CONTINUOUS
 10
13.1698334288
 20
9.3698546547
 11
13.1698110092
 21
9.3316947177
  0
SPLINE
  5
369
100
AcDbEntity
  8
0
100
AcDbSpline
 62
9
  6
CONTINUOUS
 70
0
 71
3
 72
14
 73
10
 74
0
 42
0.0000001
 43
0.0000001
 44
0.0000000001
 40
0.0
 40
0.0
 40
0.0
 40
0.0
 40
0.2440264428
 40
0.36738392
 40
0.4918015763
 40
0.6173679372
 40
0.7440671636
 40
0.8717900631
 40
1.0
 40
1.0
 40
1.0
 40
1.0
 10
13.3266296631
 20
9.6768900824
 30
0.0
 10
13.3257811959
 20
9.6775001797
 30
0.0
 10
13.3244654799
 20
9.6783686445
 30
0.0
 10
13.3226168669
 20
9.6793800928
 30
0.0
 10
13.3211663663
 20
9.6800556868
 30
0.0
 10
13.3196552427
 20
9.6806257179
 30
0.0
 10
13.3180828046
 20
9.6810551446
 30
0.0
 10
13.316464212
 20
9.6813267838
 30
0.0
 10
13.3153673973
 20
9.6813936637
 30
0.0
 10
13.3148183383
 20
9.6813934089
 30
0.0
  0
SPLINE
  5
36A
100
AcDbEntity
  8
0
100
AcDbSpline
 62
9
  6
CONTINUOUS
 70
0
 71
3
 72
14
 73
10
 74
0
 42
0.0000001
 43
0.0000001
 44
0.0000000001
 40
0.0
 40
0.0
 40
0.0
 40
0.0
 40
0.1282162828
 40
0.2559221132
 40
0.3826286288
 40
0.508202929
 40
0.6326155772
 40
0.7559732136
 40
1.0
 40
1.0
 40
1.0
 40
1.0
 10
13.0248183383
 20
9.6813934089
 30
0.0
 10
13.0242691984
 20
9.681393633
 30
0.0
 10
13.0231722183
 20
9.6813285442
 30
0.0
 10
13.0215535763
 20
9.6810554249
 30
0.0
 10
13.0199815892
 20
9.6806241882
 30
0.0
 10
13.0184695837
 20
9.6800560416
 30
0.0
 10
13.017018789
 20
9.6793805223
 30
0.0
 10
13.0151706184
 20
9.6783678974
 30
0.0
 10
13.0138546927
 20
9.6774995317
 30
0.0
 10
13.0130061063
 20
9.6768894224
 30
0.0
  0
SPLINE
  5
36B
100
AcDbEntity
  8
0
100
AcDbSpline
 62
9
  6
CONTINUOUS
 70
0
 71
3
 72
17
 73
13
 74
0
 42
0.0000001
 43
0.0000001
 44
0.0000000001
 40
0.0
 40
0.0
 40
0.0
 40
0.0
 40
0.1216492284
 40
0.2440581616
 40
0.3673962073
 40
0.4917996718
 40
0.6173404623
 40
0.6805472337
 40
0.7440546347
 40
0.8078258799
 40
0.8718161561
 40
1.0
 40
1.0
 40
1.0
 40
1.0
 10
13.0130069889
 20
9.2911422811
 30
0.0
 10
13.0134299807
 20
9.2908380576
 30
0.0
 10
13.0142908884
 20
9.2902444868
 30
0.0
 10
13.015628098
 20
9.2894137359
 30
0.0
 10
13.0170201455
 20
9.2886530046
 30
0.0
 10
13.0184703131
 20
9.2879771181
 30
0.0
 10
13.0197265101
 20
9.2875020108
 30
0.0
 10
13.0207621026
 20
9.28719256
 30
0.0
 10
13.0215549466
 20
9.286998686
 30
0.0
 10
13.0223597995
 20
9.2868439341
 30
0.0
 10
13.0234454426
 20
9.2866903619
 30
0.0
 10
13.0242693185
 20
9.2866389252
 30
0.0
 10
13.0248183383
 20
9.2866392433
 30
0.0
  0
SPLINE
  5
36C
100
AcDbEntity
  8
0
100
AcDbSpline
 62
9
  6
CONTINUOUS
 70
0
 71
3
 72
17
 73
13
 74
0
 42
0.0000001
 43
0.0000001
 44
0.0000000001
 40
0.0
 40
0.0
 40
0.0
 40
0.0
 40
0.1281748031
 40
0.1921737569
 40
0.2559552692
 40
0.3194655345
 40
0.3826668464
 40
0.5081958609
 40
0.6326078301
 40
0.7559458206
 40
0.8783524251
 40
1.0
 40
1.0
 40
1.0
 40
1.0
 10
13.3148183383
 20
9.2866392433
 30
0.0
 10
13.3153671217
 20
9.2866386262
 30
0.0
 10
13.3161906691
 20
9.2866911731
 30
0.0
 10
13.3172759199
 20
9.2868447214
 30
0.0
 10
13.3180807742
 20
9.2869983458
 30
0.0
 10
13.3188736705
 20
9.2871909211
 30
0.0
 10
13.3199090735
 20
9.2874995276
 30
0.0
 10
13.3211642758
 20
9.2879759032
 30
0.0
 10
13.322613655
 20
9.2886519328
 30
0.0
 10
13.3240058483
 20
9.289411254
 30
0.0
 10
13.3253428005
 20
9.2902413484
 30
0.0
 10
13.3262033585
 20
9.2908347369
 30
0.0
 10
13.3266261669
 20
9.2911388824
 30
0.0
  0
SPLINE
  5
36D
100
AcDbEntity
  8
0
100
AcDbSpline
 62
9
  6
CONTINUOUS
 70
0
 71
3
 72
11
 73
7
 74
0
 42
0.0000001
 43
0.0000001
 44
0.0000000001
 40
0.0
 40
0.0
 40
0.0
 40
0.0
 40
0.2743495965
 40
0.5341923437
 40
0.7769608321
 40
1.0
 40
1.0
 40
1.0
 40
1.0
 10
12.944509142
 20
9.635340636
 30
0.0
 10
12.9424203754
 20
9.6353212318
 30
0.0
 10
12.9383525134
 20
9.6353389065
 30
0.0
 10
12.932439251
 20
9.6355305673
 30
0.0
 10
12.9269230054
 20
9.6358494714
 30
0.0
 10
12.9233864103
 20
9.6361164142
 30
0.0
 10
12.9216932668
 20
9.636247195
 30
0.0
  0
SPLINE
  5
36E
100
AcDbEntity
  8
0
100
AcDbSpline
 62
9
  6
CONTINUOUS
 70
0
 71
3
 72
14
 73
10
 74
0
 42
0.0000001
 43
0.0000001
 44
0.0000000001
 40
0.0
 40
0.0
 40
0.0
 40
0.0
 40
0.2440261419
 40
0.3673833441
 40
0.4918019511
 40
0.6173672095
 40
0.744067625
 40
0.8717907158
 40
1.0
 40
1.0
 40
1.0
 40
1.0
 10
8.7680095067
 20
9.2911407674
 30
0.0
 10
8.7688578105
 20
9.2905308738
 30
0.0
 10
8.7701733187
 20
9.2896627827
 30
0.0
 10
8.7720215528
 20
9.2886516972
 30
0.0
 10
8.7734717262
 20
9.2879763082
 30
0.0
 10
8.7749825677
 20
9.287406604
 30
0.0
 10
8.7765546607
 20
9.2869774206
 30
0.0
 10
8.7781728572
 20
9.2867057709
 30
0.0
 10
8.7792694136
 20
9.2866389886
 30
0.0
 10
8.7798183383
 20
9.2866392433
 30
0.0
  0
LINE
  5
36F
100
AcDbEntity
  8
0
100
AcDbLine
 62
9
  6
CONTINUOUS
 10
13.1698240798
 20
9.636337935
 11
13.1698104399
 21
9.5981780018
  0
SPLINE
  5
370
100
AcDbEntity
  8
0
100
AcDbSpline
 62
9
  6
CONTINUOUS
 70
0
 71
3
 72
14
 73
10
 74
0
 42
0.0000001
 43
0.0000001
 44
0.0000000001
 40
0.0
 40
0.0
 40
0.0
 40
0.0
 40
0.1282156491
 40
0.2559216459
 40
0.3826289558
 40
0.5082023708
 40
0.6326161635
 40
0.7559734702
 40
1.0
 40
1.0
 40
1.0
 40
1.0
 10
9.0698183383
 20
9.2866392433
 30
0.0
 10
9.070367334
 20
9.2866390193
 30
0.0
 10
9.0714640335
 20
9.2867040219
 30
0.0
 10
9.0730822585
 20
9.2869770898
 30
0.0
 10
9.0746538614
 20
9.2874081215
 30
0.0
 10
9.0761655442
 20
9.287975957
 30
0.0
 10
9.0776160197
 20
9.2886511875
 30
0.0
 10
9.0794637943
 20
9.2896634073
 30
0.0
 10
9.0807794759
 20
9.2905314025
 30
0.0
 10
9.0816278845
 20
9.291141296
 30
0.0
  0
SPLINE
  5
371
100
AcDbEntity
  8
0
100
AcDbSpline
 62
9
  6
CONTINUOUS
 70
0
 71
3
 72
17
 73
13
 74
0
 42
0.0000001
 43
0.0000001
 44
0.0000000001
 40
0.0
 40
0.0
 40
0.0
 40
0.0
 40
0.121648478
 40
0.2440574795
 40
0.3673954494
 40
0.4918000844
 40
0.617339457
 40
0.6805469133
 40
0.7440550007
 40
0.8078264554
 40
0.871816916
 40
1.0
 40
1.0
 40
1.0
 40
1.0
 10
9.0816271808
 20
9.6768921855
 30
0.0
 10
9.0812042767
 20
9.6771963108
 30
0.0
 10
9.0803435209
 20
9.6777896548
 30
0.0
 10
9.0790065527
 20
9.6786200703
 30
0.0
 10
9.0776147798
 20
9.6793805133
 30
0.0
 10
9.0761649599
 20
9.6800562325
 30
0.0
 10
9.0749090007
 20
9.6805310759
 30
0.0
 10
9.0738736054
 20
9.6808402736
 30
0.0
 10
9.0730809399
 20
9.681034072
 30
0.0
 10
9.0722762806
 20
9.6811888085
 30
0.0
 10
9.0711909016
 20
9.6813423642
 30
0.0
 10
9.0703672227
 20
9.681393727
 30
0.0
 10
9.0698183383
 20
9.6813934089
 30
0.0
  0
SPLINE
  5
372
100
AcDbEntity
  8
0
100
AcDbSpline
 62
9
  6
CONTINUOUS
 70
0
 71
3
 72
17
 73
13
 74
0
 42
0.0000001
 43
0.0000001
 44
0.0000000001
 40
0.0
 40
0.0
 40
0.0
 40
0.0
 40
0.1281738412
 40
0.1921731084
 40
0.2559552007
 40
0.3194664503
 40
0.3826684639
 40
0.5081949772
 40
0.6326078867
 40
0.755945833
 40
0.8783529105
 40
1.0
 40
1.0
 40
1.0
 40
1.0
 10
8.7798183383
 20
9.6813934089
 30
0.0
 10
8.7792696908
 20
9.6813940258
 30
0.0
 10
8.7784463396
 20
9.6813415548
 30
0.0
 10
8.7773613532
 20
9.6811880095
 30
0.0
 10
8.7765566872
 20
9.6810344088
 30
0.0
 10
8.7757639619
 20
9.6808419266
 30
0.0
 10
8.7747287474
 20
9.6805336118
 30
0.0
 10
8.7734737991
 20
9.6800574591
 30
0.0
 10
8.7720248295
 20
9.679381478
 30
0.0
 10
8.7706329091
 20
9.6786224502
 30
0.0
 10
8.7692961581
 20
9.6777927492
 30
0.0
 10
8.7684357277
 20
9.677199616
 30
0.0
 10
8.7680129988
 20
9.6768955778
 30
0.0
  0
LINE
  5
373
100
AcDbEntity
  8
0
100
AcDbLine
 62
9
  6
CONTINUOUS
 10
8.672848223
 20
9.3318189248
 11
8.6736523087
 21
9.3317014515
  0
LINE
  5
374
100
AcDbEntity
  8
0
100
AcDbLine
 62
9
  6
CONTINUOUS
 10
8.6736523087
 20
9.3317014515
 11
8.6766932835
 21
9.3317854377
  0
SPLINE
  5
375
100
AcDbEntity
  8
0
100
AcDbSpline
 62
9
  6
CONTINUOUS
 70
0
 71
3
 72
22
 73
18
 74
0
 42
0.0000001
 43
0.0000001
 44
0.0000000001
 40
0.0
 40
0.0
 40
0.0
 40
0.0
 40
0.0788199536
 40
0.1571690611
 40
0.3105145344
 40
0.3846882399
 40
0.4566354403
 40
0.5259846958
 40
0.5924020161
 40
0.655601981
 40
0.7153564465
 40
0.7715079475
 40
0.8239872771
 40
0.8728292172
 40
0.9181978809
 40
0.9604255932
 40
1.0
 40
1.0
 40
1.0
 40
1.0
 10
12.9069997095
 20
9.5969413855
 30
0.0
 10
12.9069899402
 20
9.5980935284
 30
0.0
 10
12.907017018
 20
9.6003916552
 30
0.0
 10
12.9072513129
 20
9.6049254204
 30
0.0
 10
12.9077510586
 20
9.609375017
 30
0.0
 10
12.9085271225
 20
9.6136844702
 30
0.0
 10
12.9092284844
 20
9.6167564014
 30
0.0
 10
12.9100503918
 20
9.6196807653
 30
0.0
 10
12.9109867271
 20
9.6224360122
 30
0.0
 10
12.9120305329
 20
9.6250018015
 30
0.0
 10
12.9131742236
 20
9.627359265
 30
0.0
 10
12.9144095689
 20
9.6294911559
 30
0.0
 10
12.9157278585
 20
9.6313819652
 30
0.0
 10
12.9171200356
 20
9.6330178422
 30
0.0
 10
12.9185772437
 20
9.6343867557
 30
0.0
 10
12.9200895719
 20
9.6354773262
 30
0.0
 10
12.9211579947
 20
9.6360275762
 30
0.0
 10
12.9216931937
 20
9.6362471656
 30
0.0
  0
SPLINE
  5
376
100
AcDbEntity
  8
0
100
AcDbSpline
 62
9
  6
CONTINUOUS
 70
0
 71
3
 72
9
 73
5
 74
0
 42
0.0000001
 43
0.0000001
 44
0.0000000001
 40
0.0
 40
0.0
 40
0.0
 40
0.0
 40
0.5253052095
 40
1.0
 40
1.0
 40
1.0
 40
1.0
 10
12.9216931937
 20
9.6362471656
 30
0.0
 10
12.9211127085
 20
9.6363261252
 30
0.0
 10
12.9199987211
 20
9.6364200969
 30
0.0
 10
12.9188800332
 20
9.6363664101
 30
0.0
 10
12.9183553064
 20
9.6362963064
 30
0.0
  0
SPLINE
  5
377
100
AcDbEntity
  8
0
100
AcDbSpline
 62
9
  6
CONTINUOUS
 70
0
 71
3
 72
22
 73
18
 74
0
 42
0.0000001
 43
0.0000001
 44
0.0000000001
 40
0.0
 40
0.0
 40
0.0
 40
0.0
 40
0.0788199348
 40
0.1571689652
 40
0.310514546
 40
0.3846882406
 40
0.4566354477
 40
0.525984689
 40
0.5924019838
 40
0.6556019173
 40
0.7153563444
 40
0.7715078065
 40
0.8239871018
 40
0.8728290236
 40
0.918197699
 40
0.9604254583
 40
1.0
 40
1.0
 40
1.0
 40
1.0
 10
13.432636967
 20
9.5969413855
 30
0.0
 10
13.4326467364
 20
9.5980935332
 30
0.0
 10
13.4326197764
 20
9.6003916689
 30
0.0
 10
13.4323855724
 20
9.6049254621
 30
0.0
 10
13.4318857434
 20
9.6093750704
 30
0.0
 10
13.4311096861
 20
9.6136845449
 30
0.0
 10
13.4304083051
 20
9.616756486
 30
0.0
 10
13.4295863849
 20
9.6196808595
 30
0.0
 10
13.4286500333
 20
9.6224361133
 30
0.0
 10
13.4276062093
 20
9.6250019069
 30
0.0
 10
13.426462499
 20
9.627359372
 30
0.0
 10
13.4252271331
 20
9.6294912616
 30
0.0
 10
13.4239088216
 20
9.6313820664
 30
0.0
 10
13.4225166216
 20
9.6330179357
 30
0.0
 10
13.4210593912
 20
9.6343868392
 30
0.0
 10
13.4195470377
 20
9.6354773943
 30
0.0
 10
13.4184785989
 20
9.6360276301
 30
0.0
 10
13.4179433931
 20
9.6362472145
 30
0.0
  0
SPLINE
  5
378
100
AcDbEntity
  8
0
100
AcDbSpline
 62
9
  6
CONTINUOUS
 70
0
 71
3
 72
11
 73
7
 74
0
 42
0.0000001
 43
0.0000001
 44
0.0000000001
 40
0.0
 40
0.0
 40
0.0
 40
0.0
 40
0.2230317861
 40
0.4658060528
 40
0.7256417993
 40
1.0
 40
1.0
 40
1.0
 40
1.0
 10
13.4179433833
 20
9.6362472184
 30
0.0
 10
13.4162502915
 20
9.6361165441
 30
0.0
 10
13.4127137365
 20
9.6358493146
 30
0.0
 10
13.4071975526
 20
9.6355306953
 30
0.0
 10
13.4012842562
 20
9.6353386712
 30
0.0
 10
13.3972163885
 20
9.6353213693
 30
0.0
 10
13.3951275599
 20
9.6353406787
 30
0.0
  0
SPLINE
  5
379
100
AcDbEntity
  8
0
100
AcDbSpline
 62
9
  6
CONTINUOUS
 70
0
 71
3
 72
10
 73
6
 74
0
 42
0.0000001
 43
0.0000001
 44
0.0000000001
 40
0.0
 40
0.0
 40
0.0
 40
0.0
 40
0.4652940626
 40
0.723528385
 40
1.0
 40
1.0
 40
1.0
 40
1.0
 10
12.9308623248
 20
9.3180429556
 30
0.0
 10
12.9315201187
 20
9.3178745796
 30
0.0
 10
12.932578978
 20
9.3177461845
 30
0.0
 10
12.9340384762
 20
9.3177675719
 30
0.0
 10
12.9348163161
 20
9.3178424687
 30
0.0
 10
12.9352163336
 20
9.3178950148
 30
0.0
  0
SPLINE
  5
37A
100
AcDbEntity
  8
0
100
AcDbSpline
 62
9
  6
CONTINUOUS
 70
0
 71
3
 72
11
 73
7
 74
0
 42
0.0000001
 43
0.0000001
 44
0.0000000001
 40
0.0
 40
0.0
 40
0.0
 40
0.0
 40
0.2070937264
 40
0.4450976803
 40
0.710798689
 40
1.0
 40
1.0
 40
1.0
 40
1.0
 10
12.9352163336
 20
9.3178950148
 30
0.0
 10
12.9362265829
 20
9.3180277201
 30
0.0
 10
12.9383997635
 20
9.3182995149
 30
0.0
 10
12.9418824417
 20
9.3186268196
 30
0.0
 10
12.9457792238
 20
9.3188348494
 30
0.0
 10
12.9485102207
 20
9.3188638938
 30
0.0
 10
12.9499330687
 20
9.3188508147
 30
0.0
  0
SPLINE
  5
37B
100
AcDbEntity
  8
0
100
AcDbSpline
 62
9
  6
CONTINUOUS
 70
0
 71
3
 72
21
 73
17
 74
0
 42
0.0000001
 43
0.0000001
 44
0.0000000001
 40
0.0
 40
0.0
 40
0.0
 40
0.0
 40
0.1729091791
 40
0.3357629218
 40
0.4124461131
 40
0.4854923535
 40
0.554622569
 40
0.6196193455
 40
0.6803388347
 40
0.7367340951
 40
0.7888718186
 40
0.8369659144
 40
0.8814080842
 40
0.9228005592
 40
0.9619869299
 40
1.0
 40
1.0
 40
1.0
 40
1.0
 10
12.949933069
 20
9.3188508116
 30
0.0
 10
12.9501318744
 20
9.3169562682
 30
0.0
 10
12.9506465246
 20
9.3132893314
 30
0.0
 10
12.9516282931
 20
9.3088467461
 30
0.0
 10
12.952602196
 20
9.3055423448
 30
0.0
 10
12.9533986559
 20
9.3032653176
 30
0.0
 10
12.9542703576
 20
9.3011545088
 30
0.0
 10
12.9552117038
 20
9.2992235589
 30
0.0
 10
12.9562167982
 20
9.2974849469
 30
0.0
 10
12.9572792983
 20
9.2959497264
 30
0.0
 10
12.9583930153
 20
9.294627758
 30
0.0
 10
12.9595517324
 20
9.2935277044
 30
0.0
 10
12.9607491741
 20
9.2926572561
 30
0.0
 10
12.9619793374
 20
9.2920238951
 30
0.0
 10
12.9632339925
 20
9.2916349535
 30
0.0
 10
12.9640858579
 20
9.2915421177
 30
0.0
 10
12.9645046299
 20
9.2915381117
 30
0.0
  0
SPLINE
  5
37C
100
AcDbEntity
  8
0
100
AcDbSpline
 62
9
  6
CONTINUOUS
 70
0
 71
3
 72
21
 73
17
 74
0
 42
0.0000001
 43
0.0000001
 44
0.0000000001
 40
0.0
 40
0.0
 40
0.0
 40
0.0
 40
0.1729091869
 40
0.3357629537
 40
0.4124461602
 40
0.4854924165
 40
0.5546226474
 40
0.6196194375
 40
0.6803389367
 40
0.7367342021
 40
0.788871924
 40
0.8369660105
 40
0.8814081634
 40
0.9228006148
 40
0.9619869573
 40
1.0
 40
1.0
 40
1.0
 40
1.0
 10
13.3897036107
 20
9.3188508565
 30
0.0
 10
13.3895048059
 20
9.3169563104
 30
0.0
 10
13.3889901564
 20
9.3132893683
 30
0.0
 10
13.3880083884
 20
9.3088467763
 30
0.0
 10
13.3870344855
 20
9.3055423696
 30
0.0
 10
13.3862380255
 20
9.3032653386
 30
0.0
 10
13.3853663235
 20
9.3011545261
 30
0.0
 10
13.3844249769
 20
9.2992235729
 30
0.0
 10
13.383419882
 20
9.2974849578
 30
0.0
 10
13.3823573814
 20
9.2959497345
 30
0.0
 10
13.3812436639
 20
9.2946277637
 30
0.0
 10
13.3800849463
 20
9.293527708
 30
0.0
 10
13.378887504
 20
9.2926572581
 30
0.0
 10
13.3776573402
 20
9.292023896
 30
0.0
 10
13.3764026843
 20
9.2916349536
 30
0.0
 10
13.3755508185
 20
9.2915421177
 30
0.0
 10
13.3751320463
 20
9.2915381117
 30
0.0
  0
SPLINE
  5
37D
100
AcDbEntity
  8
0
100
AcDbSpline
 62
9
  6
CONTINUOUS
 70
0
 71
3
 72
18
 73
14
 74
0
 42
0.0000001
 43
0.0000001
 44
0.0000000001
 40
0.0
 40
0.0
 40
0.0
 40
0.0
 40
0.2173628595
 40
0.410384804
 40
0.577800282
 40
0.7184964129
 40
0.8314508707
 40
0.8772913552
 40
0.915972585
 40
0.9474675257
 40
0.9717937761
 40
0.9891047894
 40
1.0
 40
1.0
 40
1.0
 40
1.0
 10
13.4087747641
 20
9.3180429673
 30
0.0
 10
13.4090456867
 20
9.3181123604
 30
0.0
 10
13.409555388
 20
9.3182505876
 30
0.0
 10
13.4102669088
 20
9.3184663773
 30
0.0
 10
13.4108781509
 20
9.3186719739
 30
0.0
 10
13.4113858283
 20
9.3188613383
 30
0.0
 10
13.4117418503
 20
9.3190091692
 30
0.0
 10
13.4119723774
 20
9.319116044
 30
0.0
 10
13.4121056856
 20
9.3191833871
 30
0.0
 10
13.4122115933
 20
9.3192429826
 30
0.0
 10
13.4122906543
 20
9.3192947803
 30
0.0
 10
13.4123423717
 20
9.3193375166
 30
0.0
 10
13.4123656476
 20
9.3193675988
 30
0.0
 10
13.4123691432
 20
9.3193811742
 30
0.0
  0
SPLINE
  5
37E
100
AcDbEntity
  8
0
100
AcDbSpline
 62
9
  6
CONTINUOUS
 70
0
 71
3
 72
10
 73
6
 74
0
 42
0.0000001
 43
0.0000001
 44
0.0000000001
 40
0.0
 40
0.0
 40
0.0
 40
0.0
 40
0.2764644105
 40
0.5346521522
 40
1.0
 40
1.0
 40
1.0
 40
1.0
 10
13.4044209821
 20
9.3178950915
 30
0.0
 10
13.4048209587
 20
9.3178424636
 30
0.0
 10
13.4055986808
 20
9.3177674697
 30
0.0
 10
13.4070581029
 20
9.3177462316
 30
0.0
 10
13.4081169551
 20
9.3178744656
 30
0.0
 10
13.4087747641
 20
9.3180429673
 30
0.0
  0
SPLINE
  5
37F
100
AcDbEntity
  8
0
100
AcDbSpline
 62
9
  6
CONTINUOUS
 70
0
 71
3
 72
11
 73
7
 74
0
 42
0.0000001
 43
0.0000001
 44
0.0000000001
 40
0.0
 40
0.0
 40
0.0
 40
0.0
 40
0.2891873061
 40
0.5548886292
 40
0.7928971721
 40
1.0
 40
1.0
 40
1.0
 40
1.0
 10
13.3897036107
 20
9.3188508565
 30
0.0
 10
13.3911264495
 20
9.3188639535
 30
0.0
 10
13.3938574845
 20
9.3188345958
 30
0.0
 10
13.3977544173
 20
9.3186270523
 30
0.0
 10
13.4012372577
 20
9.3182992099
 30
0.0
 10
13.4034106712
 20
9.3180280009
 30
0.0
 10
13.4044209821
 20
9.3178950915
 30
0.0
  0
SPLINE
  5
380
100
AcDbEntity
  8
0
100
AcDbSpline
 62
9
  6
CONTINUOUS
 70
0
 71
3
 72
11
 73
7
 74
0
 42
0.0000001
 43
0.0000001
 44
0.0000000001
 40
0.0
 40
0.0
 40
0.0
 40
0.0
 40
0.2070927589
 40
0.4450963591
 40
0.7107968762
 40
1.0
 40
1.0
 40
1.0
 40
1.0
 10
13.404420391
 20
9.6501376409
 30
0.0
 10
13.4034101407
 20
9.6500049541
 30
0.0
 10
13.4012369634
 20
9.6497331271
 30
0.0
 10
13.3977542788
 20
9.6494058659
 30
0.0
 10
13.3938574829
 20
9.64919777
 30
0.0
 10
13.3911264695
 20
9.6491687588
 30
0.0
 10
13.389703608
 20
9.6491818371
 30
0.0
  0
SPLINE
  5
381
100
AcDbEntity
  8
0
100
AcDbSpline
 62
9
  6
CONTINUOUS
 70
0
 71
3
 72
10
 73
6
 74
0
 42
0.0000001
 43
0.0000001
 44
0.0000000001
 40
0.0
 40
0.0
 40
0.0
 40
0.0
 40
0.4652871508
 40
0.7235242458
 40
1.0
 40
1.0
 40
1.0
 40
1.0
 10
13.4087744079
 20
9.6499896914
 30
0.0
 10
13.4081166208
 20
9.6501580577
 30
0.0
 10
13.407057768
 20
9.6502864541
 30
0.0
 10
13.4055982671
 20
9.6502650746
 30
0.0
 10
13.4048204162
 20
9.6501901793
 30
0.0
 10
13.404420391
 20
9.6501376409
 30
0.0
  0
SPLINE
  5
382
100
AcDbEntity
  8
0
100
AcDbSpline
 62
9
  6
CONTINUOUS
 70
0
 71
3
 72
21
 73
17
 74
0
 42
0.0000001
 43
0.0000001
 44
0.0000000001
 40
0.0
 40
0.0
 40
0.0
 40
0.0
 40
0.172909179
 40
0.3357629219
 40
0.4124461132
 40
0.4854923536
 40
0.5546225692
 40
0.6196193458
 40
0.680338835
 40
0.7367340955
 40
0.788871819
 40
0.8369659147
 40
0.8814080845
 40
0.9228005594
 40
0.96198693
 40
1.0
 40
1.0
 40
1.0
 40
1.0
 10
13.3897036076
 20
9.6491818403
 30
0.0
 10
13.3895048022
 20
9.6510763837
 30
0.0
 10
13.388990152
 20
9.6547433205
 30
0.0
 10
13.3880083835
 20
9.6591859058
 30
0.0
 10
13.3870344806
 20
9.6624903072
 30
0.0
 10
13.3862380207
 20
9.6647673345
 30
0.0
 10
13.385366319
 20
9.6668781433
 30
0.0
 10
13.3844249728
 20
9.6688090932
 30
0.0
 10
13.3834198784
 20
9.6705477052
 30
0.0
 10
13.3823573783
 20
9.6720829257
 30
0.0
 10
13.3812436613
 20
9.6734048941
 30
0.0
 10
13.3800849442
 20
9.6745049478
 30
0.0
 10
13.3788875025
 20
9.6753753961
 30
0.0
 10
13.3776573392
 20
9.6760087571
 30
0.0
 10
13.376402684
 20
9.6763976987
 30
0.0
 10
13.3755508187
 20
9.6764905345
 30
0.0
 10
13.3751320467
 20
9.6764945405
 30
0.0
  0
SPLINE
  5
383
100
AcDbEntity
  8
0
100
AcDbSpline
 62
9
  6
CONTINUOUS
 70
0
 71
3
 72
18
 73
14
 74
0
 42
0.0000001
 43
0.0000001
 44
0.0000000001
 40
0.0
 40
0.0
 40
0.0
 40
0.0
 40
0.2173637528
 40
0.4103826135
 40
0.577797653
 40
0.718496336
 40
0.8314537774
 40
0.8772952956
 40
0.9159769735
 40
0.9474715422
 40
0.9717964717
 40
0.9891058519
 40
1.0
 40
1.0
 40
1.0
 40
1.0
 10
12.9308618603
 20
9.6499896857
 30
0.0
 10
12.9305909414
 20
9.6499202881
 30
0.0
 10
12.9300812513
 20
9.6497820554
 30
0.0
 10
12.9293697445
 20
9.6495662637
 30
0.0
 10
12.9287585098
 20
9.6493606748
 30
0.0
 10
12.9282508289
 20
9.6491713202
 30
0.0
 10
12.9278948029
 20
9.6490234892
 30
0.0
 10
12.9276642755
 20
9.6489166089
 30
0.0
 10
12.9275309694
 20
9.6488492625
 30
0.0
 10
12.9274250661
 20
9.6487896655
 30
0.0
 10
12.927346011
 20
9.6487378691
 30
0.0
 10
12.9272942988
 20
9.6486951354
 30
0.0
 10
12.9272710268
 20
9.6486650557
 30
0.0
 10
12.9272675317
 20
9.6486514818
 30
0.0
  0
SPLINE
  5
384
100
AcDbEntity
  8
0
100
AcDbSpline
 62
9
  6
CONTINUOUS
 70
0
 71
3
 72
10
 73
6
 74
0
 42
0.0000001
 43
0.0000001
 44
0.0000000001
 40
0.0
 40
0.0
 40
0.0
 40
0.0
 40
0.2764690437
 40
0.5346541036
 40
1.0
 40
1.0
 40
1.0
 40
1.0
 10
12.9352155763
 20
9.6501375542
 30
0.0
 10
12.9348155971
 20
9.650190167
 30
0.0
 10
12.9340378868
 20
9.6502651853
 30
0.0
 10
12.9325784864
 20
9.6502864099
 30
0.0
 10
12.9315196532
 20
9.6501581976
 30
0.0
 10
12.9308618603
 20
9.6499896857
 30
0.0
  0
SPLINE
  5
385
100
AcDbEntity
  8
0
100
AcDbSpline
 62
9
  6
CONTINUOUS
 70
0
 71
3
 72
11
 73
7
 74
0
 42
0.0000001
 43
0.0000001
 44
0.0000000001
 40
0.0
 40
0.0
 40
0.0
 40
0.0
 40
0.2891840486
 40
0.5548858375
 40
0.7928992624
 40
1.0
 40
1.0
 40
1.0
 40
1.0
 10
12.9499330653
 20
9.6491817953
 30
0.0
 10
12.9485102316
 20
9.649168694
 30
0.0
 10
12.9457791903
 20
9.6491981279
 30
0.0
 10
12.9418822139
 20
9.649405587
 30
0.0
 10
12.9383993281
 20
9.6497334305
 30
0.0
 10
12.9362258902
 20
9.6500046856
 30
0.0
 10
12.9352155763
 20
9.6501375542
 30
0.0
  0
SPLINE
  5
386
100
AcDbEntity
  8
0
100
AcDbSpline
 62
9
  6
CONTINUOUS
 70
0
 71
3
 72
21
 73
17
 74
0
 42
0.0000001
 43
0.0000001
 44
0.0000000001
 40
0.0
 40
0.0
 40
0.0
 40
0.0
 40
0.1729091811
 40
0.3357629424
 40
0.4124461465
 40
0.4854924004
 40
0.5546226291
 40
0.6196194174
 40
0.6803389154
 40
0.7367341805
 40
0.7888719033
 40
0.8369659921
 40
0.8814081487
 40
0.9228006049
 40
0.9619869527
 40
1.0
 40
1.0
 40
1.0
 40
1.0
 10
12.9499330653
 20
9.6491817953
 30
0.0
 10
12.9501318701
 20
9.6510763414
 30
0.0
 10
12.9506465193
 20
9.6547432836
 30
0.0
 10
12.9516282871
 20
9.6591858756
 30
0.0
 10
12.9526021899
 20
9.6624902823
 30
0.0
 10
12.9533986498
 20
9.6647673134
 30
0.0
 10
12.9542703518
 20
9.6668781259
 30
0.0
 10
12.9552116984
 20
9.6688090792
 30
0.0
 10
12.9562167933
 20
9.6705476943
 30
0.0
 10
12.957279294
 20
9.6720829176
 30
0.0
 10
12.9583930116
 20
9.6734048885
 30
0.0
 10
12.9595517294
 20
9.6745049441
 30
0.0
 10
12.9607491719
 20
9.6753753941
 30
0.0
 10
12.9619793359
 20
9.6760087562
 30
0.0
 10
12.963233992
 20
9.6763976986
 30
0.0
 10
12.964085858
 20
9.6764905345
 30
0.0
 10
12.9645046303
 20
9.6764945405
 30
0.0
  0
ENDSEC
  0
SECTION
  2
OBJECTS
  0
DICTIONARY
  5
C
100
AcDbDictionary
280
0
281
1
  3
ACAD_GROUP
350
D
  3
ACAD_MLINESTYLE
350
17
  3
ACAD_LAYOUT
350
1A
  3
ACAD_PLOTSETTINGS
350
19
  3
ACAD_PLOTSTYLENAME
350
E
  0
DICTIONARY
  5
D
102
{ACAD_REACTORS
330
C
102
}
100
AcDbDictionary
280
0
281
1
  0
ACDBDICTIONARYWDFLT
  5
E
102
{ACAD_REACTORS
330
C
102
}
100
AcDbDictionary
281
1
  3
Normal
350
F
100
AcDbDictionaryWithDefault
340
F
  0
DICTIONARY
  5
17
102
{ACAD_REACTORS
330
C
102
}
100
AcDbDictionary
280
0
281
1
  3
Standard
350
18
  0
DICTIONARY
  5
19
102
{ACAD_REACTORS
330
C
102
}
100
AcDbDictionary
281
1
  0
DICTIONARY
  5
1A
102
{ACAD_REACTORS
330
C
102
}
100
AcDbDictionary
281
1
  3
Model
350
387
  3
Layout1
350
388
  0
ACDBPLACEHOLDER
  5
F
102
{ACAD_REACTORS
330
E
102
}
  0
MLINESTYLE
  5
18
102
{ACAD_REACTORS
330
17
102
}
100
AcDbMlineStyle
  2
STANDARD
 70
0
  3

 62
256
 51
90.0
 52
90.0
 71
2
 49
0.5
 62
256
  6
BYLAYER
 49
-0.5
 62
256
  6
BYLAYER
  0
LAYOUT
  5
387
102
{ACAD_REACTORS
330
1A
102
}
100
AcDbPlotSettings
  1

  2
none_device
  4
ANSI_C_(22.00_x_17.00_Inches)
  6

 40
0.0
 41
0.0
 42
0.0
 43
0.0
 44
558.8
 45
431.8
 46
0.0
 47
0.0
 48
0.0
 49
0.0
140
0.0
141
0.0
142
1.0
143
1.0
 70
1024
 72
0
 73
0
 74
0
  7

 75
0
147
1.0
148
0.0
149
0.0
100
AcDbLayout
  1
Model
 70
0
 71
0
 10
0.0
 20
0.0
 11
22.0
 21
17.0
 12
0.0
 22
0.0
 32
0.0
 14
0.0
 24
0.0
 34
0.0
 15
0.0
 25
0.0
 35
0.0
146
0.0
 13
0.0
 23
0.0
 33
0.0
 16
1.0
 26
0.0
 36
0.0
 17
0.0
 27
1.0
 37
0.0
 76
0
330
205
345
0
346
0
  0
LAYOUT
  5
388
102
{ACAD_REACTORS
330
1A
102
}
100
AcDbPlotSettings
  1

  2
none_device
  4
ANSI_C_(22.00_x_17.00_Inches)
  6

 40
0.0
 41
0.0
 42
0.0
 43
0.0
 44
558.8
 45
431.8
 46
0.0
 47
0.0
 48
0.0
 49
0.0
140
0.0
141
0.0
142
1.0
143
1.0
 70
0
 72
0
 73
0
 74
0
  7

 75
0
147
1.0
148
0.0
149
0.0
100
AcDbLayout
  1
Layout1
 70
0
 71
1
 10
0.0
 20
0.0
 11
22.0
 21
17.0
 12
0.0
 22
0.0
 32
0.0
 14
0.0
 24
0.0
 34
0.0
 15
0.0
 25
0.0
 35
0.0
146
0.0
 13
0.0
 23
0.0
 33
0.0
 16
1.0
 26
0.0
 36
0.0
 17
0.0
 27
1.0
 37
0.0
 76
0
330
206
345
0
346
0
  0
ENDSEC
  0
EOF
