999
DXF file: E:\BT Custom\CADOUTPUT\_FRONT.dxf
999
Pro/ENGINEER 2018400 by Parametric Technology Corporation
  0
SECTION
  2
HEADER
  9
$ACADVER
  1
AC1018
  9
$DWGCODEPAGE
  3
ANSI_1252
  9
$EXTMAX
 10
22.0
 20
17.0
 30
0.0
  9
$EXTMIN
 10
0.0
 20
0.0
 30
0.0
  9
$LIMMIN
 10
0.0
 20
0.0
  9
$LIMMAX
 10
22.0
 20
17.0
  9
$VIEWCTR
 10
11.0
 20
8.5
  9
$VIEWSIZE
 40
17.0
  9
$CLAYER
  8
0
  9
$LTSCALE
 40
1.21
  9
$CELTYPE
  6
BYLAYER
  9
$DIMSCALE
 40
1.0
  9
$DIMASZ
 40
0.1
  9
$DIMEXO
 40
0.0625
  9
$DIMDLI
 40
0.836
  9
$DIMEXE
 40
0.125
  9
$DIMCEN
 40
0.198
  9
$DIMLFAC
 40
1.0
  9
$DIMBLK
  1
_FILLED
  9
$DIMALT
 70
1
  9
$DIMALTD
 70
2
  9
$DIMALTTD
 70
2
  9
$DIMALTF
 40
25.4
  9
$DIMTXT
 40
0.08
  9
$DIMTOL
 70
1
  9
$DIMLIM
 70
0
  9
$DIMTFAC
 40
1.0
  9
$DIMTP
 40
0.001
  9
$DIMTM
 40
0.001
  9
$DIMGAP
 40
0.09
  9
$DIMDSEP
 70
46
  9
$AUNITS
 70
0
  9
$PDMODE
 70
3
  9
$PDSIZE
 40
0.06
  9
$HANDSEED
  5
32E
  9
$TILEMODE
 70
1
  9
$MEASUREMENT
 70
0
  9
$INSUNITS
 70
1
  0
ENDSEC
  0
SECTION
  2
CLASSES
  0
CLASS
  1
ACDBDICTIONARYWDFLT
  2
AcDbDictionaryWithDefault
  3
AutoCAD 2000
 90
0
 91
1
280
0
281
0
  0
CLASS
  1
ACDBPLACEHOLDER
  2
AcDbPlaceHolder
  3
AutoCAD 2000
 90
0
 91
1
280
0
281
0
  0
CLASS
  1
LAYOUT
  2
AcDbLayout
  3
AutoCAD 2000
 90
0
 91
0
280
0
281
0
  0
ENDSEC
  0
SECTION
  2
TABLES
  0
TABLE
  2
VPORT
  5
8
100
AcDbSymbolTable
 70
2
  0
VPORT
  5
1F4
100
AcDbSymbolTableRecord
100
AcDbViewportTableRecord
  2
*ACTIVE
 70
0
 10
0.0
 20
0.0
 11
1.0
 21
1.0
 12
11.0
 22
8.5
 13
0.0
 23
0.0
 14
1.0
 24
1.0
 15
0.0
 25
0.0
 16
0.0
 26
0.0
 36
1.0
 17
0.0
 27
0.0
 37
0.0
 40
17.0
 41
1.2941176471
 42
50.0
 43
0.0
 44
0.0
 50
0.0
 51
0.0
 71
0
 72
100
 73
1
 74
1
 75
0
 76
0
 77
0
 78
0
  0
ENDTAB
  0
TABLE
  2
LTYPE
  5
5
100
AcDbSymbolTable
 70
6
  0
LTYPE
  5
14
100
AcDbSymbolTableRecord
100
AcDbLinetypeTableRecord
  2
BYBLOCK
 70
0
  3

 72
65
 73
0
 40
0.0
  0
LTYPE
  5
15
100
AcDbSymbolTableRecord
100
AcDbLinetypeTableRecord
  2
BYLAYER
 70
0
  3

 72
65
 73
0
 40
0.0
  0
LTYPE
  5
16
100
AcDbSymbolTableRecord
100
AcDbLinetypeTableRecord
  2
CONTINUOUS
 70
64
  3
Solid line
 72
65
 73
0
 40
0.0
  0
LTYPE
  5
1F5
100
AcDbSymbolTableRecord
100
AcDbLinetypeTableRecord
  2
CENTER
 70
64
  3
____ _ ____ _ ____ _ ____ _ ____ _ ____ _ ____
 72
65
 73
4
 40
0.6
 49
0.375
 74
0
 49
-0.075
 74
0
 49
0.075
 74
0
 49
-0.075
 74
0
  0
LTYPE
  5
1F6
100
AcDbSymbolTableRecord
100
AcDbLinetypeTableRecord
  2
HIDDEN
 70
64
  3
- - - - - - - - - - - - - - - - - - - -
 72
65
 73
2
 40
0.2
 49
0.1
 74
0
 49
-0.1
 74
0
  0
LTYPE
  5
1F7
100
AcDbSymbolTableRecord
100
AcDbLinetypeTableRecord
  2
PHANTOM
 70
64
  3
_____ _ _ _____ _ _ _____ _ _ _____
 72
65
 73
6
 40
0.8
 49
0.45
 74
0
 49
-0.05
 74
0
 49
0.1
 74
0
 49
-0.05
 74
0
 49
0.1
 74
0
 49
-0.05
 74
0
  0
LTYPE
  5
1F8
100
AcDbSymbolTableRecord
100
AcDbLinetypeTableRecord
  2
DOT
 70
64
  3
. . . . . . . . . . . . . . . . . . . .
 72
65
 73
2
 40
0.2
 49
0.1
 74
0
 49
-0.1
 74
0
  0
LTYPE
  5
1F9
100
AcDbSymbolTableRecord
100
AcDbLinetypeTableRecord
  2
DASHED
 70
64
  3
- - - - - - - - - - - - - - - - - - - -
 72
65
 73
2
 40
0.2
 49
0.1
 74
0
 49
-0.1
 74
0
  0
ENDTAB
  0
TABLE
  2
LAYER
  5
2
100
AcDbSymbolTable
 70
36
  0
LAYER
  5
10
100
AcDbSymbolTableRecord
100
AcDbLayerTableRecord
  2
0
 70
0
 62
7
  6
CONTINUOUS
370
-3
390
F
  0
LAYER
  5
1FA
100
AcDbSymbolTableRecord
100
AcDbLayerTableRecord
  2
DEFAULT_1
 70
0
 62
7
  6
CENTER
370
-3
390
F
  0
LAYER
  5
1FB
100
AcDbSymbolTableRecord
100
AcDbLayerTableRecord
  2
DEFAULT_2
 70
0
 62
8
  6
HIDDEN
370
-3
390
F
  0
LAYER
  5
1FC
100
AcDbSymbolTableRecord
100
AcDbLayerTableRecord
  2
DEFAULT_3
 70
0
 62
7
  6
PHANTOM
370
-3
390
F
  0
LAYER
  5
1FD
100
AcDbSymbolTableRecord
100
AcDbLayerTableRecord
  2
ALL_FEATURES
 70
0
 62
7
  6
CONTINUOUS
370
-3
390
F
  0
LAYER
  5
1FE
100
AcDbSymbolTableRecord
100
AcDbLayerTableRecord
  2
AXES_FEATURES
 70
0
 62
7
  6
CONTINUOUS
370
-3
390
F
  0
LAYER
  5
1FF
100
AcDbSymbolTableRecord
100
AcDbLayerTableRecord
  2
DEFAULT_COORDINATE_SYSTEM
 70
0
 62
7
  6
CONTINUOUS
370
-3
390
F
  0
LAYER
  5
200
100
AcDbSymbolTableRecord
100
AcDbLayerTableRecord
  2
DEFAULT_DATUM_AXES
 70
0
 62
7
  6
CONTINUOUS
370
-3
390
F
  0
LAYER
  5
201
100
AcDbSymbolTableRecord
100
AcDbLayerTableRecord
  2
DEFAULT_DATUM_PLANES
 70
0
 62
7
  6
CONTINUOUS
370
-3
390
F
  0
LAYER
  5
202
100
AcDbSymbolTableRecord
100
AcDbLayerTableRecord
  2
DIMENSIONS
 70
0
 62
7
  6
CONTINUOUS
370
-3
390
F
  0
ENDTAB
  0
TABLE
  2
STYLE
  5
3
100
AcDbSymbolTable
 70
1
  0
STYLE
  5
11
100
AcDbSymbolTableRecord
100
AcDbTextStyleTableRecord
  2
STANDARD
 70
0
 40
0.0
 41
0.8
 50
0.0
 71
0
 42
0.2
  3
txt
  4

  0
STYLE
  5
203
100
AcDbSymbolTableRecord
100
AcDbTextStyleTableRecord
  2
TEXTSTYLE_1
 70
0
 40
0.0
 41
0.8
 50
0.0
 71
0
 42
0.2
  3
gdt
  4

  0
ENDTAB
  0
TABLE
  2
VIEW
  5
6
100
AcDbSymbolTable
 70
0
  0
ENDTAB
  0
TABLE
  2
UCS
  5
7
100
AcDbSymbolTable
 70
0
  0
ENDTAB
  0
TABLE
  2
APPID
  5
9
100
AcDbSymbolTable
 70
1
  0
APPID
  5
204
100
AcDbSymbolTableRecord
100
AcDbRegAppTableRecord
  2
ACAD
 70
0
  0
ENDTAB
  0
TABLE
  2
BLOCK_RECORD
  5
1
100
AcDbSymbolTable
 70
0
  0
BLOCK_RECORD
  5
205
100
AcDbSymbolTableRecord
100
AcDbBlockTableRecord
  2
*Model_Space
  0
BLOCK_RECORD
  5
206
100
AcDbSymbolTableRecord
100
AcDbBlockTableRecord
  2
*Paper_Space
  0
BLOCK_RECORD
  5
207
100
AcDbSymbolTableRecord
100
AcDbBlockTableRecord
  2
_FILLED
  0
ENDTAB
  0
TABLE
  2
DIMSTYLE
  5
A
100
AcDbSymbolTable
 70
1
100
AcDbDimStyleTable
 71
0
  0
DIMSTYLE
105
208
100
AcDbSymbolTableRecord
100
AcDbDimStyleTableRecord
  2
STANDARD
 70
0
  3

  4

 40
1.0
 41
0.1
 42
0.0625
 43
0.38
 44
0.125
 45
0.0
 46
0.0
 47
0.001
 48
0.001
140
0.08
141
0.09
142
0.0
143
25.4
144
1.0
145
0.0
146
1.0
147
0.09
 71
1.0
 72
0.0
 73
1
 74
1
 75
0
 76
0
 77
0
 78
4
 79
1
170
1
171
2
172
0
173
0
174
0
175
0
176
0
177
0
178
0
270
2
179
3
271
3
272
3
273
2
274
2
275
0
280
0
281
0
282
0
283
1
284
4
285
0
286
0
287
3
288
0
340
11
278
46
341
207
342
207
343
207
344
207
  0
ENDTAB
  0
ENDSEC
  0
SECTION
  2
BLOCKS
  0
BLOCK
  5
20
100
AcDbEntity
  8
0
100
AcDbBlockBegin
  2
*Model_Space
 70
0
 10
0.0
 20
0.0
 30
0.0
  3
*Model_Space
  1

  0
ENDBLK
  5
21
100
AcDbEntity
  8
0
100
AcDbBlockEnd
  0
BLOCK
  5
1C
100
AcDbEntity
  8
0
100
AcDbBlockBegin
  2
*Paper_Space
 70
0
 10
0.0
 20
0.0
 30
0.0
  3
*Paper_Space
  1

  0
ENDBLK
  5
1D
100
AcDbEntity
  8
0
100
AcDbBlockEnd
  0
BLOCK
  5
209
100
AcDbEntity
  8
0
100
AcDbBlockBegin
  2
_FILLED
 70
64
 10
0.0
 20
0.0
  3
_FILLED
  1

  0
SOLID
  5
20A
100
AcDbEntity
  8
0
  6
BYBLOCK
 62
0
100
AcDbTrace
 10
0.0
 20
0.0
 11
-1.0
 21
0.2
 12
-1.0
 22
-0.2
 13
-1.0
 23
-0.2
  0
ENDBLK
  5
20B
100
AcDbEntity
  8
0
  6
BYBLOCK
 62
0
100
AcDbBlockEnd
  0
ENDSEC
  0
SECTION
  2
ENTITIES
  0
LINE
  5
20C
100
AcDbEntity
  8
0
100
AcDbLine
 62
7
  6
CONTINUOUS
 10
10.6801923427
 20
4.5192187254
 11
12.7301923427
 21
4.5192187254
  0
LINE
  5
20D
100
AcDbEntity
  8
0
100
AcDbLine
 62
9
  6
CONTINUOUS
 10
10.6801923427
 20
4.6292187254
 11
12.7301923427
 21
4.6292187254
  0
LINE
  5
20E
100
AcDbEntity
  8
0
100
AcDbLine
 62
7
  6
CONTINUOUS
 10
10.7201923427
 20
4.6692187254
 11
12.6901923427
 21
4.6692187254
  0
LINE
  5
20F
100
AcDbEntity
  8
0
100
AcDbLine
 62
9
  6
CONTINUOUS
 10
10.7876660269
 20
4.6709483785
 11
12.6227186585
 21
4.670948309
  0
LINE
  5
210
100
AcDbEntity
  8
0
100
AcDbLine
 62
9
  6
CONTINUOUS
 10
10.8301923428
 20
4.9042187254
 11
12.5801923427
 21
4.9042187254
  0
LINE
  5
211
100
AcDbEntity
  8
0
100
AcDbLine
 62
7
  6
CONTINUOUS
 10
10.8701923427
 20
4.9442187254
 11
12.5401923427
 21
4.9442187254
  0
LINE
  5
212
100
AcDbEntity
  8
0
100
AcDbLine
 62
7
  6
CONTINUOUS
 10
10.9094207732
 20
5.8702187254
 11
10.6351923427
 21
5.8702187254
  0
LWPOLYLINE
  5
213
100
AcDbEntity
  8
0
100
AcDbPolyline
 62
7
  6
CONTINUOUS
 90
10
 70
0
 10
12.6380036831
 20
4.8161843689
 10
12.6363041199
 20
4.816949788
 10
12.632663029
 20
4.8190558034
 10
12.6293426614
 20
4.8216590676
 10
12.6264193125
 20
4.8247036394
 10
12.623953946
 20
4.8281254968
 10
12.6219936024
 20
4.831857423
 10
12.6205758044
 20
4.8358268996
 10
12.6197281696
 20
4.839957116
 10
12.6194962312
 20
4.842580499
  0
LINE
  5
214
100
AcDbEntity
  8
0
100
AcDbLine
 62
7
  6
CONTINUOUS
 10
9.2451923427
 20
5.9752187254
 11
9.9751923427
 21
5.9752187254
  0
LWPOLYLINE
  5
215
100
AcDbEntity
  8
0
100
AcDbPolyline
 62
7
  6
CONTINUOUS
 90
10
 70
0
 10
12.6026683037
 20
4.868219293
 10
12.5986717579
 20
4.8704589031
 10
12.5944731661
 20
4.8735409848
 10
12.590710633
 20
4.8771424775
 10
12.5874479512
 20
4.8812023191
 10
12.5847404384
 20
4.8856516764
 10
12.5826339995
 20
4.8904151122
 10
12.5811643484
 20
4.8954118642
 10
12.5803564023
 20
4.9005572144
 10
12.5801923414
 20
4.9041763241
  0
LINE
  5
216
100
AcDbEntity
  8
0
100
AcDbLine
 62
7
  6
CONTINUOUS
 10
9.3984902151
 20
7.0457772576
 11
9.3986166488
 21
7.0457190726
  0
LINE
  5
217
100
AcDbEntity
  8
0
100
AcDbLine
 62
9
  6
CONTINUOUS
 10
9.4401923427
 20
6.6799375071
 11
9.7301923427
 21
6.6799375071
  0
LINE
  5
218
100
AcDbEntity
  8
0
100
AcDbLine
 62
9
  6
CONTINUOUS
 10
9.4401923427
 20
6.6833967196
 11
9.7301923427
 21
6.6833967196
  0
LINE
  5
219
100
AcDbEntity
  8
0
100
AcDbLine
 62
7
  6
CONTINUOUS
 10
9.2451923427
 20
6.7352187254
 11
9.3801923427
 21
6.7352187254
  0
LINE
  5
21A
100
AcDbEntity
  8
0
100
AcDbLine
 62
7
  6
CONTINUOUS
 10
9.7901923427
 20
6.7352187254
 11
9.9751923427
 21
6.7352187254
  0
LINE
  5
21B
100
AcDbEntity
  8
0
100
AcDbLine
 62
7
  6
CONTINUOUS
 10
10.9094207741
 20
6.8402187254
 11
10.6351923427
 21
6.8402187254
  0
LINE
  5
21C
100
AcDbEntity
  8
0
100
AcDbLine
 62
9
  6
CONTINUOUS
 10
9.4101923427
 20
6.9273380081
 11
9.7601923427
 21
6.9273380081
  0
LINE
  5
21D
100
AcDbEntity
  8
0
100
AcDbLine
 62
7
  6
CONTINUOUS
 10
9.3463643272
 20
7.0956162551
 11
9.3008308335
 21
8.8344702268
  0
LINE
  5
21E
100
AcDbEntity
  8
0
100
AcDbLine
 62
7
  6
CONTINUOUS
 10
9.1451923427
 20
6.7126783923
 11
9.1451923427
 21
5.9977590585
  0
LINE
  5
21F
100
AcDbEntity
  8
0
100
AcDbLine
 62
7
  6
CONTINUOUS
 10
9.2451923427
 20
6.7352187254
 11
9.2451923427
 21
5.9752187254
  0
LINE
  5
220
100
AcDbEntity
  8
0
100
AcDbLine
 62
7
  6
CONTINUOUS
 10
10.8751926227
 20
7.2942187254
 11
12.5351920627
 21
7.2942187254
  0
LINE
  5
221
100
AcDbEntity
  8
0
100
AcDbLine
 62
9
  6
CONTINUOUS
 10
10.8643806399
 20
7.4113308332
 11
12.5460040456
 21
7.4113308332
  0
LINE
  5
222
100
AcDbEntity
  8
0
100
AcDbLine
 62
9
  6
CONTINUOUS
 10
9.7247430004
 20
7.0325515917
 11
9.7301923427
 21
7.0158644189
  0
LINE
  5
223
100
AcDbEntity
  8
0
100
AcDbLine
 62
9
  6
CONTINUOUS
 10
9.3735888743
 20
7.1200875188
 11
9.3293474212
 21
8.8096004489
  0
LINE
  5
224
100
AcDbEntity
  8
0
100
AcDbLine
 62
9
  6
CONTINUOUS
 10
9.3868940029
 20
7.120143715
 11
9.3426525357
 21
8.8096571848
  0
LINE
  5
225
100
AcDbEntity
  8
0
100
AcDbLine
 62
9
  6
CONTINUOUS
 10
9.4227188999
 20
7.1205054424
 11
9.3784774326
 21
8.8100189131
  0
LINE
  5
226
100
AcDbEntity
  8
0
100
AcDbLine
 62
9
  6
CONTINUOUS
 10
9.3801923427
 20
6.7352187254
 11
9.3801923427
 21
6.7237100469
  0
LINE
  5
227
100
AcDbEntity
  8
0
100
AcDbLine
 62
7
  6
CONTINUOUS
 10
9.4101923427
 20
6.7528014672
 11
9.4101923427
 21
7.0275798591
  0
LINE
  5
228
100
AcDbEntity
  8
0
100
AcDbLine
 62
9
  6
CONTINUOUS
 10
9.4401923427
 20
6.6799375071
 11
9.4401923427
 21
7.015864513
  0
LINE
  5
229
100
AcDbEntity
  8
0
100
AcDbLine
 62
9
  6
CONTINUOUS
 10
9.5851979993
 20
7.0462441763
 11
9.5851984737
 21
7.0329386601
  0
LINE
  5
22A
100
AcDbEntity
  8
0
100
AcDbLine
 62
9
  6
CONTINUOUS
 10
9.5851869214
 20
8.8939151744
 11
9.5851865427
 21
8.9072131918
  0
LINE
  5
22B
100
AcDbEntity
  8
0
100
AcDbLine
 62
9
  6
CONTINUOUS
 10
9.5851865162
 20
7.0102679638
 11
9.5851855711
 21
6.9927922836
  0
LINE
  5
22C
100
AcDbEntity
  8
0
100
AcDbLine
 62
9
  6
CONTINUOUS
 10
11.2447525646
 20
7.8249589135
 11
12.1656321209
 21
7.8249589135
  0
LINE
  5
22D
100
AcDbEntity
  8
0
100
AcDbLine
 62
9
  6
CONTINUOUS
 10
11.2104477274
 20
7.897622616
 11
12.1999369581
 21
7.897622616
  0
LINE
  5
22E
100
AcDbEntity
  8
0
100
AcDbLine
 62
9
  6
CONTINUOUS
 10
9.7301923427
 20
6.6799375071
 11
9.7301923427
 21
7.0158644189
  0
LINE
  5
22F
100
AcDbEntity
  8
0
100
AcDbLine
 62
7
  6
CONTINUOUS
 10
9.7601923427
 20
7.0275798591
 11
9.7601923427
 21
6.7528014672
  0
LINE
  5
230
100
AcDbEntity
  8
0
100
AcDbLine
 62
9
  6
CONTINUOUS
 10
9.7901923427
 20
6.7237100469
 11
9.7901923427
 21
6.7352187254
  0
LINE
  5
231
100
AcDbEntity
  8
0
100
AcDbLine
 62
9
  6
CONTINUOUS
 10
9.7919072528
 20
8.8100189131
 11
9.7476657856
 21
7.1205054424
  0
LINE
  5
232
100
AcDbEntity
  8
0
100
AcDbLine
 62
9
  6
CONTINUOUS
 10
9.8277321498
 20
8.8096571858
 11
9.7834906826
 21
7.120143716
  0
LINE
  5
233
100
AcDbEntity
  8
0
100
AcDbLine
 62
9
  6
CONTINUOUS
 10
9.841037266
 20
8.8096005169
 11
9.796795813
 21
7.1200875862
  0
LINE
  5
234
100
AcDbEntity
  8
0
100
AcDbLine
 62
7
  6
CONTINUOUS
 10
9.869553852
 20
8.8344702268
 11
9.8240203582
 21
7.0956162551
  0
LINE
  5
235
100
AcDbEntity
  8
0
100
AcDbLine
 62
7
  6
CONTINUOUS
 10
11.2381923427
 20
7.9892187254
 11
12.1721923427
 21
7.9892187254
  0
LINE
  5
236
100
AcDbEntity
  8
0
100
AcDbLine
 62
9
  6
CONTINUOUS
 10
9.9751923427
 20
5.9752187254
 11
9.9751923427
 21
6.7352187254
  0
LINE
  5
237
100
AcDbEntity
  8
0
100
AcDbLine
 62
7
  6
CONTINUOUS
 10
10.0351923427
 20
6.8252187254
 11
10.0351923427
 21
5.8852187254
  0
LINE
  5
238
100
AcDbEntity
  8
0
100
AcDbLine
 62
9
  6
CONTINUOUS
 10
10.1251923427
 20
5.8552187254
 11
10.1251923427
 21
6.8552187254
  0
LINE
  5
239
100
AcDbEntity
  8
0
100
AcDbLine
 62
9
  6
CONTINUOUS
 10
10.1939459652
 20
5.8847061344
 11
10.1939459652
 21
6.8257313164
  0
LINE
  5
23A
100
AcDbEntity
  8
0
100
AcDbLine
 62
7
  6
CONTINUOUS
 10
12.0195023293
 20
11.5356946841
 11
12.016245185
 21
11.5320220121
  0
LINE
  5
23B
100
AcDbEntity
  8
0
100
AcDbLine
 62
7
  6
CONTINUOUS
 10
12.0195049177
 20
11.535697407
 11
12.0230859985
 21
11.5395757551
  0
LINE
  5
23C
100
AcDbEntity
  8
0
100
AcDbLine
 62
9
  6
CONTINUOUS
 10
12.0195092682
 20
11.535701981
 11
12.0194979793
 21
11.5356901099
  0
LINE
  5
23D
100
AcDbEntity
  8
0
100
AcDbLine
 62
9
  6
CONTINUOUS
 10
10.5313786107
 20
5.714226569
 11
10.5313786107
 21
6.9962108818
  0
LINE
  5
23E
100
AcDbEntity
  8
0
100
AcDbLine
 62
7
  6
CONTINUOUS
 10
10.6351923427
 20
6.9552187254
 11
10.6351923427
 21
5.7552190081
  0
LINE
  5
23F
100
AcDbEntity
  8
0
100
AcDbLine
 62
9
  6
CONTINUOUS
 10
12.016247299
 20
11.5320245568
 11
12.016245185
 21
11.5320220121
  0
LINE
  5
240
100
AcDbEntity
  8
0
100
AcDbLine
 62
7
  6
CONTINUOUS
 10
11.992913299
 20
11.2207191644
 11
11.9928083955
 21
11.2206133306
  0
LINE
  5
241
100
AcDbEntity
  8
0
100
AcDbLine
 62
7
  6
CONTINUOUS
 10
10.6801923427
 20
4.6292187254
 11
10.6801923427
 21
4.5192187254
  0
LINE
  5
242
100
AcDbEntity
  8
0
100
AcDbLine
 62
9
  6
CONTINUOUS
 10
10.7201923427
 20
4.6692187254
 11
10.7201923427
 21
4.5192187254
  0
LINE
  5
243
100
AcDbEntity
  8
0
100
AcDbLine
 62
7
  6
CONTINUOUS
 10
10.7476660269
 20
4.7792187445
 11
10.7476660269
 21
4.6892187254
  0
LINE
  5
244
100
AcDbEntity
  8
0
100
AcDbLine
 62
9
  6
CONTINUOUS
 10
10.7876660269
 20
4.6692187254
 11
10.7876660269
 21
4.8131079326
  0
LINE
  5
245
100
AcDbEntity
  8
0
100
AcDbLine
 62
7
  6
CONTINUOUS
 10
10.9001923427
 20
4.9442187254
 11
10.9001923427
 21
5.8552187254
  0
LINE
  5
246
100
AcDbEntity
  8
0
100
AcDbLine
 62
7
  6
CONTINUOUS
 10
10.9001923427
 20
6.8552187254
 11
10.9001923427
 21
7.2942187254
  0
LINE
  5
247
100
AcDbEntity
  8
0
100
AcDbLine
 62
7
  6
CONTINUOUS
 10
11.3606653946
 20
11.6290964228
 11
11.3603819504
 21
11.6276195198
  0
LWPOLYLINE
  5
248
100
AcDbEntity
  8
0
100
AcDbPolyline
 62
7
  6
CONTINUOUS
 90
10
 70
0
 10
10.8301923436
 20
4.904176319
 10
10.8300282827
 20
4.9005572093
 10
10.8292203366
 20
4.8954118589
 10
10.8277506853
 20
4.8904151067
 10
10.8256442462
 20
4.8856516707
 10
10.8229367333
 20
4.8812023133
 10
10.8196740512
 20
4.8771424715
 10
10.8159115179
 20
4.8735409788
 10
10.811712926
 20
4.8704588973
 10
10.8077163894
 20
4.8682192917
  0
LWPOLYLINE
  5
249
100
AcDbEntity
  8
0
100
AcDbPolyline
 62
7
  6
CONTINUOUS
 90
9
 70
0
 10
10.7908884868
 20
4.8425805009
 10
10.7906555869
 20
4.8399498925
 10
10.7898053726
 20
4.8358142594
 10
10.7883837363
 20
4.831840624
 10
10.786418245
 20
4.8281052763
 10
10.7839460063
 20
4.8246803949
 10
10.7810134867
 20
4.8216332736
 10
10.7776837615
 20
4.8190302161
 10
10.7740390805
 20
4.8169295725
  0
LINE
  5
24A
100
AcDbEntity
  8
0
100
AcDbLine
 62
9
  6
CONTINUOUS
 10
11.4166791563
 20
11.4770793622
 11
11.4163997968
 21
11.4814228276
  0
LINE
  5
24B
100
AcDbEntity
  8
0
100
AcDbLine
 62
7
  6
CONTINUOUS
 10
11.4551923427
 20
13.7661301235
 11
11.4551923427
 21
11.7192067672
  0
LINE
  5
24C
100
AcDbEntity
  8
0
100
AcDbLine
 62
7
  6
CONTINUOUS
 10
11.4551923427
 20
7.9892187254
 11
11.4551923427
 21
11.193769172
  0
LINE
  5
24D
100
AcDbEntity
  8
0
100
AcDbLine
 62
7
  6
CONTINUOUS
 10
11.4212812378
 20
11.374431713
 11
11.4217649521
 21
11.397669716
  0
LINE
  5
24E
100
AcDbEntity
  8
0
100
AcDbLine
 62
9
  6
CONTINUOUS
 10
11.7051923427
 20
4.6794610243
 11
11.7051923427
 21
4.7866759173
  0
LINE
  5
24F
100
AcDbEntity
  8
0
100
AcDbLine
 62
7
  6
CONTINUOUS
 10
11.9551923427
 20
13.7661301235
 11
11.9551923427
 21
11.7191692197
  0
LINE
  5
250
100
AcDbEntity
  8
0
100
AcDbLine
 62
7
  6
CONTINUOUS
 10
11.9551923427
 20
7.9892187254
 11
11.9551923427
 21
11.1937491787
  0
LINE
  5
251
100
AcDbEntity
  8
0
100
AcDbLine
 62
9
  6
CONTINUOUS
 10
11.9939848888
 20
11.4814228276
 11
11.9937055101
 21
11.4770792138
  0
LWPOLYLINE
  5
252
100
AcDbEntity
  8
0
100
AcDbPolyline
 62
7
  6
CONTINUOUS
 90
10
 70
0
 10
12.6194953362
 20
4.842580459
 10
12.6193045949
 20
4.8448802477
 10
12.6185480305
 20
4.848845114
 10
12.6172660302
 20
4.85267253
 10
12.6154818006
 20
4.8562932044
 10
12.6132276394
 20
4.8596415884
 10
12.6105443507
 20
4.8626570615
 10
12.607480509
 20
4.865285027
 10
12.6040915868
 20
4.8674778977
 10
12.6026683064
 20
4.8682192986
  0
LINE
  5
253
100
AcDbEntity
  8
0
100
AcDbLine
 62
7
  6
CONTINUOUS
 10
11.9886197334
 20
11.397669716
 11
11.9891034559
 21
11.374431517
  0
LINE
  5
254
100
AcDbEntity
  8
0
100
AcDbLine
 62
7
  6
CONTINUOUS
 10
12.5101923427
 20
4.9442187254
 11
12.5101923427
 21
7.2942187254
  0
LINE
  5
255
100
AcDbEntity
  8
0
100
AcDbLine
 62
9
  6
CONTINUOUS
 10
12.6227186585
 20
4.6692187254
 11
12.6227186585
 21
4.8131079639
  0
LINE
  5
256
100
AcDbEntity
  8
0
100
AcDbLine
 62
7
  6
CONTINUOUS
 10
12.6627186585
 20
4.7792187246
 11
12.6627186585
 21
4.6892187254
  0
LINE
  5
257
100
AcDbEntity
  8
0
100
AcDbLine
 62
7
  6
CONTINUOUS
 10
11.4175762163
 20
11.2206134048
 11
11.4174736454
 21
11.2207168815
  0
LINE
  5
258
100
AcDbEntity
  8
0
100
AcDbLine
 62
7
  6
CONTINUOUS
 10
12.0500027351
 20
11.6276195198
 11
12.04971953
 21
11.6290952201
  0
LINE
  5
259
100
AcDbEntity
  8
0
100
AcDbLine
 62
9
  6
CONTINUOUS
 10
12.6901923427
 20
4.6692187254
 11
12.6901923427
 21
4.5192187254
  0
LINE
  5
25A
100
AcDbEntity
  8
0
100
AcDbLine
 62
7
  6
CONTINUOUS
 10
12.7301923427
 20
4.6292187254
 11
12.7301923427
 21
4.5192187254
  0
LINE
  5
25B
100
AcDbEntity
  8
0
100
AcDbLine
 62
9
  6
CONTINUOUS
 10
11.3908868373
 20
11.535689972
 11
11.3908699241
 21
11.5357077593
  0
LINE
  5
25C
100
AcDbEntity
  8
0
100
AcDbLine
 62
7
  6
CONTINUOUS
 10
11.38729866
 20
11.5395757852
 11
11.3908742747
 21
11.5357031851
  0
LINE
  5
25D
100
AcDbEntity
  8
0
100
AcDbLine
 62
9
  6
CONTINUOUS
 10
11.3872928866
 20
11.5395822269
 11
11.387274033
 21
11.5396032701
  0
LINE
  5
25E
100
AcDbEntity
  8
0
100
AcDbLine
 62
7
  6
CONTINUOUS
 10
11.3941395005
 20
11.5320220121
 11
11.3908824873
 21
11.5356945462
  0
LINE
  5
25F
100
AcDbEntity
  8
0
100
AcDbLine
 62
9
  6
CONTINUOUS
 10
12.0021423316
 20
11.3341238575
 11
12.0021402138
 21
11.3341267691
  0
LWPOLYLINE
  5
260
100
AcDbEntity
  8
0
100
AcDbPolyline
 62
7
  6
CONTINUOUS
 90
10
 70
0
 10
10.8077163883
 20
4.8682192938
 10
10.8062932262
 20
4.8674779582
 10
10.802904281
 20
4.8652850919
 10
10.7998404151
 20
4.8626571236
 10
10.7971571067
 20
4.8596416451
 10
10.7949029302
 20
4.8562932546
 10
10.7931186886
 20
4.8526725725
 10
10.791836679
 20
4.8488451465
 10
10.791080108
 20
4.8448802672
 10
10.7908893642
 20
4.8425804615
  0
LINE
  5
261
100
AcDbEntity
  8
0
100
AcDbLine
 62
7
  6
CONTINUOUS
 10
10.7740390805
 20
4.8169295725
 11
10.77238103
 21
4.8161843844
  0
ARC
  5
262
100
AcDbEntity
  8
0
100
AcDbCircle
 62
7
  6
CONTINUOUS
 10
9.9751923427
 20
5.9152187254
 40
0.06
100
AcDbArc
 50
0.0
 51
90.0
  0
ARC
  5
263
100
AcDbEntity
  8
0
100
AcDbCircle
 62
7
  6
CONTINUOUS
 10
9.1977326758
 20
5.9977590585
 40
0.0525403331
100
AcDbArc
 50
180.0
 51
334.5952455743
  0
ARC
  5
264
100
AcDbEntity
  8
0
100
AcDbCircle
 62
7
  6
CONTINUOUS
 10
9.1977326758
 20
6.7126783923
 40
0.0525403331
100
AcDbArc
 50
25.4047544257
 51
180.0
  0
ARC
  5
265
100
AcDbEntity
  8
0
100
AcDbCircle
 62
7
  6
CONTINUOUS
 10
9.3863506202
 20
7.096663333
 40
0.04
100
AcDbArc
 50
181.5
 51
240.988850311
  0
ARC
  5
266
100
AcDbEntity
  8
0
100
AcDbCircle
 62
7
  6
CONTINUOUS
 10
9.3801923427
 20
6.7652187254
 40
0.03
100
AcDbArc
 50
270.0
 51
360.0
  0
ARC
  5
267
100
AcDbEntity
  8
0
100
AcDbCircle
 62
7
  6
CONTINUOUS
 10
9.3901923427
 20
7.0275798591
 40
0.02
100
AcDbArc
 50
0.0
 51
65.4873827805
  0
ARC
  5
268
100
AcDbEntity
  8
0
100
AcDbCircle
 62
9
  6
CONTINUOUS
 10
9.4224957885
 20
7.1193461637
 40
0.0502781216
100
AcDbArc
 50
208.134784832
 51
217.279899334
  0
ARC
  5
269
100
AcDbEntity
  8
0
100
AcDbCircle
 62
9
  6
CONTINUOUS
 10
9.435290036
 20
7.1273668042
 40
0.0499265264
100
AcDbArc
 50
208.0929429812
 51
217.3138885697
  0
ARC
  5
26A
100
AcDbEntity
  8
0
100
AcDbCircle
 62
9
  6
CONTINUOUS
 10
9.4257180399
 20
7.1205840947
 40
0.0030001817
100
AcDbArc
 50
181.5022340366
 51
244.46629639
  0
ARC
  5
26B
100
AcDbEntity
  8
0
100
AcDbCircle
 62
9
  6
CONTINUOUS
 10
9.585185505
 20
7.4599307029
 40
0.4671378848
100
AcDbArc
 50
251.9174923384
 51
288.0821388585
  0
ARC
  5
26C
100
AcDbEntity
  8
0
100
AcDbCircle
 62
7
  6
CONTINUOUS
 10
9.5851923427
 20
7.4552187254
 40
0.45
100
AcDbArc
 50
240.988850311
 51
246.139573518
  0
ARC
  5
26D
100
AcDbEntity
  8
0
100
AcDbCircle
 62
7
  6
CONTINUOUS
 10
9.5851923427
 20
7.4552187254
 40
0.45
100
AcDbArc
 50
293.8604264921
 51
299.011149689
  0
ARC
  5
26E
100
AcDbEntity
  8
0
100
AcDbCircle
 62
9
  6
CONTINUOUS
 10
9.5851864467
 20
7.4583462475
 40
0.4480778048
100
AcDbArc
 50
251.8546117246
 51
288.1448683915
  0
ARC
  5
26F
100
AcDbEntity
  8
0
100
AcDbCircle
 62
9
  6
CONTINUOUS
 10
9.585189786
 20
7.4550655828
 40
0.4221267841
100
AcDbArc
 50
244.4534273038
 51
295.5462352408
  0
ARC
  5
270
100
AcDbEntity
  8
0
100
AcDbCircle
 62
9
  6
CONTINUOUS
 10
9.5851919789
 20
7.455088303
 40
0.4088441267
100
AcDbArc
 50
244.4712078944
 51
295.528834735
  0
ARC
  5
271
100
AcDbEntity
  8
0
100
AcDbCircle
 62
9
  6
CONTINUOUS
 10
9.5851923427
 20
7.4544522684
 40
0.3730001965
100
AcDbArc
 50
244.4682077512
 51
295.5317922488
  0
ARC
  5
272
100
AcDbEntity
  8
0
100
AcDbCircle
 62
7
  6
CONTINUOUS
 10
9.5851923427
 20
8.3652187254
 40
0.57
100
AcDbArc
 50
62.5428369926
 51
117.4571630074
  0
ARC
  5
273
100
AcDbEntity
  8
0
100
AcDbCircle
 62
9
  6
CONTINUOUS
 10
9.5851950057
 20
8.365087066
 40
0.5421259588
100
AcDbArc
 50
65.4430182891
 51
114.5567108371
  0
ARC
  5
274
100
AcDbEntity
  8
0
100
AcDbCircle
 62
9
  6
CONTINUOUS
 10
9.5851918811
 20
8.3650702233
 40
0.5288449511
100
AcDbArc
 50
65.4312462027
 51
114.5687423011
  0
ARC
  5
275
100
AcDbEntity
  8
0
100
AcDbCircle
 62
9
  6
CONTINUOUS
 10
9.5851923427
 20
8.364451647
 40
0.4930003672
100
AcDbArc
 50
65.4336638754
 51
114.5663361246
  0
ARC
  5
276
100
AcDbEntity
  8
0
100
AcDbCircle
 62
9
  6
CONTINUOUS
 10
9.3791525766
 20
8.8122894349
 40
0.0514696362
100
AcDbArc
 50
144.8524424345
 51
154.4432686826
  0
ARC
  5
277
100
AcDbEntity
  8
0
100
AcDbCircle
 62
9
  6
CONTINUOUS
 10
9.3923040713
 20
8.8043113379
 40
0.0510454481
100
AcDbArc
 50
144.8043889927
 51
154.4867789525
  0
ARC
  5
278
100
AcDbEntity
  8
0
100
AcDbCircle
 62
7
  6
CONTINUOUS
 10
9.3408171265
 20
8.8355173047
 40
0.04
100
AcDbArc
 50
117.4571630074
 51
181.5
  0
ARC
  5
279
100
AcDbEntity
  8
0
100
AcDbCircle
 62
9
  6
CONTINUOUS
 10
9.381476609
 20
8.8100973294
 40
0.0030002017
100
AcDbArc
 50
114.5689964362
 51
181.4977105939
  0
ARC
  5
27A
100
AcDbEntity
  8
0
100
AcDbCircle
 62
7
  6
CONTINUOUS
 10
9.9751923427
 20
6.7952187254
 40
0.06
100
AcDbArc
 50
270.0
 51
360.0
  0
ARC
  5
27B
100
AcDbEntity
  8
0
100
AcDbCircle
 62
9
  6
CONTINUOUS
 10
9.7478652302
 20
7.11936307
 40
0.0503070597
100
AcDbArc
 50
322.7212445543
 51
331.8610022617
  0
ARC
  5
27C
100
AcDbEntity
  8
0
100
AcDbCircle
 62
9
  6
CONTINUOUS
 10
9.7350773173
 20
7.1273809666
 40
0.0499486658
100
AcDbArc
 50
322.6838677052
 51
331.9005457516
  0
ARC
  5
27D
100
AcDbEntity
  8
0
100
AcDbCircle
 62
7
  6
CONTINUOUS
 10
9.7840340652
 20
7.096663333
 40
0.04
100
AcDbArc
 50
299.011149689
 51
358.5
  0
ARC
  5
27E
100
AcDbEntity
  8
0
100
AcDbCircle
 62
7
  6
CONTINUOUS
 10
9.7901923427
 20
6.7652187254
 40
0.03
100
AcDbArc
 50
180.0
 51
270.0
  0
ARC
  5
27F
100
AcDbEntity
  8
0
100
AcDbCircle
 62
7
  6
CONTINUOUS
 10
9.7801923427
 20
7.0275798591
 40
0.02
100
AcDbArc
 50
114.5126172195
 51
179.9999999978
  0
ARC
  5
280
100
AcDbEntity
  8
0
100
AcDbCircle
 62
9
  6
CONTINUOUS
 10
9.744666634
 20
7.1205840775
 40
0.0030001816
100
AcDbArc
 50
295.5340436834
 51
358.4980991411
  0
ARC
  5
281
100
AcDbEntity
  8
0
100
AcDbCircle
 62
9
  6
CONTINUOUS
 10
9.7910864192
 20
8.8122058973
 40
0.0516370723
100
AcDbArc
 50
25.5706402918
 51
35.1304544286
  0
ARC
  5
282
100
AcDbEntity
  8
0
100
AcDbCircle
 62
9
  6
CONTINUOUS
 10
9.7779027481
 20
8.8042102223
 40
0.0512494325
100
AcDbArc
 50
25.5283195998
 51
35.1725579486
  0
ARC
  5
283
100
AcDbEntity
  8
0
100
AcDbCircle
 62
7
  6
CONTINUOUS
 10
9.829567559
 20
8.8355173047
 40
0.04
100
AcDbArc
 50
358.5
 51
62.5428369926
  0
ARC
  5
284
100
AcDbEntity
  8
0
100
AcDbCircle
 62
9
  6
CONTINUOUS
 10
9.7889080884
 20
8.8100973108
 40
0.0030002018
100
AcDbArc
 50
358.5026377326
 51
65.4313580727
  0
ARC
  5
285
100
AcDbEntity
  8
0
100
AcDbCircle
 62
7
  6
CONTINUOUS
 10
10.1297527339
 20
5.3384651353
 40
0.55
100
AcDbArc
 50
43.0944157882
 51
83.2974484373
  0
ARC
  5
286
100
AcDbEntity
  8
0
100
AcDbCircle
 62
7
  6
CONTINUOUS
 10
10.1851923427
 20
5.8102187254
 40
0.075
100
AcDbArc
 50
83.2974484373
 51
143.1301023542
  0
ARC
  5
287
100
AcDbEntity
  8
0
100
AcDbCircle
 62
7
  6
CONTINUOUS
 10
10.5751923427
 20
5.7552187254
 40
0.06
100
AcDbArc
 50
223.0944157882
 51
360.0
  0
ARC
  5
288
100
AcDbEntity
  8
0
100
AcDbCircle
 62
7
  6
CONTINUOUS
 10
10.0851923427
 20
5.8852187254
 40
0.05
100
AcDbArc
 50
180.0
 51
323.1301023542
  0
ARC
  5
289
100
AcDbEntity
  8
0
100
AcDbCircle
 62
7
  6
CONTINUOUS
 10
10.7201923427
 20
4.6292187254
 40
0.04
100
AcDbArc
 50
90.0
 51
180.0
  0
ARC
  5
28A
100
AcDbEntity
  8
0
100
AcDbCircle
 62
7
  6
CONTINUOUS
 10
10.8701923427
 20
4.9042187254
 40
0.04
100
AcDbArc
 50
90.0
 51
180.0
  0
ARC
  5
28B
100
AcDbEntity
  8
0
100
AcDbCircle
 62
7
  6
CONTINUOUS
 10
10.7876660269
 20
4.7792187465
 40
0.04
100
AcDbArc
 50
112.4647273761
 51
180.0
  0
ARC
  5
28C
100
AcDbEntity
  8
0
100
AcDbCircle
 62
7
  6
CONTINUOUS
 10
10.7276660269
 20
4.6892187254
 40
0.02
100
AcDbArc
 50
270.0
 51
360.0
  0
ARC
  5
28D
100
AcDbEntity
  8
0
100
AcDbCircle
 62
7
  6
CONTINUOUS
 10
10.1297527339
 20
7.3719723155
 40
0.55
100
AcDbArc
 50
276.7025515627
 51
316.9055842118
  0
ARC
  5
28E
100
AcDbEntity
  8
0
100
AcDbCircle
 62
7
  6
CONTINUOUS
 10
10.7786077971
 20
7.8719162851
 40
0.468503937
100
AcDbArc
 50
280.5491060217
 51
354.247680581
  0
ARC
  5
28F
100
AcDbEntity
  8
0
100
AcDbCircle
 62
7
  6
CONTINUOUS
 10
10.1851923427
 20
6.9002187254
 40
0.075
100
AcDbArc
 50
216.8698976458
 51
276.7025515627
  0
ARC
  5
290
100
AcDbEntity
  8
0
100
AcDbCircle
 62
7
  6
CONTINUOUS
 10
10.5751923427
 20
6.9552187254
 40
0.06
100
AcDbArc
 50
0.0
 51
136.9055842118
  0
ARC
  5
291
100
AcDbEntity
  8
0
100
AcDbCircle
 62
7
  6
CONTINUOUS
 10
10.8751923427
 20
7.3532738435
 40
0.0590551181
100
AcDbArc
 50
100.5491060217
 51
270.0
  0
ARC
  5
292
100
AcDbEntity
  8
0
100
AcDbCircle
 62
7
  6
CONTINUOUS
 10
10.0851923427
 20
6.8252187254
 40
0.05
100
AcDbArc
 50
36.8698976458
 51
180.0
  0
ARC
  5
293
100
AcDbEntity
  8
0
100
AcDbCircle
 62
7
  6
CONTINUOUS
 10
10.7996077113
 20
11.3976909349
 40
0.6221572431
100
AcDbArc
 50
359.9980459897
 51
7.3309673424
  0
ARC
  5
294
100
AcDbEntity
  8
0
100
AcDbCircle
 62
7
  6
CONTINUOUS
 10
12.6317768884
 20
7.8719162851
 40
0.468503937
100
AcDbArc
 50
185.752319419
 51
259.4508939783
  0
ARC
  5
295
100
AcDbEntity
  8
0
100
AcDbCircle
 62
7
  6
CONTINUOUS
 10
11.1671923427
 20
7.8327719888
 40
0.0779527559
100
AcDbArc
 50
354.247680581
 51
56.2967024761
  0
ARC
  5
296
100
AcDbEntity
  8
0
100
AcDbCircle
 62
7
  6
CONTINUOUS
 10
12.2431923427
 20
7.8327719888
 40
0.0779527559
100
AcDbArc
 50
123.7032975239
 51
185.752319419
  0
ARC
  5
297
100
AcDbEntity
  8
0
100
AcDbCircle
 62
7
  6
CONTINUOUS
 10
12.5351923427
 20
7.3532738435
 40
0.0590551181
100
AcDbArc
 50
270.0
 51
79.4508939783
  0
ARC
  5
298
100
AcDbEntity
  8
0
100
AcDbCircle
 62
7
  6
CONTINUOUS
 10
11.2381923427
 20
7.9392187254
 40
0.05
100
AcDbArc
 50
90.0
 51
236.2967024761
  0
ARC
  5
299
100
AcDbEntity
  8
0
100
AcDbCircle
 62
7
  6
CONTINUOUS
 10
12.1721923427
 20
7.9392187254
 40
0.05
100
AcDbArc
 50
303.7032975239
 51
90.0
  0
ARC
  5
29A
100
AcDbEntity
  8
0
100
AcDbCircle
 62
7
  6
CONTINUOUS
 10
12.6901923427
 20
4.6292187254
 40
0.04
100
AcDbArc
 50
0.0
 51
90.0
  0
ARC
  5
29B
100
AcDbEntity
  8
0
100
AcDbCircle
 62
7
  6
CONTINUOUS
 10
12.5401923427
 20
4.9042187254
 40
0.04
100
AcDbArc
 50
0.0
 51
90.0
  0
ARC
  5
29C
100
AcDbEntity
  8
0
100
AcDbCircle
 62
7
  6
CONTINUOUS
 10
12.6227186585
 20
4.7792187253
 40
0.04
100
AcDbArc
 50
0.0
 51
67.5352437206
  0
ARC
  5
29D
100
AcDbEntity
  8
0
100
AcDbCircle
 62
7
  6
CONTINUOUS
 10
12.6827186585
 20
4.6892187254
 40
0.02
100
AcDbArc
 50
180.0
 51
270.0
  0
ARC
  5
29E
100
AcDbEntity
  8
0
100
AcDbCircle
 62
7
  6
CONTINUOUS
 10
12.6107822091
 20
11.3976907435
 40
0.622162478
100
AcDbArc
 50
172.6690661548
 51
180.0019363728
  0
ARC
  5
29F
100
AcDbEntity
  8
0
100
AcDbCircle
 62
7
  6
CONTINUOUS
 10
11.7051923427
 20
13.7662187254
 40
0.25
100
AcDbArc
 50
0.0
 51
180.0
  0
ARC
  5
2A0
100
AcDbEntity
  8
0
100
AcDbCircle
 62
7
  6
CONTINUOUS
 10
11.2948846536
 20
11.4614029922
 40
0.1227992242
100
AcDbArc
 50
7.3341170077
 51
9.3808617919
  0
ARC
  5
2A1
100
AcDbEntity
  8
0
100
AcDbCircle
 62
7
  6
CONTINUOUS
 10
12.1154406219
 20
11.4614104023
 40
0.1227393543
100
AcDbArc
 50
170.6204574292
 51
172.6657735268
  0
ARC
  5
2A2
100
AcDbEntity
  8
0
100
AcDbCircle
 62
7
  6
CONTINUOUS
 10
11.4552571039
 20
11.6100260916
 40
0.096492142
100
AcDbArc
 50
169.4950477777
 51
179.9936056041
  0
ARC
  5
2A3
100
AcDbEntity
  8
0
100
AcDbCircle
 62
7
  6
CONTINUOUS
 10
11.9551439882
 20
11.610027255
 40
0.0964757353
100
AcDbArc
 50
0.0057045372
 51
10.5058744696
  0
ARC
  5
2A4
100
AcDbEntity
  8
0
100
AcDbCircle
 62
9
  6
CONTINUOUS
 10
11.4504335192
 20
11.5923735894
 40
0.0822121534
100
AcDbArc
 50
219.7772835674
 51
223.5718305921
  0
ARC
  5
2A5
100
AcDbEntity
  8
0
100
AcDbCircle
 62
9
  6
CONTINUOUS
 10
11.9613877649
 20
11.5910946978
 40
0.0802898636
100
AcDbArc
 50
316.3770772078
 51
320.2581623522
  0
ARC
  5
2A6
100
AcDbEntity
  8
0
100
AcDbCircle
 62
7
  6
CONTINUOUS
 10
11.4671320036
 20
11.2819793003
 40
0.076939677
100
AcDbArc
 50
168.8791297224
 51
179.9912899704
  0
ARC
  5
2A7
100
AcDbEntity
  8
0
100
AcDbCircle
 62
7
  6
CONTINUOUS
 10
11.9432661665
 20
11.2819803379
 40
0.0769261923
100
AcDbArc
 50
0.0079387354
 51
11.1218837022
  0
ARC
  5
2A8
100
AcDbEntity
  8
0
100
AcDbCircle
 62
9
  6
CONTINUOUS
 10
11.4478694313
 20
11.576697243
 40
0.0698768819
100
AcDbArc
 50
215.7149301743
 51
219.7410510976
  0
ARC
  5
2A9
100
AcDbEntity
  8
0
100
AcDbCircle
 62
9
  6
CONTINUOUS
 10
11.9637611539
 20
11.575733354
 40
0.0683026463
100
AcDbArc
 50
320.2135239496
 51
324.3316205278
  0
ARC
  5
2AA
100
AcDbEntity
  8
0
100
AcDbCircle
 62
9
  6
CONTINUOUS
 10
11.4431940889
 20
11.5732402355
 40
0.0640628337
100
AcDbArc
 50
215.0678657668
 51
215.6455192221
  0
ARC
  5
2AB
100
AcDbEntity
  8
0
100
AcDbCircle
 62
9
  6
CONTINUOUS
 10
11.967348097
 20
11.5731284854
 40
0.0638697184
100
AcDbArc
 50
324.3537676819
 51
324.9330071691
  0
ARC
  5
2AC
100
AcDbEntity
  8
0
100
AcDbCircle
 62
9
  6
CONTINUOUS
 10
11.439946154
 20
11.5709883147
 40
0.0601106612
100
AcDbArc
 50
210.690583654
 51
215.0897455216
  0
ARC
  5
2AD
100
AcDbEntity
  8
0
100
AcDbCircle
 62
9
  6
CONTINUOUS
 10
11.9714750783
 20
11.5703180826
 40
0.0588772344
100
AcDbArc
 50
324.8640800492
 51
329.3418104387
  0
ARC
  5
2AE
100
AcDbEntity
  8
0
100
AcDbCircle
 62
9
  6
CONTINUOUS
 10
11.4024101531
 20
11.6198407704
 40
0.042741969
100
AcDbArc
 50
167.3474999666
 51
169.5136097524
  0
ARC
  5
2AF
100
AcDbEntity
  8
0
100
AcDbCircle
 62
9
  6
CONTINUOUS
 10
12.0081114374
 20
11.6198687969
 40
0.0426022498
100
AcDbArc
 50
10.4828136382
 51
12.6560524469
  0
SPLINE
  5
2B0
100
AcDbEntity
  8
0
100
AcDbSpline
 62
7
  6
CONTINUOUS
 70
0
 71
3
 72
41
 73
37
 74
0
 42
0.0000001
 43
0.0000001
 44
0.0000000001
 40
0.0
 40
0.0
 40
0.0
 40
0.0
 40
0.0110985197
 40
0.043138621
 40
0.093039958
 40
0.1235608176
 40
0.1572252634
 40
0.1936554438
 40
0.2325155566
 40
0.2735046127
 40
0.3163417652
 40
0.3607447903
 40
0.3834415867
 40
0.406410283
 40
0.4296037403
 40
0.4529701522
 40
0.4647018495
 40
0.4764557897
 40
0.5000000026
 40
0.5235442156
 40
0.5352981558
 40
0.5470298529
 40
0.5703962641
 40
0.5935897208
 40
0.6165584175
 40
0.6392552138
 40
0.6836582383
 40
0.7264953907
 40
0.7674844459
 40
0.8063445576
 40
0.8427747373
 40
0.8764391827
 40
0.9069600419
 40
0.9568613791
 40
0.9889014805
 40
1.0
 40
1.0
 40
1.0
 40
1.0
 10
10.9001923427
 20
6.8552187254
 30
0.0
 10
10.902286569
 20
6.8518470483
 30
0.0
 10
10.9103901316
 20
6.8387190717
 30
0.0
 10
10.9275499456
 20
6.8102100079
 30
0.0
 10
10.9474819004
 20
6.7752683482
 30
0.0
 10
10.9667389779
 20
6.7392951592
 30
0.0
 10
10.9829675458
 20
6.707175148
 30
0.0
 10
10.9995353623
 20
6.6719006209
 30
0.0
 10
11.015905133
 20
6.6336627904
 30
0.0
 10
11.0314960623
 20
6.5926342905
 30
0.0
 10
11.0456752522
 20
6.5490015658
 30
0.0
 10
11.0556752195
 20
6.5109495998
 30
0.0
 10
11.0623332975
 20
6.4794288859
 30
0.0
 10
11.0665846446
 20
6.4551672991
 30
0.0
 10
11.0699798406
 20
6.4305292745
 30
0.0
 10
11.0720410433
 20
6.4097790872
 30
0.0
 10
11.0732072055
 20
6.3930632171
 30
0.0
 10
11.0740472515
 20
6.3762640983
 30
0.0
 10
11.0744682836
 20
6.3552187226
 30
0.0
 10
11.0740472515
 20
6.3341733469
 30
0.0
 10
11.0732072051
 20
6.3173742281
 30
0.0
 10
11.0720410425
 20
6.3006583583
 30
0.0
 10
11.0699798404
 20
6.2799081715
 30
0.0
 10
11.0665846439
 20
6.2552701473
 30
0.0
 10
11.0623332964
 20
6.2310085607
 30
0.0
 10
11.0556752189
 20
6.1994878469
 30
0.0
 10
11.0456752509
 20
6.1614358813
 30
0.0
 10
11.0314960613
 20
6.1178031571
 30
0.0
 10
11.015905132
 20
6.0767746579
 30
0.0
 10
10.9995353617
 20
6.0385368284
 30
0.0
 10
10.9829675454
 20
6.0032623021
 30
0.0
 10
10.9667389777
 20
5.9711422914
 30
0.0
 10
10.9474819004
 20
5.9351691025
 30
0.0
 10
10.9275499456
 20
5.9002274429
 30
0.0
 10
10.9103901316
 20
5.871718379
 30
0.0
 10
10.902286569
 20
5.8585904025
 30
0.0
 10
10.9001923427
 20
5.8552187254
 30
0.0
  0
SPLINE
  5
2B1
100
AcDbEntity
  8
0
100
AcDbSpline
 62
7
  6
CONTINUOUS
 70
0
 71
3
 72
14
 73
10
 74
0
 42
0.0000001
 43
0.0000001
 44
0.0000000001
 40
0.0
 40
0.0
 40
0.0
 40
0.0
 40
0.0840948666
 40
0.1835577325
 40
0.2965935931
 40
0.4213022736
 40
0.6980724057
 40
0.8467294068
 40
1.0
 40
1.0
 40
1.0
 40
1.0
 10
12.0162440385
 20
11.5320206218
 30
0.0
 10
12.0152455156
 20
11.5308187247
 30
0.0
 10
12.0131500529
 20
11.5281246455
 30
0.0
 10
12.0100341894
 20
11.5235750357
 30
0.0
 10
12.0068238232
 20
11.5181889555
 30
0.0
 10
12.0024708673
 20
11.5096712323
 30
0.0
 10
11.9987682752
 20
11.500102204
 30
0.0
 10
11.9959135104
 20
11.4897293621
 30
0.0
 10
11.9948063836
 20
11.4842235269
 30
0.0
 10
11.9943422419
 20
11.4814136886
 30
0.0
  0
SPLINE
  5
2B2
100
AcDbEntity
  8
0
100
AcDbSpline
 62
7
  6
CONTINUOUS
 70
0
 71
3
 72
14
 73
10
 74
0
 42
0.0000001
 43
0.0000001
 44
0.0000000001
 40
0.0
 40
0.0
 40
0.0
 40
0.0
 40
0.1532469656
 40
0.3018806728
 40
0.5786744728
 40
0.7033848445
 40
0.8164320143
 40
0.915903759
 40
1.0
 40
1.0
 40
1.0
 40
1.0
 10
11.4160416422
 20
11.4814188253
 30
0.0
 10
11.4155775288
 20
11.4842279791
 30
0.0
 10
11.4144705379
 20
11.4897324792
 30
0.0
 10
11.4116152843
 20
11.500103763
 30
0.0
 10
11.4079137518
 20
11.5096723463
 30
0.0
 10
11.4035599443
 20
11.5181894811
 30
0.0
 10
11.4003502979
 20
11.5235758356
 30
0.0
 10
11.3972342257
 20
11.528125247
 30
0.0
 10
11.3951386967
 20
11.5308191386
 30
0.0
 10
11.394140276
 20
11.5320209818
 30
0.0
  0
SPLINE
  5
2B3
100
AcDbEntity
  8
0
100
AcDbSpline
 62
7
  6
CONTINUOUS
 70
0
 71
3
 72
16
 73
12
 74
0
 42
0.0000001
 43
0.0000001
 44
0.0000000001
 40
0.0
 40
0.0
 40
0.0
 40
0.0
 40
0.1225870565
 40
0.2452239049
 40
0.368443144
 40
0.4926496498
 40
0.6180182946
 40
0.6811746497
 40
0.7446214526
 40
0.8720112247
 40
1.0
 40
1.0
 40
1.0
 40
1.0
 10
11.9929322938
 20
11.2207383507
 30
0.0
 10
11.9949095837
 20
11.2227366721
 30
0.0
 10
11.9987260122
 20
11.2268751737
 30
0.0
 10
12.0039586343
 20
11.2335206487
 30
0.0
 10
12.0086277156
 20
11.2406208692
 30
0.0
 10
12.0126481079
 20
11.2481802152
 30
0.0
 10
12.0153721456
 20
11.2548295073
 30
0.0
 10
12.0171325825
 20
11.2603357432
 30
0.0
 10
12.0186015747
 20
11.2659747826
 30
0.0
 10
12.0198553405
 20
11.2731940947
 30
0.0
 10
12.020192358
 20
11.2790559009
 30
0.0
 10
12.020192358
 20
11.2819909966
 30
0.0
  0
SPLINE
  5
2B4
100
AcDbEntity
  8
0
100
AcDbSpline
 62
7
  6
CONTINUOUS
 70
0
 71
3
 72
15
 73
11
 74
0
 42
0.0000001
 43
0.0000001
 44
0.0000000001
 40
0.0
 40
0.0
 40
0.0
 40
0.0
 40
0.1450490459
 40
0.2827498879
 40
0.4137226321
 40
0.5387376036
 40
0.6587198567
 40
0.7747603664
 40
0.8880849375
 40
1.0
 40
1.0
 40
1.0
 40
1.0
 10
11.4174736471
 20
11.2207168817
 30
0.0
 10
11.4161840433
 20
11.2220201185
 30
0.0
 10
11.4137520446
 20
11.2246437906
 30
0.0
 10
11.4104888157
 20
11.2287368497
 30
0.0
 10
11.4077147248
 20
11.2328757231
 30
0.0
 10
11.4054351936
 20
11.2370538307
 30
0.0
 10
11.4036555435
 20
11.2412649188
 30
0.0
 10
11.4023802211
 20
11.245502151
 30
0.0
 10
11.4016135098
 20
11.2497567207
 30
0.0
 10
11.4014423999
 20
11.2526066258
 30
0.0
 10
11.4014423999
 20
11.2540212481
 30
0.0
  0
SPLINE
  5
2B5
100
AcDbEntity
  8
0
100
AcDbSpline
 62
7
  6
CONTINUOUS
 70
0
 71
3
 72
16
 73
12
 74
0
 42
0.0000001
 43
0.0000001
 44
0.0000000001
 40
0.0
 40
0.0
 40
0.0
 40
0.0
 40
0.1279913991
 40
0.2553736031
 40
0.3188231722
 40
0.3819811941
 40
0.507350664
 40
0.6315562532
 40
0.7547759828
 40
0.877417226
 40
1.0
 40
1.0
 40
1.0
 40
1.0
 10
11.3901923275
 20
11.2819909966
 30
0.0
 10
11.3901923275
 20
11.2790556614
 30
0.0
 10
11.3905292874
 20
11.2731935957
 30
0.0
 10
11.3917834193
 20
11.2659739469
 30
0.0
 10
11.3932524198
 20
11.2603346179
 30
0.0
 10
11.3950130813
 20
11.2548279551
 30
0.0
 10
11.3977374011
 20
11.2481782552
 30
0.0
 10
11.4017584383
 20
11.2406186592
 30
0.0
 10
11.4064278111
 20
11.2335178908
 30
0.0
 10
11.411661277
 20
11.2268724121
 30
0.0
 10
11.4154777874
 20
11.2227335146
 30
0.0
 10
11.4174552807
 20
11.220735291
 30
0.0
  0
SPLINE
  5
2B6
100
AcDbEntity
  8
0
100
AcDbSpline
 62
7
  6
CONTINUOUS
 70
0
 71
3
 72
16
 73
12
 74
0
 42
0.0000001
 43
0.0000001
 44
0.0000000001
 40
0.0
 40
0.0
 40
0.0
 40
0.0
 40
0.120849327
 40
0.2426836561
 40
0.3658004237
 40
0.4903440747
 40
0.6162703834
 40
0.6797294356
 40
0.7434733736
 40
0.871463581
 40
1.0
 40
1.0
 40
1.0
 40
1.0
 10
12.0231045977
 20
11.5395964263
 30
0.0
 10
12.0251937227
 20
11.5419283869
 30
0.0
 10
12.0292257579
 20
11.5467611713
 30
0.0
 10
12.0347282582
 20
11.5544888114
 30
0.0
 10
12.039625461
 20
11.5627277425
 30
0.0
 10
12.0438230308
 20
11.5714632151
 30
0.0
 10
12.0466504731
 20
11.5791035202
 30
0.0
 10
12.0484711726
 20
11.5854060822
 30
0.0
 10
12.0499867399
 20
11.5918439334
 30
0.0
 10
12.0512742283
 20
11.6000559403
 30
0.0
 10
12.051619723
 20
11.606706816
 30
0.0
 10
12.051619723
 20
11.6100368605
 30
0.0
  0
SPLINE
  5
2B7
100
AcDbEntity
  8
0
100
AcDbSpline
 62
7
  6
CONTINUOUS
 70
0
 71
3
 72
16
 73
12
 74
0
 42
0.0000001
 43
0.0000001
 44
0.0000000001
 40
0.0
 40
0.0
 40
0.0
 40
0.0
 40
0.1285367449
 40
0.2565171537
 40
0.320263058
 40
0.3837234004
 40
0.5096496557
 40
0.6341945788
 40
0.7573116454
 40
0.8791510944
 40
1.0
 40
1.0
 40
1.0
 40
1.0
 10
11.3587649625
 20
11.6100368605
 30
0.0
 10
11.3587649625
 20
11.6067077149
 30
0.0
 10
11.3591101495
 20
11.6000588858
 30
0.0
 10
11.360397126
 20
11.5918493018
 30
0.0
 10
11.3619116561
 20
11.5854132353
 30
0.0
 10
11.3637313678
 20
11.5791121619
 30
0.0
 10
11.3665572681
 20
11.5714735862
 30
0.0
 10
11.3707528328
 20
11.562740044
 30
0.0
 10
11.3756475496
 20
11.5545024804
 30
0.0
 10
11.3811474852
 20
11.5467760308
 30
0.0
 10
11.385177718
 20
11.5419438101
 30
0.0
 10
11.387266004
 20
11.5396122577
 30
0.0
  0
SPLINE
  5
2B8
100
AcDbEntity
  8
0
100
AcDbSpline
 62
7
  6
CONTINUOUS
 70
0
 71
3
 72
15
 73
11
 74
0
 42
0.0000001
 43
0.0000001
 44
0.0000000001
 40
0.0
 40
0.0
 40
0.0
 40
0.0
 40
0.1119165523
 40
0.2252424374
 40
0.3412839239
 40
0.461266679
 40
0.5862815771
 40
0.7172536052
 40
0.8549530494
 40
1.0
 40
1.0
 40
1.0
 40
1.0
 10
12.0089422856
 20
11.2540212481
 30
0.0
 10
12.0089422856
 20
11.2526067267
 30
0.0
 10
12.0087712004
 20
11.2497570277
 30
0.0
 10
12.0080045993
 20
11.2455027624
 30
0.0
 10
12.0067294596
 20
11.2412658306
 30
0.0
 10
12.0049500633
 20
11.2370550368
 30
0.0
 10
12.0026708557
 20
11.2328772162
 30
0.0
 10
11.9998971569
 20
11.2287386214
 30
0.0
 10
11.996634387
 20
11.2246458313
 30
0.0
 10
11.9942027236
 20
11.2220223216
 30
0.0
 10
11.9929132974
 20
11.2207191646
 30
0.0
  0
SPLINE
  5
2B9
100
AcDbEntity
  8
0
100
AcDbSpline
 62
7
  6
CONTINUOUS
 70
0
 71
3
 72
45
 73
41
 74
0
 42
0.0000001
 43
0.0000001
 44
0.0000000001
 40
0.0
 40
0.0
 40
0.0
 40
0.0
 40
0.0225843179
 40
0.0460072882
 40
0.0581182461
 40
0.0705300621
 40
0.0832624542
 40
0.0963309464
 40
0.1097466373
 40
0.1235176065
 40
0.1521339675
 40
0.1821762133
 40
0.2135957158
 40
0.2463097451
 40
0.2802080666
 40
0.3151582365
 40
0.3510099736
 40
0.3875989207
 40
0.4247498957
 40
0.4622798368
 40
0.5000005272
 40
0.5377212118
 40
0.5752511367
 40
0.6124020853
 40
0.648990995
 40
0.6848426842
 40
0.7197927976
 40
0.7536910552
 40
0.7864050109
 40
0.8178244336
 40
0.847866592
 40
0.8764828705
 40
0.8902537862
 40
0.9036694259
 40
0.9167378285
 40
0.9294702357
 40
0.9418820224
 40
0.9539927865
 40
0.9774157406
 40
1.0
 40
1.0
 40
1.0
 40
1.0
 10
11.4175946842
 20
11.220594782
 30
0.0
 10
11.420809717
 20
11.217356934
 30
0.0
 10
11.4277712433
 20
11.2111626625
 30
0.0
 10
11.4373049901
 20
11.2042802016
 30
0.0
 10
11.4455039129
 20
11.199117466
 30
0.0
 10
11.4520273936
 20
11.1953586912
 30
0.0
 10
11.4588533998
 20
11.1917483869
 30
0.0
 10
11.465978358
 20
11.1882792758
 30
0.0
 10
11.4733989066
 20
11.1849471799
 30
0.0
 10
11.4838140347
 20
11.1806267975
 30
0.0
 10
11.4975551306
 20
11.1755743072
 30
0.0
 10
11.5149197927
 20
11.1701070449
 30
0.0
 10
11.5332992336
 20
11.1651647456
 30
0.0
 10
11.5526134868
 20
11.1607578333
 30
0.0
 10
11.5727710908
 20
11.1568997946
 30
0.0
 10
11.5936700143
 20
11.1536051056
 30
0.0
 10
11.6151995641
 20
11.150887753
 30
0.0
 10
11.6372419232
 20
11.1487602337
 30
0.0
 10
11.659673694
 20
11.147232861
 30
0.0
 10
11.682367343
 20
11.1463132971
 30
0.0
 10
11.705192608
 20
11.1460062515
 30
0.0
 10
11.7280178695
 20
11.1463133118
 30
0.0
 10
11.7507115082
 20
11.1472328899
 30
0.0
 10
11.7731432619
 20
11.148760276
 30
0.0
 10
11.7951855971
 20
11.1508878074
 30
0.0
 10
11.8167151167
 20
11.1536051703
 30
0.0
 10
11.8376140045
 20
11.1568998676
 30
0.0
 10
11.8577715675
 20
11.1607579118
 30
0.0
 10
11.8770857753
 20
11.1651648261
 30
0.0
 10
11.895465166
 20
11.1701071244
 30
0.0
 10
11.9128297772
 20
11.1755743804
 30
0.0
 10
11.9265708272
 20
11.1806268646
 30
0.0
 10
11.9369859167
 20
11.1849472417
 30
0.0
 10
11.944406426
 20
11.1882793284
 30
0.0
 10
11.9515313733
 20
11.191748405
 30
0.0
 10
11.9583573348
 20
11.1953587487
 30
0.0
 10
11.964880794
 20
11.1991174759
 30
0.0
 10
11.9730796652
 20
11.2042802036
 30
0.0
 10
11.9826133774
 20
11.2111626177
 30
0.0
 10
11.9895748982
 20
11.217356873
 30
0.0
 10
11.9927899276
 20
11.2205947078
 30
0.0
  0
SPLINE
  5
2BA
100
AcDbEntity
  8
0
100
AcDbSpline
 62
7
  6
CONTINUOUS
 70
0
 71
3
 72
48
 73
44
 74
0
 42
0.0000001
 43
0.0000001
 44
0.0000000001
 40
0.0
 40
0.0
 40
0.0
 40
0.0
 40
0.0120406946
 40
0.0240812206
 40
0.0362094764
 40
0.0484681926
 40
0.0608891628
 40
0.0735115757
 40
0.0863727151
 40
0.0995009603
 40
0.1129189477
 40
0.1266443735
 40
0.1406903791
 40
0.155066351
 40
0.1848202685
 40
0.215905213
 40
0.2482702076
 40
0.2818259106
 40
0.3164522619
 40
0.3520047595
 40
0.3883197134
 40
0.4252187731
 40
0.4625129657
 40
0.5000064262
 40
0.5374998766
 40
0.5747940381
 40
0.6116930444
 40
0.6480079298
 40
0.6835603394
 40
0.7181865814
 40
0.7517421623
 40
0.7841070261
 40
0.8151918282
 40
0.8449455826
 40
0.873364695
 40
0.9005043454
 40
0.92648921
 40
0.9391117286
 40
0.9515319297
 40
0.9637894679
 40
0.9759187036
 40
0.987962861
 40
1.0
 40
1.0
 40
1.0
 40
1.0
 10
12.0292647488
 20
11.6695990119
 30
0.0
 10
12.0274647502
 20
11.6717025251
 30
0.0
 10
12.023721502
 20
11.6757889995
 30
0.0
 10
12.0177184969
 20
11.6815647081
 30
0.0
 10
12.0113584746
 20
11.6870213981
 30
0.0
 10
12.0046517588
 20
11.6921892866
 30
0.0
 10
11.997612268
 20
11.6970944921
 30
0.0
 10
11.9902456947
 20
11.7017568551
 30
0.0
 10
11.9825564251
 20
11.7061991858
 30
0.0
 10
11.9745454181
 20
11.7104371489
 30
0.0
 10
11.9662145895
 20
11.7144832407
 30
0.0
 10
11.9575664823
 20
11.7183475778
 30
0.0
 10
11.9486037715
 20
11.7220369807
 30
0.0
 10
11.9360968252
 20
11.7267849954
 30
0.0
 10
11.9196925611
 20
11.732285518
 30
0.0
 10
11.8990769707
 20
11.7381623389
 30
0.0
 10
11.8773873703
 20
11.743388897
 30
0.0
 10
11.8547191973
 20
11.7479570547
 30
0.0
 10
11.8311834078
 20
11.7518543908
 30
0.0
 10
11.8069047138
 20
11.7550670296
 30
0.0
 10
11.7820188259
 20
11.7575816118
 30
0.0
 10
11.756670132
 20
11.7593866216
 30
0.0
 10
11.7310094033
 20
11.7604732778
 30
0.0
 10
11.7051916181
 20
11.7608361027
 30
0.0
 10
11.6793738406
 20
11.7604732369
 30
0.0
 10
11.6537131354
 20
11.7593865407
 30
0.0
 10
11.6283644794
 20
11.7575814926
 30
0.0
 10
11.6034786442
 20
11.7550668743
 30
0.0
 10
11.5792000141
 20
11.7518542028
 30
0.0
 10
11.5556643112
 20
11.7479568384
 30
0.0
 10
11.5329962016
 20
11.7433886556
 30
0.0
 10
11.5113067924
 20
11.7381620822
 30
0.0
 10
11.4906909827
 20
11.7322852362
 30
0.0
 10
11.4712251544
 20
11.7257577413
 30
0.0
 10
11.4529647902
 20
11.7185644956
 30
0.0
 10
11.4359462122
 20
11.7106678584
 30
0.0
 10
11.4226888825
 20
11.7033705336
 30
0.0
 10
11.4127721769
 20
11.6970942095
 30
0.0
 10
11.4057329153
 20
11.6921893007
 30
0.0
 10
11.3990263071
 20
11.6870216659
 30
0.0
 10
11.3926657148
 20
11.6815644062
 30
0.0
 10
11.3866628363
 20
11.6757882255
 30
0.0
 10
11.3829194037
 20
11.671701904
 30
0.0
 10
11.3811199367
 20
11.6695990119
 30
0.0
  0
SPLINE
  5
2BB
100
AcDbEntity
  8
0
100
AcDbSpline
 62
7
  6
CONTINUOUS
 70
0
 71
3
 72
14
 73
10
 74
0
 42
0.0000001
 43
0.0000001
 44
0.0000000001
 40
0.0
 40
0.0
 40
0.0
 40
0.0
 40
0.2484540276
 40
0.3726889523
 40
0.4971971477
 40
0.6221744169
 40
0.7475514758
 40
0.8733299656
 40
1.0
 40
1.0
 40
1.0
 40
1.0
 10
11.3810640616
 20
11.6695336587
 30
0.0
 10
11.3786013091
 20
11.6666512616
 30
0.0
 10
11.3751226651
 20
11.6621335737
 30
0.0
 10
11.3710283331
 20
11.6557423369
 30
0.0
 10
11.3682494398
 20
11.6507579604
 30
0.0
 10
11.3657905418
 20
11.6455888152
 30
0.0
 10
11.363676514
 20
11.6402478823
 30
0.0
 10
11.361935242
 20
11.6347468628
 30
0.0
 10
11.3610429993
 20
11.6309951551
 30
0.0
 10
11.3606659908
 20
11.6290993897
 30
0.0
  0
SPLINE
  5
2BC
100
AcDbEntity
  8
0
100
AcDbSpline
 62
7
  6
CONTINUOUS
 70
0
 71
3
 72
14
 73
10
 74
0
 42
0.0000001
 43
0.0000001
 44
0.0000000001
 40
0.0
 40
0.0
 40
0.0
 40
0.0
 40
0.1266965457
 40
0.2524468227
 40
0.3778136097
 40
0.502799975
 40
0.627314172
 40
0.751548563
 40
1.0
 40
1.0
 40
1.0
 40
1.0
 10
12.0497186948
 20
11.6290993897
 30
0.0
 10
12.0493415904
 20
11.6309956371
 30
0.0
 10
12.0484494313
 20
11.6347475193
 30
0.0
 10
12.0467079138
 20
11.6402485472
 30
0.0
 10
12.0445937924
 20
11.6455892318
 30
0.0
 10
12.0421348196
 20
11.6507587033
 30
0.0
 10
12.0393557722
 20
11.6557435473
 30
0.0
 10
12.0352610218
 20
11.6621349758
 30
0.0
 10
12.0317822044
 20
11.6666527883
 30
0.0
 10
12.0293193062
 20
11.6695352329
 30
0.0
  0
SPLINE
  5
2BD
100
AcDbEntity
  8
0
100
AcDbSpline
 62
7
  6
CONTINUOUS
 70
0
 71
3
 72
16
 73
12
 74
0
 42
0.0000001
 43
0.0000001
 44
0.0000000001
 40
0.0
 40
0.0
 40
0.0
 40
0.0
 40
0.0817645271
 40
0.180255525
 40
0.2934462085
 40
0.4190910136
 40
0.4858890358
 40
0.5549584806
 40
0.625976624
 40
0.6986083736
 40
1.0
 40
1.0
 40
1.0
 40
1.0
 10
11.4082426075
 20
11.3341242042
 30
0.0
 10
11.4089308031
 20
11.3350704457
 30
0.0
 10
11.4103739277
 20
11.3372110081
 30
0.0
 10
11.4124858874
 20
11.3408440432
 30
0.0
 10
11.4146184247
 20
11.3451790189
 30
0.0
 10
11.4162621613
 20
11.3492365404
 30
0.0
 10
11.4174768786
 20
11.3527768618
 30
0.0
 10
11.418330458
 20
11.3556123807
 30
0.0
 10
11.4190973786
 20
11.3585590799
 30
0.0
 10
11.420467218
 20
11.3647786344
 30
0.0
 10
11.4211018103
 20
11.3701238888
 30
0.0
 10
11.4212812864
 20
11.3744330169
 30
0.0
  0
SPLINE
  5
2BE
100
AcDbEntity
  8
0
100
AcDbSpline
 62
7
  6
CONTINUOUS
 70
0
 71
3
 72
17
 73
13
 74
0
 42
0.0000001
 43
0.0000001
 44
0.0000000001
 40
0.0
 40
0.0
 40
0.0
 40
0.0
 40
0.3013913335
 40
0.3739996813
 40
0.4450128009
 40
0.5140929605
 40
0.5809024076
 40
0.6451538594
 40
0.7065711042
 40
0.8197446592
 40
0.9182444571
 40
1.0
 40
1.0
 40
1.0
 40
1.0
 10
11.9891033991
 20
11.3744330169
 30
0.0
 10
11.9892828858
 20
11.3701236346
 30
0.0
 10
11.9899171461
 20
11.3647783279
 30
0.0
 10
11.991287515
 20
11.3585589164
 30
0.0
 10
11.9920547449
 20
11.3556123648
 30
0.0
 10
11.9929081519
 20
11.3527763995
 30
0.0
 10
11.9938375534
 20
11.3500664998
 30
0.0
 10
11.9948280943
 20
11.3474955708
 30
0.0
 10
11.9961726231
 20
11.3443524746
 30
0.0
 10
11.9979000047
 20
11.3408427846
 30
0.0
 10
12.0000113107
 20
11.3372094779
 30
0.0
 10
12.0014549865
 20
11.335069076
 30
0.0
 10
12.0021431108
 20
11.3341228549
 30
0.0
  0
SPLINE
  5
2BF
100
AcDbEntity
  8
0
100
AcDbSpline
 62
7
  6
CONTINUOUS
 70
0
 71
3
 72
14
 73
10
 74
0
 42
0.0000001
 43
0.0000001
 44
0.0000000001
 40
0.0
 40
0.0
 40
0.0
 40
0.0
 40
0.245242004
 40
0.3690489147
 40
0.4937063502
 40
0.6192002419
 40
0.7453885776
 40
0.8722465231
 40
1.0
 40
1.0
 40
1.0
 40
1.0
 10
11.408242671
 20
11.334124225
 30
0.0
 10
11.4062638982
 20
11.3314036535
 30
0.0
 10
11.4034759197
 20
11.3271653799
 30
0.0
 10
11.4001942219
 20
11.3212387033
 30
0.0
 10
11.3979495887
 20
11.3166231656
 30
0.0
 10
11.3959488467
 20
11.3118614125
 30
0.0
 10
11.3942092129
 20
11.3069658321
 30
0.0
 10
11.392748812
 20
11.3019475642
 30
0.0
 10
11.3919735549
 20
11.2985395321
 30
0.0
 10
11.3916365589
 20
11.2968197942
 30
0.0
  0
SPLINE
  5
2C0
100
AcDbEntity
  8
0
100
AcDbSpline
 62
7
  6
CONTINUOUS
 70
0
 71
3
 72
14
 73
10
 74
0
 42
0.0000001
 43
0.0000001
 44
0.0000000001
 40
0.0
 40
0.0
 40
0.0
 40
0.0
 40
0.1277968462
 40
0.2546164525
 40
0.3807811663
 40
0.506281749
 40
0.6309526089
 40
0.7547606754
 40
1.0
 40
1.0
 40
1.0
 40
1.0
 10
12.0187481266
 20
11.2968197942
 30
0.0
 10
12.018410974
 20
11.2985403313
 30
0.0
 10
12.0176357281
 20
11.3019488879
 30
0.0
 10
12.016174987
 20
11.3069674788
 30
0.0
 10
12.0144351117
 20
11.3118628556
 30
0.0
 10
12.0124340707
 20
11.3166251265
 30
0.0
 10
12.0101891106
 20
11.3212415472
 30
0.0
 10
12.0069066465
 20
11.3271689611
 30
0.0
 10
12.004118122
 20
11.3314076088
 30
0.0
 10
12.0021389914
 20
11.3341283952
 30
0.0
  0
SPLINE
  5
2C1
100
AcDbEntity
  8
0
100
AcDbSpline
 62
9
  6
CONTINUOUS
 70
0
 71
3
 72
34
 73
30
 74
0
 42
0.0000001
 43
0.0000001
 44
0.0000000001
 40
0.0
 40
0.0
 40
0.0
 40
0.0
 40
0.0136981708
 40
0.028315292
 40
0.0440646016
 40
0.0610713619
 40
0.0793978306
 40
0.0990592434
 40
0.1200450787
 40
0.142325587
 40
0.1905864166
 40
0.243474107
 40
0.3005976883
 40
0.3616058966
 40
0.4262107032
 40
0.4942116452
 40
0.5655318242
 40
0.6402894373
 40
0.6790869127
 40
0.7189700043
 40
0.7601223968
 40
0.8028374052
 40
0.8475757678
 40
0.8709133929
 40
0.895036466
 40
0.9200380684
 40
0.9459620559
 40
0.9727321557
 40
1.0
 40
1.0
 40
1.0
 40
1.0
 10
9.3801923427
 20
6.7237100469
 30
0.0
 10
9.3801923505
 20
6.7233589096
 30
0.0
 10
9.380259012
 20
6.7226321748
 30
0.0
 10
9.3805305912
 20
6.7215325031
 30
0.0
 10
9.3809640118
 20
6.7203954639
 30
0.0
 10
9.3815491506
 20
6.7192221744
 30
0.0
 10
9.3822768075
 20
6.7180133816
 30
0.0
 10
9.3831381337
 20
6.7167700226
 30
0.0
 10
9.384125373
 20
6.7154935514
 30
0.0
 10
9.3856405662
 20
6.7137014679
 30
0.0
 10
9.3878147996
 20
6.7113997528
 30
0.0
 10
9.3907491431
 20
6.7085963298
 30
0.0
 10
9.3940344133
 20
6.7056923156
 30
0.0
 10
9.3976374097
 20
6.7026979904
 30
0.0
 10
9.4015341326
 20
6.6996235255
 30
0.0
 10
9.4057114449
 20
6.6964801756
 30
0.0
 10
9.4101716203
 20
6.6932822603
 30
0.0
 10
9.4140955449
 20
6.6906233857
 30
0.0
 10
9.4174095482
 20
6.688504545
 30
0.0
 10
9.4200342983
 20
6.6869081466
 30
0.0
 10
9.4227910722
 20
6.6853375478
 30
0.0
 10
9.4257164378
 20
6.6838155357
 30
0.0
 10
9.4283032541
 20
6.682638178
 30
0.0
 10
9.4305059298
 20
6.6817797062
 30
0.0
 10
9.4322665868
 20
6.6811853348
 30
0.0
 10
9.4341209709
 20
6.6806692335
 30
0.0
 10
9.4360722873
 20
6.6802612933
 30
0.0
 10
9.4381076361
 20
6.6800022811
 30
0.0
 10
9.4394933619
 20
6.6799372835
 30
0.0
 10
9.4401923427
 20
6.6799375071
 30
0.0
  0
SPLINE
  5
2C2
100
AcDbEntity
  8
0
100
AcDbSpline
 62
9
  6
CONTINUOUS
 70
0
 71
3
 72
32
 73
28
 74
0
 42
0.0000001
 43
0.0000001
 44
0.0000000001
 40
0.0
 40
0.0
 40
0.0
 40
0.0
 40
0.0272699711
 40
0.0540357044
 40
0.104941183
 40
0.1523889618
 40
0.1971292584
 40
0.2398458963
 40
0.2810003532
 40
0.3208851319
 40
0.3596842196
 40
0.4344450862
 40
0.5057681815
 40
0.5737720627
 40
0.6383796214
 40
0.6993904034
 40
0.7565161868
 40
0.8094059376
 40
0.8576687939
 40
0.8799501931
 40
0.9009369359
 40
0.9205991467
 40
0.9389263293
 40
0.9559337422
 40
0.9716836243
 40
0.9863012916
 40
1.0
 40
1.0
 40
1.0
 40
1.0
 10
9.7301923427
 20
6.6799375071
 30
0.0
 10
9.7308913506
 20
6.6799373103
 30
0.0
 10
9.7322771087
 20
6.6800006931
 30
0.0
 10
9.7349475986
 20
6.6803439659
 30
0.0
 10
9.7380715291
 20
6.6811159929
 30
0.0
 10
9.7415186142
 20
6.6823820634
 30
0.0
 10
9.7446680687
 20
6.6838154382
 30
0.0
 10
9.7475934887
 20
6.6853375458
 30
0.0
 10
9.7503502916
 20
6.6869080795
 30
0.0
 10
9.7529750531
 20
6.6885045025
 30
0.0
 10
9.756289065
 20
6.690623351
 30
0.0
 10
9.7602130141
 20
6.6932822148
 30
0.0
 10
9.7646731912
 20
6.6964801581
 30
0.0
 10
9.7688505265
 20
6.6996235026
 30
0.0
 10
9.7727472629
 20
6.7026979777
 30
0.0
 10
9.776350272
 20
6.7056923017
 30
0.0
 10
9.7796355291
 20
6.7085963357
 30
0.0
 10
9.7825698584
 20
6.7113997755
 30
0.0
 10
9.7847441069
 20
6.7137014804
 30
0.0
 10
9.7862593133
 20
6.7154935603
 30
0.0
 10
9.78724657
 20
6.7167700219
 30
0.0
 10
9.7881079035
 20
6.7180133794
 30
0.0
 10
9.7888355574
 20
6.7192221743
 30
0.0
 10
9.7894206905
 20
6.7203954648
 30
0.0
 10
9.789854103
 20
6.7215325045
 30
0.0
 10
9.7901256776
 20
6.7226321753
 30
0.0
 10
9.7901923365
 20
6.7233589096
 30
0.0
 10
9.7901923427
 20
6.7237100469
 30
0.0
  0
SPLINE
  5
2C3
100
AcDbEntity
  8
0
100
AcDbSpline
 62
9
  6
CONTINUOUS
 70
0
 71
3
 72
67
 73
63
 74
0
 42
0.0000001
 43
0.0000001
 44
0.0000000001
 40
0.0
 40
0.0
 40
0.0
 40
0.0
 40
0.0488513631
 40
0.0732437465
 40
0.0975895388
 40
0.1460810221
 40
0.1942136628
 40
0.2418727178
 40
0.288942448
 40
0.3353146158
 40
0.3808829447
 40
0.4691909688
 40
0.5530678533
 40
0.6317406695
 40
0.668889341
 40
0.7044688493
 40
0.7383943002
 40
0.7705752405
 40
0.8009225816
 40
0.8293546303
 40
0.8558170346
 40
0.8802504952
 40
0.9025719098
 40
0.9129167319
 40
0.9227073171
 40
0.9319361825
 40
0.9405980166
 40
0.9486895509
 40
0.9562075962
 40
0.9631481234
 40
0.9695042042
 40
0.9752682834
 40
0.9804331082
 40
0.9849958046
 40
0.9870514783
 40
0.9889567842
 40
0.990711784
 40
0.9923165364
 40
0.9937708705
 40
0.9950742366
 40
0.9962260489
 40
0.9972257213
 40
0.9976683219
 40
0.9980726677
 40
0.9984386854
 40
0.9987663017
 40
0.9990554433
 40
0.999306045
 40
0.9995180901
 40
0.9996096542
 40
0.9996915795
 40
0.9997638662
 40
0.9998265143
 40
0.9998795239
 40
0.9999228953
 40
0.9999566285
 40
0.9999698808
 40
0.9999807235
 40
0.9999891569
 40
0.9999951807
 40
0.9999987951
 40
1.0
 40
1.0
 40
1.0
 40
1.0
 10
11.7051923427
 20
4.7491113907
 30
0.0
 10
11.7199622284
 20
4.7491114017
 30
0.0
 10
11.7421076095
 20
4.7493050067
 30
0.0
 10
11.7716064788
 20
4.7499447745
 30
0.0
 10
11.8009900497
 20
4.7508356806
 30
0.0
 10
11.8375325405
 20
4.7524074278
 30
0.0
 10
11.8810810244
 20
4.7549870774
 30
0.0
 10
11.924155991
 20
4.7582027542
 30
0.0
 10
11.9666493758
 20
4.7619955261
 30
0.0
 10
12.0084592897
 20
4.7662910468
 30
0.0
 10
12.0625997153
 20
4.7725241662
 30
0.0
 10
12.1278752963
 20
4.7811365673
 30
0.0
 10
12.2028797255
 20
4.7924191079
 30
0.0
 10
12.2624500378
 20
4.8022699163
 30
0.0
 10
12.3075442998
 20
4.8101363217
 30
0.0
 10
12.3392817454
 20
4.8158415163
 30
0.0
 10
12.3695156333
 20
4.8214195769
 30
0.0
 10
12.3981720105
 20
4.8268276309
 30
0.0
 10
12.4251779192
 20
4.8320240154
 30
0.0
 10
12.4504713215
 20
4.8369693801
 30
0.0
 10
12.4739965384
 20
4.8416395937
 30
0.0
 10
12.4956977479
 20
4.8460093299
 30
0.0
 10
12.5126143385
 20
4.8494539179
 30
0.0
 10
12.5251894217
 20
4.8520315197
 30
0.0
 10
12.5338853055
 20
4.8538209765
 30
0.0
 10
12.542081705
 20
4.8555131456
 30
0.0
 10
12.5497740623
 20
4.8571060703
 30
0.0
 10
12.5569589352
 20
4.8585988094
 30
0.0
 10
12.5636332922
 20
4.8599903521
 30
0.0
 10
12.5697930111
 20
4.8612794944
 30
0.0
 10
12.5754329802
 20
4.8624633223
 30
0.0
 10
12.5805471055
 20
4.863538871
 30
0.0
 10
12.585130579
 20
4.8645030236
 30
0.0
 10
12.588616853
 20
4.865236375
 30
0.0
 10
12.5911386102
 20
4.8657674738
 30
0.0
 10
12.5928296143
 20
4.866124042
 30
0.0
 10
12.594387103
 20
4.8664530293
 30
0.0
 10
12.5958110344
 20
4.8667545595
 30
0.0
 10
12.597101205
 20
4.8670286249
 30
0.0
 10
12.5982572743
 20
4.8672749253
 30
0.0
 10
12.5992787722
 20
4.8674931667
 30
0.0
 10
12.60004568
 20
4.8676574409
 30
0.0
 10
12.6005915661
 20
4.8677745804
 30
0.0
 10
12.6009501189
 20
4.8678515999
 30
0.0
 10
12.6012746695
 20
4.8679213776
 30
0.0
 10
12.6015651581
 20
4.8679838755
 30
0.0
 10
12.601821527
 20
4.8680390575
 30
0.0
 10
12.6020437358
 20
4.868086888
 30
0.0
 10
12.6022075462
 20
4.8681221463
 30
0.0
 10
12.6023215005
 20
4.8681466728
 30
0.0
 10
12.6023941457
 20
4.8681623076
 30
0.0
 10
12.6024582446
 20
4.8681761031
 30
0.0
 10
12.6025137956
 20
4.8681880564
 30
0.0
 10
12.6025608038
 20
4.8681981762
 30
0.0
 10
12.602599255
 20
4.868206438
 30
0.0
 10
12.6026259806
 20
4.8682122141
 30
0.0
 10
12.6026430463
 20
4.8682158443
 30
0.0
 10
12.6026527186
 20
4.8682180092
 30
0.0
 10
12.602660049
 20
4.8682193658
 30
0.0
 10
12.6026657257
 20
4.8682210816
 30
0.0
 10
12.6026683439
 20
4.8682207736
 30
0.0
 10
12.6026703764
 20
4.8682221097
 30
0.0
 10
12.6026704833
 20
4.8682217614
 30
0.0
  0
SPLINE
  5
2C4
100
AcDbEntity
  8
0
100
AcDbSpline
 62
9
  6
CONTINUOUS
 70
0
 71
3
 72
28
 73
24
 74
0
 42
0.0000001
 43
0.0000001
 44
0.0000000001
 40
0.0
 40
0.0
 40
0.0
 40
0.0
 40
0.0608923517
 40
0.1185573561
 40
0.2187833627
 40
0.2616809758
 40
0.3005564142
 40
0.3360379901
 40
0.3686402133
 40
0.4267183472
 40
0.4772554959
 40
0.5617874863
 40
0.6304692981
 40
0.6878640359
 40
0.736805089
 40
0.7792121271
 40
0.816470147
 40
0.8496294116
 40
0.9067326516
 40
0.9319956875
 40
0.9557014977
 40
0.9782543493
 40
1.0
 40
1.0
 40
1.0
 40
1.0
 10
12.6227186585
 20
4.6709483468
 30
0.0
 10
12.6236837212
 20
4.6709483414
 30
0.0
 10
12.6255627998
 20
4.6709793903
 30
0.0
 10
12.6290271614
 20
4.6711328717
 30
0.0
 10
12.6321992942
 20
4.6714089131
 30
0.0
 10
12.6350612449
 20
4.6717700635
 30
0.0
 10
12.6368988023
 20
4.672048412
 30
0.0
 10
12.6385687995
 20
4.6723402069
 30
0.0
 10
12.6405308242
 20
4.6727260986
 30
0.0
 10
12.6427128993
 20
4.6732272364
 30
0.0
 10
12.6456664128
 20
4.6740339027
 30
0.0
 10
12.6487321729
 20
4.6750597085
 30
0.0
 10
12.6518059639
 20
4.6763697674
 30
0.0
 10
12.6542645409
 20
4.6776607335
 30
0.0
 10
12.6562543326
 20
4.6789303085
 30
0.0
 10
12.6578714163
 20
4.6801754264
 30
0.0
 10
12.6591826419
 20
4.6813956993
 30
0.0
 10
12.6605212989
 20
4.682912452
 30
0.0
 10
12.6615252776
 20
4.6844640059
 30
0.0
 10
12.662178815
 20
4.6860163026
 30
0.0
 10
12.6624974329
 20
4.6871068215
 30
0.0
 10
12.6626794682
 20
4.6881713803
 30
0.0
 10
12.6627186588
 20
4.6888740856
 30
0.0
 10
12.6627186585
 20
4.6892187252
 30
0.0
  0
SPLINE
  5
2C5
100
AcDbEntity
  8
0
100
AcDbSpline
 62
9
  6
CONTINUOUS
 70
0
 71
3
 72
14
 73
10
 74
0
 42
0.0000001
 43
0.0000001
 44
0.0000000001
 40
0.0
 40
0.0
 40
0.0
 40
0.0
 40
0.3771969591
 40
0.5320817209
 40
0.6658536429
 40
0.779164188
 40
0.8724640647
 40
0.9460360163
 40
1.0
 40
1.0
 40
1.0
 40
1.0
 10
12.6227186585
 20
4.8131079874
 30
0.0
 10
12.6244610815
 20
4.8138141766
 30
0.0
 10
12.6269804318
 20
4.8146726096
 30
0.0
 10
12.6302120931
 20
4.815434321
 30
0.0
 10
12.6321853329
 20
4.8157868088
 30
0.0
 10
12.6338682281
 20
4.8160064875
 30
0.0
 10
12.6352601914
 20
4.8161246388
 30
0.0
 10
12.6363600614
 20
4.8161740563
 30
0.0
 10
12.6369957243
 20
4.816182942
 30
0.0
 10
12.6372646854
 20
4.816185835
 30
0.0
  0
LINE
  5
2C6
100
AcDbEntity
  8
0
100
AcDbLine
 62
9
  6
CONTINUOUS
 10
12.6372646854
 20
4.816185835
 11
12.6380082691
 21
4.8161942987
  0
SPLINE
  5
2C7
100
AcDbEntity
  8
0
100
AcDbSpline
 62
9
  6
CONTINUOUS
 70
0
 71
3
 72
53
 73
49
 74
0
 42
0.0000001
 43
0.0000001
 44
0.0000000001
 40
0.0
 40
0.0
 40
0.0
 40
0.0
 40
0.0088025957
 40
0.0180735646
 40
0.0278347934
 40
0.0381022361
 40
0.0488864451
 40
0.0601935342
 40
0.0720255531
 40
0.0843812035
 40
0.0972560986
 40
0.1106432581
 40
0.1245333076
 40
0.1389147999
 40
0.1537743973
 40
0.1690970573
 40
0.2010621054
 40
0.2346633902
 40
0.2697335947
 40
0.3060899101
 40
0.3435367347
 40
0.3818680893
 40
0.4208698502
 40
0.4603218658
 40
0.5
 40
0.5396781342
 40
0.5791301498
 40
0.6181319107
 40
0.6564632653
 40
0.6939100899
 40
0.7302664053
 40
0.7653366098
 40
0.7989378946
 40
0.8309029427
 40
0.8462256027
 40
0.8610852001
 40
0.8754666924
 40
0.8893567419
 40
0.9027439014
 40
0.9156187965
 40
0.9279744469
 40
0.9398064658
 40
0.9511135549
 40
0.9618977639
 40
0.9721652066
 40
0.9819264354
 40
0.9911974043
 40
1.0
 40
1.0
 40
1.0
 40
1.0
 10
12.029264725
 20
11.6695990095
 30
0.0
 10
12.0279610545
 20
11.6711225154
 30
0.0
 10
12.0251656381
 20
11.6741504506
 30
0.0
 10
12.0205626812
 20
11.6785166966
 30
0.0
 10
12.0154521727
 20
11.6828151014
 30
0.0
 10
12.0098424916
 20
11.6870387322
 30
0.0
 10
12.0037425163
 20
11.6911813667
 30
0.0
 10
11.9971618891
 20
11.695236468
 30
0.0
 10
11.990111085
 20
11.6991977761
 30
0.0
 10
11.9826012947
 20
11.7030589674
 30
0.0
 10
11.9746445084
 20
11.706813952
 30
0.0
 10
11.9662534297
 20
11.7104566962
 30
0.0
 10
11.9574414935
 20
11.7139813802
 30
0.0
 10
11.948222835
 20
11.7173823184
 30
0.0
 10
11.9386122234
 20
11.7206540788
 30
0.0
 10
11.925105229
 20
11.7248968804
 30
0.0
 10
11.9073430017
 20
11.7298201789
 30
0.0
 10
11.8850191444
 20
11.7350549574
 30
0.0
 10
11.861537638
 20
11.7396628093
 30
0.0
 10
11.8370495825
 20
11.7436137628
 30
0.0
 10
11.8117122543
 20
11.7468820734
 30
0.0
 10
11.7856887141
 20
11.7494464467
 30
0.0
 10
11.7591465137
 20
11.7512901716
 30
0.0
 10
11.7322566346
 20
11.7524012341
 30
0.0
 10
11.7051923428
 20
11.7527723944
 30
0.0
 10
11.6781280509
 20
11.7524012341
 30
0.0
 10
11.6512381718
 20
11.7512901716
 30
0.0
 10
11.6246959714
 20
11.7494464467
 30
0.0
 10
11.5986724312
 20
11.7468820734
 30
0.0
 10
11.573335103
 20
11.7436137628
 30
0.0
 10
11.5488470475
 20
11.7396628093
 30
0.0
 10
11.5253655412
 20
11.7350549574
 30
0.0
 10
11.5030416838
 20
11.7298201789
 30
0.0
 10
11.4852794566
 20
11.7248968804
 30
0.0
 10
11.4717724621
 20
11.7206540788
 30
0.0
 10
11.4621618505
 20
11.7173823184
 30
0.0
 10
11.452943192
 20
11.7139813802
 30
0.0
 10
11.4441312558
 20
11.7104566962
 30
0.0
 10
11.4357401771
 20
11.706813952
 30
0.0
 10
11.4277833908
 20
11.7030589674
 30
0.0
 10
11.4202736005
 20
11.6991977761
 30
0.0
 10
11.4132227965
 20
11.695236468
 30
0.0
 10
11.4066421692
 20
11.6911813667
 30
0.0
 10
11.4005421939
 20
11.6870387322
 30
0.0
 10
11.3949325128
 20
11.6828151014
 30
0.0
 10
11.3898220043
 20
11.6785166966
 30
0.0
 10
11.3852190475
 20
11.6741504506
 30
0.0
 10
11.382423631
 20
11.6711225154
 30
0.0
 10
11.3811199605
 20
11.6695990095
 30
0.0
  0
SPLINE
  5
2C8
100
AcDbEntity
  8
0
100
AcDbSpline
 62
9
  6
CONTINUOUS
 70
0
 71
3
 72
25
 73
21
 74
0
 42
0.0000001
 43
0.0000001
 44
0.0000000001
 40
0.0
 40
0.0
 40
0.0
 40
0.0
 40
0.0217463362
 40
0.0442999606
 40
0.0680065784
 40
0.0932702109
 40
0.1503752871
 40
0.1835365215
 40
0.2207957605
 40
0.2632044991
 40
0.3121473006
 40
0.3695445594
 40
0.4382300044
 40
0.5227628702
 40
0.6313670244
 40
0.6994472441
 40
0.7812233082
 40
0.8814517017
 40
0.9391076929
 40
1.0
 40
1.0
 40
1.0
 40
1.0
 10
10.7476660269
 20
4.6892187251
 30
0.0
 10
10.7476660266
 20
4.6888740862
 30
0.0
 10
10.7477052154
 20
4.6881713814
 30
0.0
 10
10.7478872501
 20
4.6871068227
 30
0.0
 10
10.7482058688
 20
4.6860163077
 30
0.0
 10
10.7488594241
 20
4.6844640225
 30
0.0
 10
10.7498634318
 20
4.6829124856
 30
0.0
 10
10.7512020298
 20
4.6813956657
 30
0.0
 10
10.7525132662
 20
4.6801753771
 30
0.0
 10
10.7541303628
 20
4.6789302593
 30
0.0
 10
10.7561202805
 20
4.6776608627
 30
0.0
 10
10.7585787142
 20
4.676369577
 30
0.0
 10
10.7616528254
 20
4.6750600665
 30
0.0
 10
10.7655915256
 20
4.6737412289
 30
0.0
 10
10.7696151789
 20
4.6727465396
 30
0.0
 10
10.7736440958
 20
4.672002089
 30
0.0
 10
10.777571999
 20
4.6714617281
 30
0.0
 10
10.7813579991
 20
4.6711335055
 30
0.0
 10
10.7848221111
 20
4.6709786011
 30
0.0
 10
10.7867009974
 20
4.6709484297
 30
0.0
 10
10.7876660269
 20
4.6709484259
 30
0.0
  0
SPLINE
  5
2C9
100
AcDbEntity
  8
0
100
AcDbSpline
 62
9
  6
CONTINUOUS
 70
0
 71
3
 72
59
 73
55
 74
0
 42
0.0000001
 43
0.0000001
 44
0.0000000001
 40
0.0
 40
0.0
 40
0.0
 40
0.0
 40
0.0075619459
 40
0.0154053652
 40
0.0236264101
 40
0.0323050283
 40
0.0415055958
 40
0.0512781236
 40
0.0616596009
 40
0.0726760967
 40
0.0843442387
 40
0.0966726997
 40
0.1096635763
 40
0.1233130902
 40
0.1376126861
 40
0.1525495512
 40
0.1681070855
 40
0.1842655767
 40
0.2010022867
 40
0.218291969
 40
0.2361071072
 40
0.2544180098
 40
0.2923976552
 40
0.3319622377
 40
0.3728194116
 40
0.4146602266
 40
0.4571635019
 40
0.5
 40
0.5428364981
 40
0.5853397734
 40
0.6271805884
 40
0.6680377623
 40
0.7076023448
 40
0.7455819902
 40
0.7638928928
 40
0.781708031
 40
0.7989977133
 40
0.8157344233
 40
0.8318929145
 40
0.8474504488
 40
0.8623873139
 40
0.8766869098
 40
0.8903364237
 40
0.9033273003
 40
0.9156557613
 40
0.9273239033
 40
0.9383403991
 40
0.9487218764
 40
0.9584944042
 40
0.9676949717
 40
0.9763735899
 40
0.9845946348
 40
0.9924380541
 40
1.0
 40
1.0
 40
1.0
 40
1.0
 10
12.0497186742
 20
11.6290993892
 30
0.0
 10
12.0493469333
 20
11.6309688876
 30
0.0
 10
12.0483311509
 20
11.6347302133
 30
0.0
 10
12.0460659602
 20
11.6402526173
 30
0.0
 10
12.0430466356
 20
11.6457243514
 30
0.0
 10
12.0392831191
 20
11.6511332167
 30
0.0
 10
12.0347855047
 20
11.6564694477
 30
0.0
 10
12.0295645535
 20
11.661722896
 30
0.0
 10
12.0236321043
 20
11.6668837035
 30
0.0
 10
12.0170009852
 20
11.6719415776
 30
0.0
 10
12.0096855033
 20
11.6768862712
 30
0.0
 10
12.0017014122
 20
11.681707562
 30
0.0
 10
11.993065854
 20
11.6863951087
 30
0.0
 10
11.9837975594
 20
11.6909389665
 30
0.0
 10
11.973916618
 20
11.6953292323
 30
0.0
 10
11.9634445373
 20
11.6995563026
 30
0.0
 10
11.9524042031
 20
11.7036110073
 30
0.0
 10
11.9408197377
 20
11.7074843228
 30
0.0
 10
11.9287165416
 20
11.7111677979
 30
0.0
 10
11.9161211773
 20
11.7146532842
 30
0.0
 10
11.9030612523
 20
11.7179330859
 30
0.0
 10
11.8848449074
 20
11.7220725398
 30
0.0
 10
11.8611150908
 20
11.7266600513
 30
0.0
 10
11.8316075615
 20
11.7311789344
 30
0.0
 10
11.8009889645
 20
11.7347361061
 30
0.0
 10
11.7695285137
 20
11.7372998789
 30
0.0
 10
11.7375024591
 20
11.7388473371
 30
0.0
 10
11.7051923428
 20
11.7393646952
 30
0.0
 10
11.6728822264
 20
11.7388473371
 30
0.0
 10
11.6408561718
 20
11.7372998789
 30
0.0
 10
11.609395721
 20
11.7347361061
 30
0.0
 10
11.578777124
 20
11.7311789344
 30
0.0
 10
11.5492695947
 20
11.7266600513
 30
0.0
 10
11.5255397781
 20
11.7220725398
 30
0.0
 10
11.5073234332
 20
11.7179330859
 30
0.0
 10
11.4942635082
 20
11.7146532842
 30
0.0
 10
11.4816681439
 20
11.7111677979
 30
0.0
 10
11.4695649478
 20
11.7074843228
 30
0.0
 10
11.4579804825
 20
11.7036110073
 30
0.0
 10
11.4469401482
 20
11.6995563026
 30
0.0
 10
11.4364680676
 20
11.6953292323
 30
0.0
 10
11.4265871261
 20
11.6909389665
 30
0.0
 10
11.4173188315
 20
11.6863951087
 30
0.0
 10
11.4086832733
 20
11.681707562
 30
0.0
 10
11.4006991822
 20
11.6768862712
 30
0.0
 10
11.3933837003
 20
11.6719415776
 30
0.0
 10
11.3867525813
 20
11.6668837035
 30
0.0
 10
11.380820132
 20
11.661722896
 30
0.0
 10
11.3755991808
 20
11.6564694477
 30
0.0
 10
11.3711015664
 20
11.6511332167
 30
0.0
 10
11.3673380499
 20
11.6457243514
 30
0.0
 10
11.3643187253
 20
11.6402526173
 30
0.0
 10
11.3620535346
 20
11.6347302133
 30
0.0
 10
11.3610377523
 20
11.6309688876
 30
0.0
 10
11.3606660113
 20
11.6290993892
 30
0.0
  0
SPLINE
  5
2CA
100
AcDbEntity
  8
0
100
AcDbSpline
 62
9
  6
CONTINUOUS
 70
0
 71
3
 72
13
 73
9
 74
0
 42
0.0000001
 43
0.0000001
 44
0.0000000001
 40
0.0
 40
0.0
 40
0.0
 40
0.0
 40
0.2645166393
 40
0.5167707894
 40
0.6395131186
 40
0.7606212233
 40
0.8806077249
 40
1.0
 40
1.0
 40
1.0
 40
1.0
 10
11.3882548225
 20
11.5403077372
 30
0.0
 10
11.3872157764
 20
11.5420632286
 30
0.0
 10
11.3853712812
 20
11.5456079293
 30
0.0
 10
11.383654927
 20
11.5502476639
 30
0.0
 10
11.3827029592
 20
11.553956074
 30
0.0
 10
11.3821969686
 20
11.5567184658
 30
0.0
 10
11.3818931892
 20
11.5594841846
 30
0.0
 10
11.3818256749
 20
11.5613309819
 30
0.0
 10
11.3818258053
 20
11.5622517309
 30
0.0
  0
SPLINE
  5
2CB
100
AcDbEntity
  8
0
100
AcDbSpline
 62
9
  6
CONTINUOUS
 70
0
 71
3
 72
33
 73
29
 74
0
 42
0.0000001
 43
0.0000001
 44
0.0000000001
 40
0.0
 40
0.0
 40
0.0
 40
0.0
 40
0.0876660806
 40
0.1745855474
 40
0.2600263533
 40
0.3432713875
 40
0.4236355892
 40
0.5004740959
 40
0.5373863733
 40
0.5732003062
 40
0.6078524599
 40
0.6412843826
 40
0.6734437882
 40
0.7042845036
 40
0.7337681023
 40
0.76186446
 40
0.7885530459
 40
0.8138249681
 40
0.8376841063
 40
0.8601504294
 40
0.8812623035
 40
0.9010803113
 40
0.9196916494
 40
0.9372138965
 40
0.9537996504
 40
0.9696380781
 40
0.9849537675
 40
1.0
 40
1.0
 40
1.0
 40
1.0
 10
11.7051923427
 20
12.3712690837
 30
0.0
 10
11.6970230264
 20
12.3712690837
 30
0.0
 10
11.6807526278
 20
12.3709968812
 30
0.0
 10
11.6565480049
 20
12.3697741375
 30
0.0
 10
11.632810177
 20
12.3677495779
 30
0.0
 10
11.6097669216
 20
12.3649428884
 30
0.0
 10
11.5876394828
 20
12.3613814495
 30
0.0
 10
11.5699087807
 20
12.3577669638
 30
0.0
 10
11.5563566188
 20
12.3545076045
 30
0.0
 10
11.5466867748
 20
12.3519306551
 30
0.0
 10
11.5373981873
 20
12.3491949531
 30
0.0
 10
11.5285130991
 20
12.3463069559
 30
0.0
 10
11.5200527588
 20
12.3432737466
 30
0.0
 10
11.5120374037
 20
12.3401024917
 30
0.0
 10
11.5044861216
 20
12.3368008592
 30
0.0
 10
11.4974168579
 20
12.3333767108
 30
0.0
 10
11.490846387
 20
12.329838075
 30
0.0
 10
11.4847901502
 20
12.3261933655
 30
0.0
 10
11.4792624424
 20
12.3224508474
 30
0.0
 10
11.4742761562
 20
12.318619088
 30
0.0
 10
11.4698430077
 20
12.3147064716
 30
0.0
 10
11.4659736107
 20
12.3107212485
 30
0.0
 10
11.4626774352
 20
12.3066716962
 30
0.0
 10
11.4599635416
 20
12.3025657322
 30
0.0
 10
11.4578402515
 20
12.298411931
 30
0.0
 10
11.4563157794
 20
12.294219159
 30
0.0
 10
11.4553975139
 20
12.2899995468
 30
0.0
 10
11.4551923427
 20
12.2871661573
 30
0.0
 10
11.4551923427
 20
12.2857640479
 30
0.0
  0
SPLINE
  5
2CC
100
AcDbEntity
  8
0
100
AcDbSpline
 62
9
  6
CONTINUOUS
 70
0
 71
3
 72
61
 73
57
 74
0
 42
0.0000001
 43
0.0000001
 44
0.0000000001
 40
0.0
 40
0.0
 40
0.0
 40
0.0
 40
0.0075225775
 40
0.01518096
 40
0.0231000719
 40
0.0313928111
 40
0.0401539299
 40
0.0494595668
 40
0.0593685163
 40
0.0699244005
 40
0.0811575092
 40
0.0930870203
 40
0.1057229237
 40
0.1190671569
 40
0.133115271
 40
0.1478570037
 40
0.1632772901
 40
0.1793569204
 40
0.1960728066
 40
0.2133988054
 40
0.2313056925
 40
0.2497617484
 40
0.268732959
 40
0.2881831355
 40
0.3283650541
 40
0.3699874215
 40
0.4127074801
 40
0.4561675218
 40
0.5
 40
0.5438324782
 40
0.5872925199
 40
0.6300125785
 40
0.6716349459
 40
0.7118168645
 40
0.731267041
 40
0.7502382516
 40
0.7686943075
 40
0.7866011946
 40
0.8039271934
 40
0.8206430796
 40
0.8367227099
 40
0.8521429963
 40
0.866884729
 40
0.8809328431
 40
0.8942770763
 40
0.9069129797
 40
0.9188424908
 40
0.9300755995
 40
0.9406314837
 40
0.9505404332
 40
0.9598460701
 40
0.9686071889
 40
0.9768999281
 40
0.98481904
 40
0.9924774225
 40
1.0
 40
1.0
 40
1.0
 40
1.0
 10
11.9751923423
 20
11.2427052388
 30
0.0
 10
11.9751923423
 20
11.2442194155
 30
0.0
 10
11.9749706908
 20
11.2472794803
 30
0.0
 10
11.9739791066
 20
11.2518366918
 30
0.0
 10
11.9723326164
 20
11.2563649588
 30
0.0
 10
11.970039439
 20
11.2608510182
 30
0.0
 10
11.967108471
 20
11.2652854702
 30
0.0
 10
11.963548598
 20
11.2696589953
 30
0.0
 10
11.9593696453
 20
11.2739630312
 30
0.0
 10
11.9545818515
 20
11.27818866
 30
0.0
 10
11.9491966648
 20
11.2823269605
 30
0.0
 10
11.9432267425
 20
11.2863688817
 30
0.0
 10
11.9366860077
 20
11.2903051691
 30
0.0
 10
11.9295898994
 20
11.2941268972
 30
0.0
 10
11.9219550952
 20
11.2978249799
 30
0.0
 10
11.9137997105
 20
11.3013907434
 30
0.0
 10
11.9051431275
 20
11.3048157007
 30
0.0
 10
11.8960059594
 20
11.3080915682
 30
0.0
 10
11.8864100648
 20
11.3112106038
 30
0.0
 10
11.8763783841
 20
11.3141651736
 30
0.0
 10
11.8659349723
 20
11.3169482406
 30
0.0
 10
11.8551048906
 20
11.3195530601
 30
0.0
 10
11.8439140961
 20
11.3219733389
 30
0.0
 10
11.8283795448
 20
11.3249790225
 30
0.0
 10
11.8082515803
 20
11.3282183455
 30
0.0
 10
11.7833651725
 20
11.3312496115
 30
0.0
 10
11.7577282183
 20
11.3334361502
 30
0.0
 10
11.7315870031
 20
11.3347566845
 30
0.0
 10
11.7051923428
 20
11.3351983009
 30
0.0
 10
11.6787976824
 20
11.3347566845
 30
0.0
 10
11.6526564673
 20
11.3334361502
 30
0.0
 10
11.627019513
 20
11.3312496115
 30
0.0
 10
11.6021331052
 20
11.3282183455
 30
0.0
 10
11.5820051407
 20
11.3249790225
 30
0.0
 10
11.5664705894
 20
11.3219733389
 30
0.0
 10
11.5552797949
 20
11.3195530601
 30
0.0
 10
11.5444497132
 20
11.3169482406
 30
0.0
 10
11.5340063014
 20
11.3141651736
 30
0.0
 10
11.5239746207
 20
11.3112106038
 30
0.0
 10
11.5143787261
 20
11.3080915682
 30
0.0
 10
11.505241558
 20
11.3048157007
 30
0.0
 10
11.496584975
 20
11.3013907434
 30
0.0
 10
11.4884295903
 20
11.2978249799
 30
0.0
 10
11.4807947861
 20
11.2941268972
 30
0.0
 10
11.4736986778
 20
11.2903051691
 30
0.0
 10
11.4671579431
 20
11.2863688817
 30
0.0
 10
11.4611880207
 20
11.2823269605
 30
0.0
 10
11.455802834
 20
11.27818866
 30
0.0
 10
11.4510150402
 20
11.2739630312
 30
0.0
 10
11.4468360875
 20
11.2696589953
 30
0.0
 10
11.4432762145
 20
11.2652854702
 30
0.0
 10
11.4403452465
 20
11.2608510182
 30
0.0
 10
11.4380520691
 20
11.2563649588
 30
0.0
 10
11.4364055789
 20
11.2518366918
 30
0.0
 10
11.4354139947
 20
11.2472794803
 30
0.0
 10
11.4351923432
 20
11.2442194155
 30
0.0
 10
11.4351923432
 20
11.2427052388
 30
0.0
  0
SPLINE
  5
2CD
100
AcDbEntity
  8
0
100
AcDbSpline
 62
9
  6
CONTINUOUS
 70
0
 71
3
 72
61
 73
57
 74
0
 42
0.0000001
 43
0.0000001
 44
0.0000000001
 40
0.0
 40
0.0
 40
0.0
 40
0.0
 40
0.0075226437
 40
0.0151810088
 40
0.023100109
 40
0.0313928716
 40
0.0401539905
 40
0.0494596137
 40
0.0593685804
 40
0.0699244479
 40
0.0811575761
 40
0.0930870871
 40
0.1057229766
 40
0.1190672375
 40
0.133115314
 40
0.1478570728
 40
0.1632773548
 40
0.1793569669
 40
0.1960728861
 40
0.213398841
 40
0.2313057547
 40
0.2497618028
 40
0.2687329948
 40
0.2881831991
 40
0.3283650984
 40
0.3699874428
 40
0.4127074916
 40
0.4561675308
 40
0.5
 40
0.5438324692
 40
0.5872925084
 40
0.6300125572
 40
0.6716349016
 40
0.7118168009
 40
0.7312670052
 40
0.7502381972
 40
0.7686942453
 40
0.786601159
 40
0.8039271139
 40
0.8206430331
 40
0.8367226452
 40
0.8521429272
 40
0.866884686
 40
0.8809327625
 40
0.8942770234
 40
0.9069129129
 40
0.9188424239
 40
0.9300755521
 40
0.9406314196
 40
0.9505403863
 40
0.9598460095
 40
0.9686071284
 40
0.976899891
 40
0.9848189912
 40
0.9924773563
 40
1.0
 40
1.0
 40
1.0
 40
1.0
 10
11.9905114903
 20
11.2440963852
 30
0.0
 10
11.9905114903
 20
11.2456964867
 30
0.0
 10
11.990277272
 20
11.248930184
 30
0.0
 10
11.9892294046
 20
11.2537459642
 30
0.0
 10
11.9874894998
 20
11.258531153
 30
0.0
 10
11.9850662094
 20
11.2632717425
 30
0.0
 10
11.9819689374
 20
11.2679577911
 30
0.0
 10
11.9782070939
 20
11.2725794679
 30
0.0
 10
11.9737910153
 20
11.2771276785
 30
0.0
 10
11.968731595
 20
11.2815930892
 30
0.0
 10
11.963040846
 20
11.285966164
 30
0.0
 10
11.9567322051
 20
11.2902374147
 30
0.0
 10
11.9498203718
 20
11.2943970565
 30
0.0
 10
11.9423216318
 20
11.2984355799
 30
0.0
 10
11.9342536643
 20
11.3023435255
 30
0.0
 10
11.9256355515
 20
11.3061115694
 30
0.0
 10
11.916487816
 20
11.3097308533
 30
0.0
 10
11.9068322319
 20
11.313192608
 30
0.0
 10
11.8966918813
 20
11.3164885645
 30
0.0
 10
11.8860910383
 20
11.319610818
 30
0.0
 10
11.875055088
 20
11.3225517542
 30
0.0
 10
11.8636105349
 20
11.3253043685
 30
0.0
 10
11.8517848058
 20
11.3278619897
 30
0.0
 10
11.8353688546
 20
11.3310381624
 30
0.0
 10
11.8140988864
 20
11.334461305
 30
0.0
 10
11.787800495
 20
11.3376645628
 30
0.0
 10
11.7607089695
 20
11.3399751635
 30
0.0
 10
11.7330845682
 20
11.341370604
 30
0.0
 10
11.7051923428
 20
11.3418372661
 30
0.0
 10
11.6773001173
 20
11.341370604
 30
0.0
 10
11.6496757161
 20
11.3399751635
 30
0.0
 10
11.6225841905
 20
11.3376645628
 30
0.0
 10
11.5962857991
 20
11.334461305
 30
0.0
 10
11.5750158309
 20
11.3310381624
 30
0.0
 10
11.5585998798
 20
11.3278619897
 30
0.0
 10
11.5467741506
 20
11.3253043685
 30
0.0
 10
11.5353295975
 20
11.3225517542
 30
0.0
 10
11.5242936473
 20
11.319610818
 30
0.0
 10
11.5136928042
 20
11.3164885645
 30
0.0
 10
11.5035524536
 20
11.313192608
 30
0.0
 10
11.4938968696
 20
11.3097308533
 30
0.0
 10
11.484749134
 20
11.3061115694
 30
0.0
 10
11.4761310212
 20
11.3023435255
 30
0.0
 10
11.4680630537
 20
11.2984355799
 30
0.0
 10
11.4605643137
 20
11.2943970565
 30
0.0
 10
11.4536524804
 20
11.2902374147
 30
0.0
 10
11.4473438395
 20
11.285966164
 30
0.0
 10
11.4416530905
 20
11.2815930892
 30
0.0
 10
11.4365936702
 20
11.2771276785
 30
0.0
 10
11.4321775917
 20
11.2725794679
 30
0.0
 10
11.4284157481
 20
11.2679577911
 30
0.0
 10
11.4253184761
 20
11.2632717425
 30
0.0
 10
11.4228951857
 20
11.258531153
 30
0.0
 10
11.4211552809
 20
11.2537459642
 30
0.0
 10
11.4201074136
 20
11.248930184
 30
0.0
 10
11.4198731952
 20
11.2456964867
 30
0.0
 10
11.4198731952
 20
11.2440963852
 30
0.0
  0
SPLINE
  5
2CE
100
AcDbEntity
  8
0
100
AcDbSpline
 62
9
  6
CONTINUOUS
 70
0
 71
3
 72
27
 73
23
 74
0
 42
0.0000001
 43
0.0000001
 44
0.0000000001
 40
0.0
 40
0.0
 40
0.0
 40
0.0
 40
0.0110799747
 40
0.0238938356
 40
0.0383883506
 40
0.0545671332
 40
0.0724329085
 40
0.0919246818
 40
0.1129721394
 40
0.1355348123
 40
0.1850714999
 40
0.2402278558
 40
0.3005698376
 40
0.3656526123
 40
0.4350625251
 40
0.5083198886
 40
0.5849375667
 40
0.664414022
 40
0.7462212931
 40
0.8298108497
 40
0.9146008528
 40
1.0
 40
1.0
 40
1.0
 40
1.0
 10
10.8165849756
 20
4.8394570147
 30
0.0
 10
10.8198246926
 20
4.8387251789
 30
0.0
 10
10.8268121001
 20
4.8371513906
 30
0.0
 10
10.8380402506
 20
4.8346319527
 30
0.0
 10
10.8507615567
 20
4.8317859648
 30
0.0
 10
10.8649651112
 20
4.8286291154
 30
0.0
 10
10.880637472
 20
4.8251766418
 30
0.0
 10
10.8977415306
 20
4.8214395152
 30
0.0
 10
10.9162276747
 20
4.817432101
 30
0.0
 10
10.9435272035
 20
4.8115700168
 30
0.0
 10
10.9808510588
 20
4.8036904759
 30
0.0
 10
11.0293162927
 20
4.7937633744
 30
0.0
 10
11.0824228886
 20
4.7832782649
 30
0.0
 10
11.1398171999
 20
4.772460896
 30
0.0
 10
11.2011392096
 20
4.7615969295
 30
0.0
 10
11.2660121241
 20
4.7509831237
 30
0.0
 10
11.3340337682
 20
4.740972905
 30
0.0
 10
11.4047801475
 20
4.7319545514
 30
0.0
 10
11.4777947018
 20
4.7243356049
 30
0.0
 10
11.5525764076
 20
4.7185350889
 30
0.0
 10
11.6285729919
 20
4.7148803667
 30
0.0
 10
11.6795929832
 20
4.7140528243
 30
0.0
 10
11.7051923427
 20
4.7140527925
 30
0.0
  0
SPLINE
  5
2CF
100
AcDbEntity
  8
0
100
AcDbSpline
 62
9
  6
CONTINUOUS
 70
0
 71
3
 72
59
 73
55
 74
0
 42
0.0000001
 43
0.0000001
 44
0.0000000001
 40
0.0
 40
0.0
 40
0.0
 40
0.0
 40
0.0075825777
 40
0.0154620624
 40
0.0237309871
 40
0.0324652631
 40
0.0417258159
 40
0.0515598561
 40
0.062002045
 40
0.0730765632
 40
0.0847986553
 40
0.0971758687
 40
0.1102094857
 40
0.1238951642
 40
0.1382239085
 40
0.15318269
 40
0.1687547685
 40
0.1849204068
 40
0.2016569658
 40
0.2189393263
 40
0.2367402107
 40
0.2550302039
 40
0.2929494663
 40
0.3324315917
 40
0.3731880018
 40
0.4149139514
 40
0.4572927843
 40
0.5
 40
0.5427072157
 40
0.5850860486
 40
0.6268119982
 40
0.6675684083
 40
0.7070505337
 40
0.7449697961
 40
0.7632597893
 40
0.7810606737
 40
0.7983430342
 40
0.8150795932
 40
0.8312452315
 40
0.84681731
 40
0.8617760915
 40
0.8761048358
 40
0.8897905143
 40
0.9028241313
 40
0.9152013447
 40
0.9269234368
 40
0.937997955
 40
0.9484401439
 40
0.9582741841
 40
0.9675347369
 40
0.9762690129
 40
0.9845379376
 40
0.9924174223
 40
1.0
 40
1.0
 40
1.0
 40
1.0
 10
12.0496785754
 20
11.6292028593
 30
0.0
 10
12.0492609339
 20
11.6310635484
 30
0.0
 10
12.0481553923
 20
11.6348047663
 30
0.0
 10
12.0457691969
 20
11.6402893832
 30
0.0
 10
12.0426389776
 20
11.6457220912
 30
0.0
 10
12.0387743257
 20
11.6510909889
 30
0.0
 10
12.034185369
 20
11.6563865371
 30
0.0
 10
12.0288827789
 20
11.6615987311
 30
0.0
 10
12.0228783323
 20
11.6667178167
 30
0.0
 10
12.0161848776
 20
11.6717336984
 30
0.0
 10
12.0088166363
 20
11.6766362127
 30
0.0
 10
12.0007893308
 20
11.6814153583
 30
0.0
 10
11.9921200036
 20
11.6860609697
 30
0.0
 10
11.9828272408
 20
11.6905632571
 30
0.0
 10
11.9729309838
 20
11.6949125634
 30
0.0
 10
11.962452517
 20
11.6990994284
 30
0.0
 10
11.9514144919
 20
11.7031148951
 30
0.0
 10
11.9398407564
 20
11.7069501357
 30
0.0
 10
11.9277563917
 20
11.7105968461
 30
0.0
 10
11.9151876237
 20
11.7140470884
 30
0.0
 10
11.9021616817
 20
11.7172933045
 30
0.0
 10
11.8840034087
 20
11.7213892695
 30
0.0
 10
11.8603619048
 20
11.7259282268
 30
0.0
 10
11.8309773297
 20
11.7303991142
 30
0.0
 10
11.800499945
 20
11.7339180056
 30
0.0
 10
11.769194643
 20
11.7364539186
 30
0.0
 10
11.7373331521
 20
11.737984455
 30
0.0
 10
11.7051923428
 20
11.738496138
 30
0.0
 10
11.6730515334
 20
11.737984455
 30
0.0
 10
11.6411900426
 20
11.7364539186
 30
0.0
 10
11.6098847405
 20
11.7339180056
 30
0.0
 10
11.5794073558
 20
11.7303991142
 30
0.0
 10
11.5500227807
 20
11.7259282268
 30
0.0
 10
11.5263812768
 20
11.7213892695
 30
0.0
 10
11.5082230038
 20
11.7172933045
 30
0.0
 10
11.4951970619
 20
11.7140470884
 30
0.0
 10
11.4826282938
 20
11.7105968461
 30
0.0
 10
11.4705439291
 20
11.7069501357
 30
0.0
 10
11.4589701936
 20
11.7031148951
 30
0.0
 10
11.4479321685
 20
11.6990994284
 30
0.0
 10
11.4374537018
 20
11.6949125634
 30
0.0
 10
11.4275574447
 20
11.6905632571
 30
0.0
 10
11.418264682
 20
11.6860609697
 30
0.0
 10
11.4095953548
 20
11.6814153583
 30
0.0
 10
11.4015680492
 20
11.6766362127
 30
0.0
 10
11.3941998079
 20
11.6717336984
 30
0.0
 10
11.3875063532
 20
11.6667178167
 30
0.0
 10
11.3815019066
 20
11.6615987311
 30
0.0
 10
11.3761993165
 20
11.6563865371
 30
0.0
 10
11.3716103599
 20
11.6510909889
 30
0.0
 10
11.3677457079
 20
11.6457220912
 30
0.0
 10
11.3646154886
 20
11.6402893832
 30
0.0
 10
11.3622292932
 20
11.6348047663
 30
0.0
 10
11.3611237516
 20
11.6310635484
 30
0.0
 10
11.3607061101
 20
11.6292028593
 30
0.0
  0
SPLINE
  5
2D0
100
AcDbEntity
  8
0
100
AcDbSpline
 62
9
  6
CONTINUOUS
 70
0
 71
3
 72
15
 73
11
 74
0
 42
0.0000001
 43
0.0000001
 44
0.0000000001
 40
0.0
 40
0.0
 40
0.0
 40
0.0
 40
0.1231263498
 40
0.2467392414
 40
0.3709610318
 40
0.4958351432
 40
0.6213216604
 40
0.7473035581
 40
0.8736022185
 40
1.0
 40
1.0
 40
1.0
 40
1.0
 10
10.7876660269
 20
4.8131079643
 30
0.0
 10
10.7894135256
 20
4.8131312423
 30
0.0
 10
10.7929195003
 20
4.8135028414
 30
0.0
 10
10.7979932171
 20
4.8150116872
 30
0.0
 10
10.8027345383
 20
4.8174233516
 30
0.0
 10
10.8069888322
 20
4.8206593033
 30
0.0
 10
10.8106204916
 20
4.8246146282
 30
0.0
 10
10.8135134322
 20
4.8291624157
 30
0.0
 10
10.8155751571
 20
4.8341544718
 30
0.0
 10
10.8163524863
 20
4.8376780544
 30
0.0
 10
10.8165849706
 20
4.8394570158
 30
0.0
  0
SPLINE
  5
2D1
100
AcDbEntity
  8
0
100
AcDbSpline
 62
9
  6
CONTINUOUS
 70
0
 71
3
 72
59
 73
55
 74
0
 42
0.0000001
 43
0.0000001
 44
0.0000000001
 40
0.0
 40
0.0
 40
0.0
 40
0.0
 40
0.0075226783
 40
0.0151810787
 40
0.0231002155
 40
0.0313930163
 40
0.0401541756
 40
0.0494598417
 40
0.0593688541
 40
0.0699247702
 40
0.0811579501
 40
0.0930875161
 40
0.1057234639
 40
0.1190677863
 40
0.1331159275
 40
0.1478577543
 40
0.1632781074
 40
0.1793577936
 40
0.1960737899
 40
0.2133998246
 40
0.2313068208
 40
0.249762954
 40
0.2881822227
 40
0.3283643073
 40
0.3699868436
 40
0.4127070893
 40
0.4561673288
 40
0.5
 40
0.5438326712
 40
0.5872929107
 40
0.6300131564
 40
0.6716356927
 40
0.7118177773
 40
0.750237046
 40
0.7686931792
 40
0.7866001754
 40
0.8039262101
 40
0.8206422064
 40
0.8367218926
 40
0.8521422457
 40
0.8668840725
 40
0.8809322137
 40
0.8942765361
 40
0.9069124839
 40
0.9188420499
 40
0.9300752298
 40
0.9406311459
 40
0.9505401583
 40
0.9598458244
 40
0.9686069837
 40
0.9768997845
 40
0.9848189213
 40
0.9924773217
 40
1.0
 40
1.0
 40
1.0
 40
1.0
 10
11.9886197315
 20
11.3976697169
 30
0.0
 10
11.9886197315
 20
11.3992592092
 30
0.0
 10
11.9883870661
 20
11.4024714661
 30
0.0
 10
11.9873461465
 20
11.407255316
 30
0.0
 10
11.9856177778
 20
11.4120087775
 30
0.0
 10
11.9832105546
 20
11.4167179354
 30
0.0
 10
11.9801338185
 20
11.4213729139
 30
0.0
 10
11.9763969172
 20
11.4259639475
 30
0.0
 10
11.9720101187
 20
11.430482002
 30
0.0
 10
11.966984244
 20
11.4349178056
 30
0.0
 10
11.9613312265
 20
11.4392618855
 30
0.0
 10
11.955064414
 20
11.4435048164
 30
0.0
 10
11.9481984083
 20
11.4476368784
 30
0.0
 10
11.9407493874
 20
11.4516486251
 30
0.0
 10
11.9327349132
 20
11.4555306597
 30
0.0
 10
11.9241739413
 20
11.4592737202
 30
0.0
 10
11.9150868581
 20
11.4628690073
 30
0.0
 10
11.9054952941
 20
11.4663078088
 30
0.0
 10
11.8954221758
 20
11.4695819145
 30
0.0
 10
11.8848916256
 20
11.4726834565
 30
0.0
 10
11.8739288248
 20
11.4756049324
 30
0.0
 10
11.8585646056
 20
11.4793001169
 30
0.0
 10
11.8384631345
 20
11.4833978707
 30
0.0
 10
11.8133770497
 20
11.4874355264
 30
0.0
 10
11.7872527064
 20
11.4906174963
 30
0.0
 10
11.7603408953
 20
11.4929127907
 30
0.0
 10
11.7328996288
 20
11.4942989751
 30
0.0
 10
11.7051923428
 20
11.4947625444
 30
0.0
 10
11.6774850567
 20
11.4942989751
 30
0.0
 10
11.6500437902
 20
11.4929127907
 30
0.0
 10
11.6231319791
 20
11.4906174963
 30
0.0
 10
11.5970076359
 20
11.4874355264
 30
0.0
 10
11.5719215511
 20
11.4833978707
 30
0.0
 10
11.5518200799
 20
11.4793001169
 30
0.0
 10
11.5364558607
 20
11.4756049324
 30
0.0
 10
11.5254930599
 20
11.4726834565
 30
0.0
 10
11.5149625097
 20
11.4695819145
 30
0.0
 10
11.5048893914
 20
11.4663078088
 30
0.0
 10
11.4952978274
 20
11.4628690073
 30
0.0
 10
11.4862107442
 20
11.4592737202
 30
0.0
 10
11.4776497723
 20
11.4555306597
 30
0.0
 10
11.4696352981
 20
11.4516486251
 30
0.0
 10
11.4621862772
 20
11.4476368784
 30
0.0
 10
11.4553202715
 20
11.4435048164
 30
0.0
 10
11.449053459
 20
11.4392618855
 30
0.0
 10
11.4434004415
 20
11.4349178056
 30
0.0
 10
11.4383745669
 20
11.430482002
 30
0.0
 10
11.4339877683
 20
11.4259639475
 30
0.0
 10
11.430250867
 20
11.4213729139
 30
0.0
 10
11.4271741309
 20
11.4167179354
 30
0.0
 10
11.4247669077
 20
11.4120087775
 30
0.0
 10
11.4230385391
 20
11.407255316
 30
0.0
 10
11.4219976194
 20
11.4024714661
 30
0.0
 10
11.421764954
 20
11.3992592092
 30
0.0
 10
11.421764954
 20
11.3976697169
 30
0.0
  0
SPLINE
  5
2D2
100
AcDbEntity
  8
0
100
AcDbSpline
 62
9
  6
CONTINUOUS
 70
0
 71
3
 72
67
 73
63
 74
0
 42
0.0000001
 43
0.0000001
 44
0.0000000001
 40
0.0
 40
0.0
 40
0.0
 40
0.0
 40
0.0037551718
 40
0.0075275662
 40
0.0113337965
 40
0.0151899549
 40
0.0231088837
 40
0.0314014869
 40
0.0357197944
 40
0.0401654191
 40
0.0494707955
 40
0.059379533
 40
0.0699351264
 40
0.0811679757
 40
0.0930972086
 40
0.1057327548
 40
0.1190767075
 40
0.1331244307
 40
0.1478658071
 40
0.1632857374
 40
0.1793649157
 40
0.1960804368
 40
0.2134059733
 40
0.2313124108
 40
0.2497680333
 40
0.2687387332
 40
0.2881884545
 40
0.3283693477
 40
0.3699906742
 40
0.412709668
 40
0.4561686212
 40
0.5
 40
0.5438313788
 40
0.587290332
 40
0.6300093258
 40
0.6716306523
 40
0.7118115455
 40
0.7312612668
 40
0.7502319667
 40
0.7686875892
 40
0.7865940267
 40
0.8039195632
 40
0.8206350843
 40
0.8367142626
 40
0.8521341929
 40
0.8668755693
 40
0.8809232925
 40
0.8942672452
 40
0.9069027914
 40
0.9188320243
 40
0.9300648736
 40
0.940620467
 40
0.9505292045
 40
0.9598345809
 40
0.9642802056
 40
0.9685985131
 40
0.9768911163
 40
0.9848100451
 40
0.9886662035
 40
0.9924724338
 40
0.9962448282
 40
1.0
 40
1.0
 40
1.0
 40
1.0
 10
12.0285588803
 20
11.5622517309
 30
0.0
 10
12.0285590084
 20
11.5631570085
 30
0.0
 10
12.0284938079
 20
11.5649723984
 30
0.0
 10
12.028200286
 20
11.5676910693
 30
0.0
 10
12.027711336
 20
11.5704063786
 30
0.0
 10
12.0267917099
 20
11.5740509454
 30
0.0
 10
12.0251339776
 20
11.578611536
 30
0.0
 10
12.0228758151
 20
11.5830287795
 30
0.0
 10
12.0207081732
 20
11.5865247802
 30
0.0
 10
12.0182199239
 20
11.5901024544
 30
0.0
 10
12.0146135448
 20
11.5945332636
 30
0.0
 10
12.0096087654
 20
11.5996876849
 30
0.0
 10
12.0038746233
 20
11.6047486551
 30
0.0
 10
11.9974250267
 20
11.609704859
 30
0.0
 10
11.9902751079
 20
11.6145456627
 30
0.0
 10
11.9824416019
 20
11.619260032
 30
0.0
 10
11.9739428874
 20
11.6238370631
 30
0.0
 10
11.9647990572
 20
11.6282661394
 30
0.0
 10
11.955031723
 20
11.6325366766
 30
0.0
 10
11.9446641226
 20
11.6366385504
 30
0.0
 10
11.9337209757
 20
11.6405619739
 30
0.0
 10
11.9222284008
 20
11.6442974281
 30
0.0
 10
11.9102139283
 20
11.6478360177
 30
0.0
 10
11.8977063389
 20
11.6511691723
 30
0.0
 10
11.8847356447
 20
11.6542888015
 30
0.0
 10
11.8713329549
 20
11.6571875122
 30
0.0
 10
11.8527279369
 20
11.6607872201
 30
0.0
 10
11.8286216131
 20
11.6646668568
 30
0.0
 10
11.7988163167
 20
11.6682972463
 30
0.0
 10
11.7681121242
 20
11.6709159573
 30
0.0
 10
11.7368040023
 20
11.672497497
 30
0.0
 10
11.7051923428
 20
11.6730264037
 30
0.0
 10
11.6735806832
 20
11.672497497
 30
0.0
 10
11.6422725614
 20
11.6709159573
 30
0.0
 10
11.6115683688
 20
11.6682972463
 30
0.0
 10
11.5817630724
 20
11.6646668568
 30
0.0
 10
11.5576567486
 20
11.6607872201
 30
0.0
 10
11.5390517306
 20
11.6571875122
 30
0.0
 10
11.5256490408
 20
11.6542888015
 30
0.0
 10
11.5126783466
 20
11.6511691723
 30
0.0
 10
11.5001707572
 20
11.6478360177
 30
0.0
 10
11.4881562848
 20
11.6442974281
 30
0.0
 10
11.4766637098
 20
11.6405619739
 30
0.0
 10
11.4657205629
 20
11.6366385504
 30
0.0
 10
11.4553529625
 20
11.6325366766
 30
0.0
 10
11.4455856284
 20
11.6282661394
 30
0.0
 10
11.4364417981
 20
11.6238370631
 30
0.0
 10
11.4279430837
 20
11.619260032
 30
0.0
 10
11.4201095776
 20
11.6145456627
 30
0.0
 10
11.4129596588
 20
11.609704859
 30
0.0
 10
11.4065100623
 20
11.6047486551
 30
0.0
 10
11.4007759201
 20
11.5996876849
 30
0.0
 10
11.3957711407
 20
11.5945332636
 30
0.0
 10
11.3921647616
 20
11.5901024544
 30
0.0
 10
11.3896765123
 20
11.5865247802
 30
0.0
 10
11.3875088704
 20
11.5830287795
 30
0.0
 10
11.3852507079
 20
11.578611536
 30
0.0
 10
11.3835929756
 20
11.5740509454
 30
0.0
 10
11.3826733496
 20
11.5704063786
 30
0.0
 10
11.3821843995
 20
11.5676910693
 30
0.0
 10
11.3818908776
 20
11.5649723984
 30
0.0
 10
11.3818256771
 20
11.5631570085
 30
0.0
 10
11.3818258053
 20
11.5622517309
 30
0.0
  0
SPLINE
  5
2D3
100
AcDbEntity
  8
0
100
AcDbSpline
 62
9
  6
CONTINUOUS
 70
0
 71
3
 72
61
 73
57
 74
0
 42
0.0000001
 43
0.0000001
 44
0.0000000001
 40
0.0
 40
0.0
 40
0.0
 40
0.0
 40
0.0075226898
 40
0.0151810094
 40
0.0231000915
 40
0.031392876
 40
0.0401539978
 40
0.0494596052
 40
0.0593685879
 40
0.0699244436
 40
0.081157572
 40
0.0930871013
 40
0.1057229613
 40
0.1190672454
 40
0.1331153176
 40
0.1478570602
 40
0.1632773735
 40
0.1793569512
 40
0.1960728875
 40
0.2133988544
 40
0.2313057367
 40
0.2497618175
 40
0.2687329887
 40
0.2881831931
 40
0.3283650844
 40
0.3699874448
 40
0.4127074998
 40
0.4561675325
 40
0.5
 40
0.5438324675
 40
0.5872925002
 40
0.6300125552
 40
0.6716349156
 40
0.7118168069
 40
0.7312670113
 40
0.7502381825
 40
0.7686942633
 40
0.7866011456
 40
0.8039271125
 40
0.8206430488
 40
0.8367226265
 40
0.8521429398
 40
0.8668846824
 40
0.8809327546
 40
0.8942770387
 40
0.9069128987
 40
0.918842428
 40
0.9300755564
 40
0.9406314121
 40
0.9505403948
 40
0.9598460022
 40
0.968607124
 40
0.9768999085
 40
0.9848189906
 40
0.9924773102
 40
1.0
 40
1.0
 40
1.0
 40
1.0
 10
12.0357102493
 20
11.5706599818
 30
0.0
 10
12.0357102493
 20
11.5725135743
 30
0.0
 10
12.0354389428
 20
11.576259539
 30
0.0
 10
12.0342250528
 20
11.5818382006
 30
0.0
 10
12.0322095328
 20
11.5873814253
 30
0.0
 10
12.0294023642
 20
11.5928730009
 30
0.0
 10
12.0258144218
 20
11.5983013793
 30
0.0
 10
12.021456668
 20
11.6036552164
 30
0.0
 10
12.0163409963
 20
11.6089239069
 30
0.0
 10
12.0104801052
 20
11.6140967225
 30
0.0
 10
12.0038878552
 20
11.6191625587
 30
0.0
 10
11.9965798183
 20
11.6241104109
 30
0.0
 10
11.98857307
 20
11.6289290426
 30
0.0
 10
11.9798864038
 20
11.6336072957
 30
0.0
 10
11.9705403543
 20
11.6381343228
 30
0.0
 10
11.960557012
 20
11.6424993045
 30
0.0
 10
11.9499601283
 20
11.6466918928
 30
0.0
 10
11.9387749698
 20
11.6507020842
 30
0.0
 10
11.9270282323
 20
11.6545201493
 30
0.0
 10
11.9147480554
 20
11.658136996
 30
0.0
 10
11.9019638561
 20
11.6615438646
 30
0.0
 10
11.8887063102
 20
11.6647324855
 30
0.0
 10
11.8750072151
 20
11.6676953023
 30
0.0
 10
11.8559907404
 20
11.671374619
 30
0.0
 10
11.8313512964
 20
11.6753400553
 30
0.0
 10
11.800886845
 20
11.6790507322
 30
0.0
 10
11.7695036181
 20
11.681727357
 30
0.0
 10
11.7375031057
 20
11.683343873
 30
0.0
 10
11.7051923428
 20
11.6838844766
 30
0.0
 10
11.6728815798
 20
11.683343873
 30
0.0
 10
11.6408810675
 20
11.681727357
 30
0.0
 10
11.6094978405
 20
11.6790507322
 30
0.0
 10
11.5790333891
 20
11.6753400553
 30
0.0
 10
11.5543939451
 20
11.671374619
 30
0.0
 10
11.5353774704
 20
11.6676953023
 30
0.0
 10
11.5216783753
 20
11.6647324855
 30
0.0
 10
11.5084208294
 20
11.6615438646
 30
0.0
 10
11.4956366301
 20
11.658136996
 30
0.0
 10
11.4833564532
 20
11.6545201493
 30
0.0
 10
11.4716097158
 20
11.6507020842
 30
0.0
 10
11.4604245572
 20
11.6466918928
 30
0.0
 10
11.4498276735
 20
11.6424993045
 30
0.0
 10
11.4398443313
 20
11.6381343228
 30
0.0
 10
11.4304982818
 20
11.6336072957
 30
0.0
 10
11.4218116156
 20
11.6289290426
 30
0.0
 10
11.4138048673
 20
11.6241104109
 30
0.0
 10
11.4064968303
 20
11.6191625587
 30
0.0
 10
11.3999045803
 20
11.6140967225
 30
0.0
 10
11.3940436892
 20
11.6089239069
 30
0.0
 10
11.3889280176
 20
11.6036552164
 30
0.0
 10
11.3845702637
 20
11.5983013793
 30
0.0
 10
11.3809823214
 20
11.5928730009
 30
0.0
 10
11.3781751527
 20
11.5873814253
 30
0.0
 10
11.3761596328
 20
11.5818382006
 30
0.0
 10
11.3749457427
 20
11.576259539
 30
0.0
 10
11.3746744362
 20
11.5725135743
 30
0.0
 10
11.3746744362
 20
11.5706599818
 30
0.0
  0
SPLINE
  5
2D4
100
AcDbEntity
  8
0
100
AcDbSpline
 62
9
  6
CONTINUOUS
 70
0
 71
3
 72
61
 73
57
 74
0
 42
0.0000001
 43
0.0000001
 44
0.0000000001
 40
0.0
 40
0.0
 40
0.0
 40
0.0
 40
0.0075226898
 40
0.0151810094
 40
0.0231000915
 40
0.031392876
 40
0.0401539978
 40
0.0494596051
 40
0.0593685879
 40
0.0699244436
 40
0.0811575719
 40
0.0930871013
 40
0.1057229613
 40
0.1190672454
 40
0.1331153176
 40
0.1478570602
 40
0.1632773735
 40
0.1793569512
 40
0.1960728875
 40
0.2133988544
 40
0.2313057367
 40
0.2497618175
 40
0.2687329887
 40
0.2881831931
 40
0.3283650844
 40
0.3699874448
 40
0.4127074998
 40
0.4561675325
 40
0.5
 40
0.5438324675
 40
0.5872925002
 40
0.6300125552
 40
0.6716349156
 40
0.7118168069
 40
0.7312670113
 40
0.7502381825
 40
0.7686942633
 40
0.7866011456
 40
0.8039271125
 40
0.8206430488
 40
0.8367226265
 40
0.8521429398
 40
0.8668846824
 40
0.8809327546
 40
0.8942770387
 40
0.9069128987
 40
0.9188424281
 40
0.9300755564
 40
0.9406314121
 40
0.9505403949
 40
0.9598460022
 40
0.968607124
 40
0.9768999085
 40
0.9848189906
 40
0.9924773102
 40
1.0
 40
1.0
 40
1.0
 40
1.0
 10
12.0376923429
 20
11.5729115342
 30
0.0
 10
12.0376923429
 20
11.5747762426
 30
0.0
 10
12.0374194093
 20
11.5785446716
 30
0.0
 10
12.0361982397
 20
11.584156788
 30
0.0
 10
12.0341706328
 20
11.5897332551
 30
0.0
 10
12.0313466297
 20
11.5952577633
 30
0.0
 10
12.0277371707
 20
11.6007186953
 30
0.0
 10
12.0233532837
 20
11.606104639
 30
0.0
 10
12.0182069338
 20
11.6114049255
 30
0.0
 10
12.0123108952
 20
11.6166087621
 30
0.0
 10
12.005679112
 20
11.6217049778
 30
0.0
 10
11.9983272492
 20
11.626682502
 30
0.0
 10
11.990272485
 20
11.6315300306
 30
0.0
 10
11.9815337255
 20
11.6362363389
 30
0.0
 10
11.9721316283
 20
11.6407905143
 30
0.0
 10
11.9620884167
 20
11.6451816724
 30
0.0
 10
11.9514279842
 20
11.6493994034
 30
0.0
 10
11.940175749
 20
11.6534336437
 30
0.0
 10
11.9283585671
 20
11.6572746055
 30
0.0
 10
11.9160047469
 20
11.6609131422
 30
0.0
 10
11.9031438816
 20
11.6643404415
 30
0.0
 10
11.8898068311
 20
11.6675481844
 30
0.0
 10
11.8760255834
 20
11.6705287689
 30
0.0
 10
11.8568950682
 20
11.6742301503
 30
0.0
 10
11.8321078631
 20
11.6782193671
 30
0.0
 10
11.8014607185
 20
11.6819522966
 30
0.0
 10
11.7698892884
 20
11.6846449729
 30
0.0
 10
11.7376968712
 20
11.6862711831
 30
0.0
 10
11.7051923428
 20
11.6868150287
 30
0.0
 10
11.6726878144
 20
11.6862711831
 30
0.0
 10
11.6404953971
 20
11.6846449729
 30
0.0
 10
11.608923967
 20
11.6819522966
 30
0.0
 10
11.5782768224
 20
11.6782193671
 30
0.0
 10
11.5534896173
 20
11.6742301503
 30
0.0
 10
11.5343591021
 20
11.6705287689
 30
0.0
 10
11.5205778544
 20
11.6675481844
 30
0.0
 10
11.507240804
 20
11.6643404415
 30
0.0
 10
11.4943799386
 20
11.6609131422
 30
0.0
 10
11.4820261184
 20
11.6572746055
 30
0.0
 10
11.4702089365
 20
11.6534336437
 30
0.0
 10
11.4589567013
 20
11.6493994034
 30
0.0
 10
11.4482962689
 20
11.6451816724
 30
0.0
 10
11.4382530572
 20
11.6407905143
 30
0.0
 10
11.42885096
 20
11.6362363389
 30
0.0
 10
11.4201122005
 20
11.6315300306
 30
0.0
 10
11.4120574363
 20
11.626682502
 30
0.0
 10
11.4047055735
 20
11.6217049778
 30
0.0
 10
11.3980737903
 20
11.6166087621
 30
0.0
 10
11.3921777518
 20
11.6114049255
 30
0.0
 10
11.3870314018
 20
11.606104639
 30
0.0
 10
11.3826475148
 20
11.6007186953
 30
0.0
 10
11.3790380558
 20
11.5952577633
 30
0.0
 10
11.3762140527
 20
11.5897332551
 30
0.0
 10
11.3741864459
 20
11.584156788
 30
0.0
 10
11.3729652762
 20
11.5785446716
 30
0.0
 10
11.3726923426
 20
11.5747762426
 30
0.0
 10
11.3726923426
 20
11.5729115342
 30
0.0
  0
SPLINE
  5
2D5
100
AcDbEntity
  8
0
100
AcDbSpline
 62
9
  6
CONTINUOUS
 70
0
 71
3
 72
59
 73
55
 74
0
 42
0.0000001
 43
0.0000001
 44
0.0000000001
 40
0.0
 40
0.0
 40
0.0
 40
0.0
 40
0.0075124953
 40
0.0151943247
 40
0.0231651134
 40
0.0315308755
 40
0.0403793044
 40
0.0497804632
 40
0.0597881312
 40
0.0704416145
 40
0.0817680604
 40
0.0937840628
 40
0.1064976765
 40
0.1199095744
 40
0.1340141423
 40
0.1488006249
 40
0.164253474
 40
0.1803532881
 40
0.1970771182
 40
0.2143988256
 40
0.2322896627
 40
0.2507182439
 40
0.2890504686
 40
0.3291073721
 40
0.3705729802
 40
0.4131117794
 40
0.4563738928
 40
0.5
 40
0.5436261072
 40
0.5868882206
 40
0.6294270198
 40
0.6708926279
 40
0.7109495314
 40
0.7492817561
 40
0.7677103373
 40
0.7856011744
 40
0.8029228818
 40
0.8196467119
 40
0.835746526
 40
0.8511993751
 40
0.8659858577
 40
0.8800904256
 40
0.8935023235
 40
0.9062159372
 40
0.9182319396
 40
0.9295583855
 40
0.9402118688
 40
0.9502195368
 40
0.9596206956
 40
0.9684691245
 40
0.9768348866
 40
0.9848056753
 40
0.9924875047
 40
1.0
 40
1.0
 40
1.0
 40
1.0
 10
11.9891033717
 20
11.3744330166
 30
0.0
 10
11.9890374447
 20
11.3760149341
 30
0.0
 10
11.9886739986
 20
11.3792091881
 30
0.0
 10
11.9874514662
 20
11.3839503665
 30
0.0
 10
11.9855550094
 20
11.3886581575
 30
0.0
 10
11.9829931037
 20
11.393319704
 30
0.0
 10
11.9797749027
 20
11.3979256644
 30
0.0
 10
11.9759096666
 20
11.4024666538
 30
0.0
 10
11.9714074316
 20
11.4069337499
 30
0.0
 10
11.9662790683
 20
11.4113179629
 30
0.0
 10
11.9605364092
 20
11.4156099159
 30
0.0
 10
11.9541927812
 20
11.4198004118
 30
0.0
 10
11.947262735
 20
11.4238800174
 30
0.0
 10
11.939762279
 20
11.4278394466
 30
0.0
 10
11.9317088353
 20
11.4316696562
 30
0.0
 10
11.9231211063
 20
11.4353616052
 30
0.0
 10
11.9140191896
 20
11.4389067627
 30
0.0
 10
11.9044243846
 20
11.4422967306
 30
0.0
 10
11.8943592049
 20
11.4455234941
 30
0.0
 10
11.8838473378
 20
11.4485794911
 30
0.0
 10
11.8729134682
 20
11.4514574359
 30
0.0
 10
11.8576055124
 20
11.4550958655
 30
0.0
 10
11.8375963691
 20
11.4591301542
 30
0.0
 10
11.8126448486
 20
11.4631050171
 30
0.0
 10
11.7866806212
 20
11.4662367419
 30
0.0
 10
11.7599484682
 20
11.4684953806
 30
0.0
 10
11.7327000818
 20
11.4698592664
 30
0.0
 10
11.7051923428
 20
11.4703153516
 30
0.0
 10
11.6776846037
 20
11.4698592664
 30
0.0
 10
11.6504362173
 20
11.4684953806
 30
0.0
 10
11.6237040644
 20
11.4662367419
 30
0.0
 10
11.5977398369
 20
11.4631050171
 30
0.0
 10
11.5727883164
 20
11.4591301542
 30
0.0
 10
11.5527791731
 20
11.4550958655
 30
0.0
 10
11.5374712173
 20
11.4514574359
 30
0.0
 10
11.5265373477
 20
11.4485794911
 30
0.0
 10
11.5160254806
 20
11.4455234941
 30
0.0
 10
11.5059603009
 20
11.4422967306
 30
0.0
 10
11.4963654959
 20
11.4389067627
 30
0.0
 10
11.4872635792
 20
11.4353616052
 30
0.0
 10
11.4786758502
 20
11.4316696562
 30
0.0
 10
11.4706224066
 20
11.4278394466
 30
0.0
 10
11.4631219505
 20
11.4238800174
 30
0.0
 10
11.4561919043
 20
11.4198004118
 30
0.0
 10
11.4498482763
 20
11.4156099159
 30
0.0
 10
11.4441056172
 20
11.4113179629
 30
0.0
 10
11.438977254
 20
11.4069337499
 30
0.0
 10
11.434475019
 20
11.4024666538
 30
0.0
 10
11.4306097828
 20
11.3979256644
 30
0.0
 10
11.4273915819
 20
11.393319704
 30
0.0
 10
11.4248296761
 20
11.3886581575
 30
0.0
 10
11.4229332193
 20
11.3839503665
 30
0.0
 10
11.4217106869
 20
11.3792091881
 30
0.0
 10
11.4213472409
 20
11.3760149341
 30
0.0
 10
11.4212813138
 20
11.3744330166
 30
0.0
  0
SPLINE
  5
2D6
100
AcDbEntity
  8
0
100
AcDbSpline
 62
9
  6
CONTINUOUS
 70
0
 71
3
 72
61
 73
57
 74
0
 42
0.0000001
 43
0.0000001
 44
0.0000000001
 40
0.0
 40
0.0
 40
0.0
 40
0.0
 40
0.0075225775
 40
0.01518096
 40
0.0231000719
 40
0.0313928111
 40
0.0401539299
 40
0.0494595668
 40
0.0593685163
 40
0.0699244005
 40
0.0811575092
 40
0.0930870203
 40
0.1057229237
 40
0.1190671569
 40
0.133115271
 40
0.1478570037
 40
0.1632772901
 40
0.1793569204
 40
0.1960728066
 40
0.2133988054
 40
0.2313056925
 40
0.2497617484
 40
0.268732959
 40
0.2881831355
 40
0.3283650541
 40
0.3699874215
 40
0.4127074801
 40
0.4561675218
 40
0.5
 40
0.5438324782
 40
0.5872925199
 40
0.6300125785
 40
0.6716349459
 40
0.7118168645
 40
0.731267041
 40
0.7502382516
 40
0.7686943075
 40
0.7866011946
 40
0.8039271934
 40
0.8206430796
 40
0.8367227099
 40
0.8521429963
 40
0.866884729
 40
0.8809328431
 40
0.8942770763
 40
0.9069129797
 40
0.9188424908
 40
0.9300755995
 40
0.9406314837
 40
0.9505404332
 40
0.9598460701
 40
0.9686071889
 40
0.9768999281
 40
0.98481904
 40
0.9924774225
 40
1.0
 40
1.0
 40
1.0
 40
1.0
 10
11.9751923423
 20
11.2427052388
 30
0.0
 10
11.9751923423
 20
11.2411910622
 30
0.0
 10
11.9749706908
 20
11.2381309973
 30
0.0
 10
11.9739791066
 20
11.2335737859
 30
0.0
 10
11.9723326164
 20
11.2290455188
 30
0.0
 10
11.970039439
 20
11.2245594594
 30
0.0
 10
11.967108471
 20
11.2201250074
 30
0.0
 10
11.963548598
 20
11.2157514823
 30
0.0
 10
11.9593696453
 20
11.2114474464
 30
0.0
 10
11.9545818515
 20
11.2072218176
 30
0.0
 10
11.9491966648
 20
11.2030835171
 30
0.0
 10
11.9432267425
 20
11.1990415959
 30
0.0
 10
11.9366860077
 20
11.1951053085
 30
0.0
 10
11.9295898994
 20
11.1912835804
 30
0.0
 10
11.9219550952
 20
11.1875854977
 30
0.0
 10
11.9137997105
 20
11.1840197343
 30
0.0
 10
11.9051431275
 20
11.1805947769
 30
0.0
 10
11.8960059594
 20
11.1773189094
 30
0.0
 10
11.8864100648
 20
11.1741998738
 30
0.0
 10
11.8763783841
 20
11.171245304
 30
0.0
 10
11.8659349723
 20
11.168462237
 30
0.0
 10
11.8551048906
 20
11.1658574175
 30
0.0
 10
11.8439140961
 20
11.1634371388
 30
0.0
 10
11.8283795448
 20
11.1604314551
 30
0.0
 10
11.8082515803
 20
11.1571921321
 30
0.0
 10
11.7833651725
 20
11.1541608661
 30
0.0
 10
11.7577282183
 20
11.1519743274
 30
0.0
 10
11.7315870031
 20
11.1506537931
 30
0.0
 10
11.7051923428
 20
11.1502121767
 30
0.0
 10
11.6787976824
 20
11.1506537931
 30
0.0
 10
11.6526564673
 20
11.1519743274
 30
0.0
 10
11.627019513
 20
11.1541608661
 30
0.0
 10
11.6021331052
 20
11.1571921321
 30
0.0
 10
11.5820051407
 20
11.1604314551
 30
0.0
 10
11.5664705894
 20
11.1634371388
 30
0.0
 10
11.5552797949
 20
11.1658574175
 30
0.0
 10
11.5444497132
 20
11.168462237
 30
0.0
 10
11.5340063014
 20
11.171245304
 30
0.0
 10
11.5239746207
 20
11.1741998738
 30
0.0
 10
11.5143787261
 20
11.1773189094
 30
0.0
 10
11.505241558
 20
11.1805947769
 30
0.0
 10
11.496584975
 20
11.1840197343
 30
0.0
 10
11.4884295903
 20
11.1875854977
 30
0.0
 10
11.4807947861
 20
11.1912835804
 30
0.0
 10
11.4736986778
 20
11.1951053085
 30
0.0
 10
11.4671579431
 20
11.1990415959
 30
0.0
 10
11.4611880207
 20
11.2030835171
 30
0.0
 10
11.455802834
 20
11.2072218176
 30
0.0
 10
11.4510150402
 20
11.2114474464
 30
0.0
 10
11.4468360875
 20
11.2157514823
 30
0.0
 10
11.4432762145
 20
11.2201250074
 30
0.0
 10
11.4403452465
 20
11.2245594594
 30
0.0
 10
11.4380520691
 20
11.2290455188
 30
0.0
 10
11.4364055789
 20
11.2335737859
 30
0.0
 10
11.4354139947
 20
11.2381309973
 30
0.0
 10
11.4351923432
 20
11.2411910622
 30
0.0
 10
11.4351923432
 20
11.2427052388
 30
0.0
  0
SPLINE
  5
2D7
100
AcDbEntity
  8
0
100
AcDbSpline
 62
9
  6
CONTINUOUS
 70
0
 71
3
 72
53
 73
49
 74
0
 42
0.0000001
 43
0.0000001
 44
0.0000000001
 40
0.0
 40
0.0
 40
0.0
 40
0.0
 40
0.0084843083
 40
0.0174289919
 40
0.0268651856
 40
0.0368160622
 40
0.0472983291
 40
0.0583226823
 40
0.0698950597
 40
0.0820168875
 40
0.0946860552
 40
0.1078970218
 40
0.1216415391
 40
0.1359086963
 40
0.1506854371
 40
0.1659566009
 40
0.197910818
 40
0.2316193192
 40
0.2669058745
 40
0.3035762582
 40
0.341421441
 40
0.3802204156
 40
0.4197427898
 40
0.4597512327
 40
0.50000383
 40
0.540256388
 40
0.580264713
 40
0.6197868919
 40
0.6585855957
 40
0.6964304349
 40
0.7331004055
 40
0.7683864824
 40
0.8020944455
 40
0.8340480709
 40
0.8493189211
 40
0.8640953382
 40
0.8783621623
 40
0.892106339
 40
0.9053169585
 40
0.9179857749
 40
0.9301072487
 40
0.941679272
 40
0.9527032732
 40
0.9631851935
 40
0.9731357323
 40
0.9825716008
 40
0.9915159767
 40
1.0
 40
1.0
 40
1.0
 40
1.0
 10
12.0021402144
 20
11.3341267689
 30
0.0
 10
12.0010924358
 20
11.3355671809
 30
0.0
 10
11.9988115551
 20
11.3384342771
 30
0.0
 10
11.9949733347
 20
11.3425729939
 30
0.0
 10
11.9906385676
 20
11.3466519439
 30
0.0
 10
11.985815194
 20
11.350664525
 30
0.0
 10
11.9805111563
 20
11.3546042879
 30
0.0
 10
11.9747355417
 20
11.3584649966
 30
0.0
 10
11.9684979856
 20
11.3622401349
 30
0.0
 10
11.9618090945
 20
11.3659235623
 30
0.0
 10
11.9546801335
 20
11.3695089477
 30
0.0
 10
11.9471232428
 20
11.3729903361
 30
0.0
 10
11.9391512429
 20
11.3763617076
 30
0.0
 10
11.9307777476
 20
11.3796173686
 30
0.0
 10
11.92201701
 20
11.3827517409
 30
0.0
 10
11.9096523529
 20
11.3868234963
 30
0.0
 10
11.8933254871
 20
11.3915512282
 30
0.0
 10
11.8727317597
 20
11.3965792718
 30
0.0
 10
11.8509902114
 20
11.4010097124
 30
0.0
 10
11.8282496901
 20
11.404811866
 30
0.0
 10
11.8046655815
 20
11.4079593452
 30
0.0
 10
11.7803994063
 20
11.4104303071
 30
0.0
 10
11.7556174455
 20
11.4122075997
 30
0.0
 10
11.7304896168
 20
11.4132788872
 30
0.0
 10
11.7051882601
 20
11.413636734
 30
0.0
 10
11.6798869313
 20
11.4132786566
 30
0.0
 10
11.6547591865
 20
11.4122071401
 30
0.0
 10
11.6299773647
 20
11.4104296215
 30
0.0
 10
11.6057113828
 20
11.4079584386
 30
0.0
 10
11.5821275204
 20
11.4048107446
 30
0.0
 10
11.5593872964
 20
11.401008384
 30
0.0
 10
11.5376460945
 20
11.3965777455
 30
0.0
 10
11.5170527601
 20
11.3915495147
 30
0.0
 10
11.5007262532
 20
11.3868216315
 30
0.0
 10
11.4883619058
 20
11.3827497604
 30
0.0
 10
11.4796014131
 20
11.3796153082
 30
0.0
 10
11.4712281722
 20
11.3763595707
 30
0.0
 10
11.4632564355
 20
11.3729881265
 30
0.0
 10
11.4556998167
 20
11.369506669
 30
0.0
 10
11.4485711355
 20
11.3659212185
 30
0.0
 10
11.4418825319
 20
11.3622377298
 30
0.0
 10
11.4356452703
 20
11.3584625344
 30
0.0
 10
11.4298699568
 20
11.3546017726
 30
0.0
 10
11.4245662261
 20
11.3506619609
 30
0.0
 10
11.4197431651
 20
11.3466493348
 30
0.0
 10
11.4154087155
 20
11.3425703442
 30
0.0
 10
11.4115708173
 20
11.3384315907
 30
0.0
 10
11.4092901613
 20
11.3355644742
 30
0.0
 10
11.4082424961
 20
11.3341240536
 30
0.0
  0
SPLINE
  5
2D8
100
AcDbEntity
  8
0
100
AcDbSpline
 62
9
  6
CONTINUOUS
 70
0
 71
3
 72
61
 73
57
 74
0
 42
0.0000001
 43
0.0000001
 44
0.0000000001
 40
0.0
 40
0.0
 40
0.0
 40
0.0
 40
0.0075226437
 40
0.0151810088
 40
0.023100109
 40
0.0313928716
 40
0.0401539905
 40
0.0494596137
 40
0.0593685804
 40
0.0699244479
 40
0.0811575761
 40
0.0930870871
 40
0.1057229766
 40
0.1190672375
 40
0.133115314
 40
0.1478570728
 40
0.1632773548
 40
0.1793569669
 40
0.1960728861
 40
0.213398841
 40
0.2313057547
 40
0.2497618028
 40
0.2687329948
 40
0.2881831991
 40
0.3283650984
 40
0.3699874428
 40
0.4127074916
 40
0.4561675308
 40
0.5
 40
0.5438324692
 40
0.5872925084
 40
0.6300125572
 40
0.6716349016
 40
0.7118168009
 40
0.7312670052
 40
0.7502381972
 40
0.7686942453
 40
0.786601159
 40
0.8039271139
 40
0.8206430331
 40
0.8367226452
 40
0.8521429272
 40
0.866884686
 40
0.8809327625
 40
0.8942770234
 40
0.9069129129
 40
0.9188424239
 40
0.9300755521
 40
0.9406314196
 40
0.9505403863
 40
0.9598460095
 40
0.9686071284
 40
0.976899891
 40
0.9848189912
 40
0.9924773563
 40
1.0
 40
1.0
 40
1.0
 40
1.0
 10
11.9905114903
 20
11.2440963852
 30
0.0
 10
11.9905114903
 20
11.2424962838
 30
0.0
 10
11.990277272
 20
11.2392625865
 30
0.0
 10
11.9892294046
 20
11.2344468063
 30
0.0
 10
11.9874894998
 20
11.2296616175
 30
0.0
 10
11.9850662094
 20
11.224921028
 30
0.0
 10
11.9819689374
 20
11.2202349794
 30
0.0
 10
11.9782070939
 20
11.2156133026
 30
0.0
 10
11.9737910153
 20
11.211065092
 30
0.0
 10
11.968731595
 20
11.2065996813
 30
0.0
 10
11.963040846
 20
11.2022266065
 30
0.0
 10
11.9567322051
 20
11.1979553558
 30
0.0
 10
11.9498203718
 20
11.193795714
 30
0.0
 10
11.9423216318
 20
11.1897571906
 30
0.0
 10
11.9342536643
 20
11.185849245
 30
0.0
 10
11.9256355515
 20
11.1820812011
 30
0.0
 10
11.916487816
 20
11.1784619172
 30
0.0
 10
11.9068322319
 20
11.1750001625
 30
0.0
 10
11.8966918813
 20
11.171704206
 30
0.0
 10
11.8860910383
 20
11.1685819524
 30
0.0
 10
11.875055088
 20
11.1656410163
 30
0.0
 10
11.8636105349
 20
11.162888402
 30
0.0
 10
11.8517848058
 20
11.1603307808
 30
0.0
 10
11.8353688546
 20
11.1571546081
 30
0.0
 10
11.8140988864
 20
11.1537314655
 30
0.0
 10
11.787800495
 20
11.1505282077
 30
0.0
 10
11.7607089695
 20
11.148217607
 30
0.0
 10
11.7330845682
 20
11.1468221665
 30
0.0
 10
11.7051923428
 20
11.1463555044
 30
0.0
 10
11.6773001173
 20
11.1468221665
 30
0.0
 10
11.6496757161
 20
11.148217607
 30
0.0
 10
11.6225841905
 20
11.1505282077
 30
0.0
 10
11.5962857991
 20
11.1537314655
 30
0.0
 10
11.5750158309
 20
11.1571546081
 30
0.0
 10
11.5585998798
 20
11.1603307808
 30
0.0
 10
11.5467741506
 20
11.162888402
 30
0.0
 10
11.5353295975
 20
11.1656410163
 30
0.0
 10
11.5242936473
 20
11.1685819524
 30
0.0
 10
11.5136928042
 20
11.171704206
 30
0.0
 10
11.5035524536
 20
11.1750001625
 30
0.0
 10
11.4938968696
 20
11.1784619172
 30
0.0
 10
11.484749134
 20
11.1820812011
 30
0.0
 10
11.4761310212
 20
11.185849245
 30
0.0
 10
11.4680630537
 20
11.1897571906
 30
0.0
 10
11.4605643137
 20
11.193795714
 30
0.0
 10
11.4536524804
 20
11.1979553558
 30
0.0
 10
11.4473438395
 20
11.2022266065
 30
0.0
 10
11.4416530905
 20
11.2065996813
 30
0.0
 10
11.4365936702
 20
11.211065092
 30
0.0
 10
11.4321775917
 20
11.2156133026
 30
0.0
 10
11.4284157481
 20
11.2202349794
 30
0.0
 10
11.4253184761
 20
11.224921028
 30
0.0
 10
11.4228951857
 20
11.2296616175
 30
0.0
 10
11.4211552809
 20
11.2344468063
 30
0.0
 10
11.4201074136
 20
11.2392625865
 30
0.0
 10
11.4198731952
 20
11.2424962838
 30
0.0
 10
11.4198731952
 20
11.2440963852
 30
0.0
  0
SPLINE
  5
2D9
100
AcDbEntity
  8
0
100
AcDbSpline
 62
9
  6
CONTINUOUS
 70
0
 71
3
 72
17
 73
13
 74
0
 42
0.0000001
 43
0.0000001
 44
0.0000000001
 40
0.0
 40
0.0
 40
0.0
 40
0.0
 40
0.0245671172
 40
0.0557576638
 40
0.0933538334
 40
0.1371089234
 40
0.2418701165
 40
0.3672061522
 40
0.5097213882
 40
0.6655523397
 40
0.8304644322
 40
1.0
 40
1.0
 40
1.0
 40
1.0
 10
9.8277321498
 20
8.8096571858
 30
0.0
 10
9.8274391657
 20
8.8096412061
 30
0.0
 10
9.82677369
 20
8.8096146531
 30
0.0
 10
9.8256590524
 20
8.8095864826
 30
0.0
 10
9.8243150346
 20
8.8095660416
 30
0.0
 10
9.8220922418
 20
8.8095483859
 30
0.0
 10
9.8188214101
 20
8.8095504321
 30
0.0
 10
9.8143711885
 20
8.8095842499
 30
0.0
 10
9.8093113042
 20
8.8096497
 30
0.0
 10
9.8037791466
 20
8.8097451322
 30
0.0
 10
9.7979247405
 20
8.8098681562
 30
0.0
 10
9.7939314227
 20
8.8099659311
 30
0.0
 10
9.7919072528
 20
8.8100189131
 30
0.0
  0
LINE
  5
2DA
100
AcDbEntity
  8
0
100
AcDbLine
 62
9
  6
CONTINUOUS
 10
9.8050776157
 20
8.846035136
 11
9.7901555213
 21
8.8128258851
  0
SPLINE
  5
2DB
100
AcDbEntity
  8
0
100
AcDbSpline
 62
9
  6
CONTINUOUS
 70
0
 71
3
 72
12
 73
8
 74
0
 42
0.0000001
 43
0.0000001
 44
0.0000000001
 40
0.0
 40
0.0
 40
0.0
 40
0.0
 40
0.2503271762
 40
0.5004364115
 40
0.6254256683
 40
0.7503676251
 40
1.0
 40
1.0
 40
1.0
 40
1.0
 10
9.8050776157
 20
8.846035136
 30
0.0
 10
9.8065495984
 20
8.8453622078
 30
0.0
 10
9.8094032665
 20
8.8438129983
 30
0.0
 10
9.8126775148
 20
8.8414189765
 30
0.0
 10
9.8150851587
 20
8.8392579526
 30
0.0
 10
9.8173433971
 20
8.8369462682
 30
0.0
 10
9.8188651176
 20
8.8350511445
 30
0.0
 10
9.8197951048
 20
8.8337319902
 30
0.0
  0
SPLINE
  5
2DC
100
AcDbEntity
  8
0
100
AcDbSpline
 62
9
  6
CONTINUOUS
 70
0
 71
3
 72
11
 73
7
 74
0
 42
0.0000001
 43
0.0000001
 44
0.0000000001
 40
0.0
 40
0.0
 40
0.0
 40
0.0
 40
0.2494031051
 40
0.4991056486
 40
0.7493211346
 40
1.0
 40
1.0
 40
1.0
 40
1.0
 10
9.8241488207
 20
8.8262965324
 30
0.0
 10
9.8247634601
 20
8.8250082027
 30
0.0
 10
9.8258499238
 20
8.822358456
 30
0.0
 10
9.8270094932
 20
8.8182194978
 30
0.0
 10
9.8276703854
 20
8.8139647229
 30
0.0
 10
9.8277697684
 20
8.8110914308
 30
0.0
 10
9.827732151
 20
8.8096571858
 30
0.0
  0
LINE
  5
2DD
100
AcDbEntity
  8
0
100
AcDbLine
 62
9
  6
CONTINUOUS
 10
9.3653070734
 20
8.8460351242
 11
9.3802291642
 21
8.8128258851
  0
SPLINE
  5
2DE
100
AcDbEntity
  8
0
100
AcDbSpline
 62
9
  6
CONTINUOUS
 70
0
 71
3
 72
17
 73
13
 74
0
 42
0.0000001
 43
0.0000001
 44
0.0000000001
 40
0.0
 40
0.0
 40
0.0
 40
0.0
 40
0.0245671176
 40
0.0557576644
 40
0.0933538342
 40
0.1371089242
 40
0.2418701173
 40
0.3672061529
 40
0.5097213888
 40
0.66555234
 40
0.8304644323
 40
1.0
 40
1.0
 40
1.0
 40
1.0
 10
9.3426525357
 20
8.8096571848
 30
0.0
 10
9.3429455198
 20
8.8096412051
 30
0.0
 10
9.3436109955
 20
8.8096146519
 30
0.0
 10
9.3447256331
 20
8.8095864812
 30
0.0
 10
9.3460696509
 20
8.8095660401
 30
0.0
 10
9.3482924437
 20
8.8095483842
 30
0.0
 10
9.3515632754
 20
8.8095504304
 30
0.0
 10
9.356013497
 20
8.8095842483
 30
0.0
 10
9.3610733813
 20
8.8096496986
 30
0.0
 10
9.3666055389
 20
8.8097451311
 30
0.0
 10
9.372459945
 20
8.8098681556
 30
0.0
 10
9.3764532627
 20
8.8099659309
 30
0.0
 10
9.3784774326
 20
8.8100189131
 30
0.0
  0
SPLINE
  5
2DF
100
AcDbEntity
  8
0
100
AcDbSpline
 62
9
  6
CONTINUOUS
 70
0
 71
3
 72
11
 73
7
 74
0
 42
0.0000001
 43
0.0000001
 44
0.0000000001
 40
0.0
 40
0.0
 40
0.0
 40
0.0
 40
0.2506794908
 40
0.5008953822
 40
0.7505965201
 40
1.0
 40
1.0
 40
1.0
 40
1.0
 10
9.3426525342
 20
8.8096571849
 30
0.0
 10
9.342614869
 20
8.8110915193
 30
0.0
 10
9.3427147859
 20
8.8139650014
 30
0.0
 10
9.3433760238
 20
8.8182199136
 30
0.0
 10
9.3445347237
 20
8.8223594131
 30
0.0
 10
9.3456217591
 20
8.8250091127
 30
0.0
 10
9.3462362732
 20
8.8262976005
 30
0.0
  0
SPLINE
  5
2E0
100
AcDbEntity
  8
0
100
AcDbSpline
 62
9
  6
CONTINUOUS
 70
0
 71
3
 72
11
 73
7
 74
0
 42
0.0000001
 43
0.0000001
 44
0.0000000001
 40
0.0
 40
0.0
 40
0.0
 40
0.0
 40
0.2496663499
 40
0.4994973191
 40
0.749639464
 40
1.0
 40
1.0
 40
1.0
 40
1.0
 10
9.35059029
 20
8.8337323885
 30
0.0
 10
9.3515202152
 20
8.835051522
 30
0.0
 10
9.3535480274
 20
8.83757745
 30
0.0
 10
9.3570544573
 20
8.8409421944
 30
0.0
 10
9.3609810634
 20
8.8438135863
 30
0.0
 10
9.3638351407
 20
8.8453622248
 30
0.0
 10
9.3653070731
 20
8.846035125
 30
0.0
  0
SPLINE
  5
2E1
100
AcDbEntity
  8
0
100
AcDbSpline
 62
9
  6
CONTINUOUS
 70
0
 71
3
 72
17
 73
13
 74
0
 42
0.0000001
 43
0.0000001
 44
0.0000000001
 40
0.0
 40
0.0
 40
0.0
 40
0.0
 40
0.0245671172
 40
0.0557576638
 40
0.0933538335
 40
0.1371089234
 40
0.2418701165
 40
0.3672061522
 40
0.5097213883
 40
0.6655523397
 40
0.8304644322
 40
1.0
 40
1.0
 40
1.0
 40
1.0
 10
9.3868940029
 20
7.120143715
 30
0.0
 10
9.387186987
 20
7.1201277354
 30
0.0
 10
9.3878524627
 20
7.1201011824
 30
0.0
 10
9.3889671003
 20
7.1200730119
 30
0.0
 10
9.3903111181
 20
7.1200525709
 30
0.0
 10
9.3925339109
 20
7.1200349151
 30
0.0
 10
9.3958047426
 20
7.1200369614
 30
0.0
 10
9.4002549642
 20
7.1200707792
 30
0.0
 10
9.4053148485
 20
7.1201362293
 30
0.0
 10
9.4108470061
 20
7.1202316615
 30
0.0
 10
9.4167014122
 20
7.1203546855
 30
0.0
 10
9.42069473
 20
7.1204524604
 30
0.0
 10
9.4227188999
 20
7.1205054424
 30
0.0
  0
SPLINE
  5
2E2
100
AcDbEntity
  8
0
100
AcDbSpline
 62
9
  6
CONTINUOUS
 70
0
 71
3
 72
11
 73
7
 74
0
 42
0.0000001
 43
0.0000001
 44
0.0000000001
 40
0.0
 40
0.0
 40
0.0
 40
0.0
 40
0.2504987261
 40
0.5006930926
 40
0.7504929887
 40
1.0
 40
1.0
 40
1.0
 40
1.0
 10
9.408995079
 20
7.086160226
 30
0.0
 10
9.4076792239
 20
7.0867885486
 30
0.0
 10
9.4051230658
 20
7.0882060301
 30
0.0
 10
9.4015737651
 20
7.090770202
 30
0.0
 10
9.3983591293
 20
7.0937346366
 30
0.0
 10
9.396462858
 20
7.0959473783
 30
0.0
 10
9.3955821432
 20
7.0971022821
 30
0.0
  0
SPLINE
  5
2E3
100
AcDbEntity
  8
0
100
AcDbSpline
 62
9
  6
CONTINUOUS
 70
0
 71
3
 72
11
 73
7
 74
0
 42
0.0000001
 43
0.0000001
 44
0.0000000001
 40
0.0
 40
0.0
 40
0.0
 40
0.0
 40
0.2496719754
 40
0.4995594065
 40
0.7497198492
 40
1.0
 40
1.0
 40
1.0
 40
1.0
 10
9.3912456096
 20
7.1038562417
 30
0.0
 10
9.3905792121
 20
7.1051044796
 30
0.0
 10
9.3893829274
 20
7.1076782073
 30
0.0
 10
9.388039163
 20
7.111718798
 30
0.0
 10
9.3871758237
 20
7.1158922525
 30
0.0
 10
9.386931094
 20
7.1187257681
 30
0.0
 10
9.386894002
 20
7.1201437151
 30
0.0
  0
LINE
  5
2E4
100
AcDbEntity
  8
0
100
AcDbLine
 62
9
  6
CONTINUOUS
 10
9.408995079
 20
7.086160226
 11
9.4244248356
 21
7.1178769348
  0
LINE
  5
2E5
100
AcDbEntity
  8
0
100
AcDbLine
 62
9
  6
CONTINUOUS
 10
9.7613896018
 20
7.0861602373
 11
9.7459598499
 21
7.1178769348
  0
SPLINE
  5
2E6
100
AcDbEntity
  8
0
100
AcDbSpline
 62
9
  6
CONTINUOUS
 70
0
 71
3
 72
17
 73
13
 74
0
 42
0.0000001
 43
0.0000001
 44
0.0000000001
 40
0.0
 40
0.0
 40
0.0
 40
0.0
 40
0.0245671168
 40
0.0557576631
 40
0.0933538326
 40
0.1371089225
 40
0.2418701156
 40
0.3672061514
 40
0.5097213877
 40
0.6655523393
 40
0.830464432
 40
1.0
 40
1.0
 40
1.0
 40
1.0
 10
9.7834906826
 20
7.120143716
 30
0.0
 10
9.7831976985
 20
7.1201277364
 30
0.0
 10
9.7825322228
 20
7.1201011836
 30
0.0
 10
9.7814175852
 20
7.1200730133
 30
0.0
 10
9.7800735674
 20
7.1200525724
 30
0.0
 10
9.7778507746
 20
7.1200349168
 30
0.0
 10
9.7745799429
 20
7.1200369631
 30
0.0
 10
9.7701297213
 20
7.1200707809
 30
0.0
 10
9.765069837
 20
7.1201362308
 30
0.0
 10
9.7595376794
 20
7.1202316626
 30
0.0
 10
9.7536832733
 20
7.1203546861
 30
0.0
 10
9.7496899555
 20
7.1204524606
 30
0.0
 10
9.7476657856
 20
7.1205054424
 30
0.0
  0
SPLINE
  5
2E7
100
AcDbEntity
  8
0
100
AcDbSpline
 62
9
  6
CONTINUOUS
 70
0
 71
3
 72
11
 73
7
 74
0
 42
0.0000001
 43
0.0000001
 44
0.0000000001
 40
0.0
 40
0.0
 40
0.0
 40
0.0
 40
0.2502790505
 40
0.5004405432
 40
0.7503284231
 40
1.0
 40
1.0
 40
1.0
 40
1.0
 10
9.7834906839
 20
7.1201437161
 30
0.0
 10
9.7834536384
 20
7.118725668
 30
0.0
 10
9.7832083539
 20
7.1158919675
 30
0.0
 10
9.7823448465
 20
7.1117182784
 30
0.0
 10
9.7810016076
 20
7.1076771436
 30
0.0
 10
9.7798049062
 20
7.105103376
 30
0.0
 10
9.7791386014
 20
7.1038549713
 30
0.0
  0
SPLINE
  5
2E8
100
AcDbEntity
  8
0
100
AcDbSpline
 62
9
  6
CONTINUOUS
 70
0
 71
3
 72
11
 73
7
 74
0
 42
0.0000001
 43
0.0000001
 44
0.0000000001
 40
0.0
 40
0.0
 40
0.0
 40
0.0
 40
0.2495070421
 40
0.4993060163
 40
0.7494993891
 40
1.0
 40
1.0
 40
1.0
 40
1.0
 10
9.7748016324
 20
7.0971014685
 30
0.0
 10
9.773921087
 20
7.0959465526
 30
0.0
 10
9.7720247802
 20
7.0937340922
 30
0.0
 10
9.7688107492
 20
7.0907694693
 30
0.0
 10
9.7652616537
 20
7.088205399
 30
0.0
 10
9.7627053655
 20
7.0867885591
 30
0.0
 10
9.7613896019
 20
7.0861602371
 30
0.0
  0
SPLINE
  5
2E9
100
AcDbEntity
  8
0
100
AcDbSpline
 62
9
  6
CONTINUOUS
 70
0
 71
3
 72
59
 73
55
 74
0
 42
0.0000001
 43
0.0000001
 44
0.0000000001
 40
0.0
 40
0.0
 40
0.0
 40
0.0
 40
0.0075598929
 40
0.0153993841
 40
0.0236151481
 40
0.0322875738
 40
0.0414814395
 40
0.0512470499
 40
0.0616216791
 40
0.0726316431
 40
0.0842936602
 40
0.0966166158
 40
0.1096026344
 40
0.1232480177
 40
0.1375443191
 40
0.1524786441
 40
0.168034519
 40
0.1841921634
 40
0.2009288312
 40
0.2182193365
 40
0.2360360173
 40
0.2543492595
 40
0.2923356348
 40
0.3319094676
 40
0.3727779688
 40
0.4146316956
 40
0.4571489583
 40
0.4999999968
 40
0.5428510354
 40
0.5853682982
 40
0.6272220251
 40
0.6680905267
 40
0.7076643598
 40
0.7456507355
 40
0.7639639779
 40
0.7817806589
 40
0.7990711645
 40
0.8158078325
 40
0.8319654772
 40
0.8475213524
 40
0.8624556776
 40
0.8767519793
 40
0.8903973629
 40
0.9033833818
 40
0.9157063377
 40
0.9273683551
 40
0.9383783194
 40
0.9487529489
 40
0.9585185596
 40
0.9677124255
 40
0.9763848514
 40
0.9846006157
 40
0.992440107
 40
1.0
 40
1.0
 40
1.0
 40
1.0
 10
12.0187478887
 20
11.2968208649
 30
0.0
 10
12.0184142979
 20
11.2985231944
 30
0.0
 10
12.0174991
 20
11.3019484106
 30
0.0
 10
12.0154500509
 20
11.3069782073
 30
0.0
 10
12.0127136053
 20
11.311961992
 30
0.0
 10
12.0092989146
 20
11.3168886996
 30
0.0
 10
12.0052150677
 20
11.3217493429
 30
0.0
 10
12.0004719425
 20
11.3265347231
 30
0.0
 10
11.9950802962
 20
11.3312358514
 30
0.0
 10
11.9890517702
 20
11.335843286
 30
0.0
 10
11.9823994585
 20
11.3403477972
 30
0.0
 10
11.9751376333
 20
11.3447399393
 30
0.0
 10
11.967281956
 20
11.3490103712
 30
0.0
 10
11.9588494726
 20
11.3531500128
 30
0.0
 10
11.9498584572
 20
11.3571497477
 30
0.0
 10
11.9403285523
 20
11.361000961
 30
0.0
 10
11.9302805677
 20
11.3646951427
 30
0.0
 10
11.9197365109
 20
11.3682241471
 30
0.0
 10
11.9087195287
 20
11.371580275
 30
0.0
 10
11.8972538108
 20
11.3747559833
 30
0.0
 10
11.8853645502
 20
11.3777444149
 30
0.0
 10
11.8687799699
 20
11.381516161
 30
0.0
 10
11.8471744946
 20
11.3856962676
 30
0.0
 10
11.8203071702
 20
11.3898138126
 30
0.0
 10
11.7924267803
 20
11.3930551105
 30
0.0
 10
11.7637787877
 20
11.3953912542
 30
0.0
 10
11.7346150737
 20
11.396801348
 30
0.0
 10
11.7051923461
 20
11.3972727883
 30
0.0
 10
11.6757696185
 20
11.3968013483
 30
0.0
 10
11.6466059044
 20
11.3953912546
 30
0.0
 10
11.6179579116
 20
11.3930551111
 30
0.0
 10
11.5900775215
 20
11.3898138134
 30
0.0
 10
11.5632101968
 20
11.3856962686
 30
0.0
 10
11.5416047213
 20
11.3815161622
 30
0.0
 10
11.5250201408
 20
11.3777444163
 30
0.0
 10
11.51313088
 20
11.3747559847
 30
0.0
 10
11.501665162
 20
11.3715802765
 30
0.0
 10
11.4906481795
 20
11.3682241487
 30
0.0
 10
11.4801041225
 20
11.3646951443
 30
0.0
 10
11.4700561377
 20
11.3610009627
 30
0.0
 10
11.4605262325
 20
11.3571497494
 30
0.0
 10
11.4515352169
 20
11.3531500146
 30
0.0
 10
11.4431027332
 20
11.3490103732
 30
0.0
 10
11.4352470556
 20
11.3447399413
 30
0.0
 10
11.4279852302
 20
11.3403477992
 30
0.0
 10
11.4213329182
 20
11.3358432881
 30
0.0
 10
11.4153043919
 20
11.3312358536
 30
0.0
 10
11.4099127453
 20
11.3265347252
 30
0.0
 10
11.4051696198
 20
11.3217493451
 30
0.0
 10
11.4010857726
 20
11.3168887018
 30
0.0
 10
11.3976710816
 20
11.3119619942
 30
0.0
 10
11.3949346357
 20
11.3069782096
 30
0.0
 10
11.3928855863
 20
11.3019484128
 30
0.0
 10
11.3919703881
 20
11.2985231967
 30
0.0
 10
11.3916367972
 20
11.2968208672
 30
0.0
  0
SPLINE
  5
2EA
100
AcDbEntity
  8
0
100
AcDbSpline
 62
9
  6
CONTINUOUS
 70
0
 71
3
 72
33
 73
29
 74
0
 42
0.0000001
 43
0.0000001
 44
0.0000000001
 40
0.0
 40
0.0
 40
0.0
 40
0.0
 40
0.0150462325
 40
0.0303619219
 40
0.0462003496
 40
0.0627861035
 40
0.0803083506
 40
0.0989196887
 40
0.1187376965
 40
0.1398495706
 40
0.1623158937
 40
0.1861750319
 40
0.2114469541
 40
0.23813554
 40
0.2662318977
 40
0.2957154964
 40
0.3265562118
 40
0.3587156174
 40
0.3921475401
 40
0.4267996938
 40
0.4626136267
 40
0.4995259041
 40
0.5763644108
 40
0.6567286125
 40
0.7399736467
 40
0.8254144526
 40
0.9123339194
 40
1.0
 40
1.0
 40
1.0
 40
1.0
 10
11.9551923427
 20
12.2857640479
 30
0.0
 10
11.9551923427
 20
12.2871661573
 30
0.0
 10
11.9549871715
 20
12.2899995468
 30
0.0
 10
11.9540689061
 20
12.294219159
 30
0.0
 10
11.952544434
 20
12.298411931
 30
0.0
 10
11.9504211439
 20
12.3025657322
 30
0.0
 10
11.9477072503
 20
12.3066716962
 30
0.0
 10
11.9444110748
 20
12.3107212485
 30
0.0
 10
11.9405416777
 20
12.3147064716
 30
0.0
 10
11.9361085293
 20
12.318619088
 30
0.0
 10
11.9311222431
 20
12.3224508474
 30
0.0
 10
11.9255945352
 20
12.3261933655
 30
0.0
 10
11.9195382985
 20
12.329838075
 30
0.0
 10
11.9129678275
 20
12.3333767108
 30
0.0
 10
11.9058985638
 20
12.3368008592
 30
0.0
 10
11.8983472818
 20
12.3401024917
 30
0.0
 10
11.8903319267
 20
12.3432737466
 30
0.0
 10
11.8818715864
 20
12.3463069559
 30
0.0
 10
11.8729864982
 20
12.3491949531
 30
0.0
 10
11.8636979107
 20
12.3519306551
 30
0.0
 10
11.8540280666
 20
12.3545076045
 30
0.0
 10
11.8404759048
 20
12.3577669638
 30
0.0
 10
11.8227452027
 20
12.3613814495
 30
0.0
 10
11.8006177639
 20
12.3649428884
 30
0.0
 10
11.7775745085
 20
12.3677495779
 30
0.0
 10
11.7538366805
 20
12.3697741375
 30
0.0
 10
11.7296320577
 20
12.3709968812
 30
0.0
 10
11.7133616591
 20
12.3712690837
 30
0.0
 10
11.7051923427
 20
12.3712690837
 30
0.0
  0
SPLINE
  5
2EB
100
AcDbEntity
  8
0
100
AcDbSpline
 62
9
  6
CONTINUOUS
 70
0
 71
3
 72
15
 73
11
 74
0
 42
0.0000001
 43
0.0000001
 44
0.0000000001
 40
0.0
 40
0.0
 40
0.0
 40
0.0
 40
0.1231261764
 40
0.2467389272
 40
0.3709606283
 40
0.4958347129
 40
0.621321268
 40
0.7473032612
 40
0.8736020597
 40
1.0
 40
1.0
 40
1.0
 40
1.0
 10
12.6227186519
 20
4.8131079753
 30
0.0
 10
12.6209711589
 20
4.8131312554
 30
0.0
 10
12.6174651952
 20
4.8135028587
 30
0.0
 10
12.6123914954
 20
4.8150117098
 30
0.0
 10
12.6076501907
 20
4.8174233782
 30
0.0
 10
12.6033959121
 20
4.8206593326
 30
0.0
 10
12.5997642657
 20
4.8246146586
 30
0.0
 10
12.5968713351
 20
4.8291624458
 30
0.0
 10
12.5948096169
 20
4.8341545003
 30
0.0
 10
12.5940322894
 20
4.837678081
 30
0.0
 10
12.5937998052
 20
4.8394570416
 30
0.0
  0
SPLINE
  5
2EC
100
AcDbEntity
  8
0
100
AcDbSpline
 62
9
  6
CONTINUOUS
 70
0
 71
3
 72
13
 73
9
 74
0
 42
0.0000001
 43
0.0000001
 44
0.0000000001
 40
0.0
 40
0.0
 40
0.0
 40
0.0
 40
0.1193866204
 40
0.2393680669
 40
0.3604722653
 40
0.4832123717
 40
0.7354689867
 40
1.0
 40
1.0
 40
1.0
 40
1.0
 10
12.0285588803
 20
11.5622517309
 30
0.0
 10
12.0285590107
 20
11.5613304685
 30
0.0
 10
12.0284914206
 20
11.5594826356
 30
0.0
 10
12.0281873012
 20
11.5567153716
 30
0.0
 10
12.027680745
 20
11.5539514412
 30
0.0
 10
12.0267277051
 20
11.550240941
 30
0.0
 10
12.025009406
 20
11.5455985992
 30
0.0
 10
12.0231628952
 20
11.542052067
 30
0.0
 10
12.0221227238
 20
11.5402956787
 30
0.0
  0
SPLINE
  5
2ED
100
AcDbEntity
  8
0
100
AcDbSpline
 62
9
  6
CONTINUOUS
 70
0
 71
3
 72
15
 73
11
 74
0
 42
0.0000001
 43
0.0000001
 44
0.0000000001
 40
0.0
 40
0.0
 40
0.0
 40
0.0
 40
0.1150198867
 40
0.2310912323
 40
0.3491912801
 40
0.4702563806
 40
0.5951525339
 40
0.7246482155
 40
0.859407856
 40
1.0
 40
1.0
 40
1.0
 40
1.0
 10
12.0357102493
 20
11.5706599818
 30
0.0
 10
12.0357102493
 20
11.5693547352
 30
0.0
 10
12.0355768036
 20
11.5667304113
 30
0.0
 10
12.0349782359
 20
11.5628069718
 30
0.0
 10
12.0339818244
 20
11.5588943411
 30
0.0
 10
12.0325897171
 20
11.5549985072
 30
0.0
 10
12.0308044303
 20
11.5511241495
 30
0.0
 10
12.028628828
 20
11.5472757486
 30
0.0
 10
12.0260663431
 20
11.543457761
 30
0.0
 10
12.0241447966
 20
11.5409902244
 30
0.0
 10
12.0231252841
 20
11.5397630221
 30
0.0
  0
SPLINE
  5
2EE
100
AcDbEntity
  8
0
100
AcDbSpline
 62
9
  6
CONTINUOUS
 70
0
 71
3
 72
14
 73
10
 74
0
 42
0.0000001
 43
0.0000001
 44
0.0000000001
 40
0.0
 40
0.0
 40
0.0
 40
0.0
 40
0.1137814391
 40
0.2287578647
 40
0.346039803
 40
0.4666831993
 40
0.7215367926
 40
0.8575346199
 40
1.0
 40
1.0
 40
1.0
 40
1.0
 10
12.0376923429
 20
11.5729115342
 30
0.0
 10
12.0376923429
 20
11.5715009471
 30
0.0
 10
12.0375372164
 20
11.568662585
 30
0.0
 10
12.0368417416
 20
11.5644215963
 30
0.0
 10
12.0356841416
 20
11.5601942188
 30
0.0
 10
12.0334899131
 20
11.5544838513
 30
0.0
 10
12.030378212
 20
11.5489149549
 30
0.0
 10
12.0265018707
 20
11.5435548906
 30
0.0
 10
12.0242797042
 20
11.5409081146
 30
0.0
 10
12.0231011376
 20
11.5395926626
 30
0.0
  0
SPLINE
  5
2EF
100
AcDbEntity
  8
0
100
AcDbSpline
 62
9
  6
CONTINUOUS
 70
0
 71
3
 72
14
 73
10
 74
0
 42
0.0000001
 43
0.0000001
 44
0.0000000001
 40
0.0
 40
0.0
 40
0.0
 40
0.0
 40
0.1424565763
 40
0.2784486004
 40
0.5332991461
 40
0.653944672
 40
0.7712306566
 40
0.8862124727
 40
1.0
 40
1.0
 40
1.0
 40
1.0
 10
11.3872740448
 20
11.5396032714
 30
0.0
 10
11.3860962294
 20
11.5409183429
 30
0.0
 10
11.383875482
 20
11.5435643468
 30
0.0
 10
11.3800016244
 20
11.5489228147
 30
0.0
 10
11.3768919775
 20
11.5544899508
 30
0.0
 10
11.3746992158
 20
11.5601984119
 30
0.0
 10
11.3735423804
 20
11.5644244048
 30
0.0
 10
11.3728473661
 20
11.5686639938
 30
0.0
 10
11.3726923426
 20
11.5715014111
 30
0.0
 10
11.3726923426
 20
11.5729115342
 30
0.0
  0
SPLINE
  5
2F0
100
AcDbEntity
  8
0
100
AcDbSpline
 62
9
  6
CONTINUOUS
 70
0
 71
3
 72
31
 73
27
 74
0
 42
0.0000001
 43
0.0000001
 44
0.0000000001
 40
0.0
 40
0.0
 40
0.0
 40
0.0
 40
0.0006238019
 40
0.0010757734
 40
0.0016470798
 40
0.0031774638
 40
0.0052486422
 40
0.0078719122
 40
0.0110522885
 40
0.0190898771
 40
0.0293592511
 40
0.0418485507
 40
0.0565398636
 40
0.0734065645
 40
0.09242025
 40
0.1135483115
 40
0.1619881895
 40
0.2183798192
 40
0.2823155002
 40
0.3533316269
 40
0.4309146072
 40
0.5145016331
 40
0.603487033
 40
0.6972234454
 40
0.7950274481
 40
1.0
 40
1.0
 40
1.0
 40
1.0
 10
9.3463643272
 20
7.0956162551
 30
0.0
 10
9.3463645005
 20
7.0956096401
 30
0.0
 10
9.3463720936
 20
7.0955991299
 30
0.0
 10
9.3463863173
 20
7.0955894129
 30
0.0
 10
9.3464106278
 20
7.095577047
 30
0.0
 10
9.3464527418
 20
7.0955631342
 30
0.0
 10
9.3465169751
 20
7.0955476418
 30
0.0
 10
9.3465991753
 20
7.0955325979
 30
0.0
 10
9.3467444761
 20
7.0955113453
 30
0.0
 10
9.3469712238
 20
7.0954873931
 30
0.0
 10
9.347296936
 20
7.0954620042
 30
0.0
 10
9.3476935366
 20
7.0954386141
 30
0.0
 10
9.3481603106
 20
7.0954172714
 30
0.0
 10
9.3486964391
 20
7.095398094
 30
0.0
 10
9.349300951
 20
7.0953811399
 30
0.0
 10
9.3502404053
 20
7.0953606446
 30
0.0
 10
9.351576472
 20
7.095341987
 30
0.0
 10
9.3533667201
 20
7.0953296923
 30
0.0
 10
9.3553964959
 20
7.0953268681
 30
0.0
 10
9.3576510586
 20
7.0953335714
 30
0.0
 10
9.3601140379
 20
7.0953498068
 30
0.0
 10
9.3627675635
 20
7.0953754805
 30
0.0
 10
9.3655923519
 20
7.0954104248
 30
0.0
 10
9.3685678449
 20
7.0954543952
 30
0.0
 10
9.3727734472
 20
7.0955257803
 30
0.0
 10
9.375984663
 20
7.0955901823
 30
0.0
 10
9.3781584916
 20
7.0956376501
 30
0.0
  0
SPLINE
  5
2F1
100
AcDbEntity
  8
0
100
AcDbSpline
 62
9
  6
CONTINUOUS
 70
0
 71
3
 72
11
 73
7
 74
0
 42
0.0000001
 43
0.0000001
 44
0.0000000001
 40
0.0
 40
0.0
 40
0.0
 40
0.0
 40
0.2503804444
 40
0.5005331798
 40
0.7503800265
 40
1.0
 40
1.0
 40
1.0
 40
1.0
 10
9.3293474212
 20
8.8096004489
 30
0.0
 10
9.3292922542
 20
8.8117050487
 30
0.0
 10
9.329348869
 20
8.8159185444
 30
0.0
 10
9.3299318649
 20
8.822207629
 30
0.0
 10
9.3310226175
 20
8.8284227304
 30
0.0
 10
9.332095833
 20
8.8324893253
 30
0.0
 10
9.3327188035
 20
8.8344936725
 30
0.0
  0
SPLINE
  5
2F2
100
AcDbEntity
  8
0
100
AcDbSpline
 62
9
  6
CONTINUOUS
 70
0
 71
3
 72
10
 73
6
 74
0
 42
0.0000001
 43
0.0000001
 44
0.0000000001
 40
0.0
 40
0.0
 40
0.0
 40
0.0
 40
0.4996084138
 40
0.7498079369
 40
1.0
 40
1.0
 40
1.0
 40
1.0
 10
9.3781584916
 20
7.0956376501
 30
0.0
 10
9.3767365286
 20
7.0995442048
 30
0.0
 10
9.3751043461
 20
7.1056053391
 30
0.0
 10
9.3739150305
 20
7.1138458416
 30
0.0
 10
9.3736433816
 20
7.1180063547
 30
0.0
 10
9.3735888743
 20
7.1200875188
 30
0.0
  0
SPLINE
  5
2F3
100
AcDbEntity
  8
0
100
AcDbSpline
 62
9
  6
CONTINUOUS
 70
0
 71
3
 72
31
 73
27
 74
0
 42
0.0000001
 43
0.0000001
 44
0.0000000001
 40
0.0
 40
0.0
 40
0.0
 40
0.0
 40
0.0006232897
 40
0.0010752185
 40
0.0016466119
 40
0.0031775067
 40
0.005249589
 40
0.0078741228
 40
0.0110561045
 40
0.0190978694
 40
0.0293726206
 40
0.041868415
 40
0.0565672374
 40
0.073442343
 40
0.0924652136
 40
0.1136030952
 40
0.1620638751
 40
0.2184769061
 40
0.2824328878
 40
0.3534664262
 40
0.4310619896
 40
0.5146546955
 40
0.6036367024
 40
0.6973583979
 40
0.7951340655
 40
1.0
 40
1.0
 40
1.0
 40
1.0
 10
9.3008308335
 20
8.8344702268
 30
0.0
 10
9.3008310071
 20
8.8344635977
 30
0.0
 10
9.3008386321
 20
8.8344530673
 30
0.0
 10
9.3008529011
 20
8.8344433379
 30
0.0
 10
9.300877298
 20
8.8344309504
 30
0.0
 10
9.3009195587
 20
8.8344170163
 30
0.0
 10
9.300984016
 20
8.8344014998
 30
0.0
 10
9.3010665033
 20
8.8343864338
 30
0.0
 10
9.301212313
 20
8.834365151
 30
0.0
 10
9.3014398525
 20
8.8343411685
 30
0.0
 10
9.3017667
 20
8.8343157522
 30
0.0
 10
9.3021646793
 20
8.8342923423
 30
0.0
 10
9.3026330704
 20
8.8342709879
 30
0.0
 10
9.3031710486
 20
8.8342518069
 30
0.0
 10
9.3037776361
 20
8.8342348576
 30
0.0
 10
9.3047202865
 20
8.8342143812
 30
0.0
 10
9.3060608482
 20
8.8341957707
 30
0.0
 10
9.3078570414
 20
8.8341835644
 30
0.0
 10
9.3098934306
 20
8.8341808627
 30
0.0
 10
9.312155175
 20
8.834187722
 30
0.0
 10
9.3146257945
 20
8.8342041457
 30
0.0
 10
9.3172873002
 20
8.8342300382
 30
0.0
 10
9.3201202828
 20
8.8342652296
 30
0.0
 10
9.3231040521
 20
8.8343094728
 30
0.0
 10
9.3273204579
 20
8.8343812522
 30
0.0
 10
9.3305397023
 20
8.8344459767
 30
0.0
 10
9.3327188035
 20
8.8344936725
 30
0.0
  0
SPLINE
  5
2F4
100
AcDbEntity
  8
0
100
AcDbSpline
 62
9
  6
CONTINUOUS
 70
0
 71
3
 72
11
 73
7
 74
0
 42
0.0000001
 43
0.0000001
 44
0.0000000001
 40
0.0
 40
0.0
 40
0.0
 40
0.0
 40
0.2498222284
 40
0.4997460351
 40
0.749828332
 40
1.0
 40
1.0
 40
1.0
 40
1.0
 10
9.3370672978
 20
8.84191967
 30
0.0
 10
9.3386778703
 20
8.8436261893
 30
0.0
 10
9.342073424
 20
8.8468803686
 30
0.0
 10
9.3476204674
 20
8.8512373702
 30
0.0
 10
9.353561529
 20
8.8550448871
 30
0.0
 10
9.357745837
 20
8.8572005276
 30
0.0
 10
9.3598831211
 20
8.858177043
 30
0.0
  0
SPLINE
  5
2F5
100
AcDbEntity
  8
0
100
AcDbSpline
 62
9
  6
CONTINUOUS
 70
0
 71
3
 72
33
 73
29
 74
0
 42
0.0000001
 43
0.0000001
 44
0.0000000001
 40
0.0
 40
0.0
 40
0.0
 40
0.0
 40
0.0001452574
 40
0.0003945539
 40
0.0012911921
 40
0.0027470975
 40
0.0047695397
 40
0.007360507
 40
0.0105204897
 40
0.0142489295
 40
0.0185439682
 40
0.028825269
 40
0.0413468363
 40
0.0560872522
 40
0.0730173261
 40
0.0921066203
 40
0.1133206242
 40
0.1366178176
 40
0.1619558482
 40
0.2185613442
 40
0.2827135546
 40
0.3539318833
 40
0.4316846951
 40
0.5153901128
 40
0.6044226283
 40
0.6981144143
 40
0.795761248
 40
1.0
 40
1.0
 40
1.0
 40
1.0
 10
9.322373714
 20
8.8710115371
 30
0.0
 10
9.3223723134
 20
8.8710108093
 30
0.0
 10
9.3223703191
 20
8.8710063591
 30
0.0
 10
9.322370968
 20
8.8709924842
 30
0.0
 10
9.3223776643
 20
8.8709646674
 30
0.0
 10
9.3223926241
 20
8.8709196826
 30
0.0
 10
9.3224159895
 20
8.870857925
 30
0.0
 10
9.3224478264
 20
8.8707797075
 30
0.0
 10
9.3224881549
 20
8.8706849092
 30
0.0
 10
9.3225369533
 20
8.8705736136
 30
0.0
 10
9.3226183462
 20
8.8703921166
 30
0.0
 10
9.3227415516
 20
8.8701246654
 30
0.0
 10
9.3229153858
 20
8.8697555869
 30
0.0
 10
9.3231227514
 20
8.8693224515
 30
0.0
 10
9.3233632135
 20
8.8688260431
 30
0.0
 10
9.3236363126
 20
8.8682672851
 30
0.0
 10
9.3239415222
 20
8.8676472145
 30
0.0
 10
9.3242782892
 20
8.8669669976
 30
0.0
 10
9.3247876967
 20
8.8659431216
 30
0.0
 10
9.3254985116
 20
8.8645235926
 30
0.0
 10
9.3264371791
 20
8.8626605967
 30
0.0
 10
9.3274833747
 20
8.8605944662
 30
0.0
 10
9.328629286
 20
8.8583406705
 30
0.0
 10
9.3298663567
 20
8.8559160649
 30
0.0
 10
9.3311853308
 20
8.8533388081
 30
0.0
 10
9.3325763223
 20
8.8506282292
 30
0.0
 10
9.3345427481
 20
8.8468058439
 30
0.0
 10
9.3360475751
 20
8.8438909179
 30
0.0
 10
9.3370672879
 20
8.8419196885
 30
0.0
  0
SPLINE
  5
2F6
100
AcDbEntity
  8
0
100
AcDbSpline
 62
9
  6
CONTINUOUS
 70
0
 71
3
 72
32
 73
28
 74
0
 42
0.0000001
 43
0.0000001
 44
0.0000000001
 40
0.0
 40
0.0
 40
0.0
 40
0.0
 40
0.0003951988
 40
0.0012941985
 40
0.0027455691
 40
0.0047576479
 40
0.0073328426
 40
0.0104718658
 40
0.014174415
 40
0.0184390306
 40
0.0286471056
 40
0.0410805051
 40
0.0557193584
 40
0.072535974
 40
0.0915014417
 40
0.1125830657
 40
0.1357415175
 40
0.1609366591
 40
0.2172539228
 40
0.2811328458
 40
0.3521168575
 40
0.4297003993
 40
0.5133294941
 40
0.6024078639
 40
0.6962979679
 40
0.7943264373
 40
1.0
 40
1.0
 40
1.0
 40
1.0
 10
9.3669514278
 20
7.0616823192
 30
0.0
 10
9.3669550385
 20
7.0616803168
 30
0.0
 10
9.3669694057
 20
7.0616896526
 30
0.0
 10
9.3669873554
 20
7.0617084913
 30
0.0
 10
9.3670175461
 20
7.0617445692
 30
0.0
 10
9.3670547806
 20
7.0617947479
 30
0.0
 10
9.367101411
 20
7.0618609358
 30
0.0
 10
9.3671563333
 20
7.0619424629
 30
0.0
 10
9.367219853
 20
7.0620396015
 30
0.0
 10
9.3673221072
 20
7.0621995917
 30
0.0
 10
9.3674706542
 20
7.0624382554
 30
0.0
 10
9.3676734683
 20
7.0627707685
 30
0.0
 10
9.3679098028
 20
7.0631637028
 30
0.0
 10
9.3681791584
 20
7.0636164029
 30
0.0
 10
9.3684809921
 20
7.0641280983
 30
0.0
 10
9.3688147236
 20
7.0646978981
 30
0.0
 10
9.3691797772
 20
7.0653247759
 30
0.0
 10
9.3697280984
 20
7.066270921
 30
0.0
 10
9.3704861488
 20
7.0675872222
 30
0.0
 10
9.3714783188
 20
7.0693207217
 30
0.0
 10
9.372576735
 20
7.0712494017
 30
0.0
 10
9.3737735484
 20
7.0733594946
 30
0.0
 10
9.3750602043
 20
7.0756359572
 30
0.0
 10
9.3764275035
 20
7.0780625282
 30
0.0
 10
9.3778656583
 20
7.0806218472
 30
0.0
 10
9.3798966886
 20
7.0842452829
 30
0.0
 10
9.3814439592
 20
7.087015374
 30
0.0
 10
9.3824901897
 20
7.0888922382
 30
0.0
  0
LINE
  5
2F7
100
AcDbEntity
  8
0
100
AcDbLine
 62
9
  6
CONTINUOUS
 10
9.5851863646
 20
7.0102679637
 11
9.5851984232
 21
7.0329386732
  0
SPLINE
  5
2F8
100
AcDbEntity
  8
0
100
AcDbSpline
 62
9
  6
CONTINUOUS
 70
0
 71
3
 72
21
 73
17
 74
0
 42
0.0000001
 43
0.0000001
 44
0.0000000001
 40
0.0
 40
0.0
 40
0.0
 40
0.0
 40
0.1408799683
 40
0.2807861729
 40
0.3499789033
 40
0.4184277341
 40
0.4859198914
 40
0.5522222488
 40
0.6170520722
 40
0.6801050935
 40
0.7410382704
 40
0.7994826992
 40
0.8550015857
 40
0.907169931
 40
0.9556289606
 40
1.0
 40
1.0
 40
1.0
 40
1.0
 10
9.4456418762
 20
7.0325516235
 30
0.0
 10
9.4436806235
 20
7.0331945042
 30
0.0
 10
9.4397514791
 20
7.0344150692
 30
0.0
 10
9.4348102333
 20
7.035786569
 30
0.0
 10
9.4308697202
 20
7.0367899731
 30
0.0
 10
9.427947706
 20
7.0374927714
 30
0.0
 10
9.4250595636
 20
7.0381544339
 30
0.0
 10
9.4222176573
 20
7.0387799172
 30
0.0
 10
9.4194361771
 20
7.0393771242
 30
0.0
 10
9.416730632
 20
7.0399532493
 30
0.0
 10
9.4141186185
 20
7.040519433
 30
0.0
 10
9.4116198184
 20
7.0410866054
 30
0.0
 10
9.4092560641
 20
7.0416673565
 30
0.0
 10
9.4070500706
 20
7.0422746962
 30
0.0
 10
9.4050268851
 20
7.0429245325
 30
0.0
 10
9.4037580802
 20
7.0434182915
 30
0.0
 10
9.4031635709
 20
7.0436812002
 30
0.0
  0
SPLINE
  5
2F9
100
AcDbEntity
  8
0
100
AcDbSpline
 62
9
  6
CONTINUOUS
 70
0
 71
3
 72
11
 73
7
 74
0
 42
0.0000001
 43
0.0000001
 44
0.0000000001
 40
0.0
 40
0.0
 40
0.0
 40
0.0
 40
0.2502760872
 40
0.5003885963
 40
0.7502828377
 40
1.0
 40
1.0
 40
1.0
 40
1.0
 10
9.4031498279
 20
7.0742078905
 30
0.0
 10
9.401232969
 20
7.0751240014
 30
0.0
 10
9.3974768729
 20
7.077120515
 30
0.0
 10
9.3921220965
 20
7.0805825199
 30
0.0
 10
9.3870889798
 20
7.0844902155
 30
0.0
 10
9.3839771612
 20
7.0873814848
 30
0.0
 10
9.3824901938
 20
7.0888922454
 30
0.0
  0
SPLINE
  5
2FA
100
AcDbEntity
  8
0
100
AcDbSpline
 62
9
  6
CONTINUOUS
 70
0
 71
3
 72
31
 73
27
 74
0
 42
0.0000001
 43
0.0000001
 44
0.0000000001
 40
0.0
 40
0.0
 40
0.0
 40
0.0
 40
0.0006238025
 40
0.001075774
 40
0.0016470803
 40
0.0031774637
 40
0.0052486411
 40
0.0078719097
 40
0.0110522841
 40
0.0190898679
 40
0.0293592358
 40
0.041848528
 40
0.0565398323
 40
0.0734065236
 40
0.0924201987
 40
0.113548249
 40
0.1619881032
 40
0.2183797084
 40
0.2823153663
 40
0.3533314732
 40
0.4309144391
 40
0.5145014585
 40
0.6034868623
 40
0.6972232915
 40
0.7950273265
 40
1.0
 40
1.0
 40
1.0
 40
1.0
 10
9.8240203582
 20
7.0956162551
 30
0.0
 10
9.824020185
 20
7.0956096401
 30
0.0
 10
9.8240125919
 20
7.09559913
 30
0.0
 10
9.8239983682
 20
7.095589413
 30
0.0
 10
9.8239740579
 20
7.0955770471
 30
0.0
 10
9.823931944
 20
7.0955631343
 30
0.0
 10
9.823867711
 20
7.095547642
 30
0.0
 10
9.8237855111
 20
7.095532598
 30
0.0
 10
9.8236402109
 20
7.0955113455
 30
0.0
 10
9.8234134641
 20
7.0954873933
 30
0.0
 10
9.8230877532
 20
7.0954620045
 30
0.0
 10
9.8226911541
 20
7.0954386143
 30
0.0
 10
9.822224382
 20
7.0954172717
 30
0.0
 10
9.8216882557
 20
7.0953980943
 30
0.0
 10
9.8210837461
 20
7.0953811402
 30
0.0
 10
9.8201442954
 20
7.0953606448
 30
0.0
 10
9.8188082339
 20
7.0953419872
 30
0.0
 10
9.8170179926
 20
7.0953296924
 30
0.0
 10
9.8149882243
 20
7.0953268681
 30
0.0
 10
9.8127336698
 20
7.0953335712
 30
0.0
 10
9.8102706992
 20
7.0953498064
 30
0.0
 10
9.8076171827
 20
7.0953754799
 30
0.0
 10
9.8047924036
 20
7.0954104238
 30
0.0
 10
9.8018169201
 20
7.0954543939
 30
0.0
 10
9.7976113301
 20
7.0955257785
 30
0.0
 10
9.7944001236
 20
7.0955901802
 30
0.0
 10
9.7922263009
 20
7.0956376477
 30
0.0
  0
SPLINE
  5
2FB
100
AcDbEntity
  8
0
100
AcDbSpline
 62
9
  6
CONTINUOUS
 70
0
 71
3
 72
10
 73
6
 74
0
 42
0.0000001
 43
0.0000001
 44
0.0000000001
 40
0.0
 40
0.0
 40
0.0
 40
0.0
 40
0.4992493792
 40
0.7495085139
 40
1.0
 40
1.0
 40
1.0
 40
1.0
 10
9.8376658382
 20
8.8344936735
 30
0.0
 10
9.8389128843
 20
8.8304871915
 30
0.0
 10
9.8402593482
 20
8.8242929194
 30
0.0
 10
9.8410363469
 20
8.8159192038
 30
0.0
 10
9.8410923713
 20
8.8117051169
 30
0.0
 10
9.841037266
 20
8.8096005169
 30
0.0
  0
SPLINE
  5
2FC
100
AcDbEntity
  8
0
100
AcDbSpline
 62
9
  6
CONTINUOUS
 70
0
 71
3
 72
31
 73
27
 74
0
 42
0.0000001
 43
0.0000001
 44
0.0000000001
 40
0.0
 40
0.0
 40
0.0
 40
0.0
 40
0.0006232895
 40
0.0010752183
 40
0.0016466117
 40
0.0031775067
 40
0.0052495894
 40
0.0078741238
 40
0.0110561063
 40
0.0190978731
 40
0.0293726269
 40
0.0418684243
 40
0.0565672502
 40
0.0734423597
 40
0.0924652346
 40
0.1136031208
 40
0.1620639105
 40
0.2184769514
 40
0.2824329426
 40
0.3534664892
 40
0.4310620585
 40
0.5146547671
 40
0.6036367724
 40
0.6973584609
 40
0.7951341154
 40
1.0
 40
1.0
 40
1.0
 40
1.0
 10
9.869553852
 20
8.8344702268
 30
0.0
 10
9.8695536784
 20
8.8344635977
 30
0.0
 10
9.8695460533
 20
8.8344530672
 30
0.0
 10
9.8695317844
 20
8.8344433378
 30
0.0
 10
9.8695073874
 20
8.8344309504
 30
0.0
 10
9.8694651266
 20
8.8344170163
 30
0.0
 10
9.8694006693
 20
8.8344014998
 30
0.0
 10
9.8693181818
 20
8.8343864337
 30
0.0
 10
9.8691723719
 20
8.834365151
 30
0.0
 10
9.868944832
 20
8.8343411684
 30
0.0
 10
9.868617984
 20
8.8343157521
 30
0.0
 10
9.868220004
 20
8.8342923422
 30
0.0
 10
9.8677516122
 20
8.8342709877
 30
0.0
 10
9.8672136331
 20
8.8342518068
 30
0.0
 10
9.8666070447
 20
8.8342348575
 30
0.0
 10
9.8656643927
 20
8.8342143811
 30
0.0
 10
9.8643238289
 20
8.8341957707
 30
0.0
 10
9.862527633
 20
8.8341835643
 30
0.0
 10
9.8604912406
 20
8.8341808627
 30
0.0
 10
9.8582294929
 20
8.8341877221
 30
0.0
 10
9.8557588698
 20
8.8342041458
 30
0.0
 10
9.8530973604
 20
8.8342300385
 30
0.0
 10
9.850264374
 20
8.83426523
 30
0.0
 10
9.8472806009
 20
8.8343094733
 30
0.0
 10
9.84306419
 20
8.8343812529
 30
0.0
 10
9.8398449418
 20
8.8344459775
 30
0.0
 10
9.8376658382
 20
8.8344936735
 30
0.0
  0
SPLINE
  5
2FD
100
AcDbEntity
  8
0
100
AcDbSpline
 62
9
  6
CONTINUOUS
 70
0
 71
3
 72
11
 73
7
 74
0
 42
0.0000001
 43
0.0000001
 44
0.0000000001
 40
0.0
 40
0.0
 40
0.0
 40
0.0
 40
0.2500850172
 40
0.5001802222
 40
0.7501572037
 40
1.0
 40
1.0
 40
1.0
 40
1.0
 10
9.796795813
 20
7.1200875862
 30
0.0
 10
9.796741348
 20
7.1180064187
 30
0.0
 10
9.7964693279
 20
7.1138464956
 30
0.0
 10
9.7955766511
 20
7.1076594989
 30
0.0
 10
9.7941927801
 20
7.1015652324
 30
0.0
 10
9.7929372497
 20
7.0975922282
 30
0.0
 10
9.7922263009
 20
7.0956376477
 30
0.0
  0
SPLINE
  5
2FE
100
AcDbEntity
  8
0
100
AcDbSpline
 62
9
  6
CONTINUOUS
 70
0
 71
3
 72
33
 73
29
 74
0
 42
0.0000001
 43
0.0000001
 44
0.0000000001
 40
0.0
 40
0.0
 40
0.0
 40
0.0
 40
0.0001451848
 40
0.0003943641
 40
0.0012907757
 40
0.002746491
 40
0.0047687834
 40
0.0073596416
 40
0.0105195561
 40
0.0142479637
 40
0.0185429929
 40
0.0288243051
 40
0.0413458857
 40
0.0560862994
 40
0.0730163637
 40
0.0921056478
 40
0.1133196442
 40
0.1366168319
 40
0.1619548576
 40
0.2185603476
 40
0.2827125618
 40
0.3539309088
 40
0.4316837584
 40
0.5153892388
 40
0.6044218463
 40
0.698113761
 40
0.7957607673
 40
1.0
 40
1.0
 40
1.0
 40
1.0
 10
9.8480109715
 20
8.8710115371
 30
0.0
 10
9.8480123714
 20
8.8710108097
 30
0.0
 10
9.8480143638
 20
8.8710063604
 30
0.0
 10
9.8480137014
 20
8.8709924902
 30
0.0
 10
9.8480069828
 20
8.8709646858
 30
0.0
 10
9.8479919908
 20
8.8709197185
 30
0.0
 10
9.8479685908
 20
8.8708579801
 30
0.0
 10
9.8479367218
 20
8.8707797804
 30
0.0
 10
9.84789637
 20
8.8706849956
 30
0.0
 10
9.8478475608
 20
8.8705737072
 30
0.0
 10
9.8477661654
 20
8.8703922137
 30
0.0
 10
9.8476429755
 20
8.8701247581
 30
0.0
 10
9.8474691601
 20
8.8697556744
 30
0.0
 10
9.8472617995
 20
8.8693225413
 30
0.0
 10
9.8470213379
 20
8.8688261385
 30
0.0
 10
9.8467482396
 20
8.8682673865
 30
0.0
 10
9.8464430353
 20
8.8676473204
 30
0.0
 10
9.8461062754
 20
8.8669671078
 30
0.0
 10
9.8455968783
 20
8.8659432382
 30
0.0
 10
9.8448860751
 20
8.8645237192
 30
0.0
 10
9.8439474239
 20
8.8626607358
 30
0.0
 10
9.8429012466
 20
8.8605946184
 30
0.0
 10
9.8417553546
 20
8.8583408367
 30
0.0
 10
9.8405183046
 20
8.8559162454
 30
0.0
 10
9.8391993521
 20
8.8533390031
 30
0.0
 10
9.837808383
 20
8.8506284383
 30
0.0
 10
9.835841987
 20
8.8468060712
 30
0.0
 10
9.8343371846
 20
8.8438911574
 30
0.0
 10
9.8333174874
 20
8.8419199363
 30
0.0
  0
LINE
  5
2FF
100
AcDbEntity
  8
0
100
AcDbLine
 62
9
  6
CONTINUOUS
 10
9.5851866012
 20
8.9072131767
 11
9.5852002409
 21
8.9352184174
  0
SPLINE
  5
300
100
AcDbEntity
  8
0
100
AcDbSpline
 62
9
  6
CONTINUOUS
 70
0
 71
3
 72
10
 73
6
 74
0
 42
0.0000001
 43
0.0000001
 44
0.0000000001
 40
0.0
 40
0.0
 40
0.0
 40
0.0
 40
0.2503223338
 40
0.500555307
 40
1.0
 40
1.0
 40
1.0
 40
1.0
 10
9.810501539
 20
8.8581770034
 30
0.0
 10
9.8126388442
 20
8.8572005589
 30
0.0
 10
9.8168234714
 20
8.8550436342
 30
0.0
 10
9.8247346953
 20
8.8499760171
 30
0.0
 10
9.8301005377
 20
8.8453303743
 30
0.0
 10
9.8333174142
 20
8.8419197986
 30
0.0
  0
SPLINE
  5
301
100
AcDbEntity
  8
0
100
AcDbSpline
 62
9
  6
CONTINUOUS
 70
0
 71
3
 72
61
 73
57
 74
0
 42
0.0000001
 43
0.0000001
 44
0.0000000001
 40
0.0
 40
0.0
 40
0.0
 40
0.0
 40
0.0075226437
 40
0.0151810088
 40
0.023100109
 40
0.0313928716
 40
0.0401539905
 40
0.0494596137
 40
0.0593685804
 40
0.0699244479
 40
0.0811575761
 40
0.0930870871
 40
0.1057229766
 40
0.1190672375
 40
0.133115314
 40
0.1478570728
 40
0.1632773548
 40
0.1793569669
 40
0.1960728861
 40
0.213398841
 40
0.2313057547
 40
0.2497618028
 40
0.2687329948
 40
0.2881831991
 40
0.3283650984
 40
0.3699874428
 40
0.4127074916
 40
0.4561675308
 40
0.5
 40
0.5438324692
 40
0.5872925084
 40
0.6300125572
 40
0.6716349016
 40
0.7118168009
 40
0.7312670052
 40
0.7502381972
 40
0.7686942453
 40
0.786601159
 40
0.8039271139
 40
0.8206430331
 40
0.8367226452
 40
0.8521429272
 40
0.866884686
 40
0.8809327625
 40
0.8942770234
 40
0.9069129129
 40
0.9188424239
 40
0.9300755521
 40
0.9406314196
 40
0.9505403863
 40
0.9598460095
 40
0.9686071284
 40
0.976899891
 40
0.9848189912
 40
0.9924773563
 40
1.0
 40
1.0
 40
1.0
 40
1.0
 10
12.0089422856
 20
11.2540212481
 30
0.0
 10
12.0089422856
 20
11.2557247115
 30
0.0
 10
12.0086929374
 20
11.2591672964
 30
0.0
 10
12.0075773809
 20
11.2642941621
 30
0.0
 10
12.0057250832
 20
11.2693884603
 30
0.0
 10
12.0031452552
 20
11.2744352782
 30
0.0
 10
11.9998479084
 20
11.279424032
 30
0.0
 10
11.9958430606
 20
11.2843442559
 30
0.0
 10
11.991141716
 20
11.2891862678
 30
0.0
 10
11.9857554718
 20
11.2939401312
 30
0.0
 10
11.9796971168
 20
11.298595694
 30
0.0
 10
11.9729809559
 20
11.3031428552
 30
0.0
 10
11.965622638
 20
11.3075711979
 30
0.0
 10
11.957639501
 20
11.3118705983
 30
0.0
 10
11.949050366
 20
11.3160309859
 30
0.0
 10
11.9398755479
 20
11.3200424346
 30
0.0
 10
11.9301368951
 20
11.3238955138
 30
0.0
 10
11.9198575881
 20
11.3275808879
 30
0.0
 10
11.9090622
 20
11.3310897536
 30
0.0
 10
11.897776573
 20
11.3344136958
 30
0.0
 10
11.8860277322
 20
11.337544608
 30
0.0
 10
11.8738438939
 20
11.3404750332
 30
0.0
 10
11.8612542567
 20
11.3431978694
 30
0.0
 10
11.8437778824
 20
11.3465792137
 30
0.0
 10
11.8211339355
 20
11.3502234815
 30
0.0
 10
11.7931367437
 20
11.3536336605
 30
0.0
 10
11.7642951837
 20
11.3560935193
 30
0.0
 10
11.7348863256
 20
11.3575791012
 30
0.0
 10
11.7051923428
 20
11.3580759084
 30
0.0
 10
11.6754983599
 20
11.3575791012
 30
0.0
 10
11.6460895019
 20
11.3560935193
 30
0.0
 10
11.6172479418
 20
11.3536336605
 30
0.0
 10
11.58925075
 20
11.3502234815
 30
0.0
 10
11.5666068031
 20
11.3465792137
 30
0.0
 10
11.5491304288
 20
11.3431978694
 30
0.0
 10
11.5365407916
 20
11.3404750332
 30
0.0
 10
11.5243569533
 20
11.337544608
 30
0.0
 10
11.5126081125
 20
11.3344136958
 30
0.0
 10
11.5013224855
 20
11.3310897536
 30
0.0
 10
11.4905270975
 20
11.3275808879
 30
0.0
 10
11.4802477905
 20
11.3238955138
 30
0.0
 10
11.4705091376
 20
11.3200424346
 30
0.0
 10
11.4613343195
 20
11.3160309859
 30
0.0
 10
11.4527451845
 20
11.3118705983
 30
0.0
 10
11.4447620475
 20
11.3075711979
 30
0.0
 10
11.4374037296
 20
11.3031428552
 30
0.0
 10
11.4306875687
 20
11.298595694
 30
0.0
 10
11.4246292138
 20
11.2939401312
 30
0.0
 10
11.4192429695
 20
11.2891862678
 30
0.0
 10
11.414541625
 20
11.2843442559
 30
0.0
 10
11.4105367771
 20
11.279424032
 30
0.0
 10
11.4072394303
 20
11.2744352782
 30
0.0
 10
11.4046596023
 20
11.2693884603
 30
0.0
 10
11.4028073047
 20
11.2642941621
 30
0.0
 10
11.4016917481
 20
11.2591672964
 30
0.0
 10
11.4014423999
 20
11.2557247115
 30
0.0
 10
11.4014423999
 20
11.2540212481
 30
0.0
  0
SPLINE
  5
302
100
AcDbEntity
  8
0
100
AcDbSpline
 62
9
  6
CONTINUOUS
 70
0
 71
3
 72
61
 73
57
 74
0
 42
0.0000001
 43
0.0000001
 44
0.0000000001
 40
0.0
 40
0.0
 40
0.0
 40
0.0
 40
0.0075226437
 40
0.0151810088
 40
0.023100109
 40
0.0313928716
 40
0.0401539905
 40
0.0494596137
 40
0.0593685804
 40
0.0699244479
 40
0.0811575761
 40
0.0930870871
 40
0.1057229766
 40
0.1190672375
 40
0.133115314
 40
0.1478570728
 40
0.1632773548
 40
0.1793569669
 40
0.1960728861
 40
0.213398841
 40
0.2313057547
 40
0.2497618028
 40
0.2687329948
 40
0.2881831991
 40
0.3283650984
 40
0.3699874428
 40
0.4127074916
 40
0.4561675308
 40
0.5
 40
0.5438324692
 40
0.5872925084
 40
0.6300125572
 40
0.6716349016
 40
0.7118168009
 40
0.7312670052
 40
0.7502381972
 40
0.7686942453
 40
0.786601159
 40
0.8039271139
 40
0.8206430331
 40
0.8367226452
 40
0.8521429272
 40
0.866884686
 40
0.8809327625
 40
0.8942770234
 40
0.9069129129
 40
0.9188424239
 40
0.9300755521
 40
0.9406314196
 40
0.9505403863
 40
0.9598460095
 40
0.9686071284
 40
0.976899891
 40
0.9848189912
 40
0.9924773563
 40
1.0
 40
1.0
 40
1.0
 40
1.0
 10
11.9939848888
 20
11.4814228276
 30
0.0
 10
11.9939848888
 20
11.4830424083
 30
0.0
 10
11.9937478191
 20
11.4863154718
 30
0.0
 10
11.9926871953
 20
11.491189878
 30
0.0
 10
11.9909261094
 20
11.4960333204
 30
0.0
 10
11.9884733185
 20
11.5008316205
 30
0.0
 10
11.9853383411
 20
11.5055747158
 30
0.0
 10
11.9815307019
 20
11.5102526557
 30
0.0
 10
11.9770608632
 20
11.514856235
 30
0.0
 10
11.9719398509
 20
11.5193760064
 30
0.0
 10
11.9661798242
 20
11.5238023178
 30
0.0
 10
11.9597943837
 20
11.5281255656
 30
0.0
 10
11.9527984075
 20
11.5323358457
 30
0.0
 10
11.9452083799
 20
11.536423533
 30
0.0
 10
11.9370421952
 20
11.5403790529
 30
0.0
 10
11.9283191677
 20
11.544192968
 30
0.0
 10
11.9190600702
 20
11.5478563121
 30
0.0
 10
11.9092869416
 20
11.5513602092
 30
0.0
 10
11.8990231451
 20
11.5546962897
 30
0.0
 10
11.8882932503
 20
11.5578565528
 30
0.0
 10
11.8771229513
 20
11.5608332911
 30
0.0
 10
11.8655390753
 20
11.563619415
 30
0.0
 10
11.8535693829
 20
11.566208172
 30
0.0
 10
11.8369535884
 20
11.5694230105
 30
0.0
 10
11.8154246853
 20
11.5728878256
 30
0.0
 10
11.7888061444
 20
11.576130079
 30
0.0
 10
11.7613848139
 20
11.5784688083
 30
0.0
 10
11.7334241206
 20
11.5798812365
 30
0.0
 10
11.7051923428
 20
11.5803535797
 30
0.0
 10
11.6769605649
 20
11.5798812365
 30
0.0
 10
11.6489998716
 20
11.5784688083
 30
0.0
 10
11.6215785411
 20
11.576130079
 30
0.0
 10
11.5949600002
 20
11.5728878256
 30
0.0
 10
11.5734310971
 20
11.5694230105
 30
0.0
 10
11.5568153026
 20
11.566208172
 30
0.0
 10
11.5448456102
 20
11.563619415
 30
0.0
 10
11.5332617342
 20
11.5608332911
 30
0.0
 10
11.5220914353
 20
11.5578565528
 30
0.0
 10
11.5113615404
 20
11.5546962897
 30
0.0
 10
11.5010977439
 20
11.5513602092
 30
0.0
 10
11.4913246154
 20
11.5478563121
 30
0.0
 10
11.4820655178
 20
11.544192968
 30
0.0
 10
11.4733424904
 20
11.5403790529
 30
0.0
 10
11.4651763056
 20
11.536423533
 30
0.0
 10
11.457586278
 20
11.5323358457
 30
0.0
 10
11.4505903018
 20
11.5281255656
 30
0.0
 10
11.4442048613
 20
11.5238023178
 30
0.0
 10
11.4384448346
 20
11.5193760064
 30
0.0
 10
11.4333238223
 20
11.514856235
 30
0.0
 10
11.4288539836
 20
11.5102526557
 30
0.0
 10
11.4250463444
 20
11.5055747158
 30
0.0
 10
11.421911367
 20
11.5008316205
 30
0.0
 10
11.4194585761
 20
11.4960333204
 30
0.0
 10
11.4176974902
 20
11.491189878
 30
0.0
 10
11.4166368664
 20
11.4863154718
 30
0.0
 10
11.4163997968
 20
11.4830424083
 30
0.0
 10
11.4163997968
 20
11.4814228276
 30
0.0
  0
LINE
  5
303
100
AcDbEntity
  8
0
100
AcDbLine
 62
9
  6
CONTINUOUS
 10
10.7723763848
 20
4.8161942517
 11
10.7731510414
 21
4.816185477
  0
SPLINE
  5
304
100
AcDbEntity
  8
0
100
AcDbSpline
 62
9
  6
CONTINUOUS
 70
0
 71
3
 72
14
 73
10
 74
0
 42
0.0000001
 43
0.0000001
 44
0.0000000001
 40
0.0
 40
0.0
 40
0.0
 40
0.0
 40
0.0546235427
 40
0.1286746287
 40
0.2222712015
 40
0.3356927502
 40
0.4693856443
 40
0.6239954115
 40
1.0
 40
1.0
 40
1.0
 40
1.0
 10
10.7731510414
 20
4.816185477
 30
0.0
 10
10.7734227226
 20
4.8161822939
 30
0.0
 10
10.7740627206
 20
4.8161725199
 30
0.0
 10
10.7751673812
 20
4.8161215158
 30
0.0
 10
10.7765607144
 20
4.8160015933
 30
0.0
 10
10.7782414993
 20
4.815780306
 30
0.0
 10
10.780209077
 20
4.815426652
 30
0.0
 10
10.7834258773
 20
4.8146654915
 30
0.0
 10
10.7859327103
 20
4.8138104857
 30
0.0
 10
10.7876660269
 20
4.8131079922
 30
0.0
  0
SPLINE
  5
305
100
AcDbEntity
  8
0
100
AcDbSpline
 62
9
  6
CONTINUOUS
 70
0
 71
3
 72
68
 73
64
 74
0
 42
0.0000001
 43
0.0000001
 44
0.0000000001
 40
0.0
 40
0.0
 40
0.0
 40
0.0
 40
0.0487558291
 40
0.0731010676
 40
0.0974008081
 40
0.1458048606
 40
0.19385701
 40
0.2414446686
 40
0.2884549362
 40
0.3803102093
 40
0.4685835032
 40
0.5111234969
 40
0.5524675207
 40
0.5925191395
 40
0.6311837771
 40
0.6683693253
 40
0.7039859584
 40
0.7379460762
 40
0.7701639092
 40
0.8005567385
 40
0.8290457595
 40
0.8555567576
 40
0.8800209282
 40
0.9023717427
 40
0.9127334497
 40
0.9225415381
 40
0.9317897374
 40
0.9404728481
 40
0.9485856811
 40
0.9561226902
 40
0.963077801
 40
0.9694448854
 40
0.9752183679
 40
0.9803947588
 40
0.9849710541
 40
0.9870332283
 40
0.9889443065
 40
0.9907040433
 40
0.9923122
 40
0.9937685389
 40
0.995072824
 40
0.9962248214
 40
0.997224296
 40
0.9976667485
 40
0.9980709554
 40
0.9984368742
 40
0.9987644624
 40
0.9990536766
 40
0.9993044733
 40
0.9995168087
 40
0.9996085396
 40
0.9996906384
 40
0.9997630997
 40
0.9998259177
 40
0.9998790868
 40
0.9999226014
 40
0.9999564558
 40
0.9999697586
 40
0.9999806441
 40
0.9999891118
 40
0.9999951608
 40
0.9999987905
 40
1.0
 40
1.0
 40
1.0
 40
1.0
 10
11.7051923427
 20
4.7866759173
 30
0.0
 10
11.7195670184
 20
4.7866759374
 30
0.0
 10
11.7411200395
 20
4.7868710429
 30
0.0
 10
11.7698297638
 20
4.7875144684
 30
0.0
 10
11.7984290542
 20
4.7884096052
 30
0.0
 10
11.8339984419
 20
4.789986983
 30
0.0
 10
11.8763897097
 20
4.7925757142
 30
0.0
 10
11.9183252035
 20
4.7957989669
 30
0.0
 10
11.9730692667
 20
4.8008174039
 30
0.0
 10
12.0396282111
 20
4.8082696216
 30
0.0
 10
12.104695734
 20
4.8170232995
 30
0.0
 10
12.1549034095
 20
4.824474555
 30
0.0
 10
12.1910035337
 20
4.8301292227
 30
0.0
 10
12.2259347422
 20
4.8358564816
 30
0.0
 10
12.2596213032
 20
4.8415929869
 30
0.0
 10
12.291987882
 20
4.8472886747
 30
0.0
 10
12.3229599192
 20
4.8529033327
 30
0.0
 10
12.3524664142
 20
4.8583894248
 30
0.0
 10
12.380438592
 20
4.8637009764
 30
0.0
 10
12.40681014
 20
4.868794544
 30
0.0
 10
12.4315165817
 20
4.8736362959
 30
0.0
 10
12.4544954852
 20
4.8782037966
 30
0.0
 10
12.4756873218
 20
4.8824787841
 30
0.0
 10
12.4922012733
 20
4.885864306
 30
0.0
 10
12.5044804072
 20
4.8883907315
 30
0.0
 10
12.5129764505
 20
4.890135283
 30
0.0
 10
12.520987988
 20
4.8917789228
 30
0.0
 10
12.528509155
 20
4.8933258011
 30
0.0
 10
12.5355342176
 20
4.8947804469
 30
0.0
 10
12.5420580036
 20
4.8961432938
 30
0.0
 10
12.5480767408
 20
4.8974067335
 30
0.0
 10
12.5535863895
 20
4.8985644942
 30
0.0
 10
12.5585837579
 20
4.8996099727
 30
0.0
 10
12.5630648234
 20
4.9005450004
 30
0.0
 10
12.5664747524
 20
4.9012565338
 30
0.0
 10
12.568941946
 20
4.9017729582
 30
0.0
 10
12.5705961223
 20
4.9021203317
 30
0.0
 10
12.572119035
 20
4.9024414457
 30
0.0
 10
12.5735104484
 20
4.9027363802
 30
0.0
 10
12.5747701322
 20
4.9030051991
 30
0.0
 10
12.5758978525
 20
4.9032479836
 30
0.0
 10
12.5768933878
 20
4.9034647524
 30
0.0
 10
12.5776401019
 20
4.9036299455
 30
0.0
 10
12.578171201
 20
4.9037490739
 30
0.0
 10
12.5785198943
 20
4.9038279561
 30
0.0
 10
12.5788354255
 20
4.9038999446
 30
0.0
 10
12.5791177845
 20
4.9039649075
 30
0.0
 10
12.5793669614
 20
4.9040227141
 30
0.0
 10
12.579582946
 20
4.9040732338
 30
0.0
 10
12.5797421693
 20
4.90411078
 30
0.0
 10
12.579852946
 20
4.9041370677
 30
0.0
 10
12.5799235826
 20
4.904153897
 30
0.0
 10
12.5799859142
 20
4.9041688072
 30
0.0
 10
12.5800399373
 20
4.9041817789
 30
0.0
 10
12.5800856572
 20
4.9041928047
 30
0.0
 10
12.5801230541
 20
4.9042018429
 30
0.0
 10
12.5801490543
 20
4.9042081837
 30
0.0
 10
12.5801656464
 20
4.9042121852
 30
0.0
 10
12.5801750726
 20
4.9042145677
 30
0.0
 10
12.5801821607
 20
4.9042160855
 30
0.0
 10
12.5801877814
 20
4.904217944
 30
0.0
 10
12.5801901563
 20
4.9042176764
 30
0.0
 10
12.5801923117
 20
4.904219081
 30
0.0
 10
12.5801923427
 20
4.9042187257
 30
0.0
  0
SPLINE
  5
306
100
AcDbEntity
  8
0
100
AcDbSpline
 62
9
  6
CONTINUOUS
 70
0
 71
3
 72
35
 73
31
 74
0
 42
0.0000001
 43
0.0000001
 44
0.0000000001
 40
0.0
 40
0.0
 40
0.0
 40
0.0
 40
0.0000600809
 40
0.0002424867
 40
0.0005472286
 40
0.0009743167
 40
0.0015237614
 40
0.0021955736
 40
0.003906345
 40
0.0061067239
 40
0.0087968093
 40
0.0119767053
 40
0.0156465221
 40
0.0244563822
 40
0.0352273854
 40
0.047960615
 40
0.0626572441
 40
0.0793185359
 40
0.0979458435
 40
0.1185406026
 40
0.1411020681
 40
0.1921005325
 40
0.2508932883
 40
0.3174399954
 40
0.3917095282
 40
0.4736804179
 40
0.5633513605
 40
0.6607575903
 40
0.7659535527
 40
1.0
 40
1.0
 40
1.0
 40
1.0
 10
10.7908893643
 20
4.8425804615
 30
0.0
 10
10.790888898
 20
4.8425802328
 30
0.0
 10
10.7908934118
 20
4.842580776
 30
0.0
 10
10.7908957903
 20
4.8425802498
 30
0.0
 10
10.790905039
 20
4.8425805578
 30
0.0
 10
10.7909155188
 20
4.8425804247
 30
0.0
 10
10.7909299986
 20
4.8425804678
 30
0.0
 10
10.7909552336
 20
4.8425804067
 30
0.0
 10
10.7909949221
 20
4.8425803113
 30
0.0
 10
10.7910519529
 20
4.8425800402
 30
0.0
 10
10.7911217253
 20
4.8425795902
 30
0.0
 10
10.7912041832
 20
4.8425788984
 30
0.0
 10
10.7913395434
 20
4.842577506
 30
0.0
 10
10.7915405104
 20
4.8425748267
 30
0.0
 10
10.7918198023
 20
4.8425700319
 30
0.0
 10
10.7921499487
 20
4.8425630877
 30
0.0
 10
10.7925309676
 20
4.8425535964
 30
0.0
 10
10.7929628758
 20
4.8425411602
 30
0.0
 10
10.7934456902
 20
4.8425253755
 30
0.0
 10
10.7939794091
 20
4.8425058674
 30
0.0
 10
10.7947926405
 20
4.8424728562
 30
0.0
 10
10.795935409
 20
4.8424172393
 30
0.0
 10
10.7974568764
 20
4.8423233265
 30
0.0
 10
10.7991773842
 20
4.8421915808
 30
0.0
 10
10.8010950756
 20
4.8420137276
 30
0.0
 10
10.8032081975
 20
4.8417816069
 30
0.0
 10
10.8055152457
 20
4.8414864148
 30
0.0
 10
10.8080147622
 20
4.8411169417
 30
0.0
 10
10.8117367114
 20
4.8404880853
 30
0.0
 10
10.8146115315
 20
4.8399027761
 30
0.0
 10
10.8165849756
 20
4.8394570147
 30
0.0
  0
SPLINE
  5
307
100
AcDbEntity
  8
0
100
AcDbSpline
 62
9
  6
CONTINUOUS
 70
0
 71
3
 72
67
 73
63
 74
0
 42
0.0000001
 43
0.0000001
 44
0.0000000001
 40
0.0
 40
0.0
 40
0.0
 40
0.0
 40
0.0000012035
 40
0.0000048164
 40
0.0000108388
 40
0.0000192707
 40
0.000030112
 40
0.0000433628
 40
0.0000770931
 40
0.0001204616
 40
0.0001734686
 40
0.0002361143
 40
0.0003083986
 40
0.000390322
 40
0.0004818844
 40
0.0006939274
 40
0.0009445288
 40
0.0012336716
 40
0.0015612905
 40
0.0019273122
 40
0.0023316635
 40
0.0027742711
 40
0.0037739626
 40
0.004925801
 40
0.0062292012
 40
0.0076835779
 40
0.0092883826
 40
0.0110434439
 40
0.0129488137
 40
0.0150045466
 40
0.0195673197
 40
0.0247321181
 40
0.0304960583
 40
0.0368519857
 40
0.043792455
 40
0.0513106217
 40
0.0594023834
 40
0.0680644216
 40
0.0772933447
 40
0.0870838345
 40
0.0974285074
 40
0.1197498485
 40
0.144183558
 40
0.1706460403
 40
0.199077981
 40
0.2294252936
 40
0.2616062444
 40
0.2955316731
 40
0.3311111839
 40
0.3682598748
 40
0.4469326353
 40
0.5308094743
 40
0.6191174129
 40
0.6646856996
 40
0.7110578516
 40
0.7581275611
 40
0.8057865561
 40
0.8539191562
 40
0.9024106195
 40
0.9267563769
 40
0.9511487135
 40
1.0
 40
1.0
 40
1.0
 40
1.0
 10
10.8077142133
 20
4.8682217505
 30
0.0
 10
10.8077141588
 20
4.8682221102
 30
0.0
 10
10.8077165832
 20
4.8682207473
 30
0.0
 10
10.8077188205
 20
4.8682210829
 30
0.0
 10
10.8077247127
 20
4.8682193525
 30
0.0
 10
10.8077319461
 20
4.8682180036
 30
0.0
 10
10.8077416543
 20
4.8682158368
 30
0.0
 10
10.8077587008
 20
4.8682122092
 30
0.0
 10
10.8077854361
 20
4.8682064337
 30
0.0
 10
10.80782388
 20
4.8681981741
 30
0.0
 10
10.807870888
 20
4.868188056
 30
0.0
 10
10.8079264364
 20
4.8681761046
 30
0.0
 10
10.8079905339
 20
4.868162311
 30
0.0
 10
10.8080631776
 20
4.8681466781
 30
0.0
 10
10.8081771307
 20
4.8681221541
 30
0.0
 10
10.8083409405
 20
4.8680868989
 30
0.0
 10
10.8085631497
 20
4.8680390721
 30
0.0
 10
10.8088195204
 20
4.867983894
 30
0.0
 10
10.8091100123
 20
4.8679214
 30
0.0
 10
10.8094345675
 20
4.8678516262
 30
0.0
 10
10.8097931261
 20
4.8677746101
 30
0.0
 10
10.8103390229
 20
4.8676574747
 30
0.0
 10
10.8111059474
 20
4.8674932033
 30
0.0
 10
10.8121274696
 20
4.8672749605
 30
0.0
 10
10.8132835689
 20
4.8670286521
 30
0.0
 10
10.8145737759
 20
4.8667545705
 30
0.0
 10
10.81599775
 20
4.8664530133
 30
0.0
 10
10.8175552857
 20
4.866123989
 30
0.0
 10
10.8192463381
 20
4.8657673799
 30
0.0
 10
10.821768146
 20
4.8652362285
 30
0.0
 10
10.8252544447
 20
4.8645028337
 30
0.0
 10
10.8298378952
 20
4.8635387025
 30
0.0
 10
10.8349519439
 20
4.8624632585
 30
0.0
 10
10.8405918289
 20
4.8612795456
 30
0.0
 10
10.8467515328
 20
4.8599904652
 30
0.0
 10
10.8534259682
 20
4.8585988684
 30
0.0
 10
10.8606109877
 20
4.8571060136
 30
0.0
 10
10.8683034737
 20
4.8555129817
 30
0.0
 10
10.8764999198
 20
4.85382079
 30
0.0
 10
10.8851957589
 20
4.8520313967
 30
0.0
 10
10.8977707675
 20
4.849453911
 30
0.0
 10
10.9146873689
 20
4.8460093382
 30
0.0
 10
10.9363886208
 20
4.841639426
 30
0.0
 10
10.9599139031
 20
4.8369692029
 30
0.0
 10
10.9852073046
 20
4.8320239287
 30
0.0
 10
11.0122131728
 20
4.8268275383
 30
0.0
 10
11.0408695345
 20
4.8214194695
 30
0.0
 10
11.0711034256
 20
4.8158414438
 30
0.0
 10
11.1028408727
 20
4.8101362613
 30
0.0
 10
11.1479351191
 20
4.8022698299
 30
0.0
 10
11.2075054094
 20
4.7924190449
 30
0.0
 10
11.2825097804
 20
4.7811365044
 30
0.0
 10
11.3477853106
 20
4.7725241278
 30
0.0
 10
11.4019256886
 20
4.7662909822
 30
0.0
 10
11.443735582
 20
4.7619954977
 30
0.0
 10
11.4862289401
 20
4.7582027656
 30
0.0
 10
11.5293038678
 20
4.7549870698
 30
0.0
 10
11.5728523136
 20
4.7524074031
 30
0.0
 10
11.6093947757
 20
4.7508356708
 30
0.0
 10
11.6387783158
 20
4.7499447782
 30
0.0
 10
11.6682771376
 20
4.7493050415
 30
0.0
 10
11.6904224805
 20
4.749111441
 30
0.0
 10
11.7051923427
 20
4.7491113907
 30
0.0
  0
SPLINE
  5
308
100
AcDbEntity
  8
0
100
AcDbSpline
 62
9
  6
CONTINUOUS
 70
0
 71
3
 72
14
 73
10
 74
0
 42
0.0000001
 43
0.0000001
 44
0.0000000001
 40
0.0
 40
0.0
 40
0.0
 40
0.0
 40
0.2752130269
 40
0.4047280323
 40
0.5296454083
 40
0.650733425
 40
0.7688577638
 40
0.8849543622
 40
1.0
 40
1.0
 40
1.0
 40
1.0
 10
11.3872504167
 20
11.5397738391
 30
0.0
 10
11.3852563044
 20
11.5421750899
 30
0.0
 10
11.3825346316
 20
11.5458968707
 30
0.0
 10
11.3795768187
 20
11.5511309821
 30
0.0
 10
11.3777926885
 20
11.5550041789
 30
0.0
 10
11.376401617
 20
11.5588985768
 30
0.0
 10
11.3754059175
 20
11.5628098167
 30
0.0
 10
11.3748077856
 20
11.5667318354
 30
0.0
 10
11.3746744362
 20
11.5693552052
 30
0.0
 10
11.3746744362
 20
11.5706599818
 30
0.0
  0
SPLINE
  5
309
100
AcDbEntity
  8
0
100
AcDbSpline
 62
9
  6
CONTINUOUS
 70
0
 71
3
 72
34
 73
30
 74
0
 42
0.0000001
 43
0.0000001
 44
0.0000000001
 40
0.0
 40
0.0
 40
0.0
 40
0.0
 40
0.0425052679
 40
0.0849446872
 40
0.1272433547
 40
0.1693346163
 40
0.2111501348
 40
0.2526198373
 40
0.2936724168
 40
0.3342387988
 40
0.3742513621
 40
0.4136415498
 40
0.4902808272
 40
0.563634406
 40
0.6331927727
 40
0.6663876156
 40
0.6984513275
 40
0.7589811067
 40
0.8143234793
 40
0.8399034719
 40
0.8640311151
 40
0.8866737587
 40
0.9077935618
 40
0.9273474
 40
0.9452716124
 40
0.9615049832
 40
0.9760437419
 40
0.9888922136
 40
1.0
 40
1.0
 40
1.0
 40
1.0
 10
11.7051923353
 20
4.6794610242
 30
0.0
 10
11.718358364
 20
4.6794610926
 30
0.0
 10
11.7446705546
 20
4.6796812284
 30
0.0
 10
11.7840736165
 20
4.6806677247
 30
0.0
 10
11.8233271077
 20
4.682294757
 30
0.0
 10
11.8623566608
 20
4.6845347009
 30
0.0
 10
11.9010914146
 20
4.6873489798
 30
0.0
 10
11.9394607566
 20
4.6906951367
 30
0.0
 10
11.977395489
 20
4.694528289
 30
0.0
 10
12.0148293358
 20
4.6987963226
 30
0.0
 10
12.0516992695
 20
4.7034407966
 30
0.0
 10
12.0995866756
 20
4.7100025495
 30
0.0
 10
12.1575839971
 20
4.7188291827
 30
0.0
 10
12.2246408927
 20
4.7301657532
 30
0.0
 10
12.2783014107
 20
4.7399800365
 30
0.0
 10
12.3193144781
 20
4.7478416888
 30
0.0
 10
12.3575439071
 20
4.7553674225
 30
0.0
 10
12.4024482756
 20
4.7645003365
 30
0.0
 10
12.445321396
 20
4.7735373234
 30
0.0
 10
12.4771292551
 20
4.7803979476
 30
0.0
 10
12.4990234387
 20
4.7851810285
 30
0.0
 10
12.5195584427
 20
4.7897123182
 30
0.0
 10
12.5387022361
 20
4.7939732994
 30
0.0
 10
12.5564133993
 20
4.7979436144
 30
0.0
 10
12.5726415651
 20
4.8016098722
 30
0.0
 10
12.5873473949
 20
4.8049650752
 30
0.0
 10
12.6005158428
 20
4.8079904274
 30
0.0
 10
12.6121362008
 20
4.8106635343
 30
0.0
 10
12.619366722
 20
4.8123317276
 30
0.0
 10
12.6227186585
 20
4.8131079639
 30
0.0
  0
SPLINE
  5
30A
100
AcDbEntity
  8
0
100
AcDbSpline
 62
9
  6
CONTINUOUS
 70
0
 71
3
 72
34
 73
30
 74
0
 42
0.0000001
 43
0.0000001
 44
0.0000000001
 40
0.0
 40
0.0
 40
0.0
 40
0.0
 40
0.0111070889
 40
0.0239554649
 40
0.0384945979
 40
0.054728351
 40
0.0726525103
 40
0.0922062688
 40
0.1133263769
 40
0.1359692511
 40
0.1600967335
 40
0.1856765481
 40
0.2410189416
 40
0.3015487847
 40
0.3336125103
 40
0.3668073744
 40
0.4363654277
 40
0.509718912
 40
0.5863584127
 40
0.6257485109
 40
0.6657609794
 40
0.7063273774
 40
0.7473800188
 40
0.7888497366
 40
0.8306652718
 40
0.8727565606
 40
0.9150552546
 40
0.9574947172
 40
1.0
 40
1.0
 40
1.0
 40
1.0
 10
10.7876660269
 20
4.8131079326
 30
0.0
 10
10.7910177241
 20
4.8123316207
 30
0.0
 10
10.7982479816
 20
4.8106633777
 30
0.0
 10
10.8098682204
 20
4.807990333
 30
0.0
 10
10.8230368928
 20
4.8049650453
 30
0.0
 10
10.837742956
 20
4.8016098877
 30
0.0
 10
10.8539711857
 20
4.7979435644
 30
0.0
 10
10.8716823931
 20
4.7939732043
 30
0.0
 10
10.890826352
 20
4.7897123189
 30
0.0
 10
10.9113614841
 20
4.7851810738
 30
0.0
 10
10.9332556188
 20
4.7803979293
 30
0.0
 10
10.9650633658
 20
4.7735372556
 30
0.0
 10
11.007936468
 20
4.7645003276
 30
0.0
 10
11.0528408692
 20
4.7553674273
 30
0.0
 10
11.0910703342
 20
4.7478417231
 30
0.0
 10
11.1320833245
 20
4.7399801336
 30
0.0
 10
11.1857436869
 20
4.7301656781
 30
0.0
 10
11.2528005158
 20
4.7188290479
 30
0.0
 10
11.3107979015
 20
4.7100027722
 30
0.0
 10
11.3586853008
 20
4.7034408973
 30
0.0
 10
11.3955551702
 20
4.6987963345
 30
0.0
 10
11.432989013
 20
4.6945283171
 30
0.0
 10
11.4709237786
 20
4.6906952202
 30
0.0
 10
11.509293141
 20
4.687348977
 30
0.0
 10
11.5480279129
 20
4.6845346984
 30
0.0
 10
11.5870574887
 20
4.6822947935
 30
0.0
 10
11.6263110069
 20
4.6806677145
 30
0.0
 10
11.6657140944
 20
4.67968122
 30
0.0
 10
11.6920263023
 20
4.6794610953
 30
0.0
 10
11.7051923353
 20
4.6794610242
 30
0.0
  0
SPLINE
  5
30B
100
AcDbEntity
  8
0
100
AcDbSpline
 62
9
  6
CONTINUOUS
 70
0
 71
3
 72
11
 73
7
 74
0
 42
0.0000001
 43
0.0000001
 44
0.0000000001
 40
0.0
 40
0.0
 40
0.0
 40
0.0
 40
0.2497174615
 40
0.4996115486
 40
0.7497241752
 40
1.0
 40
1.0
 40
1.0
 40
1.0
 10
9.7878944632
 20
7.0888924152
 30
0.0
 10
9.7864076547
 20
7.0873814737
 30
0.0
 10
9.7832954586
 20
7.0844905857
 30
0.0
 10
9.7782632155
 20
7.0805816933
 30
0.0
 10
9.7729078482
 20
7.0771204447
 30
0.0
 10
9.769151747
 20
7.0751239374
 30
0.0
 10
9.7672348731
 20
7.0742078286
 30
0.0
  0
SPLINE
  5
30C
100
AcDbEntity
  8
0
100
AcDbSpline
 62
9
  6
CONTINUOUS
 70
0
 71
3
 72
32
 73
28
 74
0
 42
0.0000001
 43
0.0000001
 44
0.0000000001
 40
0.0
 40
0.0
 40
0.0
 40
0.0
 40
0.0003948227
 40
0.0012933892
 40
0.0027443905
 40
0.0047561794
 40
0.0073311683
 40
0.0104700709
 40
0.0141725735
 40
0.0184371883
 40
0.0286453247
 40
0.0410787971
 40
0.0557177018
 40
0.072534361
 40
0.0914998769
 40
0.1125815583
 40
0.1357400741
 40
0.1609352837
 40
0.2172526915
 40
0.2811317693
 40
0.3521159427
 40
0.4296996485
 40
0.5133289047
 40
0.6024074285
 40
0.6962976737
 40
0.794326266
 40
1.0
 40
1.0
 40
1.0
 40
1.0
 10
9.8034332577
 20
7.0616823191
 30
0.0
 10
9.8034296503
 20
7.0616803186
 30
0.0
 10
9.8034152962
 20
7.0616896689
 30
0.0
 10
9.8033973919
 20
7.0617085282
 30
0.0
 10
9.8033672513
 20
7.061744636
 30
0.0
 10
9.803330076
 20
7.061794846
 30
0.0
 10
9.8032834983
 20
7.0618610638
 30
0.0
 10
9.8032286152
 20
7.0619426127
 30
0.0
 10
9.8031651141
 20
7.0620397618
 30
0.0
 10
9.8030628648
 20
7.062199756
 30
0.0
 10
9.8029142939
 20
7.0624384076
 30
0.0
 10
9.8027114505
 20
7.0627709069
 30
0.0
 10
9.8024751089
 20
7.063163841
 30
0.0
 10
9.8022057544
 20
7.0636165458
 30
0.0
 10
9.8019039215
 20
7.064128246
 30
0.0
 10
9.8015701839
 20
7.0646980471
 30
0.0
 10
9.8012051214
 20
7.0653249252
 30
0.0
 10
9.8006567873
 20
7.0662710708
 30
0.0
 10
9.7998987238
 20
7.0675873753
 30
0.0
 10
9.7989065351
 20
7.0693208782
 30
0.0
 10
9.7978080975
 20
7.0712495613
 30
0.0
 10
9.7966112618
 20
7.0733596576
 30
0.0
 10
9.7953245819
 20
7.0756361236
 30
0.0
 10
9.7939572574
 20
7.0780626977
 30
0.0
 10
9.7925190764
 20
7.0806220195
 30
0.0
 10
9.7904880099
 20
7.0842454577
 30
0.0
 10
9.7889407119
 20
7.0870155504
 30
0.0
 10
9.787894463
 20
7.0888924156
 30
0.0
  0
SPLINE
  5
30D
100
AcDbEntity
  8
0
100
AcDbSpline
 62
9
  6
CONTINUOUS
 70
0
 71
3
 72
21
 73
17
 74
0
 42
0.0000001
 43
0.0000001
 44
0.0000000001
 40
0.0
 40
0.0
 40
0.0
 40
0.0
 40
0.0443794625
 40
0.0928425185
 40
0.1450060083
 40
0.2005195002
 40
0.2589622942
 40
0.3198984309
 40
0.3829534115
 40
0.4477801372
 40
0.5140792503
 40
0.5815727603
 40
0.6500242262
 40
0.7192157951
 40
0.8591162901
 40
1.0
 40
1.0
 40
1.0
 40
1.0
 10
9.7672211281
 20
7.043680825
 30
0.0
 10
9.7666265071
 20
7.0434178724
 30
0.0
 10
9.7653575587
 20
7.0429240046
 30
0.0
 10
9.7633343036
 20
7.0422740527
 30
0.0
 10
9.7611283974
 20
7.0416667807
 30
0.0
 10
9.7587647955
 20
7.0410861947
 30
0.0
 10
9.7562660573
 20
7.0405190857
 30
0.0
 10
9.7536540488
 20
7.0399527211
 30
0.0
 10
9.750948505
 20
7.0393765324
 30
0.0
 10
9.7481670365
 20
7.0387796523
 30
0.0
 10
9.7453251677
 20
7.0381544075
 30
0.0
 10
9.742437091
 20
7.0374924755
 30
0.0
 10
9.7395151086
 20
7.036789446
 30
0.0
 10
9.7355744827
 20
7.0357868526
 30
0.0
 10
9.730632971
 20
7.0344164826
 30
0.0
 10
9.7267043467
 20
7.0331944148
 30
0.0
 10
9.7247430265
 20
7.0325516003
 30
0.0
  0
SPLINE
  5
30E
100
AcDbEntity
  8
0
100
AcDbSpline
 62
9
  6
CONTINUOUS
 70
0
 71
3
 72
69
 73
65
 74
0
 42
0.0000001
 43
0.0000001
 44
0.0000000001
 40
0.0
 40
0.0
 40
0.0
 40
0.0
 40
0.0000012206
 40
0.0000048612
 40
0.0000109211
 40
0.0000193995
 40
0.0000302957
 40
0.0000436091
 40
0.0000774843
 40
0.0001210194
 40
0.0001742088
 40
0.0002370469
 40
0.000309528
 40
0.0004833969
 40
0.0006957711
 40
0.0009466067
 40
0.0012358599
 40
0.0015634874
 40
0.0019294464
 40
0.0023336944
 40
0.0027761893
 40
0.0037757531
 40
0.0049278453
 40
0.0062322281
 40
0.0076886651
 40
0.0092969174
 40
0.011056745
 40
0.0129679067
 40
0.0150301547
 40
0.0196065716
 40
0.0247830598
 40
0.0305566277
 40
0.0369237995
 40
0.0438790066
 40
0.0514161217
 40
0.0595290704
 40
0.0682122972
 40
0.0774606001
 40
0.0872687665
 40
0.097630525
 40
0.1085375777
 40
0.1199814068
 40
0.1444456393
 40
0.1709566681
 40
0.1994456675
 40
0.2298384472
 40
0.2620562174
 40
0.2960162539
 40
0.3316327824
 40
0.368818199
 40
0.4074826768
 40
0.4475341124
 40
0.488877935
 40
0.5314177077
 40
0.6196905117
 40
0.6652227298
 40
0.7115469698
 40
0.7585569439
 40
0.8061443075
 40
0.854196142
 40
0.9025998772
 40
0.9268994494
 40
0.9512445128
 40
1.0
 40
1.0
 40
1.0
 40
1.0
 10
10.8301923428
 20
4.9042187254
 30
0.0
 10
10.8301926644
 20
4.9042188868
 30
0.0
 10
10.8301941279
 20
4.9042179615
 30
0.0
 10
10.8301971886
 20
4.9042177662
 30
0.0
 10
10.8302024344
 20
4.9042161745
 30
0.0
 10
10.830209703
 20
4.9042145416
 30
0.0
 10
10.8302190736
 20
4.9042122071
 30
0.0
 10
10.8302357109
 20
4.9042081881
 30
0.0
 10
10.8302617077
 20
4.9042018672
 30
0.0
 10
10.8302991342
 20
4.9041928298
 30
0.0
 10
10.8303448712
 20
4.904181814
 30
0.0
 10
10.8303989157
 20
4.9041688499
 30
0.0
 10
10.8304875772
 20
4.9041476612
 30
0.0
 10
10.8306191624
 20
4.9041164077
 30
0.0
 10
10.8308019847
 20
4.9040733238
 30
0.0
 10
10.831018009
 20
4.9040228211
 30
0.0
 10
10.8312672251
 20
4.903965029
 30
0.0
 10
10.8315496231
 20
4.9039000773
 30
0.0
 10
10.8318651928
 20
4.9038280954
 30
0.0
 10
10.8322139243
 20
4.9037492139
 30
0.0
 10
10.8327450748
 20
4.9036300773
 30
0.0
 10
10.833491851
 20
4.9034648502
 30
0.0
 10
10.8344874577
 20
4.9032480107
 30
0.0
 10
10.8356152484
 20
4.9030051369
 30
0.0
 10
10.8368750014
 20
4.9027362201
 30
0.0
 10
10.8382664827
 20
4.9024411897
 30
0.0
 10
10.839789462
 20
4.9021199926
 30
0.0
 10
10.8414437035
 20
4.9017725591
 30
0.0
 10
10.8439109789
 20
4.9012561026
 30
0.0
 10
10.8473210129
 20
4.9005446205
 30
0.0
 10
10.8518022049
 20
4.8996097207
 30
0.0
 10
10.8567996941
 20
4.8985643877
 30
0.0
 10
10.8623094538
 20
4.8974067217
 30
0.0
 10
10.8683282933
 20
4.8961433014
 30
0.0
 10
10.8748521735
 20
4.8947803908
 30
0.0
 10
10.8818773161
 20
4.8933255789
 30
0.0
 10
10.8893985554
 20
4.8917784949
 30
0.0
 10
10.8974101602
 20
4.8901346754
 30
0.0
 10
10.9059062709
 20
4.8883900372
 30
0.0
 10
10.9148807336
 20
4.8865436121
 30
0.0
 10
10.9243284272
 20
4.8846042906
 30
0.0
 10
10.9378518032
 20
4.8818424199
 30
0.0
 10
10.9558914588
 20
4.8782031811
 30
0.0
 10
10.9788704211
 20
4.8736356575
 30
0.0
 10
11.0035769282
 20
4.8687940744
 30
0.0
 10
11.0299485125
 20
4.8637006575
 30
0.0
 10
11.0579206909
 20
4.8583891508
 30
0.0
 10
11.0874271586
 20
4.8529030285
 30
0.0
 10
11.1183991444
 20
4.8472883054
 30
0.0
 10
11.1507656556
 20
4.8415925795
 30
0.0
 10
11.1844521424
 20
4.8358561088
 30
0.0
 10
11.2193832572
 20
4.8301289255
 30
0.0
 10
11.2554832886
 20
4.8244742686
 30
0.0
 10
11.305690668
 20
4.8170230276
 30
0.0
 10
11.3572224623
 20
4.8100906496
 30
0.0
 10
11.4099665401
 20
4.803878746
 30
0.0
 10
11.4506847124
 20
4.7995918003
 30
0.0
 10
11.4920606233
 20
4.7957996334
 30
0.0
 10
11.5339958294
 20
4.7925757149
 30
0.0
 10
11.5763868769
 20
4.7899863861
 30
0.0
 10
11.6119561145
 20
4.7884095484
 30
0.0
 10
11.6405552667
 20
4.7875146595
 30
0.0
 10
11.6692648387
 20
4.7868712556
 30
0.0
 10
11.690817743
 20
4.7866760183
 30
0.0
 10
11.7051923427
 20
4.7866759173
 30
0.0
  0
SPLINE
  5
30F
100
AcDbEntity
  8
0
100
AcDbSpline
 62
9
  6
CONTINUOUS
 70
0
 71
3
 72
37
 73
33
 74
0
 42
0.0000001
 43
0.0000001
 44
0.0000000001
 40
0.0
 40
0.0
 40
0.0
 40
0.0
 40
0.234045436
 40
0.3392395715
 40
0.4366429704
 40
0.5263099111
 40
0.6082755109
 40
0.6825389826
 40
0.7490796768
 40
0.807867346
 40
0.8588625777
 40
0.8814234231
 40
0.9020183656
 40
0.9206466414
 40
0.9373096315
 40
0.9520086336
 40
0.9647448554
 40
0.9755194136
 40
0.9801713953
 40
0.9843333386
 40
0.9880053576
 40
0.9911875606
 40
0.9938800504
 40
0.996082924
 40
0.9977962728
 40
0.9984694025
 40
0.9990201826
 40
0.9994486231
 40
0.9997547333
 40
0.9998619175
 40
0.9999385225
 40
1.0
 40
1.0
 40
1.0
 40
1.0
 10
12.5937998064
 20
4.8394570419
 30
0.0
 10
12.595773233
 20
4.8399028218
 30
0.0
 10
12.5986480286
 20
4.8404881037
 30
0.0
 10
12.6023699317
 20
4.8411168903
 30
0.0
 10
12.604869373
 20
4.8414863228
 30
0.0
 10
12.6071763108
 20
4.8417815102
 30
0.0
 10
12.6092892871
 20
4.8420136955
 30
0.0
 10
12.6112068124
 20
4.8421916672
 30
0.0
 10
12.6129271566
 20
4.8423235555
 30
0.0
 10
12.614448488
 20
4.8424176087
 30
0.0
 10
12.6155911722
 20
4.8424733219
 30
0.0
 10
12.6164043682
 20
4.8425063795
 30
0.0
 10
12.6169380901
 20
4.8425259034
 30
0.0
 10
12.6174209281
 20
4.842541688
 30
0.0
 10
12.6178528794
 20
4.8425541093
 30
0.0
 10
12.6182339593
 20
4.8425635725
 30
0.0
 10
12.6185641831
 20
4.8425704758
 30
0.0
 10
12.6188075949
 20
4.8425746097
 30
0.0
 10
12.6189769066
 20
4.8425769604
 30
0.0
 10
12.6190848307
 20
4.842578245
 30
0.0
 10
12.6191800526
 20
4.8425791896
 30
0.0
 10
12.6192625745
 20
4.8425798447
 30
0.0
 10
12.6193323973
 20
4.8425802583
 30
0.0
 10
12.6193895259
 20
4.8425804863
 30
0.0
 10
12.6194291938
 20
4.8425805545
 30
0.0
 10
12.6194545897
 20
4.8425805721
 30
0.0
 10
12.6194688616
 20
4.8425805347
 30
0.0
 10
12.6194800018
 20
4.8425805768
 30
0.0
 10
12.6194872168
 20
4.8425804196
 30
0.0
 10
12.6194915338
 20
4.84258058
 30
0.0
 10
12.6194935095
 20
4.8425802524
 30
0.0
 10
12.6194949829
 20
4.8425808553
 30
0.0
 10
12.6194953367
 20
4.8425804588
 30
0.0
  0
LINE
  5
310
100
AcDbEntity
  8
0
100
AcDbLine
 62
9
  6
CONTINUOUS
 10
9.365307184
 20
8.8460351748
 11
9.3598830901
 21
8.8581770289
  0
LINE
  5
311
100
AcDbEntity
  8
0
100
AcDbLine
 62
9
  6
CONTINUOUS
 10
9.4089949132
 20
7.0861603061
 11
9.4031498648
 21
7.0742078709
  0
SPLINE
  5
312
100
AcDbEntity
  8
0
100
AcDbSpline
 62
9
  6
CONTINUOUS
 70
0
 71
3
 72
27
 73
23
 74
0
 42
0.0000001
 43
0.0000001
 44
0.0000000001
 40
0.0
 40
0.0
 40
0.0
 40
0.0
 40
0.0853992029
 40
0.1701892659
 40
0.2537788744
 40
0.3355861859
 40
0.4150626922
 40
0.49168041
 40
0.564937797
 40
0.634347722
 40
0.6994305149
 40
0.7597724755
 40
0.8149289065
 40
0.8644657418
 40
0.8870281861
 40
0.9080754326
 40
0.9275672802
 40
0.9454332567
 40
0.9616120128
 40
0.9761062342
 40
0.9889197834
 40
1.0
 40
1.0
 40
1.0
 40
1.0
 10
11.7051923427
 20
4.7140527925
 30
0.0
 10
11.7307917218
 20
4.7140528262
 30
0.0
 10
11.7818117529
 20
4.7148803896
 30
0.0
 10
11.8578083973
 20
4.7185350838
 30
0.0
 10
11.9325901554
 20
4.7243356228
 30
0.0
 10
12.0056047646
 20
4.7319545369
 30
0.0
 10
12.0763511842
 20
4.7409729512
 30
0.0
 10
12.1443728665
 20
4.7509831955
 30
0.0
 10
12.2092458117
 20
4.7615969978
 30
0.0
 10
12.2705678523
 20
4.7724609228
 30
0.0
 10
12.3279621653
 20
4.7832783343
 30
0.0
 10
12.3810687821
 20
4.79376348
 30
0.0
 10
12.4295340846
 20
4.8036905744
 30
0.0
 10
12.4668579521
 20
4.8115700701
 30
0.0
 10
12.4941573889
 20
4.8174321812
 30
0.0
 10
12.5126434205
 20
4.8214396074
 30
0.0
 10
12.5297475008
 20
4.825176734
 30
0.0
 10
12.5454199411
 20
4.8286292022
 30
0.0
 10
12.559623458
 20
4.831786064
 30
0.0
 10
12.5723445717
 20
4.8346320515
 30
0.0
 10
12.5835726135
 20
4.8371514817
 30
0.0
 10
12.5905600091
 20
4.8387252309
 30
0.0
 10
12.5937998064
 20
4.8394570419
 30
0.0
  0
LINE
  5
313
100
AcDbEntity
  8
0
100
AcDbLine
 62
9
  6
CONTINUOUS
 10
9.4456418746
 20
7.032551624
 11
9.4401923427
 21
7.015864513
  0
SPLINE
  5
314
100
AcDbEntity
  8
0
100
AcDbSpline
 62
9
  6
CONTINUOUS
 70
0
 71
3
 72
16
 73
12
 74
0
 42
0.0000001
 43
0.0000001
 44
0.0000000001
 40
0.0
 40
0.0
 40
0.0
 40
0.0
 40
0.1194704332
 40
0.2396542639
 40
0.3611890947
 40
0.4845740563
 40
0.6101259619
 40
0.7379581313
 40
0.8027454075
 40
0.8680629221
 40
1.0
 40
1.0
 40
1.0
 40
1.0
 10
9.4031633685
 20
7.0436798369
 30
0.0
 10
9.4039719523
 20
7.0433221905
 30
0.0
 10
9.4055363094
 20
7.0424655529
 30
0.0
 10
9.4076418711
 20
7.0407997193
 30
0.0
 10
9.409464626
 20
7.0387887498
 30
0.0
 10
9.4109631578
 20
7.0364791443
 30
0.0
 10
9.4121049005
 20
7.0339236458
 30
0.0
 10
9.4127360378
 20
7.0316456552
 30
0.0
 10
9.4130447166
 20
7.029760466
 30
0.0
 10
9.4132215461
 20
7.0278280743
 30
0.0
 10
9.413200771
 20
7.0263622918
 30
0.0
 10
9.4131208458
 20
7.0253891598
 30
0.0
  0
LINE
  5
315
100
AcDbEntity
  8
0
100
AcDbLine
 62
9
  6
CONTINUOUS
 10
9.3868940001
 20
7.1201438225
 11
9.3735888743
 21
7.1200875188
  0
SPLINE
  5
316
100
AcDbEntity
  8
0
100
AcDbSpline
 62
9
  6
CONTINUOUS
 70
0
 71
3
 72
16
 73
12
 74
0
 42
0.0000001
 43
0.0000001
 44
0.0000000001
 40
0.0
 40
0.0
 40
0.0
 40
0.0
 40
0.0276166636
 40
0.0609047976
 40
0.0997394427
 40
0.1439581977
 40
0.2477745136
 40
0.3704881163
 40
0.5098198357
 40
0.6631417693
 40
1.0
 40
1.0
 40
1.0
 40
1.0
 10
9.3912456083
 20
7.1038562441
 30
0.0
 10
9.3911419544
 20
7.1037585385
 30
0.0
 10
9.3909056262
 20
7.1035512842
 30
0.0
 10
9.3905047079
 20
7.1032287868
 30
0.0
 10
9.390025607
 20
7.1028673207
 30
0.0
 10
9.389242621
 20
7.1023051092
 30
0.0
 10
9.3880851163
 20
7.1015233651
 30
0.0
 10
9.3864958032
 20
7.1005057185
 30
0.0
 10
9.3846700658
 20
7.0993844737
 30
0.0
 10
9.3818777229
 20
7.0977273054
 30
0.0
 10
9.3796782799
 20
7.0964797416
 30
0.0
 10
9.3781584916
 20
7.09563765
 30
0.0
  0
SPLINE
  5
317
100
AcDbEntity
  8
0
100
AcDbSpline
 62
9
  6
CONTINUOUS
 70
0
 71
3
 72
16
 73
12
 74
0
 42
0.0000001
 43
0.0000001
 44
0.0000000001
 40
0.0
 40
0.0
 40
0.0
 40
0.0
 40
0.0279591226
 40
0.061480018
 40
0.1004673938
 40
0.1447781232
 40
0.2486434904
 40
0.371283733
 40
0.5104633289
 40
0.6635862039
 40
1.0
 40
1.0
 40
1.0
 40
1.0
 10
9.3955821382
 20
7.0971022886
 30
0.0
 10
9.3954446729
 20
7.0970582899
 30
0.0
 10
9.3951467752
 20
7.0969479089
 30
0.0
 10
9.394670829
 20
7.096741481
 30
0.0
 10
9.394127462
 20
7.0964795687
 30
0.0
 10
9.3932702014
 20
7.0960336302
 30
0.0
 10
9.3920543894
 20
7.0953425714
 30
0.0
 10
9.390443517
 20
7.0943578975
 30
0.0
 10
9.3886435269
 20
7.0931962756
 30
0.0
 10
9.3859515645
 20
7.0913828469
 30
0.0
 10
9.3838919968
 20
7.0899174327
 30
0.0
 10
9.3824901898
 20
7.0888922382
 30
0.0
  0
SPLINE
  5
318
100
AcDbEntity
  8
0
100
AcDbSpline
 62
9
  6
CONTINUOUS
 70
0
 71
3
 72
16
 73
12
 74
0
 42
0.0000001
 43
0.0000001
 44
0.0000000001
 40
0.0
 40
0.0
 40
0.0
 40
0.0
 40
0.0276165483
 40
0.0609046986
 40
0.099739439
 40
0.1439583222
 40
0.247774869
 40
0.3704885886
 40
0.5098202894
 40
0.663142096
 40
1.0
 40
1.0
 40
1.0
 40
1.0
 10
9.779138589
 20
7.1038549476
 30
0.0
 10
9.7792422545
 20
7.1037572576
 30
0.0
 10
9.7794786034
 20
7.1035500332
 30
0.0
 10
9.7798795466
 20
7.1032275762
 30
0.0
 10
9.7803586697
 20
7.1028661489
 30
0.0
 10
9.7811416843
 20
7.1023039918
 30
0.0
 10
9.7822992224
 20
7.101522321
 30
0.0
 10
9.7838885795
 20
7.1005047794
 30
0.0
 10
9.7857143738
 20
7.0993836735
 30
0.0
 10
9.788506823
 20
7.0977267603
 30
0.0
 10
9.790706396
 20
7.0964794847
 30
0.0
 10
9.7922263009
 20
7.0956376477
 30
0.0
  0
LINE
  5
319
100
AcDbEntity
  8
0
100
AcDbLine
 62
9
  6
CONTINUOUS
 10
9.7834906863
 20
7.1201438567
 11
9.796795813
 21
7.1200875862
  0
LINE
  5
31A
100
AcDbEntity
  8
0
100
AcDbLine
 62
9
  6
CONTINUOUS
 10
9.8277321464
 20
8.8096570569
 11
9.841037266
 21
8.8096005169
  0
SPLINE
  5
31B
100
AcDbEntity
  8
0
100
AcDbSpline
 62
9
  6
CONTINUOUS
 70
0
 71
3
 72
16
 73
12
 74
0
 42
0.0000001
 43
0.0000001
 44
0.0000000001
 40
0.0
 40
0.0
 40
0.0
 40
0.0
 40
0.0293884217
 40
0.0641444553
 40
0.1041729066
 40
0.1493346706
 40
0.254328614
 40
0.3773273031
 40
0.516098091
 40
0.6680682406
 40
1.0
 40
1.0
 40
1.0
 40
1.0
 10
9.8241488192
 20
8.8262965357
 30
0.0
 10
9.8242564829
 20
8.8264084029
 30
0.0
 10
9.824502201
 20
8.8266422413
 30
0.0
 10
9.8249213482
 20
8.8269991387
 30
0.0
 10
9.8254205027
 20
8.8273897644
 30
0.0
 10
9.8262313124
 20
8.8279833658
 30
0.0
 10
9.827428945
 20
8.8287893813
 30
0.0
 10
9.829073122
 20
8.8298150502
 30
0.0
 10
9.8309582689
 20
8.8309218393
 30
0.0
 10
9.833831054
 20
8.8325248797
 30
0.0
 10
9.8360988113
 20
8.833706545
 30
0.0
 10
9.8376658381
 20
8.8344936736
 30
0.0
  0
SPLINE
  5
31C
100
AcDbEntity
  8
0
100
AcDbSpline
 62
9
  6
CONTINUOUS
 70
0
 71
3
 72
16
 73
12
 74
0
 42
0.0000001
 43
0.0000001
 44
0.0000000001
 40
0.0
 40
0.0
 40
0.0
 40
0.0
 40
0.0288943299
 40
0.0633122584
 40
0.1031182189
 40
0.1481460328
 40
0.2530698791
 40
0.3761779881
 40
0.5151724652
 40
0.6674325687
 40
1.0
 40
1.0
 40
1.0
 40
1.0
 10
9.8197951003
 20
8.8337319965
 30
0.0
 10
9.8199377523
 20
8.8337857599
 30
0.0
 10
9.8202465392
 20
8.8339135989
 30
0.0
 10
9.8207406924
 20
8.8341413953
 30
0.0
 10
9.8213041958
 20
8.8344214301
 30
0.0
 10
9.8221905295
 20
8.8348871186
 30
0.0
 10
9.8234470209
 20
8.835592443
 30
0.0
 10
9.8251123249
 20
8.8365808766
 30
0.0
 10
9.8269711801
 20
8.8377317734
 30
0.0
 10
9.8297428433
 20
8.8395068981
 30
0.0
 10
9.8318692591
 20
8.8409292954
 30
0.0
 10
9.8333174863
 20
8.8419199379
 30
0.0
  0
SPLINE
  5
31D
100
AcDbEntity
  8
0
100
AcDbSpline
 62
9
  6
CONTINUOUS
 70
0
 71
3
 72
16
 73
12
 74
0
 42
0.0000001
 43
0.0000001
 44
0.0000000001
 40
0.0
 40
0.0
 40
0.0
 40
0.0
 40
0.029388297
 40
0.0641443235
 40
0.1041728344
 40
0.1493346842
 40
0.2543287862
 40
0.3773275549
 40
0.5160983257
 40
0.6680683859
 40
1.0
 40
1.0
 40
1.0
 40
1.0
 10
9.3462362935
 20
8.8262976439
 30
0.0
 10
9.3461286221
 20
8.8264095007
 30
0.0
 10
9.34588289
 20
8.8266433184
 30
0.0
 10
9.3454637259
 20
8.827000187
 30
0.0
 10
9.3449645557
 20
8.8273907838
 30
0.0
 10
9.3441537247
 20
8.8279843423
 30
0.0
 10
9.3429560656
 20
8.8287902964
 30
0.0
 10
9.3413118522
 20
8.8298158738
 30
0.0
 10
9.3394266578
 20
8.8309225401
 30
0.0
 10
9.336553784
 20
8.8325253538
 30
0.0
 10
9.3342859228
 20
8.8337067676
 30
0.0
 10
9.3327188035
 20
8.8344936725
 30
0.0
  0
LINE
  5
31E
100
AcDbEntity
  8
0
100
AcDbLine
 62
9
  6
CONTINUOUS
 10
9.3426525399
 20
8.8096570224
 11
9.3293474212
 21
8.8096004489
  0
SPLINE
  5
31F
100
AcDbEntity
  8
0
100
AcDbSpline
 62
9
  6
CONTINUOUS
 70
0
 71
3
 72
16
 73
12
 74
0
 42
0.0000001
 43
0.0000001
 44
0.0000000001
 40
0.0
 40
0.0
 40
0.0
 40
0.0
 40
0.1194736275
 40
0.2396588762
 40
0.3611938699
 40
0.4845782134
 40
0.6101290985
 40
0.7379601229
 40
0.8027468409
 40
0.8680638308
 40
1.0
 40
1.0
 40
1.0
 40
1.0
 10
9.7672214802
 20
7.0436797185
 30
0.0
 10
9.7664128619
 20
7.0433220687
 30
0.0
 10
9.7648484455
 20
7.0424654294
 30
0.0
 10
9.7627428096
 20
7.0407995859
 30
0.0
 10
9.76092001
 20
7.0387886078
 30
0.0
 10
9.7594214571
 20
7.0364789936
 30
0.0
 10
9.7582797122
 20
7.0339234856
 30
0.0
 10
9.7576485856
 20
7.0316454867
 30
0.0
 10
9.7573399218
 20
7.0297602913
 30
0.0
 10
9.7571631107
 20
7.0278278921
 30
0.0
 10
9.757183903
 20
7.0263621049
 30
0.0
 10
9.7572638413
 20
7.0253889704
 30
0.0
  0
SPLINE
  5
320
100
AcDbEntity
  8
0
100
AcDbSpline
 62
9
  6
CONTINUOUS
 70
0
 71
3
 72
21
 73
17
 74
0
 42
0.0000001
 43
0.0000001
 44
0.0000000001
 40
0.0
 40
0.0
 40
0.0
 40
0.0
 40
0.1267653938
 40
0.2532406452
 40
0.316369744
 40
0.3793426559
 40
0.4421428438
 40
0.5047586798
 40
0.5671861336
 40
0.6294283442
 40
0.6914951074
 40
0.7534047202
 40
0.8151789823
 40
0.8768436592
 40
0.9384501898
 40
1.0
 40
1.0
 40
1.0
 40
1.0
 10
9.3801923427
 20
6.7237100469
 30
0.0
 10
9.3821521772
 20
6.7237100464
 30
0.0
 10
9.3860769679
 20
6.7240837428
 30
0.0
 10
9.3907994009
 20
6.7254723793
 30
0.0
 10
9.3943536082
 20
6.7271022145
 30
0.0
 10
9.3968828966
 20
6.7285717702
 30
0.0
 10
9.3992513629
 20
6.7302746743
 30
0.0
 10
9.4014364723
 20
6.7321946291
 30
0.0
 10
9.4034171452
 20
6.7343131003
 30
0.0
 10
9.4051742225
 20
6.7366097903
 30
0.0
 10
9.4066907227
 20
6.7390626058
 30
0.0
 10
9.4079520437
 20
6.7416478942
 30
0.0
 10
9.4089459581
 20
6.744340683
 30
0.0
 10
9.4096629378
 20
6.747115332
 30
0.0
 10
9.4100957075
 20
6.7499444532
 30
0.0
 10
9.4101923427
 20
6.7518498868
 30
0.0
 10
9.4101923427
 20
6.7528014671
 30
0.0
  0
SPLINE
  5
321
100
AcDbEntity
  8
0
100
AcDbSpline
 62
9
  6
CONTINUOUS
 70
0
 71
3
 72
21
 73
17
 74
0
 42
0.0000001
 43
0.0000001
 44
0.0000000001
 40
0.0
 40
0.0
 40
0.0
 40
0.0
 40
0.1267654035
 40
0.2532406681
 40
0.3163697738
 40
0.379342692
 40
0.4421428854
 40
0.5047587255
 40
0.5671861815
 40
0.6294283923
 40
0.6914951536
 40
0.753404762
 40
0.8151790174
 40
0.876843685
 40
0.938450204
 40
1.0
 40
1.0
 40
1.0
 40
1.0
 10
9.7901923427
 20
6.7237100469
 30
0.0
 10
9.7882325082
 20
6.7237100469
 30
0.0
 10
9.7843077175
 20
6.7240837444
 30
0.0
 10
9.7795852845
 20
6.7254723818
 30
0.0
 10
9.7760310772
 20
6.7271022175
 30
0.0
 10
9.7735017889
 20
6.7285717734
 30
0.0
 10
9.7711333226
 20
6.7302746777
 30
0.0
 10
9.7689482132
 20
6.7321946326
 30
0.0
 10
9.7669675403
 20
6.7343131037
 30
0.0
 10
9.765210463
 20
6.7366097935
 30
0.0
 10
9.7636939628
 20
6.7390626088
 30
0.0
 10
9.7624326418
 20
6.7416478968
 30
0.0
 10
9.7614387274
 20
6.744340685
 30
0.0
 10
9.7607217477
 20
6.7471153335
 30
0.0
 10
9.760288978
 20
6.749944454
 30
0.0
 10
9.7601923427
 20
6.7518498871
 30
0.0
 10
9.7601923427
 20
6.7528014671
 30
0.0
  0
SPLINE
  5
322
100
AcDbEntity
  8
0
100
AcDbSpline
 62
9
  6
CONTINUOUS
 70
0
 71
3
 72
20
 73
16
 74
0
 42
0.0000001
 43
0.0000001
 44
0.0000000001
 40
0.0
 40
0.0
 40
0.0
 40
0.0
 40
0.0832922425
 40
0.1299305393
 40
0.1801998057
 40
0.2341425694
 40
0.291668978
 40
0.3525878477
 40
0.4166487557
 40
0.483538732
 40
0.5529206929
 40
0.6244147581
 40
0.6976333909
 40
0.8476250751
 40
1.0
 40
1.0
 40
1.0
 40
1.0
 10
9.7572638419
 20
7.0253889708
 30
0.0
 10
9.756618631
 20
7.0249155698
 30
0.0
 10
9.7555067304
 20
7.0243197925
 30
0.0
 10
9.7538922845
 20
7.0236955256
 30
0.0
 10
9.7525091801
 20
7.0232587095
 30
0.0
 10
9.7510083804
 20
7.022855198
 30
0.0
 10
9.7493984217
 20
7.0224658025
 30
0.0
 10
9.7476897166
 20
7.0220721378
 30
0.0
 10
9.7458939449
 20
7.0216555727
 30
0.0
 10
9.7440242112
 20
7.0211982905
 30
0.0
 10
9.7420954012
 20
7.0206833395
 30
0.0
 10
9.7401234008
 20
7.0200969778
 30
0.0
 10
9.73743773
 20
7.0191985863
 30
0.0
 10
9.734083037
 20
7.0178583234
 30
0.0
 10
9.7314782298
 20
7.0165642371
 30
0.0
 10
9.7301923427
 20
7.0158644189
 30
0.0
  0
LINE
  5
323
100
AcDbEntity
  8
0
100
AcDbLine
 62
9
  6
CONTINUOUS
 10
9.7601923427
 20
7.0275798591
 11
9.7572638419
 21
7.0253889708
  0
SPLINE
  5
324
100
AcDbEntity
  8
0
100
AcDbSpline
 62
9
  6
CONTINUOUS
 70
0
 71
3
 72
36
 73
32
 74
0
 42
0.0000001
 43
0.0000001
 44
0.0000000001
 40
0.0
 40
0.0
 40
0.0
 40
0.0
 40
0.0120546348
 40
0.0234296334
 40
0.0340297289
 40
0.0440303364
 40
0.0536052628
 40
0.0628705121
 40
0.0807756491
 40
0.0981370378
 40
0.1151490681
 40
0.1319211801
 40
0.1485196671
 40
0.1813521451
 40
0.2138558236
 40
0.2461362909
 40
0.2782522257
 40
0.3102372909
 40
0.3421105011
 40
0.4055526828
 40
0.4685921483
 40
0.5311818198
 40
0.5932359341
 40
0.65463797
 40
0.7152446002
 40
0.7748879503
 40
0.8333783706
 40
0.8905128752
 40
0.9185148934
 40
0.9461122736
 40
1.0
 40
1.0
 40
1.0
 40
1.0
 10
9.7301923427
 20
6.6833967196
 30
0.0
 10
9.7305055276
 20
6.6833966994
 30
0.0
 10
9.7311159165
 20
6.6834645782
 30
0.0
 10
9.7319636512
 20
6.6837292831
 30
0.0
 10
9.732712547
 20
6.6840943744
 30
0.0
 10
9.7333752209
 20
6.6845154001
 30
0.0
 10
9.7339731187
 20
6.6849681488
 30
0.0
 10
9.7346941357
 20
6.6855946326
 30
0.0
 10
9.7355095078
 20
6.6864175996
 30
0.0
 10
9.7363963125
 20
6.687447252
 30
0.0
 10
9.7372123949
 20
6.6884964392
 30
0.0
 10
9.7379765189
 20
6.6895595121
 30
0.0
 10
9.7389383109
 20
6.6909856853
 30
0.0
 10
9.7400646668
 20
6.6927927566
 30
0.0
 10
9.7413328987
 20
6.6949893673
 30
0.0
 10
9.742535347
 20
6.6972014029
 30
0.0
 10
9.7436858729
 20
6.6994256285
 30
0.0
 10
9.7447933026
 20
6.7016597833
 30
0.0
 10
9.7462177756
 20
6.7046447278
 30
0.0
 10
9.7479155623
 20
6.7083927157
 30
0.0
 10
9.7498385454
 20
6.7129132522
 30
0.0
 10
9.7516477699
 20
6.7174417108
 30
0.0
 10
9.7533395782
 20
6.7219699778
 30
0.0
 10
9.7549041657
 20
6.7264893699
 30
0.0
 10
9.7563260416
 20
6.7309901792
 30
0.0
 10
9.7575838286
 20
6.7354613354
 30
0.0
 10
9.7586490409
 20
6.7398898251
 30
0.0
 10
9.7593507967
 20
6.743556725
 30
0.0
 10
9.7597705834
 20
6.746455931
 30
0.0
 10
9.7600826892
 20
6.7492834938
 30
0.0
 10
9.760192339
 20
6.7514014397
 30
0.0
 10
9.7601923427
 20
6.7528014671
 30
0.0
  0
LINE
  5
325
100
AcDbEntity
  8
0
100
AcDbLine
 62
9
  6
CONTINUOUS
 10
9.4131208458
 20
7.0253891598
 11
9.4101923427
 21
7.0275798591
  0
LINE
  5
326
100
AcDbEntity
  8
0
100
AcDbLine
 62
9
  6
CONTINUOUS
 10
9.7613895129
 20
7.0861601949
 11
9.7672348724
 21
7.0742078282
  0
SPLINE
  5
327
100
AcDbEntity
  8
0
100
AcDbSpline
 62
9
  6
CONTINUOUS
 70
0
 71
3
 72
16
 73
12
 74
0
 42
0.0000001
 43
0.0000001
 44
0.0000000001
 40
0.0
 40
0.0
 40
0.0
 40
0.0
 40
0.0279591002
 40
0.061480016
 40
0.1004674423
 40
0.1447782421
 40
0.2486437782
 40
0.3712841816
 40
0.5104638807
 40
0.6635867503
 40
1.0
 40
1.0
 40
1.0
 40
1.0
 10
9.774801633
 20
7.0971014694
 30
0.0
 10
9.7749391031
 20
7.0970574796
 30
0.0
 10
9.7752370127
 20
7.0969471183
 30
0.0
 10
9.7757129811
 20
7.0967407229
 30
0.0
 10
9.7762563764
 20
7.0964788485
 30
0.0
 10
9.7771136852
 20
7.0960329707
 30
0.0
 10
9.7783295716
 20
7.0953419997
 30
0.0
 10
9.7799405494
 20
7.0943574442
 30
0.0
 10
9.7817406635
 20
7.0931959575
 30
0.0
 10
9.7844328173
 20
7.0913827374
 30
0.0
 10
9.7864925431
 20
7.0899174906
 30
0.0
 10
9.7878944635
 20
7.0888924154
 30
0.0
  0
LINE
  5
328
100
AcDbEntity
  8
0
100
AcDbLine
 62
9
  6
CONTINUOUS
 10
9.8050778158
 20
8.8460350433
 11
9.8105015408
 21
8.8581770025
  0
SPLINE
  5
329
100
AcDbEntity
  8
0
100
AcDbSpline
 62
9
  6
CONTINUOUS
 70
0
 71
3
 72
16
 73
12
 74
0
 42
0.0000001
 43
0.0000001
 44
0.0000000001
 40
0.0
 40
0.0
 40
0.0
 40
0.0
 40
0.0288946631
 40
0.0633127655
 40
0.1031188001
 40
0.1481466305
 40
0.253070433
 40
0.3761784713
 40
0.5151728792
 40
0.6674329054
 40
1.0
 40
1.0
 40
1.0
 40
1.0
 10
9.3505902908
 20
8.8337323897
 30
0.0
 10
9.3504476281
 20
8.8337861346
 30
0.0
 10
9.35013882
 20
8.83391394
 30
0.0
 10
9.3496446372
 20
8.834141695
 30
0.0
 10
9.3490811054
 20
8.8344216924
 30
0.0
 10
9.3481947326
 20
8.834887332
 30
0.0
 10
9.346938192
 20
8.8355926021
 30
0.0
 10
9.3452728268
 20
8.8365809747
 30
0.0
 10
9.3434139026
 20
8.8377318061
 30
0.0
 10
9.3406421308
 20
8.839506827
 30
0.0
 10
9.3385156141
 20
8.840929122
 30
0.0
 10
9.3370673047
 20
8.8419196772
 30
0.0
  0
SPLINE
  5
32A
100
AcDbEntity
  8
0
100
AcDbSpline
 62
9
  6
CONTINUOUS
 70
0
 71
3
 72
21
 73
17
 74
0
 42
0.0000001
 43
0.0000001
 44
0.0000000001
 40
0.0
 40
0.0
 40
0.0
 40
0.0
 40
0.1523636515
 40
0.2278432894
 40
0.3023765291
 40
0.3755943628
 40
0.4470883989
 40
0.5164694493
 40
0.5833580059
 40
0.6474178775
 40
0.7083362225
 40
0.7658625954
 40
0.8198057285
 40
0.8700730905
 40
0.9167073955
 40
1.0
 40
1.0
 40
1.0
 40
1.0
 10
9.4401923427
 20
7.015864513
 30
0.0
 10
9.4389061996
 20
7.0165637108
 30
0.0
 10
9.4369419028
 20
7.0175365335
 30
0.0
 10
9.4342670267
 20
7.018671682
 30
0.0
 10
9.4322597816
 20
7.0194292028
 30
0.0
 10
9.4302613653
 20
7.0200967395
 30
0.0
 10
9.4282893945
 20
7.0206832019
 30
0.0
 10
9.426360766
 20
7.0211989714
 30
0.0
 10
9.4244909686
 20
7.0216560759
 30
0.0
 10
9.4226951171
 20
7.0220723708
 30
0.0
 10
9.4209864013
 20
7.0224661204
 30
0.0
 10
9.4193764637
 20
7.0228557749
 30
0.0
 10
9.4178756949
 20
7.02325949
 30
0.0
 10
9.4164925629
 20
7.0236961219
 30
0.0
 10
9.4148778292
 20
7.0243196292
 30
0.0
 10
9.4137659893
 20
7.0249156269
 30
0.0
 10
9.4131208458
 20
7.0253891598
 30
0.0
  0
SPLINE
  5
32B
100
AcDbEntity
  8
0
100
AcDbSpline
 62
9
  6
CONTINUOUS
 70
0
 71
3
 72
38
 73
34
 74
0
 42
0.0000001
 43
0.0000001
 44
0.0000000001
 40
0.0
 40
0.0
 40
0.0
 40
0.0
 40
0.0538878408
 40
0.0814856935
 40
0.1094882774
 40
0.1666228893
 40
0.2251127473
 40
0.2847557387
 40
0.3453618722
 40
0.4067632612
 40
0.4688165451
 40
0.5314056013
 40
0.5944445015
 40
0.6578860657
 40
0.6897589166
 40
0.721743662
 40
0.753859306
 40
0.7861394696
 40
0.818642815
 40
0.8514749088
 40
0.86807314
 40
0.8848453611
 40
0.9018572029
 40
0.919218207
 40
0.9371231111
 40
0.9559526198
 40
0.9608911188
 40
0.9659544488
 40
0.9711676463
 40
0.9765624103
 40
0.9821542366
 40
0.9879482487
 40
1.0
 40
1.0
 40
1.0
 40
1.0
 10
9.4101923427
 20
6.7528014671
 30
0.0
 10
9.4101923472
 20
6.7514014268
 30
0.0
 10
9.4103019358
 20
6.7492834472
 30
0.0
 10
9.4106140852
 20
6.7464558379
 30
0.0
 10
9.4110339007
 20
6.7435565855
 30
0.0
 10
9.4117356562
 20
6.7398896565
 30
0.0
 10
9.4128008434
 20
6.7354611489
 30
0.0
 10
9.4140586556
 20
6.7309900036
 30
0.0
 10
9.4154805287
 20
6.7264891998
 30
0.0
 10
9.4170451138
 20
6.7219698248
 30
0.0
 10
9.4187369745
 20
6.7174415989
 30
0.0
 10
9.4205462091
 20
6.712913164
 30
0.0
 10
9.4224691554
 20
6.7083926251
 30
0.0
 10
9.4241669307
 20
6.7046446434
 30
0.0
 10
9.4255914395
 20
6.7016597274
 30
0.0
 10
9.4266988716
 20
6.6994255823
 30
0.0
 10
9.4278493639
 20
6.6972013467
 30
0.0
 10
9.4290517543
 20
6.694989286
 30
0.0
 10
9.4303200656
 20
6.6927927302
 30
0.0
 10
9.4314463928
 20
6.6909856567
 30
0.0
 10
9.432408054
 20
6.6895593975
 30
0.0
 10
9.4331724096
 20
6.688496477
 30
0.0
 10
9.4339883897
 20
6.6874472716
 30
0.0
 10
9.4348753202
 20
6.6864175204
 30
0.0
 10
9.435865096
 20
6.6854180538
 30
0.0
 10
9.4367042052
 20
6.6847278514
 30
0.0
 10
9.437328223
 20
6.6843131143
 30
0.0
 10
9.4376672926
 20
6.6841095803
 30
0.0
 10
9.4380280407
 20
6.6839202307
 30
0.0
 10
9.4384134411
 20
6.683750227
 30
0.0
 10
9.4388248881
 20
6.6836045671
 30
0.0
 10
9.4394138578
 20
6.6834483213
 30
0.0
 10
9.4398792306
 20
6.6833966863
 30
0.0
 10
9.4401923427
 20
6.6833967196
 30
0.0
  0
ENDSEC
  0
SECTION
  2
OBJECTS
  0
DICTIONARY
  5
C
100
AcDbDictionary
280
0
281
1
  3
ACAD_GROUP
350
D
  3
ACAD_MLINESTYLE
350
17
  3
ACAD_LAYOUT
350
1A
  3
ACAD_PLOTSETTINGS
350
19
  3
ACAD_PLOTSTYLENAME
350
E
  0
DICTIONARY
  5
D
102
{ACAD_REACTORS
330
C
102
}
100
AcDbDictionary
280
0
281
1
  0
ACDBDICTIONARYWDFLT
  5
E
102
{ACAD_REACTORS
330
C
102
}
100
AcDbDictionary
281
1
  3
Normal
350
F
100
AcDbDictionaryWithDefault
340
F
  0
DICTIONARY
  5
17
102
{ACAD_REACTORS
330
C
102
}
100
AcDbDictionary
280
0
281
1
  3
Standard
350
18
  0
DICTIONARY
  5
19
102
{ACAD_REACTORS
330
C
102
}
100
AcDbDictionary
281
1
  0
DICTIONARY
  5
1A
102
{ACAD_REACTORS
330
C
102
}
100
AcDbDictionary
281
1
  3
Model
350
32C
  3
Layout1
350
32D
  0
ACDBPLACEHOLDER
  5
F
102
{ACAD_REACTORS
330
E
102
}
  0
MLINESTYLE
  5
18
102
{ACAD_REACTORS
330
17
102
}
100
AcDbMlineStyle
  2
STANDARD
 70
0
  3

 62
256
 51
90.0
 52
90.0
 71
2
 49
0.5
 62
256
  6
BYLAYER
 49
-0.5
 62
256
  6
BYLAYER
  0
LAYOUT
  5
32C
102
{ACAD_REACTORS
330
1A
102
}
100
AcDbPlotSettings
  1

  2
none_device
  4
ANSI_C_(22.00_x_17.00_Inches)
  6

 40
0.0
 41
0.0
 42
0.0
 43
0.0
 44
558.8
 45
431.8
 46
0.0
 47
0.0
 48
0.0
 49
0.0
140
0.0
141
0.0
142
1.0
143
1.0
 70
1024
 72
0
 73
0
 74
0
  7

 75
0
147
1.0
148
0.0
149
0.0
100
AcDbLayout
  1
Model
 70
0
 71
0
 10
0.0
 20
0.0
 11
22.0
 21
17.0
 12
0.0
 22
0.0
 32
0.0
 14
0.0
 24
0.0
 34
0.0
 15
0.0
 25
0.0
 35
0.0
146
0.0
 13
0.0
 23
0.0
 33
0.0
 16
1.0
 26
0.0
 36
0.0
 17
0.0
 27
1.0
 37
0.0
 76
0
330
205
345
0
346
0
  0
LAYOUT
  5
32D
102
{ACAD_REACTORS
330
1A
102
}
100
AcDbPlotSettings
  1

  2
none_device
  4
ANSI_C_(22.00_x_17.00_Inches)
  6

 40
0.0
 41
0.0
 42
0.0
 43
0.0
 44
558.8
 45
431.8
 46
0.0
 47
0.0
 48
0.0
 49
0.0
140
0.0
141
0.0
142
1.0
143
1.0
 70
0
 72
0
 73
0
 74
0
  7

 75
0
147
1.0
148
0.0
149
0.0
100
AcDbLayout
  1
Layout1
 70
0
 71
1
 10
0.0
 20
0.0
 11
22.0
 21
17.0
 12
0.0
 22
0.0
 32
0.0
 14
0.0
 24
0.0
 34
0.0
 15
0.0
 25
0.0
 35
0.0
146
0.0
 13
0.0
 23
0.0
 33
0.0
 16
1.0
 26
0.0
 36
0.0
 17
0.0
 27
1.0
 37
0.0
 76
0
330
206
345
0
346
0
  0
ENDSEC
  0
EOF
