999
DXF file: E:\BT Custom\CADOUTPUT\_FRONT.dxf
999
Pro/ENGINEER 2018400 by Parametric Technology Corporation
  0
SECTION
  2
HEADER
  9
$ACADVER
  1
AC1018
  9
$DWGCODEPAGE
  3
ANSI_1252
  9
$EXTMAX
 10
22.0
 20
17.0
 30
0.0
  9
$EXTMIN
 10
0.0
 20
0.0
 30
0.0
  9
$LIMMIN
 10
0.0
 20
0.0
  9
$LIMMAX
 10
22.0
 20
17.0
  9
$VIEWCTR
 10
11.0
 20
8.5
  9
$VIEWSIZE
 40
17.0
  9
$CLAYER
  8
0
  9
$LTSCALE
 40
1.21
  9
$CELTYPE
  6
BYLAYER
  9
$DIMSCALE
 40
1.0
  9
$DIMASZ
 40
0.1
  9
$DIMEXO
 40
0.0625
  9
$DIMDLI
 40
0.836
  9
$DIMEXE
 40
0.125
  9
$DIMCEN
 40
0.198
  9
$DIMLFAC
 40
1.0
  9
$DIMBLK
  1
_FILLED
  9
$DIMALT
 70
1
  9
$DIMALTD
 70
2
  9
$DIMALTTD
 70
2
  9
$DIMALTF
 40
25.4
  9
$DIMTXT
 40
0.08
  9
$DIMTOL
 70
1
  9
$DIMLIM
 70
0
  9
$DIMTFAC
 40
1.0
  9
$DIMTP
 40
0.001
  9
$DIMTM
 40
0.001
  9
$DIMGAP
 40
0.09
  9
$DIMDSEP
 70
46
  9
$AUNITS
 70
0
  9
$PDMODE
 70
3
  9
$PDSIZE
 40
0.06
  9
$HANDSEED
  5
32E
  9
$TILEMODE
 70
1
  9
$MEASUREMENT
 70
0
  9
$INSUNITS
 70
1
  0
ENDSEC
  0
SECTION
  2
CLASSES
  0
CLASS
  1
ACDBDICTIONARYWDFLT
  2
AcDbDictionaryWithDefault
  3
AutoCAD 2000
 90
0
 91
1
280
0
281
0
  0
CLASS
  1
ACDBPLACEHOLDER
  2
AcDbPlaceHolder
  3
AutoCAD 2000
 90
0
 91
1
280
0
281
0
  0
CLASS
  1
LAYOUT
  2
AcDbLayout
  3
AutoCAD 2000
 90
0
 91
0
280
0
281
0
  0
ENDSEC
  0
SECTION
  2
TABLES
  0
TABLE
  2
VPORT
  5
8
100
AcDbSymbolTable
 70
2
  0
VPORT
  5
1F4
100
AcDbSymbolTableRecord
100
AcDbViewportTableRecord
  2
*ACTIVE
 70
0
 10
0.0
 20
0.0
 11
1.0
 21
1.0
 12
11.0
 22
8.5
 13
0.0
 23
0.0
 14
1.0
 24
1.0
 15
0.0
 25
0.0
 16
0.0
 26
0.0
 36
1.0
 17
0.0
 27
0.0
 37
0.0
 40
17.0
 41
1.2941176471
 42
50.0
 43
0.0
 44
0.0
 50
0.0
 51
0.0
 71
0
 72
100
 73
1
 74
1
 75
0
 76
0
 77
0
 78
0
  0
ENDTAB
  0
TABLE
  2
LTYPE
  5
5
100
AcDbSymbolTable
 70
6
  0
LTYPE
  5
14
100
AcDbSymbolTableRecord
100
AcDbLinetypeTableRecord
  2
BYBLOCK
 70
0
  3

 72
65
 73
0
 40
0.0
  0
LTYPE
  5
15
100
AcDbSymbolTableRecord
100
AcDbLinetypeTableRecord
  2
BYLAYER
 70
0
  3

 72
65
 73
0
 40
0.0
  0
LTYPE
  5
16
100
AcDbSymbolTableRecord
100
AcDbLinetypeTableRecord
  2
CONTINUOUS
 70
64
  3
Solid line
 72
65
 73
0
 40
0.0
  0
LTYPE
  5
1F5
100
AcDbSymbolTableRecord
100
AcDbLinetypeTableRecord
  2
CENTER
 70
64
  3
____ _ ____ _ ____ _ ____ _ ____ _ ____ _ ____
 72
65
 73
4
 40
0.6
 49
0.375
 74
0
 49
-0.075
 74
0
 49
0.075
 74
0
 49
-0.075
 74
0
  0
LTYPE
  5
1F6
100
AcDbSymbolTableRecord
100
AcDbLinetypeTableRecord
  2
HIDDEN
 70
64
  3
- - - - - - - - - - - - - - - - - - - -
 72
65
 73
2
 40
0.2
 49
0.1
 74
0
 49
-0.1
 74
0
  0
LTYPE
  5
1F7
100
AcDbSymbolTableRecord
100
AcDbLinetypeTableRecord
  2
PHANTOM
 70
64
  3
_____ _ _ _____ _ _ _____ _ _ _____
 72
65
 73
6
 40
0.8
 49
0.45
 74
0
 49
-0.05
 74
0
 49
0.1
 74
0
 49
-0.05
 74
0
 49
0.1
 74
0
 49
-0.05
 74
0
  0
LTYPE
  5
1F8
100
AcDbSymbolTableRecord
100
AcDbLinetypeTableRecord
  2
DOT
 70
64
  3
. . . . . . . . . . . . . . . . . . . .
 72
65
 73
2
 40
0.2
 49
0.1
 74
0
 49
-0.1
 74
0
  0
LTYPE
  5
1F9
100
AcDbSymbolTableRecord
100
AcDbLinetypeTableRecord
  2
DASHED
 70
64
  3
- - - - - - - - - - - - - - - - - - - -
 72
65
 73
2
 40
0.2
 49
0.1
 74
0
 49
-0.1
 74
0
  0
ENDTAB
  0
TABLE
  2
LAYER
  5
2
100
AcDbSymbolTable
 70
36
  0
LAYER
  5
10
100
AcDbSymbolTableRecord
100
AcDbLayerTableRecord
  2
0
 70
0
 62
7
  6
CONTINUOUS
370
-3
390
F
  0
LAYER
  5
1FA
100
AcDbSymbolTableRecord
100
AcDbLayerTableRecord
  2
DEFAULT_1
 70
0
 62
7
  6
CENTER
370
-3
390
F
  0
LAYER
  5
1FB
100
AcDbSymbolTableRecord
100
AcDbLayerTableRecord
  2
DEFAULT_2
 70
0
 62
8
  6
HIDDEN
370
-3
390
F
  0
LAYER
  5
1FC
100
AcDbSymbolTableRecord
100
AcDbLayerTableRecord
  2
DEFAULT_3
 70
0
 62
7
  6
PHANTOM
370
-3
390
F
  0
LAYER
  5
1FD
100
AcDbSymbolTableRecord
100
AcDbLayerTableRecord
  2
ALL_FEATURES
 70
0
 62
7
  6
CONTINUOUS
370
-3
390
F
  0
LAYER
  5
1FE
100
AcDbSymbolTableRecord
100
AcDbLayerTableRecord
  2
AXES_FEATURES
 70
0
 62
7
  6
CONTINUOUS
370
-3
390
F
  0
LAYER
  5
1FF
100
AcDbSymbolTableRecord
100
AcDbLayerTableRecord
  2
DEFAULT_COORDINATE_SYSTEM
 70
0
 62
7
  6
CONTINUOUS
370
-3
390
F
  0
LAYER
  5
200
100
AcDbSymbolTableRecord
100
AcDbLayerTableRecord
  2
DEFAULT_DATUM_AXES
 70
0
 62
7
  6
CONTINUOUS
370
-3
390
F
  0
LAYER
  5
201
100
AcDbSymbolTableRecord
100
AcDbLayerTableRecord
  2
DEFAULT_DATUM_PLANES
 70
0
 62
7
  6
CONTINUOUS
370
-3
390
F
  0
LAYER
  5
202
100
AcDbSymbolTableRecord
100
AcDbLayerTableRecord
  2
DIMENSIONS
 70
0
 62
7
  6
CONTINUOUS
370
-3
390
F
  0
ENDTAB
  0
TABLE
  2
STYLE
  5
3
100
AcDbSymbolTable
 70
1
  0
STYLE
  5
11
100
AcDbSymbolTableRecord
100
AcDbTextStyleTableRecord
  2
STANDARD
 70
0
 40
0.0
 41
0.8
 50
0.0
 71
0
 42
0.2
  3
txt
  4

  0
STYLE
  5
203
100
AcDbSymbolTableRecord
100
AcDbTextStyleTableRecord
  2
TEXTSTYLE_1
 70
0
 40
0.0
 41
0.8
 50
0.0
 71
0
 42
0.2
  3
gdt
  4

  0
ENDTAB
  0
TABLE
  2
VIEW
  5
6
100
AcDbSymbolTable
 70
0
  0
ENDTAB
  0
TABLE
  2
UCS
  5
7
100
AcDbSymbolTable
 70
0
  0
ENDTAB
  0
TABLE
  2
APPID
  5
9
100
AcDbSymbolTable
 70
1
  0
APPID
  5
204
100
AcDbSymbolTableRecord
100
AcDbRegAppTableRecord
  2
ACAD
 70
0
  0
ENDTAB
  0
TABLE
  2
BLOCK_RECORD
  5
1
100
AcDbSymbolTable
 70
0
  0
BLOCK_RECORD
  5
205
100
AcDbSymbolTableRecord
100
AcDbBlockTableRecord
  2
*Model_Space
  0
BLOCK_RECORD
  5
206
100
AcDbSymbolTableRecord
100
AcDbBlockTableRecord
  2
*Paper_Space
  0
BLOCK_RECORD
  5
207
100
AcDbSymbolTableRecord
100
AcDbBlockTableRecord
  2
_FILLED
  0
ENDTAB
  0
TABLE
  2
DIMSTYLE
  5
A
100
AcDbSymbolTable
 70
1
100
AcDbDimStyleTable
 71
0
  0
DIMSTYLE
105
208
100
AcDbSymbolTableRecord
100
AcDbDimStyleTableRecord
  2
STANDARD
 70
0
  3

  4

 40
1.0
 41
0.1
 42
0.0625
 43
0.38
 44
0.125
 45
0.0
 46
0.0
 47
0.001
 48
0.001
140
0.08
141
0.09
142
0.0
143
25.4
144
1.0
145
0.0
146
1.0
147
0.09
 71
1.0
 72
0.0
 73
1
 74
1
 75
0
 76
0
 77
0
 78
4
 79
1
170
1
171
2
172
0
173
0
174
0
175
0
176
0
177
0
178
0
270
2
179
3
271
3
272
3
273
2
274
2
275
0
280
0
281
0
282
0
283
1
284
4
285
0
286
0
287
3
288
0
340
11
278
46
341
207
342
207
343
207
344
207
  0
ENDTAB
  0
ENDSEC
  0
SECTION
  2
BLOCKS
  0
BLOCK
  5
20
100
AcDbEntity
  8
0
100
AcDbBlockBegin
  2
*Model_Space
 70
0
 10
0.0
 20
0.0
 30
0.0
  3
*Model_Space
  1

  0
ENDBLK
  5
21
100
AcDbEntity
  8
0
100
AcDbBlockEnd
  0
BLOCK
  5
1C
100
AcDbEntity
  8
0
100
AcDbBlockBegin
  2
*Paper_Space
 70
0
 10
0.0
 20
0.0
 30
0.0
  3
*Paper_Space
  1

  0
ENDBLK
  5
1D
100
AcDbEntity
  8
0
100
AcDbBlockEnd
  0
BLOCK
  5
209
100
AcDbEntity
  8
0
100
AcDbBlockBegin
  2
_FILLED
 70
64
 10
0.0
 20
0.0
  3
_FILLED
  1

  0
SOLID
  5
20A
100
AcDbEntity
  8
0
  6
BYBLOCK
 62
0
100
AcDbTrace
 10
0.0
 20
0.0
 11
-1.0
 21
0.2
 12
-1.0
 22
-0.2
 13
-1.0
 23
-0.2
  0
ENDBLK
  5
20B
100
AcDbEntity
  8
0
  6
BYBLOCK
 62
0
100
AcDbBlockEnd
  0
ENDSEC
  0
SECTION
  2
ENTITIES
  0
LINE
  5
20C
100
AcDbEntity
  8
0
100
AcDbLine
 62
7
  6
CONTINUOUS
 10
9.1426923427
 20
4.5812187254
 11
11.1926923427
 21
4.5812187254
  0
LINE
  5
20D
100
AcDbEntity
  8
0
100
AcDbLine
 62
9
  6
CONTINUOUS
 10
9.1426923427
 20
4.6912187254
 11
11.1926923427
 21
4.6912187254
  0
LINE
  5
20E
100
AcDbEntity
  8
0
100
AcDbLine
 62
7
  6
CONTINUOUS
 10
9.1826923427
 20
4.7312187254
 11
11.1526923427
 21
4.7312187254
  0
LINE
  5
20F
100
AcDbEntity
  8
0
100
AcDbLine
 62
9
  6
CONTINUOUS
 10
9.2501660269
 20
4.7329483785
 11
11.0852186585
 21
4.732948309
  0
LINE
  5
210
100
AcDbEntity
  8
0
100
AcDbLine
 62
9
  6
CONTINUOUS
 10
9.2926923428
 20
4.9662187254
 11
11.0426923427
 21
4.9662187254
  0
LINE
  5
211
100
AcDbEntity
  8
0
100
AcDbLine
 62
7
  6
CONTINUOUS
 10
9.3326923427
 20
5.0062187254
 11
11.0026923427
 21
5.0062187254
  0
LWPOLYLINE
  5
212
100
AcDbEntity
  8
0
100
AcDbPolyline
 62
7
  6
CONTINUOUS
 90
10
 70
0
 10
11.1005036831
 20
4.8781843689
 10
11.0988041199
 20
4.878949788
 10
11.095163029
 20
4.8810558034
 10
11.0918426614
 20
4.8836590676
 10
11.0889193125
 20
4.8867036394
 10
11.086453946
 20
4.8901254968
 10
11.0844936024
 20
4.893857423
 10
11.0830758044
 20
4.8978268996
 10
11.0822281696
 20
4.901957116
 10
11.0819962312
 20
4.904580499
  0
LWPOLYLINE
  5
213
100
AcDbEntity
  8
0
100
AcDbPolyline
 62
7
  6
CONTINUOUS
 90
10
 70
0
 10
11.0651683037
 20
4.930219293
 10
11.0611717579
 20
4.9324589031
 10
11.0569731661
 20
4.9355409848
 10
11.053210633
 20
4.9391424775
 10
11.0499479512
 20
4.9432023191
 10
11.0472404384
 20
4.9476516764
 10
11.0451339995
 20
4.9524151122
 10
11.0436643484
 20
4.9574118642
 10
11.0428564023
 20
4.9625572144
 10
11.0426923414
 20
4.9661763241
  0
LINE
  5
214
100
AcDbEntity
  8
0
100
AcDbLine
 62
7
  6
CONTINUOUS
 10
10.9634639125
 20
5.8802187254
 11
11.2426923427
 21
5.8802187254
  0
LINE
  5
215
100
AcDbEntity
  8
0
100
AcDbLine
 62
7
  6
CONTINUOUS
 10
12.6326923427
 20
5.9852187254
 11
11.9026923427
 21
5.9852187254
  0
LINE
  5
216
100
AcDbEntity
  8
0
100
AcDbLine
 62
9
  6
CONTINUOUS
 10
12.1476923427
 20
6.6899375071
 11
12.4376923427
 21
6.6899375071
  0
LINE
  5
217
100
AcDbEntity
  8
0
100
AcDbLine
 62
9
  6
CONTINUOUS
 10
12.1476923427
 20
6.6933967196
 11
12.4376923427
 21
6.6933967196
  0
LINE
  5
218
100
AcDbEntity
  8
0
100
AcDbLine
 62
7
  6
CONTINUOUS
 10
12.6326923427
 20
6.7452187254
 11
12.4976923427
 21
6.7452187254
  0
LINE
  5
219
100
AcDbEntity
  8
0
100
AcDbLine
 62
7
  6
CONTINUOUS
 10
12.0876923427
 20
6.7452187254
 11
11.9026923427
 21
6.7452187254
  0
LINE
  5
21A
100
AcDbEntity
  8
0
100
AcDbLine
 62
7
  6
CONTINUOUS
 10
10.9634639131
 20
6.8502187254
 11
11.2426923427
 21
6.8502187254
  0
LINE
  5
21B
100
AcDbEntity
  8
0
100
AcDbLine
 62
9
  6
CONTINUOUS
 10
12.1176923427
 20
6.9373380081
 11
12.4676923427
 21
6.9373380081
  0
LINE
  5
21C
100
AcDbEntity
  8
0
100
AcDbLine
 62
7
  6
CONTINUOUS
 10
9.3376923427
 20
7.3042187254
 11
10.9976923427
 21
7.3042187254
  0
LINE
  5
21D
100
AcDbEntity
  8
0
100
AcDbLine
 62
7
  6
CONTINUOUS
 10
9.1426923427
 20
4.6912187254
 11
9.1426923427
 21
4.5812187254
  0
LINE
  5
21E
100
AcDbEntity
  8
0
100
AcDbLine
 62
9
  6
CONTINUOUS
 10
9.1826923427
 20
4.7312187254
 11
9.1826923427
 21
4.5812187254
  0
LINE
  5
21F
100
AcDbEntity
  8
0
100
AcDbLine
 62
7
  6
CONTINUOUS
 10
9.2101660269
 20
4.8412187445
 11
9.2101660269
 21
4.7512187254
  0
LINE
  5
220
100
AcDbEntity
  8
0
100
AcDbLine
 62
9
  6
CONTINUOUS
 10
9.2501660269
 20
4.7312187254
 11
9.2501660269
 21
4.8751079326
  0
LINE
  5
221
100
AcDbEntity
  8
0
100
AcDbLine
 62
9
  6
CONTINUOUS
 10
10.478747299
 20
11.4700245568
 11
10.478745185
 21
11.4700220121
  0
LINE
  5
222
100
AcDbEntity
  8
0
100
AcDbLine
 62
7
  6
CONTINUOUS
 10
10.4820023293
 20
11.4736946841
 11
10.478745185
 21
11.4700220121
  0
LINE
  5
223
100
AcDbEntity
  8
0
100
AcDbLine
 62
7
  6
CONTINUOUS
 10
10.482004921
 20
11.4736974105
 11
10.4855859985
 21
11.4775757551
  0
LINE
  5
224
100
AcDbEntity
  8
0
100
AcDbLine
 62
9
  6
CONTINUOUS
 10
10.4820092715
 20
11.4737019846
 11
10.4819979793
 21
11.4736901099
  0
LINE
  5
225
100
AcDbEntity
  8
0
100
AcDbLine
 62
7
  6
CONTINUOUS
 10
10.455413299
 20
11.1587191644
 11
10.4553083955
 21
11.1586133306
  0
LINE
  5
226
100
AcDbEntity
  8
0
100
AcDbLine
 62
9
  6
CONTINUOUS
 10
9.3268806399
 20
7.4213308332
 11
11.0085040456
 21
7.4213308332
  0
LINE
  5
227
100
AcDbEntity
  8
0
100
AcDbLine
 62
7
  6
CONTINUOUS
 10
9.3626923427
 20
5.0062187254
 11
9.3626923427
 21
7.3042187254
  0
LWPOLYLINE
  5
228
100
AcDbEntity
  8
0
100
AcDbPolyline
 62
7
  6
CONTINUOUS
 90
10
 70
0
 10
9.2926923436
 20
4.966176319
 10
9.2925282827
 20
4.9625572093
 10
9.2917203366
 20
4.9574118589
 10
9.2902506853
 20
4.9524151067
 10
9.2881442462
 20
4.9476516707
 10
9.2854367333
 20
4.9432023133
 10
9.2821740512
 20
4.9391424715
 10
9.2784115179
 20
4.9355409788
 10
9.274212926
 20
4.9324588973
 10
9.2702163894
 20
4.9302192917
  0
LINE
  5
229
100
AcDbEntity
  8
0
100
AcDbLine
 62
7
  6
CONTINUOUS
 10
9.8231653946
 20
11.5670964228
 11
9.8228819504
 21
11.5656195198
  0
LINE
  5
22A
100
AcDbEntity
  8
0
100
AcDbLine
 62
9
  6
CONTINUOUS
 10
9.7072525646
 20
7.8349589135
 11
10.6281321209
 21
7.8349589135
  0
LINE
  5
22B
100
AcDbEntity
  8
0
100
AcDbLine
 62
9
  6
CONTINUOUS
 10
9.6729477274
 20
7.907622616
 11
10.6624369581
 21
7.907622616
  0
LINE
  5
22C
100
AcDbEntity
  8
0
100
AcDbLine
 62
7
  6
CONTINUOUS
 10
9.9176923427
 20
13.7041301235
 11
9.9176923427
 21
11.6572067672
  0
LINE
  5
22D
100
AcDbEntity
  8
0
100
AcDbLine
 62
7
  6
CONTINUOUS
 10
9.9176923427
 20
7.9992187254
 11
9.9176923427
 21
11.131769172
  0
LINE
  5
22E
100
AcDbEntity
  8
0
100
AcDbLine
 62
7
  6
CONTINUOUS
 10
9.8837812378
 20
11.312431713
 11
9.8842649521
 21
11.335669716
  0
LWPOLYLINE
  5
22F
100
AcDbEntity
  8
0
100
AcDbPolyline
 62
7
  6
CONTINUOUS
 90
9
 70
0
 10
9.2533884868
 20
4.9045805009
 10
9.2531555869
 20
4.9019498925
 10
9.2523053726
 20
4.8978142594
 10
9.2508837363
 20
4.893840624
 10
9.248918245
 20
4.8901052763
 10
9.2464460063
 20
4.8866803949
 10
9.2435134867
 20
4.8836332736
 10
9.2401837615
 20
4.8810302161
 10
9.2365390805
 20
4.8789295725
  0
LINE
  5
230
100
AcDbEntity
  8
0
100
AcDbLine
 62
7
  6
CONTINUOUS
 10
9.7006923427
 20
7.9992187254
 11
10.6346923427
 21
7.9992187254
  0
LINE
  5
231
100
AcDbEntity
  8
0
100
AcDbLine
 62
9
  6
CONTINUOUS
 10
9.8791791563
 20
11.4150793622
 11
9.8788997968
 21
11.4194228276
  0
LINE
  5
232
100
AcDbEntity
  8
0
100
AcDbLine
 62
9
  6
CONTINUOUS
 10
10.1676923427
 20
4.7414610243
 11
10.1676923427
 21
4.8486759173
  0
LINE
  5
233
100
AcDbEntity
  8
0
100
AcDbLine
 62
7
  6
CONTINUOUS
 10
10.4511197334
 20
11.335669716
 11
10.4516034559
 21
11.312431517
  0
LINE
  5
234
100
AcDbEntity
  8
0
100
AcDbLine
 62
7
  6
CONTINUOUS
 10
10.4176923427
 20
13.7041301235
 11
10.4176923427
 21
11.6571692197
  0
LINE
  5
235
100
AcDbEntity
  8
0
100
AcDbLine
 62
7
  6
CONTINUOUS
 10
10.4176923427
 20
7.9992187254
 11
10.4176923427
 21
11.1317491787
  0
LINE
  5
236
100
AcDbEntity
  8
0
100
AcDbLine
 62
9
  6
CONTINUOUS
 10
10.4564848888
 20
11.4194228276
 11
10.4562055101
 21
11.4150792138
  0
LWPOLYLINE
  5
237
100
AcDbEntity
  8
0
100
AcDbPolyline
 62
7
  6
CONTINUOUS
 90
10
 70
0
 10
11.0819953362
 20
4.904580459
 10
11.0818045949
 20
4.9068802477
 10
11.0810480305
 20
4.910845114
 10
11.0797660302
 20
4.91467253
 10
11.0779818006
 20
4.9182932044
 10
11.0757276394
 20
4.9216415884
 10
11.0730443507
 20
4.9246570615
 10
11.069980509
 20
4.927285027
 10
11.0665915868
 20
4.9294778977
 10
11.0651683064
 20
4.9302192986
  0
LINE
  5
238
100
AcDbEntity
  8
0
100
AcDbLine
 62
7
  6
CONTINUOUS
 10
10.9726923427
 20
5.0062187254
 11
10.9726923427
 21
5.8652187254
  0
LINE
  5
239
100
AcDbEntity
  8
0
100
AcDbLine
 62
7
  6
CONTINUOUS
 10
10.9726923427
 20
6.8652187254
 11
10.9726923427
 21
7.3042187254
  0
LINE
  5
23A
100
AcDbEntity
  8
0
100
AcDbLine
 62
7
  6
CONTINUOUS
 10
10.5125027351
 20
11.5656195198
 11
10.51221953
 21
11.5670952201
  0
LINE
  5
23B
100
AcDbEntity
  8
0
100
AcDbLine
 62
9
  6
CONTINUOUS
 10
11.0852186585
 20
4.8751079639
 11
11.0852186585
 21
4.7312187254
  0
LINE
  5
23C
100
AcDbEntity
  8
0
100
AcDbLine
 62
7
  6
CONTINUOUS
 10
11.1252186585
 20
4.8412187246
 11
11.1252186585
 21
4.7512187254
  0
LINE
  5
23D
100
AcDbEntity
  8
0
100
AcDbLine
 62
9
  6
CONTINUOUS
 10
11.1526923427
 20
4.7312187254
 11
11.1526923427
 21
4.5812187254
  0
LINE
  5
23E
100
AcDbEntity
  8
0
100
AcDbLine
 62
7
  6
CONTINUOUS
 10
11.1926923427
 20
4.6912187254
 11
11.1926923427
 21
4.5812187254
  0
LINE
  5
23F
100
AcDbEntity
  8
0
100
AcDbLine
 62
7
  6
CONTINUOUS
 10
11.2426923427
 20
5.7652190081
 11
11.2426923427
 21
6.9652184427
  0
LINE
  5
240
100
AcDbEntity
  8
0
100
AcDbLine
 62
9
  6
CONTINUOUS
 10
11.3465060748
 20
5.724226569
 11
11.3465060748
 21
7.0062108818
  0
LINE
  5
241
100
AcDbEntity
  8
0
100
AcDbLine
 62
7
  6
CONTINUOUS
 10
9.8800762163
 20
11.1586134048
 11
9.8799736454
 21
11.1587168815
  0
LINE
  5
242
100
AcDbEntity
  8
0
100
AcDbLine
 62
7
  6
CONTINUOUS
 10
9.8497986605
 20
11.4775757847
 11
9.8533743777
 21
11.4737030767
  0
LINE
  5
243
100
AcDbEntity
  8
0
100
AcDbLine
 62
9
  6
CONTINUOUS
 10
9.8497928871
 20
11.4775822263
 11
9.849774033
 21
11.4776032701
  0
LINE
  5
244
100
AcDbEntity
  8
0
100
AcDbLine
 62
7
  6
CONTINUOUS
 10
9.8566395005
 20
11.4700220121
 11
9.8533824873
 21
11.4736945462
  0
LINE
  5
245
100
AcDbEntity
  8
0
100
AcDbLine
 62
9
  6
CONTINUOUS
 10
11.6839387203
 20
5.8947061344
 11
11.6839387203
 21
6.8357313164
  0
LINE
  5
246
100
AcDbEntity
  8
0
100
AcDbLine
 62
9
  6
CONTINUOUS
 10
11.7526923427
 20
5.8652187254
 11
11.7526923427
 21
6.8652187254
  0
LINE
  5
247
100
AcDbEntity
  8
0
100
AcDbLine
 62
7
  6
CONTINUOUS
 10
11.8426923427
 20
5.8952187254
 11
11.8426923427
 21
6.8352187254
  0
LINE
  5
248
100
AcDbEntity
  8
0
100
AcDbLine
 62
9
  6
CONTINUOUS
 10
11.9026923427
 20
6.7452187254
 11
11.9026923427
 21
5.9852187254
  0
LINE
  5
249
100
AcDbEntity
  8
0
100
AcDbLine
 62
9
  6
CONTINUOUS
 10
9.8533868373
 20
11.473689972
 11
9.8533700271
 21
11.4737076509
  0
LINE
  5
24A
100
AcDbEntity
  8
0
100
AcDbLine
 62
9
  6
CONTINUOUS
 10
10.4646423316
 20
11.2721238575
 11
10.4646402138
 21
11.2721267691
  0
LINE
  5
24B
100
AcDbEntity
  8
0
100
AcDbLine
 62
9
  6
CONTINUOUS
 10
12.4322430022
 20
7.0425515921
 11
12.4376923427
 21
7.0258644187
  0
LINE
  5
24C
100
AcDbEntity
  8
0
100
AcDbLine
 62
7
  6
CONTINUOUS
 10
12.0538643272
 20
7.1056162551
 11
12.0083308335
 21
8.8444702268
  0
LINE
  5
24D
100
AcDbEntity
  8
0
100
AcDbLine
 62
9
  6
CONTINUOUS
 10
12.0810888742
 20
7.1300875212
 11
12.0368474206
 21
8.8196004726
  0
LINE
  5
24E
100
AcDbEntity
  8
0
100
AcDbLine
 62
9
  6
CONTINUOUS
 10
12.0943940029
 20
7.1301437151
 11
12.0501525357
 21
8.8196571841
  0
LINE
  5
24F
100
AcDbEntity
  8
0
100
AcDbLine
 62
9
  6
CONTINUOUS
 10
12.1302188999
 20
7.1305054424
 11
12.0859774326
 21
8.8200189131
  0
LINE
  5
250
100
AcDbEntity
  8
0
100
AcDbLine
 62
9
  6
CONTINUOUS
 10
12.0876923427
 20
6.7452187254
 11
12.0876923427
 21
6.7337100469
  0
LINE
  5
251
100
AcDbEntity
  8
0
100
AcDbLine
 62
7
  6
CONTINUOUS
 10
12.1176923427
 20
6.7628014672
 11
12.1176923427
 21
7.0375798591
  0
LINE
  5
252
100
AcDbEntity
  8
0
100
AcDbLine
 62
9
  6
CONTINUOUS
 10
12.1476923427
 20
6.6899375071
 11
12.1476923427
 21
7.0258645133
  0
LINE
  5
253
100
AcDbEntity
  8
0
100
AcDbLine
 62
9
  6
CONTINUOUS
 10
12.2927061014
 20
7.0562441767
 11
12.2927068452
 21
7.0429386614
  0
LINE
  5
254
100
AcDbEntity
  8
0
100
AcDbLine
 62
9
  6
CONTINUOUS
 10
12.2926853724
 20
8.9039151741
 11
12.2926849552
 21
8.9172131908
  0
LINE
  5
255
100
AcDbEntity
  8
0
100
AcDbLine
 62
9
  6
CONTINUOUS
 10
12.2926946692
 20
7.0202679667
 11
12.2926940388
 21
7.0027922857
  0
LINE
  5
256
100
AcDbEntity
  8
0
100
AcDbLine
 62
9
  6
CONTINUOUS
 10
12.4376923427
 20
6.6899375071
 11
12.4376923427
 21
7.0258644187
  0
LINE
  5
257
100
AcDbEntity
  8
0
100
AcDbLine
 62
7
  6
CONTINUOUS
 10
12.4676923427
 20
7.0375798591
 11
12.4676923427
 21
6.7628014673
  0
LINE
  5
258
100
AcDbEntity
  8
0
100
AcDbLine
 62
9
  6
CONTINUOUS
 10
12.4976923427
 20
6.7337100469
 11
12.4976923427
 21
6.7452187254
  0
LINE
  5
259
100
AcDbEntity
  8
0
100
AcDbLine
 62
7
  6
CONTINUOUS
 10
12.6326923427
 20
5.9852187254
 11
12.6326923427
 21
6.7452187254
  0
LINE
  5
25A
100
AcDbEntity
  8
0
100
AcDbLine
 62
9
  6
CONTINUOUS
 10
12.4994072528
 20
8.8200189131
 11
12.4551657856
 21
7.1305054424
  0
LINE
  5
25B
100
AcDbEntity
  8
0
100
AcDbLine
 62
9
  6
CONTINUOUS
 10
12.5352321498
 20
8.8196571858
 11
12.4909906826
 21
7.1301437165
  0
LINE
  5
25C
100
AcDbEntity
  8
0
100
AcDbLine
 62
9
  6
CONTINUOUS
 10
12.548537266
 20
8.8196005135
 11
12.5042958125
 21
7.1300875677
  0
LINE
  5
25D
100
AcDbEntity
  8
0
100
AcDbLine
 62
7
  6
CONTINUOUS
 10
12.577053852
 20
8.8444702268
 11
12.5315203582
 21
7.1056162551
  0
LINE
  5
25E
100
AcDbEntity
  8
0
100
AcDbLine
 62
7
  6
CONTINUOUS
 10
12.7326923427
 20
6.7226783923
 11
12.7326923427
 21
6.0077590585
  0
LINE
  5
25F
100
AcDbEntity
  8
0
100
AcDbLine
 62
7
  6
CONTINUOUS
 10
12.4792294712
 20
7.0557020595
 11
12.4793944704
 21
7.0557772576
  0
LWPOLYLINE
  5
260
100
AcDbEntity
  8
0
100
AcDbPolyline
 62
7
  6
CONTINUOUS
 90
10
 70
0
 10
9.2702163883
 20
4.9302192938
 10
9.2687932262
 20
4.9294779582
 10
9.265404281
 20
4.9272850919
 10
9.2623404151
 20
4.9246571236
 10
9.2596571067
 20
4.9216416451
 10
9.2574029302
 20
4.9182932546
 10
9.2556186886
 20
4.9146725725
 10
9.254336679
 20
4.9108451465
 10
9.253580108
 20
4.9068802672
 10
9.2533893642
 20
4.9045804615
  0
LINE
  5
261
100
AcDbEntity
  8
0
100
AcDbLine
 62
7
  6
CONTINUOUS
 10
9.2365390805
 20
4.8789295725
 11
9.23488103
 21
4.8781843844
  0
ARC
  5
262
100
AcDbEntity
  8
0
100
AcDbCircle
 62
7
  6
CONTINUOUS
 10
9.2411077971
 20
7.8819162851
 40
0.468503937
100
AcDbArc
 50
280.5491060217
 51
354.247680581
  0
ARC
  5
263
100
AcDbEntity
  8
0
100
AcDbCircle
 62
7
  6
CONTINUOUS
 10
9.6296923427
 20
7.8427719888
 40
0.0779527559
100
AcDbArc
 50
354.247680581
 51
56.2967024761
  0
ARC
  5
264
100
AcDbEntity
  8
0
100
AcDbCircle
 62
7
  6
CONTINUOUS
 10
10.7056923427
 20
7.8427719888
 40
0.0779527559
100
AcDbArc
 50
123.7032975239
 51
185.752319419
  0
ARC
  5
265
100
AcDbEntity
  8
0
100
AcDbCircle
 62
7
  6
CONTINUOUS
 10
9.3376923427
 20
7.3632738435
 40
0.0590551181
100
AcDbArc
 50
100.5491060217
 51
270.0
  0
ARC
  5
266
100
AcDbEntity
  8
0
100
AcDbCircle
 62
7
  6
CONTINUOUS
 10
9.7006923427
 20
7.9492187254
 40
0.05
100
AcDbArc
 50
90.0
 51
236.2967024761
  0
ARC
  5
267
100
AcDbEntity
  8
0
100
AcDbCircle
 62
7
  6
CONTINUOUS
 10
10.6346923427
 20
7.9492187254
 40
0.05
100
AcDbArc
 50
303.7032975239
 51
90.0
  0
ARC
  5
268
100
AcDbEntity
  8
0
100
AcDbCircle
 62
7
  6
CONTINUOUS
 10
9.1826923427
 20
4.6912187254
 40
0.04
100
AcDbArc
 50
90.0
 51
180.0
  0
ARC
  5
269
100
AcDbEntity
  8
0
100
AcDbCircle
 62
7
  6
CONTINUOUS
 10
9.3326923427
 20
4.9662187254
 40
0.04
100
AcDbArc
 50
90.0
 51
180.0
  0
ARC
  5
26A
100
AcDbEntity
  8
0
100
AcDbCircle
 62
7
  6
CONTINUOUS
 10
9.2501660269
 20
4.8412187465
 40
0.04
100
AcDbArc
 50
112.4647273761
 51
180.0
  0
ARC
  5
26B
100
AcDbEntity
  8
0
100
AcDbCircle
 62
7
  6
CONTINUOUS
 10
9.1901660269
 20
4.7512187254
 40
0.02
100
AcDbArc
 50
270.0
 51
360.0
  0
ARC
  5
26C
100
AcDbEntity
  8
0
100
AcDbCircle
 62
7
  6
CONTINUOUS
 10
9.2621077113
 20
11.3356909349
 40
0.6221572431
100
AcDbArc
 50
359.9980459897
 51
7.3309673424
  0
ARC
  5
26D
100
AcDbEntity
  8
0
100
AcDbCircle
 62
7
  6
CONTINUOUS
 10
10.1676923427
 20
13.7042187254
 40
0.25
100
AcDbArc
 50
0.0
 51
180.0
  0
ARC
  5
26E
100
AcDbEntity
  8
0
100
AcDbCircle
 62
7
  6
CONTINUOUS
 10
9.7573846536
 20
11.3994029922
 40
0.1227992242
100
AcDbArc
 50
7.3341170078
 51
9.3808617918
  0
ARC
  5
26F
100
AcDbEntity
  8
0
100
AcDbCircle
 62
7
  6
CONTINUOUS
 10
10.5779406219
 20
11.3994104023
 40
0.1227393543
100
AcDbArc
 50
170.6204574292
 51
172.6657735269
  0
ARC
  5
270
100
AcDbEntity
  8
0
100
AcDbCircle
 62
7
  6
CONTINUOUS
 10
9.9177571039
 20
11.5480260916
 40
0.096492142
100
AcDbArc
 50
169.4950477777
 51
179.9936056041
  0
ARC
  5
271
100
AcDbEntity
  8
0
100
AcDbCircle
 62
7
  6
CONTINUOUS
 10
10.4176439882
 20
11.548027255
 40
0.0964757353
100
AcDbArc
 50
0.0057045372
 51
10.5058744696
  0
ARC
  5
272
100
AcDbEntity
  8
0
100
AcDbCircle
 62
9
  6
CONTINUOUS
 10
9.9129336554
 20
11.5303737094
 40
0.0822123349
100
AcDbArc
 50
219.7772843009
 51
223.5719299523
  0
ARC
  5
273
100
AcDbEntity
  8
0
100
AcDbCircle
 62
9
  6
CONTINUOUS
 10
10.423887768
 20
11.5290946951
 40
0.0802898596
100
AcDbArc
 50
316.3770805102
 51
320.2581622886
  0
ARC
  5
274
100
AcDbEntity
  8
0
100
AcDbCircle
 62
7
  6
CONTINUOUS
 10
9.9296320036
 20
11.2199793003
 40
0.076939677
100
AcDbArc
 50
168.8791297224
 51
179.9912899703
  0
ARC
  5
275
100
AcDbEntity
  8
0
100
AcDbCircle
 62
7
  6
CONTINUOUS
 10
10.4057661664
 20
11.2199803379
 40
0.0769261923
100
AcDbArc
 50
0.0079387354
 51
11.1218837021
  0
ARC
  5
276
100
AcDbEntity
  8
0
100
AcDbCircle
 62
9
  6
CONTINUOUS
 10
9.9103694313
 20
11.514697243
 40
0.0698768819
100
AcDbArc
 50
215.714930174
 51
219.7410510977
  0
ARC
  5
277
100
AcDbEntity
  8
0
100
AcDbCircle
 62
9
  6
CONTINUOUS
 10
10.4262611539
 20
11.513733354
 40
0.0683026463
100
AcDbArc
 50
320.2135239496
 51
324.3316205303
  0
ARC
  5
278
100
AcDbEntity
  8
0
100
AcDbCircle
 62
9
  6
CONTINUOUS
 10
9.9056940887
 20
11.5112402354
 40
0.0640628335
100
AcDbArc
 50
215.0678657659
 51
215.6455192227
  0
ARC
  5
279
100
AcDbEntity
  8
0
100
AcDbCircle
 62
9
  6
CONTINUOUS
 10
10.4298480972
 20
11.5111284853
 40
0.0638697182
100
AcDbArc
 50
324.3537676835
 51
324.93300717
  0
ARC
  5
27A
100
AcDbEntity
  8
0
100
AcDbCircle
 62
9
  6
CONTINUOUS
 10
9.902446154
 20
11.5089883147
 40
0.0601106612
100
AcDbArc
 50
210.6905836517
 51
215.0897455216
  0
ARC
  5
27B
100
AcDbEntity
  8
0
100
AcDbCircle
 62
9
  6
CONTINUOUS
 10
10.4339750783
 20
11.5083180826
 40
0.0588772344
100
AcDbArc
 50
324.8640800495
 51
329.3418104299
  0
ARC
  5
27C
100
AcDbEntity
  8
0
100
AcDbCircle
 62
9
  6
CONTINUOUS
 10
9.8649101531
 20
11.5578407704
 40
0.042741969
100
AcDbArc
 50
167.3474999668
 51
169.5136097522
  0
ARC
  5
27D
100
AcDbEntity
  8
0
100
AcDbCircle
 62
9
  6
CONTINUOUS
 10
10.4706114374
 20
11.5578687969
 40
0.0426022498
100
AcDbArc
 50
10.4828136377
 51
12.6560524476
  0
ARC
  5
27E
100
AcDbEntity
  8
0
100
AcDbCircle
 62
7
  6
CONTINUOUS
 10
11.7481319516
 20
5.3484651353
 40
0.55
100
AcDbArc
 50
96.7025515627
 51
136.9055842118
  0
ARC
  5
27F
100
AcDbEntity
  8
0
100
AcDbCircle
 62
7
  6
CONTINUOUS
 10
11.6926923427
 20
5.8202187254
 40
0.075
100
AcDbArc
 50
36.8698976458
 51
96.7025515627
  0
ARC
  5
280
100
AcDbEntity
  8
0
100
AcDbCircle
 62
7
  6
CONTINUOUS
 10
11.3026923427
 20
5.7652187254
 40
0.06
100
AcDbArc
 50
180.0
 51
316.9055842118
  0
ARC
  5
281
100
AcDbEntity
  8
0
100
AcDbCircle
 62
7
  6
CONTINUOUS
 10
11.7926923427
 20
5.8952187254
 40
0.05
100
AcDbArc
 50
216.8698976459
 51
360.0
  0
ARC
  5
282
100
AcDbEntity
  8
0
100
AcDbCircle
 62
7
  6
CONTINUOUS
 10
11.1526923427
 20
4.6912187254
 40
0.04
100
AcDbArc
 50
0.0
 51
90.0
  0
ARC
  5
283
100
AcDbEntity
  8
0
100
AcDbCircle
 62
7
  6
CONTINUOUS
 10
11.0026923427
 20
4.9662187254
 40
0.04
100
AcDbArc
 50
0.0
 51
90.0
  0
ARC
  5
284
100
AcDbEntity
  8
0
100
AcDbCircle
 62
7
  6
CONTINUOUS
 10
11.0852186585
 20
4.8412187253
 40
0.04
100
AcDbArc
 50
0.0
 51
67.5352437206
  0
ARC
  5
285
100
AcDbEntity
  8
0
100
AcDbCircle
 62
7
  6
CONTINUOUS
 10
11.1452186585
 20
4.7512187254
 40
0.02
100
AcDbArc
 50
180.0
 51
270.0
  0
ARC
  5
286
100
AcDbEntity
  8
0
100
AcDbCircle
 62
7
  6
CONTINUOUS
 10
11.7481319516
 20
7.3819723155
 40
0.55
100
AcDbArc
 50
223.0944157883
 51
263.2974484373
  0
ARC
  5
287
100
AcDbEntity
  8
0
100
AcDbCircle
 62
7
  6
CONTINUOUS
 10
11.0942768884
 20
7.8819162851
 40
0.468503937
100
AcDbArc
 50
185.752319419
 51
259.4508939783
  0
ARC
  5
288
100
AcDbEntity
  8
0
100
AcDbCircle
 62
7
  6
CONTINUOUS
 10
11.6926923427
 20
6.9102187254
 40
0.075
100
AcDbArc
 50
263.2974484373
 51
323.1301023542
  0
ARC
  5
289
100
AcDbEntity
  8
0
100
AcDbCircle
 62
7
  6
CONTINUOUS
 10
11.3026923427
 20
6.9652187254
 40
0.06
100
AcDbArc
 50
43.0944157882
 51
180.0
  0
ARC
  5
28A
100
AcDbEntity
  8
0
100
AcDbCircle
 62
7
  6
CONTINUOUS
 10
10.9976923427
 20
7.3632738435
 40
0.0590551181
100
AcDbArc
 50
270.0
 51
79.4508939783
  0
ARC
  5
28B
100
AcDbEntity
  8
0
100
AcDbCircle
 62
7
  6
CONTINUOUS
 10
11.7926923427
 20
6.8352187254
 40
0.05
100
AcDbArc
 50
0.0
 51
143.1301023542
  0
ARC
  5
28C
100
AcDbEntity
  8
0
100
AcDbCircle
 62
7
  6
CONTINUOUS
 10
11.9026923427
 20
5.9252187254
 40
0.06
100
AcDbArc
 50
90.0
 51
180.0
  0
ARC
  5
28D
100
AcDbEntity
  8
0
100
AcDbCircle
 62
7
  6
CONTINUOUS
 10
12.6801520097
 20
6.0077590585
 40
0.0525403331
100
AcDbArc
 50
205.4047544257
 51
360.0
  0
ARC
  5
28E
100
AcDbEntity
  8
0
100
AcDbCircle
 62
7
  6
CONTINUOUS
 10
12.6801520097
 20
6.7226783923
 40
0.0525403331
100
AcDbArc
 50
0.0
 51
154.5952455743
  0
ARC
  5
28F
100
AcDbEntity
  8
0
100
AcDbCircle
 62
7
  6
CONTINUOUS
 10
11.9026923427
 20
6.8052187254
 40
0.06
100
AcDbArc
 50
180.0
 51
270.0
  0
ARC
  5
290
100
AcDbEntity
  8
0
100
AcDbCircle
 62
9
  6
CONTINUOUS
 10
12.1300008416
 20
7.1293495523
 40
0.0502841896
100
AcDbArc
 50
208.1354665074
 51
217.2794814124
  0
ARC
  5
291
100
AcDbEntity
  8
0
100
AcDbCircle
 62
9
  6
CONTINUOUS
 10
12.1427976825
 20
7.1373719409
 40
0.0499357133
100
AcDbArc
 50
208.0940514953
 51
217.313285102
  0
ARC
  5
292
100
AcDbEntity
  8
0
100
AcDbCircle
 62
7
  6
CONTINUOUS
 10
12.0938506202
 20
7.106663333
 40
0.04
100
AcDbArc
 50
181.5
 51
240.988850311
  0
ARC
  5
293
100
AcDbEntity
  8
0
100
AcDbCircle
 62
7
  6
CONTINUOUS
 10
12.0876923427
 20
6.7752187254
 40
0.03
100
AcDbArc
 50
270.0
 51
360.0
  0
ARC
  5
294
100
AcDbEntity
  8
0
100
AcDbCircle
 62
7
  6
CONTINUOUS
 10
12.0976923427
 20
7.0375798591
 40
0.02
100
AcDbArc
 50
0.0
 51
65.4873827799
  0
ARC
  5
295
100
AcDbEntity
  8
0
100
AcDbCircle
 62
9
  6
CONTINUOUS
 10
12.1332180412
 20
7.1305840925
 40
0.0030001827
100
AcDbArc
 50
181.5021921804
 51
244.4662571124
  0
ARC
  5
296
100
AcDbEntity
  8
0
100
AcDbCircle
 62
9
  6
CONTINUOUS
 10
12.0866565334
 20
8.8222872945
 40
0.0514741198
100
AcDbArc
 50
144.8530210201
 51
154.4430135453
  0
ARC
  5
297
100
AcDbEntity
  8
0
100
AcDbCircle
 62
9
  6
CONTINUOUS
 10
12.0998107515
 20
8.8143076508
 40
0.0510530536
100
AcDbArc
 50
144.8052009898
 51
154.4861543446
  0
ARC
  5
298
100
AcDbEntity
  8
0
100
AcDbCircle
 62
7
  6
CONTINUOUS
 10
12.0483171265
 20
8.8455173047
 40
0.04
100
AcDbArc
 50
117.4571630074
 51
181.5
  0
ARC
  5
299
100
AcDbEntity
  8
0
100
AcDbCircle
 62
9
  6
CONTINUOUS
 10
12.0889766071
 20
8.8200973273
 40
0.0030002026
100
AcDbArc
 50
114.5689472739
 51
181.4976719482
  0
ARC
  5
29A
100
AcDbEntity
  8
0
100
AcDbCircle
 62
9
  6
CONTINUOUS
 10
12.2926852175
 20
7.4699286977
 40
0.4671358805
100
AcDbArc
 50
251.9174495113
 51
288.082135649
  0
ARC
  5
29B
100
AcDbEntity
  8
0
100
AcDbCircle
 62
7
  6
CONTINUOUS
 10
12.2926923427
 20
7.4652187254
 40
0.45
100
AcDbArc
 50
293.8604113022
 51
299.011149689
  0
ARC
  5
29C
100
AcDbEntity
  8
0
100
AcDbCircle
 62
7
  6
CONTINUOUS
 10
12.2926923427
 20
7.4652187254
 40
0.45
100
AcDbArc
 50
240.988850311
 51
246.1395735079
  0
ARC
  5
29D
100
AcDbEntity
  8
0
100
AcDbCircle
 62
9
  6
CONTINUOUS
 10
12.2926863783
 20
7.4683458725
 40
0.4480774265
100
AcDbArc
 50
251.8546050767
 51
288.1448675636
  0
ARC
  5
29E
100
AcDbEntity
  8
0
100
AcDbCircle
 62
9
  6
CONTINUOUS
 10
12.2926897796
 20
7.4650655654
 40
0.4221267656
100
AcDbArc
 50
244.4534244126
 51
295.5462341444
  0
ARC
  5
29F
100
AcDbEntity
  8
0
100
AcDbCircle
 62
9
  6
CONTINUOUS
 10
12.2926919756
 20
7.4650883191
 40
0.4088441426
100
AcDbArc
 50
244.471207662
 51
295.5288341837
  0
ARC
  5
2A0
100
AcDbEntity
  8
0
100
AcDbCircle
 62
9
  6
CONTINUOUS
 10
12.2926923427
 20
7.4644522713
 40
0.3730001991
100
AcDbArc
 50
244.4682079426
 51
295.5317920574
  0
ARC
  5
2A1
100
AcDbEntity
  8
0
100
AcDbCircle
 62
7
  6
CONTINUOUS
 10
12.4915340652
 20
7.106663333
 40
0.04
100
AcDbArc
 50
299.011149689
 51
358.5
  0
ARC
  5
2A2
100
AcDbEntity
  8
0
100
AcDbCircle
 62
7
  6
CONTINUOUS
 10
12.4976923427
 20
6.7752187254
 40
0.03
100
AcDbArc
 50
180.0
 51
270.0
  0
ARC
  5
2A3
100
AcDbEntity
  8
0
100
AcDbCircle
 62
7
  6
CONTINUOUS
 10
12.4876923427
 20
7.0375798591
 40
0.02
100
AcDbArc
 50
114.5126172195
 51
179.9999999978
  0
ARC
  5
2A4
100
AcDbEntity
  8
0
100
AcDbCircle
 62
9
  6
CONTINUOUS
 10
12.4553602218
 20
7.1293661405
 40
0.0503129191
100
AcDbArc
 50
322.7219101405
 51
331.860605668
  0
ARC
  5
2A5
100
AcDbEntity
  8
0
100
AcDbCircle
 62
9
  6
CONTINUOUS
 10
12.4425695867
 20
7.1373857219
 40
0.049957718
100
AcDbArc
 50
322.6848778819
 51
331.8998521203
  0
ARC
  5
2A6
100
AcDbEntity
  8
0
100
AcDbCircle
 62
9
  6
CONTINUOUS
 10
12.4521666357
 20
7.1305840794
 40
0.0030001826
100
AcDbArc
 50
295.5339995438
 51
358.498062236
  0
ARC
  5
2A7
100
AcDbEntity
  8
0
100
AcDbCircle
 62
7
  6
CONTINUOUS
 10
12.2926923427
 20
8.3752187254
 40
0.57
100
AcDbArc
 50
62.5428369926
 51
117.4571630074
  0
ARC
  5
2A8
100
AcDbEntity
  8
0
100
AcDbCircle
 62
9
  6
CONTINUOUS
 10
12.2926950122
 20
8.3750870835
 40
0.5421259403
100
AcDbArc
 50
65.4430155032
 51
114.5567100538
  0
ARC
  5
2A9
100
AcDbEntity
  8
0
100
AcDbCircle
 62
9
  6
CONTINUOUS
 10
12.2926918845
 20
8.3750702368
 40
0.5288449374
100
AcDbArc
 50
65.4312459875
 51
114.5687424422
  0
ARC
  5
2AA
100
AcDbEntity
  8
0
100
AcDbCircle
 62
9
  6
CONTINUOUS
 10
12.2926923427
 20
8.3744516504
 40
0.493000364
100
AcDbArc
 50
65.4336637094
 51
114.5663362906
  0
ARC
  5
2AB
100
AcDbEntity
  8
0
100
AcDbCircle
 62
9
  6
CONTINUOUS
 10
12.4985853405
 20
8.8222051047
 40
0.0516383994
100
AcDbArc
 50
25.5709102401
 51
35.1304786756
  0
ARC
  5
2AC
100
AcDbEntity
  8
0
100
AcDbCircle
 62
9
  6
CONTINUOUS
 10
12.4854011273
 20
8.8142089649
 40
0.0512514597
100
AcDbArc
 50
25.5289958839
 51
35.1728578399
  0
ARC
  5
2AD
100
AcDbEntity
  8
0
100
AcDbCircle
 62
7
  6
CONTINUOUS
 10
12.537067559
 20
8.8455173047
 40
0.04
100
AcDbArc
 50
358.5
 51
62.5428369926
  0
ARC
  5
2AE
100
AcDbEntity
  8
0
100
AcDbCircle
 62
9
  6
CONTINUOUS
 10
12.4964080874
 20
8.8200973134
 40
0.0030002027
100
AcDbArc
 50
358.5025886236
 51
65.4313198922
  0
ARC
  5
2AF
100
AcDbEntity
  8
0
100
AcDbCircle
 62
7
  6
CONTINUOUS
 10
11.0732822091
 20
11.3356907435
 40
0.622162478
100
AcDbArc
 50
172.6690661548
 51
180.0019363728
  0
SPLINE
  5
2B0
100
AcDbEntity
  8
0
100
AcDbSpline
 62
7
  6
CONTINUOUS
 70
0
 71
3
 72
41
 73
37
 74
0
 42
0.0000001
 43
0.0000001
 44
0.0000000001
 40
0.0
 40
0.0
 40
0.0
 40
0.0
 40
0.0110985195
 40
0.0431386208
 40
0.093039958
 40
0.1235608177
 40
0.1572252635
 40
0.1936554439
 40
0.2325155566
 40
0.2735046125
 40
0.316341765
 40
0.3607447902
 40
0.3834415867
 40
0.4064102834
 40
0.4296037407
 40
0.4529701523
 40
0.4647018496
 40
0.4764557896
 40
0.5000000021
 40
0.5235442146
 40
0.5352981546
 40
0.5470298517
 40
0.5703962627
 40
0.5935897194
 40
0.6165584164
 40
0.6392552129
 40
0.6836582378
 40
0.7264953899
 40
0.7674844449
 40
0.8063445569
 40
0.8427747369
 40
0.8764391826
 40
0.9069600421
 40
0.9568613793
 40
0.9889014806
 40
1.0
 40
1.0
 40
1.0
 40
1.0
 10
10.9726923427
 20
5.8652187254
 30
0.0
 10
10.9705981165
 20
5.8685904025
 30
0.0
 10
10.9624945539
 20
5.8817183789
 30
0.0
 10
10.9453347399
 20
5.9102274428
 30
0.0
 10
10.925402785
 20
5.9451691026
 30
0.0
 10
10.9061457076
 20
5.9811422917
 30
0.0
 10
10.8899171397
 20
6.0132623029
 30
0.0
 10
10.8733493231
 20
6.04853683
 30
0.0
 10
10.8569795525
 20
6.0867746603
 30
0.0
 10
10.8413886232
 20
6.1278031601
 30
0.0
 10
10.8272094334
 20
6.1714358848
 30
0.0
 10
10.817209466
 20
6.2094878509
 30
0.0
 10
10.810551388
 20
6.2410085651
 30
0.0
 10
10.8063000408
 20
6.265270152
 30
0.0
 10
10.8029048448
 20
6.2899081766
 30
0.0
 10
10.8008436422
 20
6.3106583637
 30
0.0
 10
10.79967748
 20
6.3273742337
 30
0.0
 10
10.798837434
 20
6.3441733523
 30
0.0
 10
10.7984164018
 20
6.3652187277
 30
0.0
 10
10.798837434
 20
6.386264103
 30
0.0
 10
10.7996774802
 20
6.4030632215
 30
0.0
 10
10.8008436428
 20
6.4197790912
 30
0.0
 10
10.802904845
 20
6.4405292779
 30
0.0
 10
10.8063000414
 20
6.4651673021
 30
0.0
 10
10.8105513888
 20
6.4894288889
 30
0.0
 10
10.8172094665
 20
6.520949603
 30
0.0
 10
10.8272094343
 20
6.5590015688
 30
0.0
 10
10.8413886239
 20
6.6026342929
 30
0.0
 10
10.8569795531
 20
6.643662792
 30
0.0
 10
10.8733493235
 20
6.6819006217
 30
0.0
 10
10.8899171399
 20
6.7171751483
 30
0.0
 10
10.9061457077
 20
6.7492951593
 30
0.0
 10
10.9254027851
 20
6.7852683484
 30
0.0
 10
10.94533474
 20
6.8202100081
 30
0.0
 10
10.9624945539
 20
6.8487190719
 30
0.0
 10
10.9705981165
 20
6.8618470483
 30
0.0
 10
10.9726923427
 20
6.8652187254
 30
0.0
  0
SPLINE
  5
2B1
100
AcDbEntity
  8
0
100
AcDbSpline
 62
7
  6
CONTINUOUS
 70
0
 71
3
 72
14
 73
10
 74
0
 42
0.0000001
 43
0.0000001
 44
0.0000000001
 40
0.0
 40
0.0
 40
0.0
 40
0.0
 40
0.0840948666
 40
0.1835577325
 40
0.2965935931
 40
0.4213022736
 40
0.6980724057
 40
0.8467294068
 40
1.0
 40
1.0
 40
1.0
 40
1.0
 10
10.4787440385
 20
11.4700206218
 30
0.0
 10
10.4777455156
 20
11.4688187247
 30
0.0
 10
10.4756500529
 20
11.4661246455
 30
0.0
 10
10.4725341894
 20
11.4615750357
 30
0.0
 10
10.4693238232
 20
11.4561889555
 30
0.0
 10
10.4649708673
 20
11.4476712323
 30
0.0
 10
10.4612682752
 20
11.438102204
 30
0.0
 10
10.4584135104
 20
11.4277293621
 30
0.0
 10
10.4573063836
 20
11.4222235269
 30
0.0
 10
10.4568422419
 20
11.4194136886
 30
0.0
  0
SPLINE
  5
2B2
100
AcDbEntity
  8
0
100
AcDbSpline
 62
7
  6
CONTINUOUS
 70
0
 71
3
 72
14
 73
10
 74
0
 42
0.0000001
 43
0.0000001
 44
0.0000000001
 40
0.0
 40
0.0
 40
0.0
 40
0.0
 40
0.1532469656
 40
0.3018806728
 40
0.5786744728
 40
0.7033848445
 40
0.8164320143
 40
0.915903759
 40
1.0
 40
1.0
 40
1.0
 40
1.0
 10
9.8785416422
 20
11.4194188253
 30
0.0
 10
9.8780775288
 20
11.4222279791
 30
0.0
 10
9.8769705379
 20
11.4277324792
 30
0.0
 10
9.8741152843
 20
11.438103763
 30
0.0
 10
9.8704137518
 20
11.4476723463
 30
0.0
 10
9.8660599443
 20
11.4561894811
 30
0.0
 10
9.8628502979
 20
11.4615758356
 30
0.0
 10
9.8597342257
 20
11.466125247
 30
0.0
 10
9.8576386967
 20
11.4688191386
 30
0.0
 10
9.856640276
 20
11.4700209818
 30
0.0
  0
SPLINE
  5
2B3
100
AcDbEntity
  8
0
100
AcDbSpline
 62
7
  6
CONTINUOUS
 70
0
 71
3
 72
16
 73
12
 74
0
 42
0.0000001
 43
0.0000001
 44
0.0000000001
 40
0.0
 40
0.0
 40
0.0
 40
0.0
 40
0.1225870565
 40
0.2452239049
 40
0.368443144
 40
0.4926496498
 40
0.6180182946
 40
0.6811746497
 40
0.7446214526
 40
0.8720112247
 40
1.0
 40
1.0
 40
1.0
 40
1.0
 10
10.4554322938
 20
11.1587383507
 30
0.0
 10
10.4574095837
 20
11.1607366721
 30
0.0
 10
10.4612260122
 20
11.1648751737
 30
0.0
 10
10.4664586343
 20
11.1715206487
 30
0.0
 10
10.4711277156
 20
11.1786208692
 30
0.0
 10
10.4751481079
 20
11.1861802152
 30
0.0
 10
10.4778721456
 20
11.1928295073
 30
0.0
 10
10.4796325825
 20
11.1983357432
 30
0.0
 10
10.4811015747
 20
11.2039747826
 30
0.0
 10
10.4823553405
 20
11.2111940947
 30
0.0
 10
10.482692358
 20
11.2170559009
 30
0.0
 10
10.482692358
 20
11.2199909966
 30
0.0
  0
SPLINE
  5
2B4
100
AcDbEntity
  8
0
100
AcDbSpline
 62
7
  6
CONTINUOUS
 70
0
 71
3
 72
15
 73
11
 74
0
 42
0.0000001
 43
0.0000001
 44
0.0000000001
 40
0.0
 40
0.0
 40
0.0
 40
0.0
 40
0.1450490459
 40
0.2827498879
 40
0.4137226321
 40
0.5387376036
 40
0.6587198567
 40
0.7747603664
 40
0.8880849375
 40
1.0
 40
1.0
 40
1.0
 40
1.0
 10
9.8799736471
 20
11.1587168817
 30
0.0
 10
9.8786840433
 20
11.1600201185
 30
0.0
 10
9.8762520446
 20
11.1626437906
 30
0.0
 10
9.8729888157
 20
11.1667368497
 30
0.0
 10
9.8702147248
 20
11.1708757231
 30
0.0
 10
9.8679351936
 20
11.1750538307
 30
0.0
 10
9.8661555435
 20
11.1792649188
 30
0.0
 10
9.8648802211
 20
11.183502151
 30
0.0
 10
9.8641135098
 20
11.1877567207
 30
0.0
 10
9.8639423999
 20
11.1906066258
 30
0.0
 10
9.8639423999
 20
11.1920212481
 30
0.0
  0
SPLINE
  5
2B5
100
AcDbEntity
  8
0
100
AcDbSpline
 62
7
  6
CONTINUOUS
 70
0
 71
3
 72
16
 73
12
 74
0
 42
0.0000001
 43
0.0000001
 44
0.0000000001
 40
0.0
 40
0.0
 40
0.0
 40
0.0
 40
0.1279913991
 40
0.2553736031
 40
0.3188231722
 40
0.3819811941
 40
0.507350664
 40
0.6315562532
 40
0.7547759828
 40
0.877417226
 40
1.0
 40
1.0
 40
1.0
 40
1.0
 10
9.8526923275
 20
11.2199909966
 30
0.0
 10
9.8526923275
 20
11.2170556614
 30
0.0
 10
9.8530292874
 20
11.2111935957
 30
0.0
 10
9.8542834193
 20
11.2039739469
 30
0.0
 10
9.8557524198
 20
11.1983346179
 30
0.0
 10
9.8575130813
 20
11.1928279551
 30
0.0
 10
9.8602374011
 20
11.1861782552
 30
0.0
 10
9.8642584383
 20
11.1786186592
 30
0.0
 10
9.8689278111
 20
11.1715178908
 30
0.0
 10
9.874161277
 20
11.1648724121
 30
0.0
 10
9.8779777874
 20
11.1607335146
 30
0.0
 10
9.8799552807
 20
11.158735291
 30
0.0
  0
SPLINE
  5
2B6
100
AcDbEntity
  8
0
100
AcDbSpline
 62
7
  6
CONTINUOUS
 70
0
 71
3
 72
15
 73
11
 74
0
 42
0.0000001
 43
0.0000001
 44
0.0000000001
 40
0.0
 40
0.0
 40
0.0
 40
0.0
 40
0.1119165523
 40
0.2252424374
 40
0.3412839239
 40
0.461266679
 40
0.5862815771
 40
0.7172536052
 40
0.8549530494
 40
1.0
 40
1.0
 40
1.0
 40
1.0
 10
10.4714422856
 20
11.1920212481
 30
0.0
 10
10.4714422856
 20
11.1906067267
 30
0.0
 10
10.4712712004
 20
11.1877570277
 30
0.0
 10
10.4705045993
 20
11.1835027624
 30
0.0
 10
10.4692294596
 20
11.1792658306
 30
0.0
 10
10.4674500633
 20
11.1750550368
 30
0.0
 10
10.4651708557
 20
11.1708772162
 30
0.0
 10
10.4623971569
 20
11.1667386214
 30
0.0
 10
10.459134387
 20
11.1626458313
 30
0.0
 10
10.4567027236
 20
11.1600223216
 30
0.0
 10
10.4554132974
 20
11.1587191646
 30
0.0
  0
SPLINE
  5
2B7
100
AcDbEntity
  8
0
100
AcDbSpline
 62
7
  6
CONTINUOUS
 70
0
 71
3
 72
16
 73
12
 74
0
 42
0.0000001
 43
0.0000001
 44
0.0000000001
 40
0.0
 40
0.0
 40
0.0
 40
0.0
 40
0.120849327
 40
0.2426836561
 40
0.3658004237
 40
0.4903440747
 40
0.6162703834
 40
0.6797294356
 40
0.7434733736
 40
0.871463581
 40
1.0
 40
1.0
 40
1.0
 40
1.0
 10
10.4856045977
 20
11.4775964263
 30
0.0
 10
10.4876937227
 20
11.4799283869
 30
0.0
 10
10.4917257579
 20
11.4847611713
 30
0.0
 10
10.4972282582
 20
11.4924888114
 30
0.0
 10
10.502125461
 20
11.5007277425
 30
0.0
 10
10.5063230308
 20
11.5094632151
 30
0.0
 10
10.5091504731
 20
11.5171035202
 30
0.0
 10
10.5109711726
 20
11.5234060822
 30
0.0
 10
10.5124867399
 20
11.5298439334
 30
0.0
 10
10.5137742283
 20
11.5380559403
 30
0.0
 10
10.514119723
 20
11.544706816
 30
0.0
 10
10.514119723
 20
11.5480368605
 30
0.0
  0
SPLINE
  5
2B8
100
AcDbEntity
  8
0
100
AcDbSpline
 62
7
  6
CONTINUOUS
 70
0
 71
3
 72
16
 73
12
 74
0
 42
0.0000001
 43
0.0000001
 44
0.0000000001
 40
0.0
 40
0.0
 40
0.0
 40
0.0
 40
0.1285367449
 40
0.2565171537
 40
0.320263058
 40
0.3837234004
 40
0.5096496557
 40
0.6341945788
 40
0.7573116454
 40
0.8791510944
 40
1.0
 40
1.0
 40
1.0
 40
1.0
 10
9.8212649625
 20
11.5480368605
 30
0.0
 10
9.8212649625
 20
11.5447077149
 30
0.0
 10
9.8216101495
 20
11.5380588858
 30
0.0
 10
9.822897126
 20
11.5298493018
 30
0.0
 10
9.8244116561
 20
11.5234132353
 30
0.0
 10
9.8262313678
 20
11.5171121619
 30
0.0
 10
9.8290572681
 20
11.5094735862
 30
0.0
 10
9.8332528328
 20
11.500740044
 30
0.0
 10
9.8381475496
 20
11.4925024804
 30
0.0
 10
9.8436474852
 20
11.4847760308
 30
0.0
 10
9.847677718
 20
11.4799438101
 30
0.0
 10
9.849766004
 20
11.4776122577
 30
0.0
  0
SPLINE
  5
2B9
100
AcDbEntity
  8
0
100
AcDbSpline
 62
7
  6
CONTINUOUS
 70
0
 71
3
 72
45
 73
41
 74
0
 42
0.0000001
 43
0.0000001
 44
0.0000000001
 40
0.0
 40
0.0
 40
0.0
 40
0.0
 40
0.0225843179
 40
0.0460072882
 40
0.0581182461
 40
0.0705300621
 40
0.0832624542
 40
0.0963309464
 40
0.1097466373
 40
0.1235176065
 40
0.1521339675
 40
0.1821762133
 40
0.2135957158
 40
0.2463097451
 40
0.2802080665
 40
0.3151582365
 40
0.3510099735
 40
0.3875989207
 40
0.4247498957
 40
0.4622798368
 40
0.5000005271
 40
0.5377212118
 40
0.5752511367
 40
0.6124020853
 40
0.648990995
 40
0.6848426842
 40
0.7197927976
 40
0.7536910552
 40
0.7864050109
 40
0.8178244336
 40
0.847866592
 40
0.8764828705
 40
0.8902537862
 40
0.9036694259
 40
0.9167378285
 40
0.9294702357
 40
0.9418820224
 40
0.9539927865
 40
0.9774157406
 40
1.0
 40
1.0
 40
1.0
 40
1.0
 10
9.8800946841
 20
11.158594782
 30
0.0
 10
9.883309717
 20
11.1553569341
 30
0.0
 10
9.8902712433
 20
11.1491626625
 30
0.0
 10
9.8998049901
 20
11.1422802016
 30
0.0
 10
9.9080039129
 20
11.137117466
 30
0.0
 10
9.9145273936
 20
11.1333586913
 30
0.0
 10
9.9213533998
 20
11.1297483869
 30
0.0
 10
9.928478358
 20
11.1262792758
 30
0.0
 10
9.9358989066
 20
11.1229471799
 30
0.0
 10
9.9463140347
 20
11.1186267975
 30
0.0
 10
9.9600551305
 20
11.1135743072
 30
0.0
 10
9.9774197926
 20
11.1081070449
 30
0.0
 10
9.9957992335
 20
11.1031647456
 30
0.0
 10
10.0151134868
 20
11.0987578333
 30
0.0
 10
10.0352710908
 20
11.0948997946
 30
0.0
 10
10.0561700143
 20
11.0916051056
 30
0.0
 10
10.0776995641
 20
11.088887753
 30
0.0
 10
10.0997419232
 20
11.0867602337
 30
0.0
 10
10.122173694
 20
11.085232861
 30
0.0
 10
10.144867343
 20
11.0843132971
 30
0.0
 10
10.167692608
 20
11.0840062515
 30
0.0
 10
10.1905178695
 20
11.0843133118
 30
0.0
 10
10.2132115082
 20
11.0852328899
 30
0.0
 10
10.2356432619
 20
11.086760276
 30
0.0
 10
10.2576855971
 20
11.0888878074
 30
0.0
 10
10.2792151167
 20
11.0916051703
 30
0.0
 10
10.3001140045
 20
11.0948998675
 30
0.0
 10
10.3202715675
 20
11.0987579118
 30
0.0
 10
10.3395857753
 20
11.1031648261
 30
0.0
 10
10.357965166
 20
11.1081071244
 30
0.0
 10
10.3753297772
 20
11.1135743804
 30
0.0
 10
10.3890708272
 20
11.1186268646
 30
0.0
 10
10.3994859167
 20
11.1229472417
 30
0.0
 10
10.406906426
 20
11.1262793284
 30
0.0
 10
10.4140313733
 20
11.129748405
 30
0.0
 10
10.4208573348
 20
11.1333587487
 30
0.0
 10
10.427380794
 20
11.1371174759
 30
0.0
 10
10.4355796652
 20
11.1422802036
 30
0.0
 10
10.4451133774
 20
11.1491626177
 30
0.0
 10
10.4520748982
 20
11.155356873
 30
0.0
 10
10.4552899276
 20
11.1585947078
 30
0.0
  0
SPLINE
  5
2BA
100
AcDbEntity
  8
0
100
AcDbSpline
 62
7
  6
CONTINUOUS
 70
0
 71
3
 72
48
 73
44
 74
0
 42
0.0000001
 43
0.0000001
 44
0.0000000001
 40
0.0
 40
0.0
 40
0.0
 40
0.0
 40
0.0120406946
 40
0.0240812206
 40
0.0362094764
 40
0.0484681926
 40
0.0608891628
 40
0.0735115757
 40
0.0863727151
 40
0.0995009603
 40
0.1129189477
 40
0.1266443735
 40
0.1406903791
 40
0.155066351
 40
0.1848202685
 40
0.215905213
 40
0.2482702076
 40
0.2818259106
 40
0.3164522619
 40
0.3520047595
 40
0.3883197134
 40
0.4252187731
 40
0.4625129657
 40
0.5000064262
 40
0.5374998766
 40
0.5747940381
 40
0.6116930444
 40
0.6480079298
 40
0.6835603394
 40
0.7181865814
 40
0.7517421623
 40
0.7841070261
 40
0.8151918282
 40
0.8449455826
 40
0.873364695
 40
0.9005043454
 40
0.92648921
 40
0.9391117286
 40
0.9515319297
 40
0.9637894679
 40
0.9759187036
 40
0.987962861
 40
1.0
 40
1.0
 40
1.0
 40
1.0
 10
10.4917647488
 20
11.6075990119
 30
0.0
 10
10.4899647502
 20
11.6097025251
 30
0.0
 10
10.486221502
 20
11.6137889995
 30
0.0
 10
10.4802184969
 20
11.6195647081
 30
0.0
 10
10.4738584746
 20
11.6250213981
 30
0.0
 10
10.4671517588
 20
11.6301892866
 30
0.0
 10
10.460112268
 20
11.6350944921
 30
0.0
 10
10.4527456947
 20
11.6397568551
 30
0.0
 10
10.4450564251
 20
11.6441991858
 30
0.0
 10
10.4370454181
 20
11.6484371489
 30
0.0
 10
10.4287145895
 20
11.6524832407
 30
0.0
 10
10.4200664823
 20
11.6563475778
 30
0.0
 10
10.4111037715
 20
11.6600369807
 30
0.0
 10
10.3985968252
 20
11.6647849954
 30
0.0
 10
10.3821925611
 20
11.670285518
 30
0.0
 10
10.3615769707
 20
11.6761623389
 30
0.0
 10
10.3398873703
 20
11.681388897
 30
0.0
 10
10.3172191973
 20
11.6859570547
 30
0.0
 10
10.2936834078
 20
11.6898543908
 30
0.0
 10
10.2694047138
 20
11.6930670296
 30
0.0
 10
10.2445188259
 20
11.6955816118
 30
0.0
 10
10.219170132
 20
11.6973866216
 30
0.0
 10
10.1935094033
 20
11.6984732778
 30
0.0
 10
10.1676916181
 20
11.6988361027
 30
0.0
 10
10.1418738406
 20
11.6984732369
 30
0.0
 10
10.1162131354
 20
11.6973865407
 30
0.0
 10
10.0908644794
 20
11.6955814926
 30
0.0
 10
10.0659786442
 20
11.6930668743
 30
0.0
 10
10.0417000141
 20
11.6898542028
 30
0.0
 10
10.0181643112
 20
11.6859568384
 30
0.0
 10
9.9954962016
 20
11.6813886556
 30
0.0
 10
9.9738067924
 20
11.6761620822
 30
0.0
 10
9.9531909827
 20
11.6702852362
 30
0.0
 10
9.9337251544
 20
11.6637577413
 30
0.0
 10
9.9154647902
 20
11.6565644956
 30
0.0
 10
9.8984462122
 20
11.6486678584
 30
0.0
 10
9.8851888825
 20
11.6413705336
 30
0.0
 10
9.8752721769
 20
11.6350942095
 30
0.0
 10
9.8682329153
 20
11.6301893007
 30
0.0
 10
9.8615263071
 20
11.6250216659
 30
0.0
 10
9.8551657148
 20
11.6195644062
 30
0.0
 10
9.8491628363
 20
11.6137882255
 30
0.0
 10
9.8454194037
 20
11.609701904
 30
0.0
 10
9.8436199367
 20
11.6075990119
 30
0.0
  0
SPLINE
  5
2BB
100
AcDbEntity
  8
0
100
AcDbSpline
 62
7
  6
CONTINUOUS
 70
0
 71
3
 72
14
 73
10
 74
0
 42
0.0000001
 43
0.0000001
 44
0.0000000001
 40
0.0
 40
0.0
 40
0.0
 40
0.0
 40
0.2484540276
 40
0.3726889523
 40
0.4971971477
 40
0.6221744169
 40
0.7475514758
 40
0.8733299656
 40
1.0
 40
1.0
 40
1.0
 40
1.0
 10
9.8435640616
 20
11.6075336587
 30
0.0
 10
9.8411013091
 20
11.6046512617
 30
0.0
 10
9.8376226651
 20
11.6001335737
 30
0.0
 10
9.8335283331
 20
11.5937423369
 30
0.0
 10
9.8307494398
 20
11.5887579604
 30
0.0
 10
9.8282905418
 20
11.5835888152
 30
0.0
 10
9.826176514
 20
11.5782478823
 30
0.0
 10
9.824435242
 20
11.5727468628
 30
0.0
 10
9.8235429993
 20
11.5689951551
 30
0.0
 10
9.8231659908
 20
11.5670993897
 30
0.0
  0
SPLINE
  5
2BC
100
AcDbEntity
  8
0
100
AcDbSpline
 62
7
  6
CONTINUOUS
 70
0
 71
3
 72
14
 73
10
 74
0
 42
0.0000001
 43
0.0000001
 44
0.0000000001
 40
0.0
 40
0.0
 40
0.0
 40
0.0
 40
0.1266965457
 40
0.2524468227
 40
0.3778136097
 40
0.502799975
 40
0.627314172
 40
0.751548563
 40
1.0
 40
1.0
 40
1.0
 40
1.0
 10
10.5122186948
 20
11.5670993897
 30
0.0
 10
10.5118415904
 20
11.5689956371
 30
0.0
 10
10.5109494313
 20
11.5727475193
 30
0.0
 10
10.5092079138
 20
11.5782485472
 30
0.0
 10
10.5070937924
 20
11.5835892318
 30
0.0
 10
10.5046348196
 20
11.5887587033
 30
0.0
 10
10.5018557722
 20
11.5937435473
 30
0.0
 10
10.4977610218
 20
11.6001349758
 30
0.0
 10
10.4942822044
 20
11.6046527883
 30
0.0
 10
10.4918193062
 20
11.6075352329
 30
0.0
  0
SPLINE
  5
2BD
100
AcDbEntity
  8
0
100
AcDbSpline
 62
7
  6
CONTINUOUS
 70
0
 71
3
 72
16
 73
12
 74
0
 42
0.0000001
 43
0.0000001
 44
0.0000000001
 40
0.0
 40
0.0
 40
0.0
 40
0.0
 40
0.0817645271
 40
0.180255525
 40
0.2934462085
 40
0.4190910136
 40
0.4858890358
 40
0.5549584806
 40
0.625976624
 40
0.6986083736
 40
1.0
 40
1.0
 40
1.0
 40
1.0
 10
9.8707426075
 20
11.2721242042
 30
0.0
 10
9.8714308031
 20
11.2730704457
 30
0.0
 10
9.8728739277
 20
11.2752110081
 30
0.0
 10
9.8749858874
 20
11.2788440432
 30
0.0
 10
9.8771184247
 20
11.2831790189
 30
0.0
 10
9.8787621613
 20
11.2872365404
 30
0.0
 10
9.8799768786
 20
11.2907768618
 30
0.0
 10
9.880830458
 20
11.2936123807
 30
0.0
 10
9.8815973786
 20
11.2965590799
 30
0.0
 10
9.882967218
 20
11.3027786344
 30
0.0
 10
9.8836018103
 20
11.3081238888
 30
0.0
 10
9.8837812864
 20
11.3124330169
 30
0.0
  0
SPLINE
  5
2BE
100
AcDbEntity
  8
0
100
AcDbSpline
 62
7
  6
CONTINUOUS
 70
0
 71
3
 72
17
 73
13
 74
0
 42
0.0000001
 43
0.0000001
 44
0.0000000001
 40
0.0
 40
0.0
 40
0.0
 40
0.0
 40
0.3013913335
 40
0.3739996813
 40
0.4450128009
 40
0.5140929605
 40
0.5809024076
 40
0.6451538594
 40
0.7065711042
 40
0.8197446592
 40
0.9182444571
 40
1.0
 40
1.0
 40
1.0
 40
1.0
 10
10.4516033991
 20
11.3124330169
 30
0.0
 10
10.4517828858
 20
11.3081236346
 30
0.0
 10
10.4524171461
 20
11.3027783279
 30
0.0
 10
10.453787515
 20
11.2965589164
 30
0.0
 10
10.4545547449
 20
11.2936123648
 30
0.0
 10
10.4554081519
 20
11.2907763995
 30
0.0
 10
10.4563375534
 20
11.2880664998
 30
0.0
 10
10.4573280943
 20
11.2854955708
 30
0.0
 10
10.4586726231
 20
11.2823524746
 30
0.0
 10
10.4604000047
 20
11.2788427846
 30
0.0
 10
10.4625113107
 20
11.2752094779
 30
0.0
 10
10.4639549865
 20
11.273069076
 30
0.0
 10
10.4646431108
 20
11.2721228549
 30
0.0
  0
SPLINE
  5
2BF
100
AcDbEntity
  8
0
100
AcDbSpline
 62
7
  6
CONTINUOUS
 70
0
 71
3
 72
14
 73
10
 74
0
 42
0.0000001
 43
0.0000001
 44
0.0000000001
 40
0.0
 40
0.0
 40
0.0
 40
0.0
 40
0.245242004
 40
0.3690489147
 40
0.4937063502
 40
0.6192002419
 40
0.7453885776
 40
0.8722465231
 40
1.0
 40
1.0
 40
1.0
 40
1.0
 10
9.870742671
 20
11.272124225
 30
0.0
 10
9.8687638982
 20
11.2694036535
 30
0.0
 10
9.8659759197
 20
11.2651653799
 30
0.0
 10
9.8626942219
 20
11.2592387033
 30
0.0
 10
9.8604495887
 20
11.2546231656
 30
0.0
 10
9.8584488467
 20
11.2498614125
 30
0.0
 10
9.8567092129
 20
11.2449658321
 30
0.0
 10
9.855248812
 20
11.2399475642
 30
0.0
 10
9.8544735549
 20
11.2365395321
 30
0.0
 10
9.8541365589
 20
11.2348197942
 30
0.0
  0
SPLINE
  5
2C0
100
AcDbEntity
  8
0
100
AcDbSpline
 62
7
  6
CONTINUOUS
 70
0
 71
3
 72
14
 73
10
 74
0
 42
0.0000001
 43
0.0000001
 44
0.0000000001
 40
0.0
 40
0.0
 40
0.0
 40
0.0
 40
0.1277968462
 40
0.2546164525
 40
0.3807811663
 40
0.506281749
 40
0.6309526089
 40
0.7547606754
 40
1.0
 40
1.0
 40
1.0
 40
1.0
 10
10.4812481266
 20
11.2348197942
 30
0.0
 10
10.480910974
 20
11.2365403313
 30
0.0
 10
10.4801357281
 20
11.2399488879
 30
0.0
 10
10.478674987
 20
11.2449674788
 30
0.0
 10
10.4769351117
 20
11.2498628556
 30
0.0
 10
10.4749340707
 20
11.2546251265
 30
0.0
 10
10.4726891106
 20
11.2592415472
 30
0.0
 10
10.4694066465
 20
11.2651689611
 30
0.0
 10
10.466618122
 20
11.2694076088
 30
0.0
 10
10.4646389914
 20
11.2721283952
 30
0.0
  0
SPLINE
  5
2C1
100
AcDbEntity
  8
0
100
AcDbSpline
 62
9
  6
CONTINUOUS
 70
0
 71
3
 72
14
 73
10
 74
0
 42
0.0000001
 43
0.0000001
 44
0.0000000001
 40
0.0
 40
0.0
 40
0.0
 40
0.0
 40
0.2752130227
 40
0.4047280273
 40
0.5296454033
 40
0.6507334206
 40
0.7688577606
 40
0.8849543605
 40
1.0
 40
1.0
 40
1.0
 40
1.0
 10
9.8497504142
 20
11.4777738422
 30
0.0
 10
9.8477563022
 20
11.4801750928
 30
0.0
 10
9.84503463
 20
11.4838968732
 30
0.0
 10
9.8420768177
 20
11.4891309841
 30
0.0
 10
9.8402926879
 20
11.4930041805
 30
0.0
 10
9.8389016166
 20
11.4968985781
 30
0.0
 10
9.8379059174
 20
11.5008098175
 30
0.0
 10
9.8373077855
 20
11.5047318358
 30
0.0
 10
9.8371744362
 20
11.5073552054
 30
0.0
 10
9.8371744362
 20
11.5086599818
 30
0.0
  0
SPLINE
  5
2C2
100
AcDbEntity
  8
0
100
AcDbSpline
 62
9
  6
CONTINUOUS
 70
0
 71
3
 72
27
 73
23
 74
0
 42
0.0000001
 43
0.0000001
 44
0.0000000001
 40
0.0
 40
0.0
 40
0.0
 40
0.0
 40
0.0110799747
 40
0.0238938356
 40
0.0383883506
 40
0.0545671332
 40
0.0724329085
 40
0.0919246818
 40
0.1129721394
 40
0.1355348123
 40
0.1850714999
 40
0.2402278558
 40
0.3005698376
 40
0.3656526123
 40
0.4350625251
 40
0.5083198886
 40
0.5849375667
 40
0.664414022
 40
0.7462212931
 40
0.8298108497
 40
0.9146008528
 40
1.0
 40
1.0
 40
1.0
 40
1.0
 10
9.2790849756
 20
4.9014570147
 30
0.0
 10
9.2823246926
 20
4.9007251789
 30
0.0
 10
9.2893121001
 20
4.8991513906
 30
0.0
 10
9.3005402506
 20
4.8966319527
 30
0.0
 10
9.3132615567
 20
4.8937859648
 30
0.0
 10
9.3274651112
 20
4.8906291154
 30
0.0
 10
9.343137472
 20
4.8871766418
 30
0.0
 10
9.3602415306
 20
4.8834395152
 30
0.0
 10
9.3787276747
 20
4.879432101
 30
0.0
 10
9.4060272035
 20
4.8735700168
 30
0.0
 10
9.4433510588
 20
4.8656904759
 30
0.0
 10
9.4918162927
 20
4.8557633744
 30
0.0
 10
9.5449228886
 20
4.8452782649
 30
0.0
 10
9.6023171999
 20
4.834460896
 30
0.0
 10
9.6636392096
 20
4.8235969295
 30
0.0
 10
9.7285121241
 20
4.8129831237
 30
0.0
 10
9.7965337682
 20
4.802972905
 30
0.0
 10
9.8672801475
 20
4.7939545514
 30
0.0
 10
9.9402947018
 20
4.7863356049
 30
0.0
 10
10.0150764076
 20
4.7805350889
 30
0.0
 10
10.0910729919
 20
4.7768803667
 30
0.0
 10
10.1420929832
 20
4.7760528243
 30
0.0
 10
10.1676923427
 20
4.7760527925
 30
0.0
  0
SPLINE
  5
2C3
100
AcDbEntity
  8
0
100
AcDbSpline
 62
9
  6
CONTINUOUS
 70
0
 71
3
 72
35
 73
31
 74
0
 42
0.0000001
 43
0.0000001
 44
0.0000000001
 40
0.0
 40
0.0
 40
0.0
 40
0.0
 40
0.0136981099
 40
0.0283151941
 40
0.0440644583
 40
0.0610711187
 40
0.0793974996
 40
0.0990588811
 40
0.1200446969
 40
0.1423252334
 40
0.1905858802
 40
0.2434732253
 40
0.3005963642
 40
0.3616042042
 40
0.4262087411
 40
0.4942092528
 40
0.5655288666
 40
0.6402863034
 40
0.6790832221
 40
0.7189657979
 40
0.7601186885
 40
0.8028333033
 40
0.8475693079
 40
0.8709067948
 40
0.8950319058
 40
0.9200324357
 40
0.9328791853
 40
0.9459574175
 40
0.9727334618
 40
1.0
 40
1.0
 40
1.0
 40
1.0
 10
12.0876923427
 20
6.7337100469
 30
0.0
 10
12.0876923511
 20
6.7333589096
 30
0.0
 10
12.0877590149
 20
6.7326321745
 30
0.0
 10
12.0880305967
 20
6.7315325023
 30
0.0
 10
12.0884640149
 20
6.7303954619
 30
0.0
 10
12.0890491462
 20
6.7292221691
 30
0.0
 10
12.0897768021
 20
6.7280133749
 30
0.0
 10
12.0906381366
 20
6.7267700181
 30
0.0
 10
12.0916253838
 20
6.725493545
 30
0.0
 10
12.093140592
 20
6.723701467
 30
0.0
 10
12.0953148183
 20
6.7213997449
 30
0.0
 10
12.0982491528
 20
6.718596323
 30
0.0
 10
12.1015344092
 20
6.7156923098
 30
0.0
 10
12.1051373983
 20
6.7126979876
 30
0.0
 10
12.1090341265
 20
6.7096235391
 30
0.0
 10
12.1132114312
 20
6.7064801968
 30
0.0
 10
12.117671578
 20
6.7032822517
 30
0.0
 10
12.1215955314
 20
6.7006234433
 30
0.0
 10
12.1249094914
 20
6.6985045647
 30
0.0
 10
12.1275342122
 20
6.6969081191
 30
0.0
 10
12.1302910474
 20
6.6953376203
 30
0.0
 10
12.1332163874
 20
6.6938156576
 30
0.0
 10
12.1358030206
 20
6.6926380787
 30
0.0
 10
12.1380056601
 20
6.6917794529
 30
0.0
 10
12.1397665175
 20
6.6911857076
 30
0.0
 10
12.1412978822
 20
6.6907593678
 30
0.0
 10
12.1425709868
 20
6.6904696045
 30
0.0
 10
12.1438988949
 20
6.6902193969
 30
0.0
 10
12.1456076639
 20
6.6900039138
 30
0.0
 10
12.1469933924
 20
6.6899372281
 30
0.0
 10
12.1476923427
 20
6.6899375071
 30
0.0
  0
SPLINE
  5
2C4
100
AcDbEntity
  8
0
100
AcDbSpline
 62
9
  6
CONTINUOUS
 70
0
 71
3
 72
38
 73
34
 74
0
 42
0.0000001
 43
0.0000001
 44
0.0000000001
 40
0.0
 40
0.0
 40
0.0
 40
0.0
 40
0.0272654638
 40
0.040749912
 40
0.0540538582
 40
0.0671313446
 40
0.079974367
 40
0.0925881742
 40
0.1049757091
 40
0.1291038368
 40
0.152441123
 40
0.1751013315
 40
0.1971804795
 40
0.2398930798
 40
0.2810445366
 40
0.3209263747
 40
0.3597227665
 40
0.4344789158
 40
0.505797472
 40
0.5737971822
 40
0.6384007518
 40
0.6994075806
 40
0.7565298104
 40
0.8094161882
 40
0.8576762148
 40
0.87995661
 40
0.9009423036
 40
0.9206035524
 40
0.9389296729
 40
0.9559360528
 40
0.9716851518
 40
0.986302104
 40
1.0
 40
1.0
 40
1.0
 40
1.0
 10
12.4376923427
 20
6.6899375071
 30
0.0
 10
12.438391276
 20
6.689936966
 30
0.0
 10
12.4394363673
 20
6.6899884253
 30
0.0
 10
12.4408143616
 20
6.6901349684
 30
0.0
 10
12.4418259256
 20
6.6902824418
 30
0.0
 10
12.4428143173
 20
6.6904685579
 30
0.0
 10
12.443777565
 20
6.6906883772
 30
0.0
 10
12.4447159782
 20
6.6909349403
 30
0.0
 10
12.445924711
 20
6.6912890568
 30
0.0
 10
12.4473794441
 20
6.691778996
 30
0.0
 10
12.4490548015
 20
6.6924320437
 30
0.0
 10
12.4506559428
 20
6.693126977
 30
0.0
 10
12.4526837763
 20
6.6940833886
 30
0.0
 10
12.4550938048
 20
6.6953375543
 30
0.0
 10
12.4578504856
 20
6.6969080398
 30
0.0
 10
12.4604751975
 20
6.6985044963
 30
0.0
 10
12.4637891496
 20
6.7006233655
 30
0.0
 10
12.467713086
 20
6.7032822025
 30
0.0
 10
12.4721732276
 20
6.7064801579
 30
0.0
 10
12.4763505519
 20
6.7096234869
 30
0.0
 10
12.4802472762
 20
6.7126979479
 30
0.0
 10
12.4838502511
 20
6.7156922832
 30
0.0
 10
12.4871354965
 20
6.7185962983
 30
0.0
 10
12.4900698136
 20
6.7213997357
 30
0.0
 10
12.4922440467
 20
6.723701455
 30
0.0
 10
12.4937592957
 20
6.7254935156
 30
0.0
 10
12.4947465754
 20
6.7267699818
 30
0.0
 10
12.4956079371
 20
6.7280133322
 30
0.0
 10
12.4963355884
 20
6.7292221352
 30
0.0
 10
12.496920694
 20
6.7303954432
 30
0.0
 10
12.4973540912
 20
6.7315324952
 30
0.0
 10
12.4976256642
 20
6.7326321732
 30
0.0
 10
12.497692331
 20
6.7333589097
 30
0.0
 10
12.4976923427
 20
6.7337100469
 30
0.0
  0
SPLINE
  5
2C5
100
AcDbEntity
  8
0
100
AcDbSpline
 62
9
  6
CONTINUOUS
 70
0
 71
3
 72
68
 73
64
 74
0
 42
0.0000001
 43
0.0000001
 44
0.0000000001
 40
0.0
 40
0.0
 40
0.0
 40
0.0
 40
0.0487558291
 40
0.0731010676
 40
0.0974008081
 40
0.1458048606
 40
0.19385701
 40
0.2414446686
 40
0.2884549362
 40
0.3803102093
 40
0.4685835032
 40
0.5111234969
 40
0.5524675207
 40
0.5925191395
 40
0.6311837771
 40
0.6683693253
 40
0.7039859584
 40
0.7379460762
 40
0.7701639092
 40
0.8005567385
 40
0.8290457595
 40
0.8555567576
 40
0.8800209282
 40
0.9023717427
 40
0.9127334497
 40
0.9225415381
 40
0.9317897374
 40
0.9404728481
 40
0.9485856811
 40
0.9561226902
 40
0.963077801
 40
0.9694448854
 40
0.9752183679
 40
0.9803947588
 40
0.9849710541
 40
0.9870332283
 40
0.9889443065
 40
0.9907040433
 40
0.9923122
 40
0.9937685389
 40
0.995072824
 40
0.9962248214
 40
0.997224296
 40
0.9976667485
 40
0.9980709554
 40
0.9984368742
 40
0.9987644624
 40
0.9990536766
 40
0.9993044733
 40
0.9995168087
 40
0.9996085396
 40
0.9996906384
 40
0.9997630997
 40
0.9998259177
 40
0.9998790868
 40
0.9999226014
 40
0.9999564558
 40
0.9999697586
 40
0.9999806441
 40
0.9999891118
 40
0.9999951608
 40
0.9999987905
 40
1.0
 40
1.0
 40
1.0
 40
1.0
 10
10.1676923427
 20
4.8486759173
 30
0.0
 10
10.1820670184
 20
4.8486759374
 30
0.0
 10
10.2036200395
 20
4.8488710429
 30
0.0
 10
10.2323297638
 20
4.8495144684
 30
0.0
 10
10.2609290542
 20
4.8504096052
 30
0.0
 10
10.2964984419
 20
4.851986983
 30
0.0
 10
10.3388897097
 20
4.8545757142
 30
0.0
 10
10.3808252035
 20
4.8577989669
 30
0.0
 10
10.4355692667
 20
4.8628174039
 30
0.0
 10
10.5021282111
 20
4.8702696216
 30
0.0
 10
10.567195734
 20
4.8790232995
 30
0.0
 10
10.6174034095
 20
4.886474555
 30
0.0
 10
10.6535035337
 20
4.8921292227
 30
0.0
 10
10.6884347422
 20
4.8978564816
 30
0.0
 10
10.7221213032
 20
4.9035929869
 30
0.0
 10
10.754487882
 20
4.9092886747
 30
0.0
 10
10.7854599192
 20
4.9149033327
 30
0.0
 10
10.8149664142
 20
4.9203894248
 30
0.0
 10
10.842938592
 20
4.9257009764
 30
0.0
 10
10.86931014
 20
4.930794544
 30
0.0
 10
10.8940165817
 20
4.9356362959
 30
0.0
 10
10.9169954852
 20
4.9402037966
 30
0.0
 10
10.9381873218
 20
4.9444787841
 30
0.0
 10
10.9547012733
 20
4.947864306
 30
0.0
 10
10.9669804072
 20
4.9503907315
 30
0.0
 10
10.9754764505
 20
4.952135283
 30
0.0
 10
10.983487988
 20
4.9537789228
 30
0.0
 10
10.991009155
 20
4.9553258011
 30
0.0
 10
10.9980342176
 20
4.9567804469
 30
0.0
 10
11.0045580036
 20
4.9581432938
 30
0.0
 10
11.0105767408
 20
4.9594067335
 30
0.0
 10
11.0160863895
 20
4.9605644942
 30
0.0
 10
11.0210837579
 20
4.9616099727
 30
0.0
 10
11.0255648234
 20
4.9625450004
 30
0.0
 10
11.0289747524
 20
4.9632565338
 30
0.0
 10
11.031441946
 20
4.9637729582
 30
0.0
 10
11.0330961223
 20
4.9641203317
 30
0.0
 10
11.034619035
 20
4.9644414457
 30
0.0
 10
11.0360104484
 20
4.9647363802
 30
0.0
 10
11.0372701322
 20
4.9650051991
 30
0.0
 10
11.0383978525
 20
4.9652479836
 30
0.0
 10
11.0393933878
 20
4.9654647524
 30
0.0
 10
11.0401401019
 20
4.9656299455
 30
0.0
 10
11.040671201
 20
4.9657490739
 30
0.0
 10
11.0410198943
 20
4.9658279561
 30
0.0
 10
11.0413354255
 20
4.9658999446
 30
0.0
 10
11.0416177845
 20
4.9659649075
 30
0.0
 10
11.0418669614
 20
4.9660227141
 30
0.0
 10
11.042082946
 20
4.9660732338
 30
0.0
 10
11.0422421693
 20
4.96611078
 30
0.0
 10
11.042352946
 20
4.9661370677
 30
0.0
 10
11.0424235826
 20
4.966153897
 30
0.0
 10
11.0424859142
 20
4.9661688072
 30
0.0
 10
11.0425399373
 20
4.9661817789
 30
0.0
 10
11.0425856572
 20
4.9661928047
 30
0.0
 10
11.0426230541
 20
4.9662018429
 30
0.0
 10
11.0426490543
 20
4.9662081837
 30
0.0
 10
11.0426656464
 20
4.9662121852
 30
0.0
 10
11.0426750726
 20
4.9662145677
 30
0.0
 10
11.0426821607
 20
4.9662160855
 30
0.0
 10
11.0426877814
 20
4.966217944
 30
0.0
 10
11.0426901563
 20
4.9662176764
 30
0.0
 10
11.0426923117
 20
4.966219081
 30
0.0
 10
11.0426923427
 20
4.9662187257
 30
0.0
  0
SPLINE
  5
2C6
100
AcDbEntity
  8
0
100
AcDbSpline
 62
9
  6
CONTINUOUS
 70
0
 71
3
 72
37
 73
33
 74
0
 42
0.0000001
 43
0.0000001
 44
0.0000000001
 40
0.0
 40
0.0
 40
0.0
 40
0.0
 40
0.234045436
 40
0.3392395715
 40
0.4366429704
 40
0.5263099111
 40
0.6082755109
 40
0.6825389826
 40
0.7490796768
 40
0.807867346
 40
0.8588625777
 40
0.8814234231
 40
0.9020183656
 40
0.9206466414
 40
0.9373096315
 40
0.9520086336
 40
0.9647448554
 40
0.9755194136
 40
0.9801713953
 40
0.9843333386
 40
0.9880053576
 40
0.9911875606
 40
0.9938800504
 40
0.996082924
 40
0.9977962728
 40
0.9984694025
 40
0.9990201826
 40
0.9994486231
 40
0.9997547333
 40
0.9998619175
 40
0.9999385225
 40
1.0
 40
1.0
 40
1.0
 40
1.0
 10
11.0562998064
 20
4.9014570419
 30
0.0
 10
11.058273233
 20
4.9019028218
 30
0.0
 10
11.0611480286
 20
4.9024881037
 30
0.0
 10
11.0648699317
 20
4.9031168903
 30
0.0
 10
11.067369373
 20
4.9034863228
 30
0.0
 10
11.0696763108
 20
4.9037815102
 30
0.0
 10
11.0717892871
 20
4.9040136955
 30
0.0
 10
11.0737068124
 20
4.9041916672
 30
0.0
 10
11.0754271566
 20
4.9043235555
 30
0.0
 10
11.076948488
 20
4.9044176087
 30
0.0
 10
11.0780911722
 20
4.9044733219
 30
0.0
 10
11.0789043682
 20
4.9045063795
 30
0.0
 10
11.0794380901
 20
4.9045259034
 30
0.0
 10
11.0799209281
 20
4.904541688
 30
0.0
 10
11.0803528794
 20
4.9045541093
 30
0.0
 10
11.0807339593
 20
4.9045635725
 30
0.0
 10
11.0810641831
 20
4.9045704758
 30
0.0
 10
11.0813075949
 20
4.9045746097
 30
0.0
 10
11.0814769066
 20
4.9045769604
 30
0.0
 10
11.0815848307
 20
4.904578245
 30
0.0
 10
11.0816800526
 20
4.9045791896
 30
0.0
 10
11.0817625745
 20
4.9045798447
 30
0.0
 10
11.0818323973
 20
4.9045802583
 30
0.0
 10
11.0818895259
 20
4.9045804863
 30
0.0
 10
11.0819291938
 20
4.9045805545
 30
0.0
 10
11.0819545897
 20
4.9045805721
 30
0.0
 10
11.0819688616
 20
4.9045805347
 30
0.0
 10
11.0819800018
 20
4.9045805768
 30
0.0
 10
11.0819872168
 20
4.9045804196
 30
0.0
 10
11.0819915338
 20
4.90458058
 30
0.0
 10
11.0819935095
 20
4.9045802524
 30
0.0
 10
11.0819949829
 20
4.9045808553
 30
0.0
 10
11.0819953367
 20
4.9045804588
 30
0.0
  0
SPLINE
  5
2C7
100
AcDbEntity
  8
0
100
AcDbSpline
 62
9
  6
CONTINUOUS
 70
0
 71
3
 72
27
 73
23
 74
0
 42
0.0000001
 43
0.0000001
 44
0.0000000001
 40
0.0
 40
0.0
 40
0.0
 40
0.0
 40
0.0853992029
 40
0.1701892659
 40
0.2537788744
 40
0.3355861859
 40
0.4150626922
 40
0.49168041
 40
0.564937797
 40
0.634347722
 40
0.6994305149
 40
0.7597724755
 40
0.8149289065
 40
0.8644657418
 40
0.8870281861
 40
0.9080754326
 40
0.9275672802
 40
0.9454332567
 40
0.9616120128
 40
0.9761062342
 40
0.9889197834
 40
1.0
 40
1.0
 40
1.0
 40
1.0
 10
10.1676923427
 20
4.7760527925
 30
0.0
 10
10.1932917218
 20
4.7760528262
 30
0.0
 10
10.2443117529
 20
4.7768803896
 30
0.0
 10
10.3203083973
 20
4.7805350838
 30
0.0
 10
10.3950901554
 20
4.7863356228
 30
0.0
 10
10.4681047646
 20
4.7939545369
 30
0.0
 10
10.5388511842
 20
4.8029729512
 30
0.0
 10
10.6068728665
 20
4.8129831955
 30
0.0
 10
10.6717458117
 20
4.8235969978
 30
0.0
 10
10.7330678523
 20
4.8344609228
 30
0.0
 10
10.7904621653
 20
4.8452783343
 30
0.0
 10
10.8435687821
 20
4.85576348
 30
0.0
 10
10.8920340846
 20
4.8656905744
 30
0.0
 10
10.9293579521
 20
4.8735700701
 30
0.0
 10
10.9566573889
 20
4.8794321812
 30
0.0
 10
10.9751434205
 20
4.8834396074
 30
0.0
 10
10.9922475008
 20
4.887176734
 30
0.0
 10
11.0079199411
 20
4.8906292022
 30
0.0
 10
11.022123458
 20
4.893786064
 30
0.0
 10
11.0348445717
 20
4.8966320515
 30
0.0
 10
11.0460726135
 20
4.8991514817
 30
0.0
 10
11.0530600091
 20
4.9007252309
 30
0.0
 10
11.0562998064
 20
4.9014570419
 30
0.0
  0
SPLINE
  5
2C8
100
AcDbEntity
  8
0
100
AcDbSpline
 62
9
  6
CONTINUOUS
 70
0
 71
3
 72
53
 73
49
 74
0
 42
0.0000001
 43
0.0000001
 44
0.0000000001
 40
0.0
 40
0.0
 40
0.0
 40
0.0
 40
0.0088025957
 40
0.0180735646
 40
0.0278347934
 40
0.0381022361
 40
0.0488864451
 40
0.0601935342
 40
0.0720255531
 40
0.0843812035
 40
0.0972560986
 40
0.1106432581
 40
0.1245333076
 40
0.1389147999
 40
0.1537743973
 40
0.1690970573
 40
0.2010621054
 40
0.2346633902
 40
0.2697335947
 40
0.3060899101
 40
0.3435367347
 40
0.3818680893
 40
0.4208698502
 40
0.4603218658
 40
0.5
 40
0.5396781342
 40
0.5791301498
 40
0.6181319107
 40
0.6564632653
 40
0.6939100899
 40
0.7302664053
 40
0.7653366098
 40
0.7989378946
 40
0.8309029427
 40
0.8462256027
 40
0.8610852001
 40
0.8754666924
 40
0.8893567419
 40
0.9027439014
 40
0.9156187965
 40
0.9279744469
 40
0.9398064658
 40
0.9511135549
 40
0.9618977639
 40
0.9721652066
 40
0.9819264354
 40
0.9911974043
 40
1.0
 40
1.0
 40
1.0
 40
1.0
 10
10.491764725
 20
11.6075990095
 30
0.0
 10
10.4904610545
 20
11.6091225154
 30
0.0
 10
10.4876656381
 20
11.6121504506
 30
0.0
 10
10.4830626812
 20
11.6165166966
 30
0.0
 10
10.4779521727
 20
11.6208151014
 30
0.0
 10
10.4723424916
 20
11.6250387322
 30
0.0
 10
10.4662425163
 20
11.6291813667
 30
0.0
 10
10.4596618891
 20
11.633236468
 30
0.0
 10
10.452611085
 20
11.6371977761
 30
0.0
 10
10.4451012947
 20
11.6410589674
 30
0.0
 10
10.4371445084
 20
11.644813952
 30
0.0
 10
10.4287534297
 20
11.6484566962
 30
0.0
 10
10.4199414935
 20
11.6519813802
 30
0.0
 10
10.410722835
 20
11.6553823184
 30
0.0
 10
10.4011122234
 20
11.6586540788
 30
0.0
 10
10.387605229
 20
11.6628968804
 30
0.0
 10
10.3698430017
 20
11.6678201789
 30
0.0
 10
10.3475191444
 20
11.6730549574
 30
0.0
 10
10.324037638
 20
11.6776628093
 30
0.0
 10
10.2995495825
 20
11.6816137628
 30
0.0
 10
10.2742122543
 20
11.6848820734
 30
0.0
 10
10.2481887141
 20
11.6874464467
 30
0.0
 10
10.2216465137
 20
11.6892901716
 30
0.0
 10
10.1947566346
 20
11.6904012341
 30
0.0
 10
10.1676923428
 20
11.6907723944
 30
0.0
 10
10.1406280509
 20
11.6904012341
 30
0.0
 10
10.1137381718
 20
11.6892901716
 30
0.0
 10
10.0871959714
 20
11.6874464467
 30
0.0
 10
10.0611724312
 20
11.6848820734
 30
0.0
 10
10.035835103
 20
11.6816137628
 30
0.0
 10
10.0113470475
 20
11.6776628093
 30
0.0
 10
9.9878655412
 20
11.6730549574
 30
0.0
 10
9.9655416838
 20
11.6678201789
 30
0.0
 10
9.9477794566
 20
11.6628968804
 30
0.0
 10
9.9342724621
 20
11.6586540788
 30
0.0
 10
9.9246618505
 20
11.6553823184
 30
0.0
 10
9.915443192
 20
11.6519813802
 30
0.0
 10
9.9066312558
 20
11.6484566962
 30
0.0
 10
9.8982401771
 20
11.644813952
 30
0.0
 10
9.8902833908
 20
11.6410589674
 30
0.0
 10
9.8827736005
 20
11.6371977761
 30
0.0
 10
9.8757227965
 20
11.633236468
 30
0.0
 10
9.8691421692
 20
11.6291813667
 30
0.0
 10
9.8630421939
 20
11.6250387322
 30
0.0
 10
9.8574325128
 20
11.6208151014
 30
0.0
 10
9.8523220043
 20
11.6165166966
 30
0.0
 10
9.8477190475
 20
11.6121504506
 30
0.0
 10
9.844923631
 20
11.6091225154
 30
0.0
 10
9.8436199605
 20
11.6075990095
 30
0.0
  0
SPLINE
  5
2C9
100
AcDbEntity
  8
0
100
AcDbSpline
 62
9
  6
CONTINUOUS
 70
0
 71
3
 72
59
 73
55
 74
0
 42
0.0000001
 43
0.0000001
 44
0.0000000001
 40
0.0
 40
0.0
 40
0.0
 40
0.0
 40
0.0075619459
 40
0.0154053652
 40
0.0236264101
 40
0.0323050283
 40
0.0415055958
 40
0.0512781236
 40
0.0616596009
 40
0.0726760967
 40
0.0843442387
 40
0.0966726997
 40
0.1096635763
 40
0.1233130902
 40
0.1376126861
 40
0.1525495512
 40
0.1681070855
 40
0.1842655767
 40
0.2010022867
 40
0.218291969
 40
0.2361071072
 40
0.2544180098
 40
0.2923976552
 40
0.3319622377
 40
0.3728194116
 40
0.4146602266
 40
0.4571635019
 40
0.5
 40
0.5428364981
 40
0.5853397734
 40
0.6271805884
 40
0.6680377623
 40
0.7076023448
 40
0.7455819902
 40
0.7638928928
 40
0.781708031
 40
0.7989977133
 40
0.8157344233
 40
0.8318929145
 40
0.8474504488
 40
0.8623873139
 40
0.8766869098
 40
0.8903364237
 40
0.9033273003
 40
0.9156557613
 40
0.9273239033
 40
0.9383403991
 40
0.9487218764
 40
0.9584944042
 40
0.9676949717
 40
0.9763735899
 40
0.9845946348
 40
0.9924380541
 40
1.0
 40
1.0
 40
1.0
 40
1.0
 10
10.5122186742
 20
11.5670993892
 30
0.0
 10
10.5118469333
 20
11.5689688876
 30
0.0
 10
10.5108311509
 20
11.5727302133
 30
0.0
 10
10.5085659602
 20
11.5782526173
 30
0.0
 10
10.5055466356
 20
11.5837243514
 30
0.0
 10
10.5017831191
 20
11.5891332167
 30
0.0
 10
10.4972855047
 20
11.5944694477
 30
0.0
 10
10.4920645535
 20
11.599722896
 30
0.0
 10
10.4861321043
 20
11.6048837035
 30
0.0
 10
10.4795009852
 20
11.6099415776
 30
0.0
 10
10.4721855033
 20
11.6148862712
 30
0.0
 10
10.4642014122
 20
11.619707562
 30
0.0
 10
10.455565854
 20
11.6243951087
 30
0.0
 10
10.4462975594
 20
11.6289389665
 30
0.0
 10
10.436416618
 20
11.6333292323
 30
0.0
 10
10.4259445373
 20
11.6375563026
 30
0.0
 10
10.4149042031
 20
11.6416110073
 30
0.0
 10
10.4033197377
 20
11.6454843228
 30
0.0
 10
10.3912165416
 20
11.6491677979
 30
0.0
 10
10.3786211773
 20
11.6526532842
 30
0.0
 10
10.3655612523
 20
11.6559330859
 30
0.0
 10
10.3473449074
 20
11.6600725398
 30
0.0
 10
10.3236150908
 20
11.6646600513
 30
0.0
 10
10.2941075615
 20
11.6691789344
 30
0.0
 10
10.2634889645
 20
11.6727361061
 30
0.0
 10
10.2320285137
 20
11.6752998789
 30
0.0
 10
10.2000024591
 20
11.6768473371
 30
0.0
 10
10.1676923428
 20
11.6773646952
 30
0.0
 10
10.1353822264
 20
11.6768473371
 30
0.0
 10
10.1033561718
 20
11.6752998789
 30
0.0
 10
10.071895721
 20
11.6727361061
 30
0.0
 10
10.041277124
 20
11.6691789344
 30
0.0
 10
10.0117695947
 20
11.6646600513
 30
0.0
 10
9.9880397781
 20
11.6600725398
 30
0.0
 10
9.9698234332
 20
11.6559330859
 30
0.0
 10
9.9567635082
 20
11.6526532842
 30
0.0
 10
9.9441681439
 20
11.6491677979
 30
0.0
 10
9.9320649478
 20
11.6454843228
 30
0.0
 10
9.9204804825
 20
11.6416110073
 30
0.0
 10
9.9094401482
 20
11.6375563026
 30
0.0
 10
9.8989680676
 20
11.6333292323
 30
0.0
 10
9.8890871261
 20
11.6289389665
 30
0.0
 10
9.8798188315
 20
11.6243951087
 30
0.0
 10
9.8711832733
 20
11.619707562
 30
0.0
 10
9.8631991822
 20
11.6148862712
 30
0.0
 10
9.8558837003
 20
11.6099415776
 30
0.0
 10
9.8492525813
 20
11.6048837035
 30
0.0
 10
9.843320132
 20
11.599722896
 30
0.0
 10
9.8380991808
 20
11.5944694477
 30
0.0
 10
9.8336015664
 20
11.5891332167
 30
0.0
 10
9.8298380499
 20
11.5837243514
 30
0.0
 10
9.8268187253
 20
11.5782526173
 30
0.0
 10
9.8245535346
 20
11.5727302133
 30
0.0
 10
9.8235377523
 20
11.5689688876
 30
0.0
 10
9.8231660113
 20
11.5670993892
 30
0.0
  0
SPLINE
  5
2CA
100
AcDbEntity
  8
0
100
AcDbSpline
 62
9
  6
CONTINUOUS
 70
0
 71
3
 72
67
 73
63
 74
0
 42
0.0000001
 43
0.0000001
 44
0.0000000001
 40
0.0
 40
0.0
 40
0.0
 40
0.0
 40
0.0488513631
 40
0.0732437465
 40
0.0975895388
 40
0.1460810221
 40
0.1942136628
 40
0.2418727178
 40
0.288942448
 40
0.3353146158
 40
0.3808829447
 40
0.4691909688
 40
0.5530678533
 40
0.6317406695
 40
0.668889341
 40
0.7044688493
 40
0.7383943002
 40
0.7705752405
 40
0.8009225816
 40
0.8293546303
 40
0.8558170346
 40
0.8802504952
 40
0.9025719098
 40
0.9129167319
 40
0.9227073171
 40
0.9319361825
 40
0.9405980166
 40
0.9486895509
 40
0.9562075962
 40
0.9631481234
 40
0.9695042042
 40
0.9752682834
 40
0.9804331082
 40
0.9849958046
 40
0.9870514783
 40
0.9889567842
 40
0.990711784
 40
0.9923165364
 40
0.9937708705
 40
0.9950742366
 40
0.9962260489
 40
0.9972257213
 40
0.9976683219
 40
0.9980726677
 40
0.9984386854
 40
0.9987663017
 40
0.9990554433
 40
0.999306045
 40
0.9995180901
 40
0.9996096542
 40
0.9996915795
 40
0.9997638662
 40
0.9998265143
 40
0.9998795239
 40
0.9999228953
 40
0.9999566285
 40
0.9999698808
 40
0.9999807235
 40
0.9999891569
 40
0.9999951807
 40
0.9999987951
 40
1.0
 40
1.0
 40
1.0
 40
1.0
 10
10.1676923427
 20
4.8111113907
 30
0.0
 10
10.1824622284
 20
4.8111114017
 30
0.0
 10
10.2046076095
 20
4.8113050067
 30
0.0
 10
10.2341064788
 20
4.8119447745
 30
0.0
 10
10.2634900497
 20
4.8128356806
 30
0.0
 10
10.3000325405
 20
4.8144074278
 30
0.0
 10
10.3435810244
 20
4.8169870774
 30
0.0
 10
10.386655991
 20
4.8202027542
 30
0.0
 10
10.4291493758
 20
4.8239955261
 30
0.0
 10
10.4709592897
 20
4.8282910468
 30
0.0
 10
10.5250997153
 20
4.8345241662
 30
0.0
 10
10.5903752963
 20
4.8431365673
 30
0.0
 10
10.6653797255
 20
4.8544191079
 30
0.0
 10
10.7249500378
 20
4.8642699163
 30
0.0
 10
10.7700442998
 20
4.8721363217
 30
0.0
 10
10.8017817454
 20
4.8778415163
 30
0.0
 10
10.8320156333
 20
4.8834195769
 30
0.0
 10
10.8606720105
 20
4.8888276309
 30
0.0
 10
10.8876779192
 20
4.8940240154
 30
0.0
 10
10.9129713215
 20
4.8989693801
 30
0.0
 10
10.9364965384
 20
4.9036395937
 30
0.0
 10
10.9581977479
 20
4.9080093299
 30
0.0
 10
10.9751143385
 20
4.9114539179
 30
0.0
 10
10.9876894217
 20
4.9140315197
 30
0.0
 10
10.9963853055
 20
4.9158209765
 30
0.0
 10
11.004581705
 20
4.9175131456
 30
0.0
 10
11.0122740623
 20
4.9191060703
 30
0.0
 10
11.0194589352
 20
4.9205988094
 30
0.0
 10
11.0261332922
 20
4.9219903521
 30
0.0
 10
11.0322930111
 20
4.9232794944
 30
0.0
 10
11.0379329802
 20
4.9244633223
 30
0.0
 10
11.0430471055
 20
4.925538871
 30
0.0
 10
11.047630579
 20
4.9265030236
 30
0.0
 10
11.051116853
 20
4.927236375
 30
0.0
 10
11.0536386102
 20
4.9277674738
 30
0.0
 10
11.0553296143
 20
4.928124042
 30
0.0
 10
11.056887103
 20
4.9284530293
 30
0.0
 10
11.0583110344
 20
4.9287545595
 30
0.0
 10
11.059601205
 20
4.9290286249
 30
0.0
 10
11.0607572743
 20
4.9292749253
 30
0.0
 10
11.0617787722
 20
4.9294931667
 30
0.0
 10
11.06254568
 20
4.9296574409
 30
0.0
 10
11.0630915661
 20
4.9297745804
 30
0.0
 10
11.0634501189
 20
4.9298515999
 30
0.0
 10
11.0637746695
 20
4.9299213776
 30
0.0
 10
11.0640651581
 20
4.9299838755
 30
0.0
 10
11.064321527
 20
4.9300390575
 30
0.0
 10
11.0645437358
 20
4.930086888
 30
0.0
 10
11.0647075462
 20
4.9301221463
 30
0.0
 10
11.0648215005
 20
4.9301466728
 30
0.0
 10
11.0648941457
 20
4.9301623076
 30
0.0
 10
11.0649582446
 20
4.9301761031
 30
0.0
 10
11.0650137956
 20
4.9301880564
 30
0.0
 10
11.0650608038
 20
4.9301981762
 30
0.0
 10
11.065099255
 20
4.930206438
 30
0.0
 10
11.0651259806
 20
4.9302122141
 30
0.0
 10
11.0651430463
 20
4.9302158443
 30
0.0
 10
11.0651527186
 20
4.9302180092
 30
0.0
 10
11.065160049
 20
4.9302193658
 30
0.0
 10
11.0651657257
 20
4.9302210816
 30
0.0
 10
11.0651683439
 20
4.9302207736
 30
0.0
 10
11.0651703764
 20
4.9302221097
 30
0.0
 10
11.0651704833
 20
4.9302217614
 30
0.0
  0
SPLINE
  5
2CB
100
AcDbEntity
  8
0
100
AcDbSpline
 62
9
  6
CONTINUOUS
 70
0
 71
3
 72
33
 73
29
 74
0
 42
0.0000001
 43
0.0000001
 44
0.0000000001
 40
0.0
 40
0.0
 40
0.0
 40
0.0
 40
0.0876660539
 40
0.1745855348
 40
0.2600263632
 40
0.3432713685
 40
0.4236355744
 40
0.500474108
 40
0.5373863489
 40
0.5732003459
 40
0.6078524178
 40
0.6412844078
 40
0.673443779
 40
0.7042844839
 40
0.7337681542
 40
0.7618644004
 40
0.7885531014
 40
0.8138249268
 40
0.8376841097
 40
0.8601504605
 40
0.8812622519
 40
0.9010803739
 40
0.9196915994
 40
0.9372139183
 40
0.9537996524
 40
0.9696380616
 40
0.9849537821
 40
1.0
 40
1.0
 40
1.0
 40
1.0
 10
10.1676923427
 20
12.3092690837
 30
0.0
 10
10.1595230289
 20
12.3092690837
 30
0.0
 10
10.1432526317
 20
12.3089968818
 30
0.0
 10
10.119048008
 20
12.3077741383
 30
0.0
 10
10.0953101797
 20
12.3057495774
 30
0.0
 10
10.0722669249
 20
12.3029428848
 30
0.0
 10
10.0501394879
 20
12.2993814385
 30
0.0
 10
10.0324087807
 20
12.2957669772
 30
0.0
 10
10.0188566211
 20
12.2925075889
 30
0.0
 10
10.009186772
 20
12.2899306771
 30
0.0
 10
9.9998981933
 20
12.2871949295
 30
0.0
 10
9.9910130976
 20
12.2843069713
 30
0.0
 10
9.9825527617
 20
12.281273742
 30
0.0
 10
9.9745374082
 20
12.2781024793
 30
0.0
 10
9.9669861126
 20
12.2748008868
 30
0.0
 10
9.9599168728
 20
12.271376675
 30
0.0
 10
9.9533463741
 20
12.2678381088
 30
0.0
 10
9.9472901641
 20
12.2641933419
 30
0.0
 10
9.9417624442
 20
12.2604508498
 30
0.0
 10
9.9367761418
 20
12.2566191077
 30
0.0
 10
9.932343041
 20
12.2527064344
 30
0.0
 10
9.928473567
 20
12.2487212928
 30
0.0
 10
9.9251774828
 20
12.2446716578
 30
0.0
 10
9.9224635153
 20
12.2405657533
 30
0.0
 10
9.9203402517
 20
12.2364119278
 30
0.0
 10
9.9188158198
 20
12.2322191504
 30
0.0
 10
9.9178974452
 20
12.2279995565
 30
0.0
 10
9.9176923766
 20
12.2251661559
 30
0.0
 10
9.9176923766
 20
12.2237640479
 30
0.0
  0
SPLINE
  5
2CC
100
AcDbEntity
  8
0
100
AcDbSpline
 62
9
  6
CONTINUOUS
 70
0
 71
3
 72
61
 73
57
 74
0
 42
0.0000001
 43
0.0000001
 44
0.0000000001
 40
0.0
 40
0.0
 40
0.0
 40
0.0
 40
0.0075225775
 40
0.01518096
 40
0.0231000719
 40
0.0313928111
 40
0.0401539299
 40
0.0494595668
 40
0.0593685163
 40
0.0699244005
 40
0.0811575092
 40
0.0930870203
 40
0.1057229237
 40
0.1190671569
 40
0.133115271
 40
0.1478570037
 40
0.1632772901
 40
0.1793569204
 40
0.1960728066
 40
0.2133988054
 40
0.2313056925
 40
0.2497617484
 40
0.268732959
 40
0.2881831355
 40
0.3283650541
 40
0.3699874215
 40
0.4127074801
 40
0.4561675218
 40
0.5
 40
0.5438324782
 40
0.5872925199
 40
0.6300125785
 40
0.6716349459
 40
0.7118168645
 40
0.731267041
 40
0.7502382516
 40
0.7686943075
 40
0.7866011946
 40
0.8039271934
 40
0.8206430796
 40
0.8367227099
 40
0.8521429963
 40
0.866884729
 40
0.8809328431
 40
0.8942770763
 40
0.9069129797
 40
0.9188424908
 40
0.9300755995
 40
0.9406314837
 40
0.9505404332
 40
0.9598460701
 40
0.9686071889
 40
0.9768999281
 40
0.98481904
 40
0.9924774225
 40
1.0
 40
1.0
 40
1.0
 40
1.0
 10
10.4376923423
 20
11.1807052388
 30
0.0
 10
10.4376923423
 20
11.1822194155
 30
0.0
 10
10.4374706908
 20
11.1852794803
 30
0.0
 10
10.4364791066
 20
11.1898366918
 30
0.0
 10
10.4348326164
 20
11.1943649588
 30
0.0
 10
10.432539439
 20
11.1988510182
 30
0.0
 10
10.429608471
 20
11.2032854702
 30
0.0
 10
10.426048598
 20
11.2076589953
 30
0.0
 10
10.4218696453
 20
11.2119630312
 30
0.0
 10
10.4170818515
 20
11.21618866
 30
0.0
 10
10.4116966648
 20
11.2203269605
 30
0.0
 10
10.4057267425
 20
11.2243688817
 30
0.0
 10
10.3991860077
 20
11.2283051691
 30
0.0
 10
10.3920898994
 20
11.2321268972
 30
0.0
 10
10.3844550952
 20
11.2358249799
 30
0.0
 10
10.3762997105
 20
11.2393907434
 30
0.0
 10
10.3676431275
 20
11.2428157007
 30
0.0
 10
10.3585059594
 20
11.2460915682
 30
0.0
 10
10.3489100648
 20
11.2492106038
 30
0.0
 10
10.3388783841
 20
11.2521651736
 30
0.0
 10
10.3284349723
 20
11.2549482406
 30
0.0
 10
10.3176048906
 20
11.2575530601
 30
0.0
 10
10.3064140961
 20
11.2599733389
 30
0.0
 10
10.2908795448
 20
11.2629790225
 30
0.0
 10
10.2707515803
 20
11.2662183455
 30
0.0
 10
10.2458651725
 20
11.2692496115
 30
0.0
 10
10.2202282183
 20
11.2714361502
 30
0.0
 10
10.1940870031
 20
11.2727566845
 30
0.0
 10
10.1676923428
 20
11.2731983009
 30
0.0
 10
10.1412976824
 20
11.2727566845
 30
0.0
 10
10.1151564673
 20
11.2714361502
 30
0.0
 10
10.089519513
 20
11.2692496115
 30
0.0
 10
10.0646331052
 20
11.2662183455
 30
0.0
 10
10.0445051407
 20
11.2629790225
 30
0.0
 10
10.0289705894
 20
11.2599733389
 30
0.0
 10
10.0177797949
 20
11.2575530601
 30
0.0
 10
10.0069497132
 20
11.2549482406
 30
0.0
 10
9.9965063014
 20
11.2521651736
 30
0.0
 10
9.9864746207
 20
11.2492106038
 30
0.0
 10
9.9768787261
 20
11.2460915682
 30
0.0
 10
9.967741558
 20
11.2428157007
 30
0.0
 10
9.959084975
 20
11.2393907434
 30
0.0
 10
9.9509295903
 20
11.2358249799
 30
0.0
 10
9.9432947861
 20
11.2321268972
 30
0.0
 10
9.9361986778
 20
11.2283051691
 30
0.0
 10
9.9296579431
 20
11.2243688817
 30
0.0
 10
9.9236880207
 20
11.2203269605
 30
0.0
 10
9.918302834
 20
11.21618866
 30
0.0
 10
9.9135150402
 20
11.2119630312
 30
0.0
 10
9.9093360875
 20
11.2076589953
 30
0.0
 10
9.9057762145
 20
11.2032854702
 30
0.0
 10
9.9028452465
 20
11.1988510182
 30
0.0
 10
9.9005520691
 20
11.1943649588
 30
0.0
 10
9.8989055789
 20
11.1898366918
 30
0.0
 10
9.8979139947
 20
11.1852794803
 30
0.0
 10
9.8976923432
 20
11.1822194155
 30
0.0
 10
9.8976923432
 20
11.1807052388
 30
0.0
  0
SPLINE
  5
2CD
100
AcDbEntity
  8
0
100
AcDbSpline
 62
9
  6
CONTINUOUS
 70
0
 71
3
 72
61
 73
57
 74
0
 42
0.0000001
 43
0.0000001
 44
0.0000000001
 40
0.0
 40
0.0
 40
0.0
 40
0.0
 40
0.0075226437
 40
0.0151810088
 40
0.023100109
 40
0.0313928716
 40
0.0401539905
 40
0.0494596137
 40
0.0593685804
 40
0.0699244479
 40
0.0811575761
 40
0.0930870871
 40
0.1057229766
 40
0.1190672375
 40
0.133115314
 40
0.1478570728
 40
0.1632773548
 40
0.1793569669
 40
0.1960728861
 40
0.213398841
 40
0.2313057547
 40
0.2497618028
 40
0.2687329948
 40
0.2881831991
 40
0.3283650984
 40
0.3699874428
 40
0.4127074916
 40
0.4561675308
 40
0.5
 40
0.5438324692
 40
0.5872925084
 40
0.6300125572
 40
0.6716349016
 40
0.7118168009
 40
0.7312670052
 40
0.7502381972
 40
0.7686942453
 40
0.786601159
 40
0.8039271139
 40
0.8206430331
 40
0.8367226452
 40
0.8521429272
 40
0.866884686
 40
0.8809327625
 40
0.8942770234
 40
0.9069129129
 40
0.9188424239
 40
0.9300755521
 40
0.9406314196
 40
0.9505403863
 40
0.9598460095
 40
0.9686071284
 40
0.976899891
 40
0.9848189912
 40
0.9924773563
 40
1.0
 40
1.0
 40
1.0
 40
1.0
 10
10.4530114903
 20
11.1820963852
 30
0.0
 10
10.4530114903
 20
11.1836964867
 30
0.0
 10
10.452777272
 20
11.186930184
 30
0.0
 10
10.4517294046
 20
11.1917459642
 30
0.0
 10
10.4499894998
 20
11.196531153
 30
0.0
 10
10.4475662094
 20
11.2012717425
 30
0.0
 10
10.4444689374
 20
11.2059577911
 30
0.0
 10
10.4407070939
 20
11.2105794679
 30
0.0
 10
10.4362910153
 20
11.2151276785
 30
0.0
 10
10.431231595
 20
11.2195930892
 30
0.0
 10
10.425540846
 20
11.223966164
 30
0.0
 10
10.4192322051
 20
11.2282374147
 30
0.0
 10
10.4123203718
 20
11.2323970565
 30
0.0
 10
10.4048216318
 20
11.2364355799
 30
0.0
 10
10.3967536643
 20
11.2403435255
 30
0.0
 10
10.3881355515
 20
11.2441115694
 30
0.0
 10
10.378987816
 20
11.2477308533
 30
0.0
 10
10.3693322319
 20
11.251192608
 30
0.0
 10
10.3591918813
 20
11.2544885645
 30
0.0
 10
10.3485910383
 20
11.257610818
 30
0.0
 10
10.337555088
 20
11.2605517542
 30
0.0
 10
10.3261105349
 20
11.2633043685
 30
0.0
 10
10.3142848058
 20
11.2658619897
 30
0.0
 10
10.2978688546
 20
11.2690381624
 30
0.0
 10
10.2765988864
 20
11.272461305
 30
0.0
 10
10.250300495
 20
11.2756645628
 30
0.0
 10
10.2232089695
 20
11.2779751635
 30
0.0
 10
10.1955845682
 20
11.279370604
 30
0.0
 10
10.1676923428
 20
11.2798372661
 30
0.0
 10
10.1398001173
 20
11.279370604
 30
0.0
 10
10.1121757161
 20
11.2779751635
 30
0.0
 10
10.0850841905
 20
11.2756645628
 30
0.0
 10
10.0587857991
 20
11.272461305
 30
0.0
 10
10.0375158309
 20
11.2690381624
 30
0.0
 10
10.0210998798
 20
11.2658619897
 30
0.0
 10
10.0092741506
 20
11.2633043685
 30
0.0
 10
9.9978295975
 20
11.2605517542
 30
0.0
 10
9.9867936473
 20
11.257610818
 30
0.0
 10
9.9761928042
 20
11.2544885645
 30
0.0
 10
9.9660524536
 20
11.251192608
 30
0.0
 10
9.9563968696
 20
11.2477308533
 30
0.0
 10
9.947249134
 20
11.2441115694
 30
0.0
 10
9.9386310212
 20
11.2403435255
 30
0.0
 10
9.9305630537
 20
11.2364355799
 30
0.0
 10
9.9230643137
 20
11.2323970565
 30
0.0
 10
9.9161524804
 20
11.2282374147
 30
0.0
 10
9.9098438395
 20
11.223966164
 30
0.0
 10
9.9041530905
 20
11.2195930892
 30
0.0
 10
9.8990936702
 20
11.2151276785
 30
0.0
 10
9.8946775917
 20
11.2105794679
 30
0.0
 10
9.8909157481
 20
11.2059577911
 30
0.0
 10
9.8878184761
 20
11.2012717425
 30
0.0
 10
9.8853951857
 20
11.196531153
 30
0.0
 10
9.8836552809
 20
11.1917459642
 30
0.0
 10
9.8826074136
 20
11.186930184
 30
0.0
 10
9.8823731952
 20
11.1836964867
 30
0.0
 10
9.8823731952
 20
11.1820963852
 30
0.0
  0
SPLINE
  5
2CE
100
AcDbEntity
  8
0
100
AcDbSpline
 62
9
  6
CONTINUOUS
 70
0
 71
3
 72
59
 73
55
 74
0
 42
0.0000001
 43
0.0000001
 44
0.0000000001
 40
0.0
 40
0.0
 40
0.0
 40
0.0
 40
0.0075825777
 40
0.0154620624
 40
0.0237309871
 40
0.0324652631
 40
0.0417258159
 40
0.0515598561
 40
0.062002045
 40
0.0730765632
 40
0.0847986553
 40
0.0971758687
 40
0.1102094857
 40
0.1238951642
 40
0.1382239085
 40
0.15318269
 40
0.1687547685
 40
0.1849204068
 40
0.2016569658
 40
0.2189393263
 40
0.2367402107
 40
0.2550302039
 40
0.2929494663
 40
0.3324315917
 40
0.3731880018
 40
0.4149139514
 40
0.4572927843
 40
0.5
 40
0.5427072157
 40
0.5850860486
 40
0.6268119982
 40
0.6675684083
 40
0.7070505337
 40
0.7449697961
 40
0.7632597893
 40
0.7810606737
 40
0.7983430342
 40
0.8150795932
 40
0.8312452315
 40
0.84681731
 40
0.8617760915
 40
0.8761048358
 40
0.8897905143
 40
0.9028241313
 40
0.9152013447
 40
0.9269234368
 40
0.937997955
 40
0.9484401439
 40
0.9582741841
 40
0.9675347369
 40
0.9762690129
 40
0.9845379376
 40
0.9924174223
 40
1.0
 40
1.0
 40
1.0
 40
1.0
 10
10.5121785754
 20
11.5672028593
 30
0.0
 10
10.5117609339
 20
11.5690635484
 30
0.0
 10
10.5106553923
 20
11.5728047663
 30
0.0
 10
10.5082691969
 20
11.5782893832
 30
0.0
 10
10.5051389776
 20
11.5837220912
 30
0.0
 10
10.5012743257
 20
11.5890909889
 30
0.0
 10
10.496685369
 20
11.5943865371
 30
0.0
 10
10.4913827789
 20
11.5995987311
 30
0.0
 10
10.4853783323
 20
11.6047178167
 30
0.0
 10
10.4786848776
 20
11.6097336984
 30
0.0
 10
10.4713166363
 20
11.6146362127
 30
0.0
 10
10.4632893308
 20
11.6194153583
 30
0.0
 10
10.4546200036
 20
11.6240609697
 30
0.0
 10
10.4453272408
 20
11.6285632571
 30
0.0
 10
10.4354309838
 20
11.6329125634
 30
0.0
 10
10.424952517
 20
11.6370994284
 30
0.0
 10
10.4139144919
 20
11.6411148951
 30
0.0
 10
10.4023407564
 20
11.6449501357
 30
0.0
 10
10.3902563917
 20
11.6485968461
 30
0.0
 10
10.3776876237
 20
11.6520470884
 30
0.0
 10
10.3646616817
 20
11.6552933045
 30
0.0
 10
10.3465034087
 20
11.6593892695
 30
0.0
 10
10.3228619048
 20
11.6639282268
 30
0.0
 10
10.2934773297
 20
11.6683991142
 30
0.0
 10
10.262999945
 20
11.6719180056
 30
0.0
 10
10.231694643
 20
11.6744539186
 30
0.0
 10
10.1998331521
 20
11.675984455
 30
0.0
 10
10.1676923428
 20
11.676496138
 30
0.0
 10
10.1355515334
 20
11.675984455
 30
0.0
 10
10.1036900426
 20
11.6744539186
 30
0.0
 10
10.0723847405
 20
11.6719180056
 30
0.0
 10
10.0419073558
 20
11.6683991142
 30
0.0
 10
10.0125227807
 20
11.6639282268
 30
0.0
 10
9.9888812768
 20
11.6593892695
 30
0.0
 10
9.9707230038
 20
11.6552933045
 30
0.0
 10
9.9576970619
 20
11.6520470884
 30
0.0
 10
9.9451282938
 20
11.6485968461
 30
0.0
 10
9.9330439291
 20
11.6449501357
 30
0.0
 10
9.9214701936
 20
11.6411148951
 30
0.0
 10
9.9104321685
 20
11.6370994284
 30
0.0
 10
9.8999537018
 20
11.6329125634
 30
0.0
 10
9.8900574447
 20
11.6285632571
 30
0.0
 10
9.880764682
 20
11.6240609697
 30
0.0
 10
9.8720953548
 20
11.6194153583
 30
0.0
 10
9.8640680492
 20
11.6146362127
 30
0.0
 10
9.8566998079
 20
11.6097336984
 30
0.0
 10
9.8500063532
 20
11.6047178167
 30
0.0
 10
9.8440019066
 20
11.5995987311
 30
0.0
 10
9.8386993165
 20
11.5943865371
 30
0.0
 10
9.8341103599
 20
11.5890909889
 30
0.0
 10
9.8302457079
 20
11.5837220912
 30
0.0
 10
9.8271154886
 20
11.5782893832
 30
0.0
 10
9.8247292932
 20
11.5728047663
 30
0.0
 10
9.8236237516
 20
11.5690635484
 30
0.0
 10
9.8232061101
 20
11.5672028593
 30
0.0
  0
SPLINE
  5
2CF
100
AcDbEntity
  8
0
100
AcDbSpline
 62
9
  6
CONTINUOUS
 70
0
 71
3
 72
59
 73
55
 74
0
 42
0.0000001
 43
0.0000001
 44
0.0000000001
 40
0.0
 40
0.0
 40
0.0
 40
0.0
 40
0.0075226783
 40
0.0151810787
 40
0.0231002155
 40
0.0313930163
 40
0.0401541756
 40
0.0494598417
 40
0.0593688541
 40
0.0699247702
 40
0.0811579501
 40
0.0930875161
 40
0.1057234639
 40
0.1190677863
 40
0.1331159275
 40
0.1478577543
 40
0.1632781074
 40
0.1793577936
 40
0.1960737899
 40
0.2133998246
 40
0.2313068208
 40
0.249762954
 40
0.2881822227
 40
0.3283643073
 40
0.3699868436
 40
0.4127070893
 40
0.4561673288
 40
0.5
 40
0.5438326712
 40
0.5872929107
 40
0.6300131564
 40
0.6716356927
 40
0.7118177773
 40
0.750237046
 40
0.7686931792
 40
0.7866001754
 40
0.8039262101
 40
0.8206422064
 40
0.8367218926
 40
0.8521422457
 40
0.8668840725
 40
0.8809322137
 40
0.8942765361
 40
0.9069124839
 40
0.9188420499
 40
0.9300752298
 40
0.9406311459
 40
0.9505401583
 40
0.9598458244
 40
0.9686069837
 40
0.9768997845
 40
0.9848189213
 40
0.9924773217
 40
1.0
 40
1.0
 40
1.0
 40
1.0
 10
10.4511197315
 20
11.3356697169
 30
0.0
 10
10.4511197315
 20
11.3372592092
 30
0.0
 10
10.4508870661
 20
11.3404714661
 30
0.0
 10
10.4498461465
 20
11.345255316
 30
0.0
 10
10.4481177778
 20
11.3500087775
 30
0.0
 10
10.4457105546
 20
11.3547179354
 30
0.0
 10
10.4426338185
 20
11.3593729139
 30
0.0
 10
10.4388969172
 20
11.3639639475
 30
0.0
 10
10.4345101187
 20
11.368482002
 30
0.0
 10
10.429484244
 20
11.3729178056
 30
0.0
 10
10.4238312265
 20
11.3772618855
 30
0.0
 10
10.417564414
 20
11.3815048164
 30
0.0
 10
10.4106984083
 20
11.3856368784
 30
0.0
 10
10.4032493874
 20
11.3896486251
 30
0.0
 10
10.3952349132
 20
11.3935306597
 30
0.0
 10
10.3866739413
 20
11.3972737202
 30
0.0
 10
10.3775868581
 20
11.4008690073
 30
0.0
 10
10.3679952941
 20
11.4043078088
 30
0.0
 10
10.3579221758
 20
11.4075819145
 30
0.0
 10
10.3473916256
 20
11.4106834565
 30
0.0
 10
10.3364288248
 20
11.4136049324
 30
0.0
 10
10.3210646056
 20
11.4173001169
 30
0.0
 10
10.3009631345
 20
11.4213978707
 30
0.0
 10
10.2758770497
 20
11.4254355264
 30
0.0
 10
10.2497527064
 20
11.4286174963
 30
0.0
 10
10.2228408953
 20
11.4309127907
 30
0.0
 10
10.1953996288
 20
11.4322989751
 30
0.0
 10
10.1676923428
 20
11.4327625444
 30
0.0
 10
10.1399850567
 20
11.4322989751
 30
0.0
 10
10.1125437902
 20
11.4309127907
 30
0.0
 10
10.0856319791
 20
11.4286174963
 30
0.0
 10
10.0595076359
 20
11.4254355264
 30
0.0
 10
10.0344215511
 20
11.4213978707
 30
0.0
 10
10.0143200799
 20
11.4173001169
 30
0.0
 10
9.9989558607
 20
11.4136049324
 30
0.0
 10
9.9879930599
 20
11.4106834565
 30
0.0
 10
9.9774625097
 20
11.4075819145
 30
0.0
 10
9.9673893914
 20
11.4043078088
 30
0.0
 10
9.9577978274
 20
11.4008690073
 30
0.0
 10
9.9487107442
 20
11.3972737202
 30
0.0
 10
9.9401497723
 20
11.3935306597
 30
0.0
 10
9.9321352981
 20
11.3896486251
 30
0.0
 10
9.9246862772
 20
11.3856368784
 30
0.0
 10
9.9178202715
 20
11.3815048164
 30
0.0
 10
9.911553459
 20
11.3772618855
 30
0.0
 10
9.9059004415
 20
11.3729178056
 30
0.0
 10
9.9008745669
 20
11.368482002
 30
0.0
 10
9.8964877683
 20
11.3639639475
 30
0.0
 10
9.892750867
 20
11.3593729139
 30
0.0
 10
9.8896741309
 20
11.3547179354
 30
0.0
 10
9.8872669077
 20
11.3500087775
 30
0.0
 10
9.8855385391
 20
11.345255316
 30
0.0
 10
9.8844976194
 20
11.3404714661
 30
0.0
 10
9.884264954
 20
11.3372592092
 30
0.0
 10
9.884264954
 20
11.3356697169
 30
0.0
  0
SPLINE
  5
2D0
100
AcDbEntity
  8
0
100
AcDbSpline
 62
9
  6
CONTINUOUS
 70
0
 71
3
 72
67
 73
63
 74
0
 42
0.0000001
 43
0.0000001
 44
0.0000000001
 40
0.0
 40
0.0
 40
0.0
 40
0.0
 40
0.0037551718
 40
0.0075275662
 40
0.0113337965
 40
0.0151899549
 40
0.0231088837
 40
0.0314014869
 40
0.0357197944
 40
0.0401654191
 40
0.0494707955
 40
0.059379533
 40
0.0699351264
 40
0.0811679757
 40
0.0930972086
 40
0.1057327548
 40
0.1190767075
 40
0.1331244307
 40
0.1478658071
 40
0.1632857374
 40
0.1793649157
 40
0.1960804368
 40
0.2134059733
 40
0.2313124108
 40
0.2497680333
 40
0.2687387332
 40
0.2881884545
 40
0.3283693477
 40
0.3699906742
 40
0.412709668
 40
0.4561686212
 40
0.5
 40
0.5438313788
 40
0.587290332
 40
0.6300093258
 40
0.6716306523
 40
0.7118115455
 40
0.7312612668
 40
0.7502319667
 40
0.7686875892
 40
0.7865940267
 40
0.8039195632
 40
0.8206350843
 40
0.8367142626
 40
0.8521341929
 40
0.8668755693
 40
0.8809232925
 40
0.8942672452
 40
0.9069027914
 40
0.9188320243
 40
0.9300648736
 40
0.940620467
 40
0.9505292045
 40
0.9598345809
 40
0.9642802056
 40
0.9685985131
 40
0.9768911163
 40
0.9848100451
 40
0.9886662035
 40
0.9924724338
 40
0.9962448282
 40
1.0
 40
1.0
 40
1.0
 40
1.0
 10
10.4910588803
 20
11.5002517309
 30
0.0
 10
10.4910590084
 20
11.5011570085
 30
0.0
 10
10.4909938079
 20
11.5029723984
 30
0.0
 10
10.490700286
 20
11.5056910693
 30
0.0
 10
10.490211336
 20
11.5084063786
 30
0.0
 10
10.4892917099
 20
11.5120509454
 30
0.0
 10
10.4876339776
 20
11.516611536
 30
0.0
 10
10.4853758151
 20
11.5210287795
 30
0.0
 10
10.4832081732
 20
11.5245247802
 30
0.0
 10
10.4807199239
 20
11.5281024544
 30
0.0
 10
10.4771135448
 20
11.5325332636
 30
0.0
 10
10.4721087654
 20
11.5376876849
 30
0.0
 10
10.4663746233
 20
11.5427486551
 30
0.0
 10
10.4599250267
 20
11.547704859
 30
0.0
 10
10.4527751079
 20
11.5525456627
 30
0.0
 10
10.4449416019
 20
11.557260032
 30
0.0
 10
10.4364428874
 20
11.5618370631
 30
0.0
 10
10.4272990572
 20
11.5662661394
 30
0.0
 10
10.417531723
 20
11.5705366766
 30
0.0
 10
10.4071641226
 20
11.5746385504
 30
0.0
 10
10.3962209757
 20
11.5785619739
 30
0.0
 10
10.3847284008
 20
11.5822974281
 30
0.0
 10
10.3727139283
 20
11.5858360177
 30
0.0
 10
10.3602063389
 20
11.5891691723
 30
0.0
 10
10.3472356447
 20
11.5922888015
 30
0.0
 10
10.3338329549
 20
11.5951875122
 30
0.0
 10
10.3152279369
 20
11.5987872201
 30
0.0
 10
10.2911216131
 20
11.6026668568
 30
0.0
 10
10.2613163167
 20
11.6062972463
 30
0.0
 10
10.2306121242
 20
11.6089159573
 30
0.0
 10
10.1993040023
 20
11.610497497
 30
0.0
 10
10.1676923428
 20
11.6110264037
 30
0.0
 10
10.1360806832
 20
11.610497497
 30
0.0
 10
10.1047725614
 20
11.6089159573
 30
0.0
 10
10.0740683688
 20
11.6062972463
 30
0.0
 10
10.0442630724
 20
11.6026668568
 30
0.0
 10
10.0201567486
 20
11.5987872201
 30
0.0
 10
10.0015517306
 20
11.5951875122
 30
0.0
 10
9.9881490408
 20
11.5922888015
 30
0.0
 10
9.9751783466
 20
11.5891691723
 30
0.0
 10
9.9626707572
 20
11.5858360177
 30
0.0
 10
9.9506562848
 20
11.5822974281
 30
0.0
 10
9.9391637098
 20
11.5785619739
 30
0.0
 10
9.9282205629
 20
11.5746385504
 30
0.0
 10
9.9178529625
 20
11.5705366766
 30
0.0
 10
9.9080856284
 20
11.5662661394
 30
0.0
 10
9.8989417981
 20
11.5618370631
 30
0.0
 10
9.8904430837
 20
11.557260032
 30
0.0
 10
9.8826095776
 20
11.5525456627
 30
0.0
 10
9.8754596588
 20
11.547704859
 30
0.0
 10
9.8690100623
 20
11.5427486551
 30
0.0
 10
9.8632759201
 20
11.5376876849
 30
0.0
 10
9.8582711407
 20
11.5325332636
 30
0.0
 10
9.8546647616
 20
11.5281024544
 30
0.0
 10
9.8521765123
 20
11.5245247802
 30
0.0
 10
9.8500088704
 20
11.5210287795
 30
0.0
 10
9.8477507079
 20
11.516611536
 30
0.0
 10
9.8460929756
 20
11.5120509454
 30
0.0
 10
9.8451733496
 20
11.5084063786
 30
0.0
 10
9.8446843995
 20
11.5056910693
 30
0.0
 10
9.8443908776
 20
11.5029723984
 30
0.0
 10
9.8443256771
 20
11.5011570085
 30
0.0
 10
9.8443258053
 20
11.5002517309
 30
0.0
  0
SPLINE
  5
2D1
100
AcDbEntity
  8
0
100
AcDbSpline
 62
9
  6
CONTINUOUS
 70
0
 71
3
 72
61
 73
57
 74
0
 42
0.0000001
 43
0.0000001
 44
0.0000000001
 40
0.0
 40
0.0
 40
0.0
 40
0.0
 40
0.0075226898
 40
0.0151810094
 40
0.0231000915
 40
0.031392876
 40
0.0401539978
 40
0.0494596052
 40
0.0593685879
 40
0.0699244436
 40
0.081157572
 40
0.0930871013
 40
0.1057229613
 40
0.1190672454
 40
0.1331153176
 40
0.1478570602
 40
0.1632773735
 40
0.1793569512
 40
0.1960728875
 40
0.2133988544
 40
0.2313057367
 40
0.2497618175
 40
0.2687329887
 40
0.2881831931
 40
0.3283650844
 40
0.3699874448
 40
0.4127074998
 40
0.4561675325
 40
0.5
 40
0.5438324675
 40
0.5872925002
 40
0.6300125552
 40
0.6716349156
 40
0.7118168069
 40
0.7312670113
 40
0.7502381825
 40
0.7686942633
 40
0.7866011456
 40
0.8039271125
 40
0.8206430488
 40
0.8367226265
 40
0.8521429398
 40
0.8668846824
 40
0.8809327546
 40
0.8942770387
 40
0.9069128987
 40
0.918842428
 40
0.9300755564
 40
0.9406314121
 40
0.9505403948
 40
0.9598460022
 40
0.968607124
 40
0.9768999085
 40
0.9848189906
 40
0.9924773102
 40
1.0
 40
1.0
 40
1.0
 40
1.0
 10
10.4982102493
 20
11.5086599818
 30
0.0
 10
10.4982102493
 20
11.5105135743
 30
0.0
 10
10.4979389428
 20
11.514259539
 30
0.0
 10
10.4967250528
 20
11.5198382006
 30
0.0
 10
10.4947095328
 20
11.5253814253
 30
0.0
 10
10.4919023642
 20
11.5308730009
 30
0.0
 10
10.4883144218
 20
11.5363013793
 30
0.0
 10
10.483956668
 20
11.5416552164
 30
0.0
 10
10.4788409963
 20
11.5469239069
 30
0.0
 10
10.4729801052
 20
11.5520967225
 30
0.0
 10
10.4663878552
 20
11.5571625587
 30
0.0
 10
10.4590798183
 20
11.5621104109
 30
0.0
 10
10.45107307
 20
11.5669290426
 30
0.0
 10
10.4423864038
 20
11.5716072957
 30
0.0
 10
10.4330403543
 20
11.5761343228
 30
0.0
 10
10.423057012
 20
11.5804993045
 30
0.0
 10
10.4124601283
 20
11.5846918928
 30
0.0
 10
10.4012749698
 20
11.5887020842
 30
0.0
 10
10.3895282323
 20
11.5925201493
 30
0.0
 10
10.3772480554
 20
11.596136996
 30
0.0
 10
10.3644638561
 20
11.5995438646
 30
0.0
 10
10.3512063102
 20
11.6027324855
 30
0.0
 10
10.3375072151
 20
11.6056953023
 30
0.0
 10
10.3184907404
 20
11.609374619
 30
0.0
 10
10.2938512964
 20
11.6133400553
 30
0.0
 10
10.263386845
 20
11.6170507322
 30
0.0
 10
10.2320036181
 20
11.619727357
 30
0.0
 10
10.2000031057
 20
11.621343873
 30
0.0
 10
10.1676923428
 20
11.6218844766
 30
0.0
 10
10.1353815798
 20
11.621343873
 30
0.0
 10
10.1033810675
 20
11.619727357
 30
0.0
 10
10.0719978405
 20
11.6170507322
 30
0.0
 10
10.0415333891
 20
11.6133400553
 30
0.0
 10
10.0168939451
 20
11.609374619
 30
0.0
 10
9.9978774704
 20
11.6056953023
 30
0.0
 10
9.9841783753
 20
11.6027324855
 30
0.0
 10
9.9709208294
 20
11.5995438646
 30
0.0
 10
9.9581366301
 20
11.596136996
 30
0.0
 10
9.9458564532
 20
11.5925201493
 30
0.0
 10
9.9341097158
 20
11.5887020842
 30
0.0
 10
9.9229245572
 20
11.5846918928
 30
0.0
 10
9.9123276735
 20
11.5804993045
 30
0.0
 10
9.9023443313
 20
11.5761343228
 30
0.0
 10
9.8929982818
 20
11.5716072957
 30
0.0
 10
9.8843116156
 20
11.5669290426
 30
0.0
 10
9.8763048673
 20
11.5621104109
 30
0.0
 10
9.8689968303
 20
11.5571625587
 30
0.0
 10
9.8624045803
 20
11.5520967225
 30
0.0
 10
9.8565436892
 20
11.5469239069
 30
0.0
 10
9.8514280176
 20
11.5416552164
 30
0.0
 10
9.8470702637
 20
11.5363013793
 30
0.0
 10
9.8434823214
 20
11.5308730009
 30
0.0
 10
9.8406751527
 20
11.5253814253
 30
0.0
 10
9.8386596328
 20
11.5198382006
 30
0.0
 10
9.8374457427
 20
11.514259539
 30
0.0
 10
9.8371744362
 20
11.5105135743
 30
0.0
 10
9.8371744362
 20
11.5086599818
 30
0.0
  0
SPLINE
  5
2D2
100
AcDbEntity
  8
0
100
AcDbSpline
 62
9
  6
CONTINUOUS
 70
0
 71
3
 72
61
 73
57
 74
0
 42
0.0000001
 43
0.0000001
 44
0.0000000001
 40
0.0
 40
0.0
 40
0.0
 40
0.0
 40
0.0075226898
 40
0.0151810094
 40
0.0231000915
 40
0.031392876
 40
0.0401539978
 40
0.0494596051
 40
0.0593685879
 40
0.0699244436
 40
0.0811575719
 40
0.0930871013
 40
0.1057229613
 40
0.1190672454
 40
0.1331153176
 40
0.1478570602
 40
0.1632773735
 40
0.1793569512
 40
0.1960728875
 40
0.2133988544
 40
0.2313057367
 40
0.2497618175
 40
0.2687329887
 40
0.2881831931
 40
0.3283650844
 40
0.3699874448
 40
0.4127074998
 40
0.4561675325
 40
0.5
 40
0.5438324675
 40
0.5872925002
 40
0.6300125552
 40
0.6716349156
 40
0.7118168069
 40
0.7312670113
 40
0.7502381825
 40
0.7686942633
 40
0.7866011456
 40
0.8039271125
 40
0.8206430488
 40
0.8367226265
 40
0.8521429398
 40
0.8668846824
 40
0.8809327546
 40
0.8942770387
 40
0.9069128987
 40
0.9188424281
 40
0.9300755564
 40
0.9406314121
 40
0.9505403949
 40
0.9598460022
 40
0.968607124
 40
0.9768999085
 40
0.9848189906
 40
0.9924773102
 40
1.0
 40
1.0
 40
1.0
 40
1.0
 10
10.5001923429
 20
11.5109115342
 30
0.0
 10
10.5001923429
 20
11.5127762426
 30
0.0
 10
10.4999194093
 20
11.5165446716
 30
0.0
 10
10.4986982397
 20
11.522156788
 30
0.0
 10
10.4966706328
 20
11.5277332551
 30
0.0
 10
10.4938466297
 20
11.5332577633
 30
0.0
 10
10.4902371707
 20
11.5387186953
 30
0.0
 10
10.4858532837
 20
11.544104639
 30
0.0
 10
10.4807069338
 20
11.5494049255
 30
0.0
 10
10.4748108952
 20
11.5546087621
 30
0.0
 10
10.468179112
 20
11.5597049778
 30
0.0
 10
10.4608272492
 20
11.564682502
 30
0.0
 10
10.452772485
 20
11.5695300306
 30
0.0
 10
10.4440337255
 20
11.5742363389
 30
0.0
 10
10.4346316283
 20
11.5787905143
 30
0.0
 10
10.4245884167
 20
11.5831816724
 30
0.0
 10
10.4139279842
 20
11.5873994034
 30
0.0
 10
10.402675749
 20
11.5914336437
 30
0.0
 10
10.3908585671
 20
11.5952746055
 30
0.0
 10
10.3785047469
 20
11.5989131422
 30
0.0
 10
10.3656438816
 20
11.6023404415
 30
0.0
 10
10.3523068311
 20
11.6055481844
 30
0.0
 10
10.3385255834
 20
11.6085287689
 30
0.0
 10
10.3193950682
 20
11.6122301503
 30
0.0
 10
10.2946078631
 20
11.6162193671
 30
0.0
 10
10.2639607185
 20
11.6199522966
 30
0.0
 10
10.2323892884
 20
11.6226449729
 30
0.0
 10
10.2001968712
 20
11.6242711831
 30
0.0
 10
10.1676923428
 20
11.6248150287
 30
0.0
 10
10.1351878144
 20
11.6242711831
 30
0.0
 10
10.1029953971
 20
11.6226449729
 30
0.0
 10
10.071423967
 20
11.6199522966
 30
0.0
 10
10.0407768224
 20
11.6162193671
 30
0.0
 10
10.0159896173
 20
11.6122301503
 30
0.0
 10
9.9968591021
 20
11.6085287689
 30
0.0
 10
9.9830778544
 20
11.6055481844
 30
0.0
 10
9.969740804
 20
11.6023404415
 30
0.0
 10
9.9568799386
 20
11.5989131422
 30
0.0
 10
9.9445261184
 20
11.5952746055
 30
0.0
 10
9.9327089365
 20
11.5914336437
 30
0.0
 10
9.9214567013
 20
11.5873994034
 30
0.0
 10
9.9107962689
 20
11.5831816724
 30
0.0
 10
9.9007530572
 20
11.5787905143
 30
0.0
 10
9.89135096
 20
11.5742363389
 30
0.0
 10
9.8826122005
 20
11.5695300306
 30
0.0
 10
9.8745574363
 20
11.564682502
 30
0.0
 10
9.8672055735
 20
11.5597049778
 30
0.0
 10
9.8605737903
 20
11.5546087621
 30
0.0
 10
9.8546777518
 20
11.5494049255
 30
0.0
 10
9.8495314018
 20
11.544104639
 30
0.0
 10
9.8451475148
 20
11.5387186953
 30
0.0
 10
9.8415380558
 20
11.5332577633
 30
0.0
 10
9.8387140527
 20
11.5277332551
 30
0.0
 10
9.8366864459
 20
11.522156788
 30
0.0
 10
9.8354652762
 20
11.5165446716
 30
0.0
 10
9.8351923426
 20
11.5127762426
 30
0.0
 10
9.8351923426
 20
11.5109115342
 30
0.0
  0
SPLINE
  5
2D3
100
AcDbEntity
  8
0
100
AcDbSpline
 62
9
  6
CONTINUOUS
 70
0
 71
3
 72
13
 73
9
 74
0
 42
0.0000001
 43
0.0000001
 44
0.0000000001
 40
0.0
 40
0.0
 40
0.0
 40
0.0
 40
0.2645166393
 40
0.5167707894
 40
0.6395131186
 40
0.7606212233
 40
0.8806077249
 40
1.0
 40
1.0
 40
1.0
 40
1.0
 10
9.8507548225
 20
11.4783077372
 30
0.0
 10
9.8497157764
 20
11.4800632286
 30
0.0
 10
9.8478712812
 20
11.4836079293
 30
0.0
 10
9.846154927
 20
11.4882476639
 30
0.0
 10
9.8452029592
 20
11.491956074
 30
0.0
 10
9.8446969686
 20
11.4947184658
 30
0.0
 10
9.8443931892
 20
11.4974841846
 30
0.0
 10
9.8443256749
 20
11.4993309819
 30
0.0
 10
9.8443258053
 20
11.5002517309
 30
0.0
  0
SPLINE
  5
2D4
100
AcDbEntity
  8
0
100
AcDbSpline
 62
9
  6
CONTINUOUS
 70
0
 71
3
 72
59
 73
55
 74
0
 42
0.0000001
 43
0.0000001
 44
0.0000000001
 40
0.0
 40
0.0
 40
0.0
 40
0.0
 40
0.0075124953
 40
0.0151943247
 40
0.0231651134
 40
0.0315308755
 40
0.0403793044
 40
0.0497804632
 40
0.0597881312
 40
0.0704416145
 40
0.0817680604
 40
0.0937840628
 40
0.1064976765
 40
0.1199095744
 40
0.1340141423
 40
0.1488006249
 40
0.164253474
 40
0.1803532881
 40
0.1970771182
 40
0.2143988256
 40
0.2322896627
 40
0.2507182439
 40
0.2890504686
 40
0.3291073721
 40
0.3705729802
 40
0.4131117794
 40
0.4563738928
 40
0.5
 40
0.5436261072
 40
0.5868882206
 40
0.6294270198
 40
0.6708926279
 40
0.7109495314
 40
0.7492817561
 40
0.7677103373
 40
0.7856011744
 40
0.8029228818
 40
0.8196467119
 40
0.835746526
 40
0.8511993751
 40
0.8659858577
 40
0.8800904256
 40
0.8935023235
 40
0.9062159372
 40
0.9182319396
 40
0.9295583855
 40
0.9402118688
 40
0.9502195368
 40
0.9596206956
 40
0.9684691245
 40
0.9768348866
 40
0.9848056753
 40
0.9924875047
 40
1.0
 40
1.0
 40
1.0
 40
1.0
 10
10.4516033717
 20
11.3124330166
 30
0.0
 10
10.4515374447
 20
11.3140149341
 30
0.0
 10
10.4511739986
 20
11.3172091881
 30
0.0
 10
10.4499514662
 20
11.3219503665
 30
0.0
 10
10.4480550094
 20
11.3266581575
 30
0.0
 10
10.4454931037
 20
11.331319704
 30
0.0
 10
10.4422749027
 20
11.3359256644
 30
0.0
 10
10.4384096666
 20
11.3404666538
 30
0.0
 10
10.4339074316
 20
11.3449337499
 30
0.0
 10
10.4287790683
 20
11.3493179629
 30
0.0
 10
10.4230364092
 20
11.3536099159
 30
0.0
 10
10.4166927812
 20
11.3578004118
 30
0.0
 10
10.409762735
 20
11.3618800174
 30
0.0
 10
10.402262279
 20
11.3658394466
 30
0.0
 10
10.3942088353
 20
11.3696696562
 30
0.0
 10
10.3856211063
 20
11.3733616052
 30
0.0
 10
10.3765191896
 20
11.3769067627
 30
0.0
 10
10.3669243846
 20
11.3802967306
 30
0.0
 10
10.3568592049
 20
11.3835234941
 30
0.0
 10
10.3463473378
 20
11.3865794911
 30
0.0
 10
10.3354134682
 20
11.3894574359
 30
0.0
 10
10.3201055124
 20
11.3930958655
 30
0.0
 10
10.3000963691
 20
11.3971301542
 30
0.0
 10
10.2751448486
 20
11.4011050171
 30
0.0
 10
10.2491806212
 20
11.4042367419
 30
0.0
 10
10.2224484682
 20
11.4064953806
 30
0.0
 10
10.1952000818
 20
11.4078592664
 30
0.0
 10
10.1676923428
 20
11.4083153516
 30
0.0
 10
10.1401846037
 20
11.4078592664
 30
0.0
 10
10.1129362173
 20
11.4064953806
 30
0.0
 10
10.0862040644
 20
11.4042367419
 30
0.0
 10
10.0602398369
 20
11.4011050171
 30
0.0
 10
10.0352883164
 20
11.3971301542
 30
0.0
 10
10.0152791731
 20
11.3930958655
 30
0.0
 10
9.9999712173
 20
11.3894574359
 30
0.0
 10
9.9890373477
 20
11.3865794911
 30
0.0
 10
9.9785254806
 20
11.3835234941
 30
0.0
 10
9.9684603009
 20
11.3802967306
 30
0.0
 10
9.9588654959
 20
11.3769067627
 30
0.0
 10
9.9497635792
 20
11.3733616052
 30
0.0
 10
9.9411758502
 20
11.3696696562
 30
0.0
 10
9.9331224066
 20
11.3658394466
 30
0.0
 10
9.9256219505
 20
11.3618800174
 30
0.0
 10
9.9186919043
 20
11.3578004118
 30
0.0
 10
9.9123482763
 20
11.3536099159
 30
0.0
 10
9.9066056172
 20
11.3493179629
 30
0.0
 10
9.901477254
 20
11.3449337499
 30
0.0
 10
9.896975019
 20
11.3404666538
 30
0.0
 10
9.8931097828
 20
11.3359256644
 30
0.0
 10
9.8898915819
 20
11.331319704
 30
0.0
 10
9.8873296761
 20
11.3266581575
 30
0.0
 10
9.8854332193
 20
11.3219503665
 30
0.0
 10
9.8842106869
 20
11.3172091881
 30
0.0
 10
9.8838472409
 20
11.3140149341
 30
0.0
 10
9.8837813138
 20
11.3124330166
 30
0.0
  0
SPLINE
  5
2D5
100
AcDbEntity
  8
0
100
AcDbSpline
 62
9
  6
CONTINUOUS
 70
0
 71
3
 72
61
 73
57
 74
0
 42
0.0000001
 43
0.0000001
 44
0.0000000001
 40
0.0
 40
0.0
 40
0.0
 40
0.0
 40
0.0075225775
 40
0.01518096
 40
0.0231000719
 40
0.0313928111
 40
0.0401539299
 40
0.0494595668
 40
0.0593685163
 40
0.0699244005
 40
0.0811575092
 40
0.0930870203
 40
0.1057229237
 40
0.1190671569
 40
0.133115271
 40
0.1478570037
 40
0.1632772901
 40
0.1793569204
 40
0.1960728066
 40
0.2133988054
 40
0.2313056925
 40
0.2497617484
 40
0.268732959
 40
0.2881831355
 40
0.3283650541
 40
0.3699874215
 40
0.4127074801
 40
0.4561675218
 40
0.5
 40
0.5438324782
 40
0.5872925199
 40
0.6300125785
 40
0.6716349459
 40
0.7118168645
 40
0.731267041
 40
0.7502382516
 40
0.7686943075
 40
0.7866011946
 40
0.8039271934
 40
0.8206430796
 40
0.8367227099
 40
0.8521429963
 40
0.866884729
 40
0.8809328431
 40
0.8942770763
 40
0.9069129797
 40
0.9188424908
 40
0.9300755995
 40
0.9406314837
 40
0.9505404332
 40
0.9598460701
 40
0.9686071889
 40
0.9768999281
 40
0.98481904
 40
0.9924774225
 40
1.0
 40
1.0
 40
1.0
 40
1.0
 10
10.4376923423
 20
11.1807052388
 30
0.0
 10
10.4376923423
 20
11.1791910622
 30
0.0
 10
10.4374706908
 20
11.1761309973
 30
0.0
 10
10.4364791066
 20
11.1715737859
 30
0.0
 10
10.4348326164
 20
11.1670455188
 30
0.0
 10
10.432539439
 20
11.1625594594
 30
0.0
 10
10.429608471
 20
11.1581250074
 30
0.0
 10
10.426048598
 20
11.1537514823
 30
0.0
 10
10.4218696453
 20
11.1494474464
 30
0.0
 10
10.4170818515
 20
11.1452218176
 30
0.0
 10
10.4116966648
 20
11.1410835171
 30
0.0
 10
10.4057267425
 20
11.1370415959
 30
0.0
 10
10.3991860077
 20
11.1331053085
 30
0.0
 10
10.3920898994
 20
11.1292835804
 30
0.0
 10
10.3844550952
 20
11.1255854977
 30
0.0
 10
10.3762997105
 20
11.1220197343
 30
0.0
 10
10.3676431275
 20
11.1185947769
 30
0.0
 10
10.3585059594
 20
11.1153189094
 30
0.0
 10
10.3489100648
 20
11.1121998738
 30
0.0
 10
10.3388783841
 20
11.109245304
 30
0.0
 10
10.3284349723
 20
11.106462237
 30
0.0
 10
10.3176048906
 20
11.1038574175
 30
0.0
 10
10.3064140961
 20
11.1014371388
 30
0.0
 10
10.2908795448
 20
11.0984314551
 30
0.0
 10
10.2707515803
 20
11.0951921321
 30
0.0
 10
10.2458651725
 20
11.0921608661
 30
0.0
 10
10.2202282183
 20
11.0899743274
 30
0.0
 10
10.1940870031
 20
11.0886537931
 30
0.0
 10
10.1676923428
 20
11.0882121767
 30
0.0
 10
10.1412976824
 20
11.0886537931
 30
0.0
 10
10.1151564673
 20
11.0899743274
 30
0.0
 10
10.089519513
 20
11.0921608661
 30
0.0
 10
10.0646331052
 20
11.0951921321
 30
0.0
 10
10.0445051407
 20
11.0984314551
 30
0.0
 10
10.0289705894
 20
11.1014371388
 30
0.0
 10
10.0177797949
 20
11.1038574175
 30
0.0
 10
10.0069497132
 20
11.106462237
 30
0.0
 10
9.9965063014
 20
11.109245304
 30
0.0
 10
9.9864746207
 20
11.1121998738
 30
0.0
 10
9.9768787261
 20
11.1153189094
 30
0.0
 10
9.967741558
 20
11.1185947769
 30
0.0
 10
9.959084975
 20
11.1220197343
 30
0.0
 10
9.9509295903
 20
11.1255854977
 30
0.0
 10
9.9432947861
 20
11.1292835804
 30
0.0
 10
9.9361986778
 20
11.1331053085
 30
0.0
 10
9.9296579431
 20
11.1370415959
 30
0.0
 10
9.9236880207
 20
11.1410835171
 30
0.0
 10
9.918302834
 20
11.1452218176
 30
0.0
 10
9.9135150402
 20
11.1494474464
 30
0.0
 10
9.9093360875
 20
11.1537514823
 30
0.0
 10
9.9057762145
 20
11.1581250074
 30
0.0
 10
9.9028452465
 20
11.1625594594
 30
0.0
 10
9.9005520691
 20
11.1670455188
 30
0.0
 10
9.8989055789
 20
11.1715737859
 30
0.0
 10
9.8979139947
 20
11.1761309973
 30
0.0
 10
9.8976923432
 20
11.1791910622
 30
0.0
 10
9.8976923432
 20
11.1807052388
 30
0.0
  0
SPLINE
  5
2D6
100
AcDbEntity
  8
0
100
AcDbSpline
 62
9
  6
CONTINUOUS
 70
0
 71
3
 72
53
 73
49
 74
0
 42
0.0000001
 43
0.0000001
 44
0.0000000001
 40
0.0
 40
0.0
 40
0.0
 40
0.0
 40
0.0084843083
 40
0.0174289919
 40
0.0268651856
 40
0.0368160622
 40
0.0472983291
 40
0.0583226823
 40
0.0698950597
 40
0.0820168875
 40
0.0946860552
 40
0.1078970218
 40
0.1216415391
 40
0.1359086963
 40
0.1506854371
 40
0.1659566009
 40
0.197910818
 40
0.2316193192
 40
0.2669058745
 40
0.3035762582
 40
0.341421441
 40
0.3802204156
 40
0.4197427898
 40
0.4597512327
 40
0.50000383
 40
0.540256388
 40
0.580264713
 40
0.6197868919
 40
0.6585855957
 40
0.6964304349
 40
0.7331004055
 40
0.7683864824
 40
0.8020944455
 40
0.8340480709
 40
0.8493189211
 40
0.8640953382
 40
0.8783621623
 40
0.892106339
 40
0.9053169585
 40
0.9179857749
 40
0.9301072487
 40
0.941679272
 40
0.9527032732
 40
0.9631851935
 40
0.9731357323
 40
0.9825716008
 40
0.9915159767
 40
1.0
 40
1.0
 40
1.0
 40
1.0
 10
10.4646402144
 20
11.2721267689
 30
0.0
 10
10.4635924358
 20
11.2735671809
 30
0.0
 10
10.4613115551
 20
11.2764342771
 30
0.0
 10
10.4574733347
 20
11.2805729939
 30
0.0
 10
10.4531385676
 20
11.2846519439
 30
0.0
 10
10.448315194
 20
11.288664525
 30
0.0
 10
10.4430111563
 20
11.2926042879
 30
0.0
 10
10.4372355417
 20
11.2964649966
 30
0.0
 10
10.4309979856
 20
11.3002401349
 30
0.0
 10
10.4243090945
 20
11.3039235623
 30
0.0
 10
10.4171801335
 20
11.3075089477
 30
0.0
 10
10.4096232428
 20
11.3109903361
 30
0.0
 10
10.4016512429
 20
11.3143617076
 30
0.0
 10
10.3932777476
 20
11.3176173686
 30
0.0
 10
10.38451701
 20
11.3207517409
 30
0.0
 10
10.3721523529
 20
11.3248234963
 30
0.0
 10
10.3558254871
 20
11.3295512282
 30
0.0
 10
10.3352317597
 20
11.3345792718
 30
0.0
 10
10.3134902114
 20
11.3390097124
 30
0.0
 10
10.2907496901
 20
11.342811866
 30
0.0
 10
10.2671655815
 20
11.3459593452
 30
0.0
 10
10.2428994063
 20
11.3484303071
 30
0.0
 10
10.2181174455
 20
11.3502075997
 30
0.0
 10
10.1929896168
 20
11.3512788872
 30
0.0
 10
10.1676882601
 20
11.351636734
 30
0.0
 10
10.1423869313
 20
11.3512786566
 30
0.0
 10
10.1172591865
 20
11.3502071401
 30
0.0
 10
10.0924773647
 20
11.3484296215
 30
0.0
 10
10.0682113828
 20
11.3459584386
 30
0.0
 10
10.0446275204
 20
11.3428107446
 30
0.0
 10
10.0218872964
 20
11.339008384
 30
0.0
 10
10.0001460945
 20
11.3345777455
 30
0.0
 10
9.9795527601
 20
11.3295495147
 30
0.0
 10
9.9632262532
 20
11.3248216315
 30
0.0
 10
9.9508619058
 20
11.3207497604
 30
0.0
 10
9.9421014131
 20
11.3176153082
 30
0.0
 10
9.9337281722
 20
11.3143595707
 30
0.0
 10
9.9257564355
 20
11.3109881265
 30
0.0
 10
9.9181998167
 20
11.307506669
 30
0.0
 10
9.9110711355
 20
11.3039212185
 30
0.0
 10
9.9043825319
 20
11.3002377298
 30
0.0
 10
9.8981452703
 20
11.2964625344
 30
0.0
 10
9.8923699568
 20
11.2926017726
 30
0.0
 10
9.8870662261
 20
11.2886619609
 30
0.0
 10
9.8822431651
 20
11.2846493348
 30
0.0
 10
9.8779087155
 20
11.2805703442
 30
0.0
 10
9.8740708173
 20
11.2764315907
 30
0.0
 10
9.8717901613
 20
11.2735644742
 30
0.0
 10
9.8707424961
 20
11.2721240536
 30
0.0
  0
SPLINE
  5
2D7
100
AcDbEntity
  8
0
100
AcDbSpline
 62
9
  6
CONTINUOUS
 70
0
 71
3
 72
61
 73
57
 74
0
 42
0.0000001
 43
0.0000001
 44
0.0000000001
 40
0.0
 40
0.0
 40
0.0
 40
0.0
 40
0.0075226437
 40
0.0151810088
 40
0.023100109
 40
0.0313928716
 40
0.0401539905
 40
0.0494596137
 40
0.0593685804
 40
0.0699244479
 40
0.0811575761
 40
0.0930870871
 40
0.1057229766
 40
0.1190672375
 40
0.133115314
 40
0.1478570728
 40
0.1632773548
 40
0.1793569669
 40
0.1960728861
 40
0.213398841
 40
0.2313057547
 40
0.2497618028
 40
0.2687329948
 40
0.2881831991
 40
0.3283650984
 40
0.3699874428
 40
0.4127074916
 40
0.4561675308
 40
0.5
 40
0.5438324692
 40
0.5872925084
 40
0.6300125572
 40
0.6716349016
 40
0.7118168009
 40
0.7312670052
 40
0.7502381972
 40
0.7686942453
 40
0.786601159
 40
0.8039271139
 40
0.8206430331
 40
0.8367226452
 40
0.8521429272
 40
0.866884686
 40
0.8809327625
 40
0.8942770234
 40
0.9069129129
 40
0.9188424239
 40
0.9300755521
 40
0.9406314196
 40
0.9505403863
 40
0.9598460095
 40
0.9686071284
 40
0.976899891
 40
0.9848189912
 40
0.9924773563
 40
1.0
 40
1.0
 40
1.0
 40
1.0
 10
10.4530114903
 20
11.1820963852
 30
0.0
 10
10.4530114903
 20
11.1804962838
 30
0.0
 10
10.452777272
 20
11.1772625865
 30
0.0
 10
10.4517294046
 20
11.1724468063
 30
0.0
 10
10.4499894998
 20
11.1676616175
 30
0.0
 10
10.4475662094
 20
11.162921028
 30
0.0
 10
10.4444689374
 20
11.1582349794
 30
0.0
 10
10.4407070939
 20
11.1536133026
 30
0.0
 10
10.4362910153
 20
11.149065092
 30
0.0
 10
10.431231595
 20
11.1445996813
 30
0.0
 10
10.425540846
 20
11.1402266065
 30
0.0
 10
10.4192322051
 20
11.1359553558
 30
0.0
 10
10.4123203718
 20
11.131795714
 30
0.0
 10
10.4048216318
 20
11.1277571906
 30
0.0
 10
10.3967536643
 20
11.123849245
 30
0.0
 10
10.3881355515
 20
11.1200812011
 30
0.0
 10
10.378987816
 20
11.1164619172
 30
0.0
 10
10.3693322319
 20
11.1130001625
 30
0.0
 10
10.3591918813
 20
11.109704206
 30
0.0
 10
10.3485910383
 20
11.1065819524
 30
0.0
 10
10.337555088
 20
11.1036410163
 30
0.0
 10
10.3261105349
 20
11.100888402
 30
0.0
 10
10.3142848058
 20
11.0983307808
 30
0.0
 10
10.2978688546
 20
11.0951546081
 30
0.0
 10
10.2765988864
 20
11.0917314655
 30
0.0
 10
10.250300495
 20
11.0885282077
 30
0.0
 10
10.2232089695
 20
11.086217607
 30
0.0
 10
10.1955845682
 20
11.0848221665
 30
0.0
 10
10.1676923428
 20
11.0843555044
 30
0.0
 10
10.1398001173
 20
11.0848221665
 30
0.0
 10
10.1121757161
 20
11.086217607
 30
0.0
 10
10.0850841905
 20
11.0885282077
 30
0.0
 10
10.0587857991
 20
11.0917314655
 30
0.0
 10
10.0375158309
 20
11.0951546081
 30
0.0
 10
10.0210998798
 20
11.0983307808
 30
0.0
 10
10.0092741506
 20
11.100888402
 30
0.0
 10
9.9978295975
 20
11.1036410163
 30
0.0
 10
9.9867936473
 20
11.1065819524
 30
0.0
 10
9.9761928042
 20
11.109704206
 30
0.0
 10
9.9660524536
 20
11.1130001625
 30
0.0
 10
9.9563968696
 20
11.1164619172
 30
0.0
 10
9.947249134
 20
11.1200812011
 30
0.0
 10
9.9386310212
 20
11.123849245
 30
0.0
 10
9.9305630537
 20
11.1277571906
 30
0.0
 10
9.9230643137
 20
11.131795714
 30
0.0
 10
9.9161524804
 20
11.1359553558
 30
0.0
 10
9.9098438395
 20
11.1402266065
 30
0.0
 10
9.9041530905
 20
11.1445996813
 30
0.0
 10
9.8990936702
 20
11.149065092
 30
0.0
 10
9.8946775917
 20
11.1536133026
 30
0.0
 10
9.8909157481
 20
11.1582349794
 30
0.0
 10
9.8878184761
 20
11.162921028
 30
0.0
 10
9.8853951857
 20
11.1676616175
 30
0.0
 10
9.8836552809
 20
11.1724468063
 30
0.0
 10
9.8826074136
 20
11.1772625865
 30
0.0
 10
9.8823731952
 20
11.1804962838
 30
0.0
 10
9.8823731952
 20
11.1820963852
 30
0.0
  0
SPLINE
  5
2D8
100
AcDbEntity
  8
0
100
AcDbSpline
 62
9
  6
CONTINUOUS
 70
0
 71
3
 72
28
 73
24
 74
0
 42
0.0000001
 43
0.0000001
 44
0.0000000001
 40
0.0
 40
0.0
 40
0.0
 40
0.0
 40
0.0608923517
 40
0.1185573561
 40
0.2187833627
 40
0.2616809758
 40
0.3005564142
 40
0.3360379901
 40
0.3686402133
 40
0.4267183472
 40
0.4772554959
 40
0.5617874863
 40
0.6304692981
 40
0.6878640359
 40
0.736805089
 40
0.7792121271
 40
0.816470147
 40
0.8496294116
 40
0.9067326516
 40
0.9319956875
 40
0.9557014977
 40
0.9782543493
 40
1.0
 40
1.0
 40
1.0
 40
1.0
 10
11.0852186585
 20
4.7329483468
 30
0.0
 10
11.0861837212
 20
4.7329483414
 30
0.0
 10
11.0880627998
 20
4.7329793903
 30
0.0
 10
11.0915271614
 20
4.7331328717
 30
0.0
 10
11.0946992942
 20
4.7334089131
 30
0.0
 10
11.0975612449
 20
4.7337700635
 30
0.0
 10
11.0993988023
 20
4.734048412
 30
0.0
 10
11.1010687995
 20
4.7343402069
 30
0.0
 10
11.1030308242
 20
4.7347260986
 30
0.0
 10
11.1052128993
 20
4.7352272364
 30
0.0
 10
11.1081664128
 20
4.7360339027
 30
0.0
 10
11.1112321729
 20
4.7370597085
 30
0.0
 10
11.1143059639
 20
4.7383697674
 30
0.0
 10
11.1167645409
 20
4.7396607335
 30
0.0
 10
11.1187543326
 20
4.7409303085
 30
0.0
 10
11.1203714163
 20
4.7421754264
 30
0.0
 10
11.1216826419
 20
4.7433956993
 30
0.0
 10
11.1230212989
 20
4.744912452
 30
0.0
 10
11.1240252776
 20
4.7464640059
 30
0.0
 10
11.124678815
 20
4.7480163026
 30
0.0
 10
11.1249974329
 20
4.7491068215
 30
0.0
 10
11.1251794682
 20
4.7501713803
 30
0.0
 10
11.1252186588
 20
4.7508740856
 30
0.0
 10
11.1252186585
 20
4.7512187252
 30
0.0
  0
SPLINE
  5
2D9
100
AcDbEntity
  8
0
100
AcDbSpline
 62
9
  6
CONTINUOUS
 70
0
 71
3
 72
15
 73
11
 74
0
 42
0.0000001
 43
0.0000001
 44
0.0000000001
 40
0.0
 40
0.0
 40
0.0
 40
0.0
 40
0.1231263498
 40
0.2467392414
 40
0.3709610318
 40
0.4958351432
 40
0.6213216604
 40
0.7473035581
 40
0.8736022185
 40
1.0
 40
1.0
 40
1.0
 40
1.0
 10
9.2501660269
 20
4.8751079643
 30
0.0
 10
9.2519135256
 20
4.8751312423
 30
0.0
 10
9.2554195003
 20
4.8755028414
 30
0.0
 10
9.2604932171
 20
4.8770116872
 30
0.0
 10
9.2652345383
 20
4.8794233516
 30
0.0
 10
9.2694888322
 20
4.8826593033
 30
0.0
 10
9.2731204916
 20
4.8866146282
 30
0.0
 10
9.2760134322
 20
4.8911624157
 30
0.0
 10
9.2780751571
 20
4.8961544718
 30
0.0
 10
9.2788524863
 20
4.8996780544
 30
0.0
 10
9.2790849706
 20
4.9014570158
 30
0.0
  0
SPLINE
  5
2DA
100
AcDbEntity
  8
0
100
AcDbSpline
 62
9
  6
CONTINUOUS
 70
0
 71
3
 72
14
 73
10
 74
0
 42
0.0000001
 43
0.0000001
 44
0.0000000001
 40
0.0
 40
0.0
 40
0.0
 40
0.0
 40
0.3771969591
 40
0.5320817209
 40
0.6658536429
 40
0.779164188
 40
0.8724640647
 40
0.9460360163
 40
1.0
 40
1.0
 40
1.0
 40
1.0
 10
11.0852186585
 20
4.8751079874
 30
0.0
 10
11.0869610815
 20
4.8758141766
 30
0.0
 10
11.0894804318
 20
4.8766726096
 30
0.0
 10
11.0927120931
 20
4.877434321
 30
0.0
 10
11.0946853329
 20
4.8777868088
 30
0.0
 10
11.0963682281
 20
4.8780064875
 30
0.0
 10
11.0977601914
 20
4.8781246388
 30
0.0
 10
11.0988600614
 20
4.8781740563
 30
0.0
 10
11.0994957243
 20
4.878182942
 30
0.0
 10
11.0997646854
 20
4.878185835
 30
0.0
  0
LINE
  5
2DB
100
AcDbEntity
  8
0
100
AcDbLine
 62
9
  6
CONTINUOUS
 10
11.0997646854
 20
4.878185835
 11
11.1005082691
 21
4.8781942987
  0
SPLINE
  5
2DC
100
AcDbEntity
  8
0
100
AcDbSpline
 62
9
  6
CONTINUOUS
 70
0
 71
3
 72
33
 73
29
 74
0
 42
0.0000001
 43
0.0000001
 44
0.0000000001
 40
0.0
 40
0.0
 40
0.0
 40
0.0
 40
0.0150462179
 40
0.0303619384
 40
0.0462003476
 40
0.0627860817
 40
0.0803084006
 40
0.0989196261
 40
0.1187377481
 40
0.1398495395
 40
0.1623158903
 40
0.1861750732
 40
0.2114468986
 40
0.2381355996
 40
0.2662318458
 40
0.2957155161
 40
0.326556221
 40
0.3587155922
 40
0.3921475822
 40
0.4267996541
 40
0.4626136511
 40
0.499525892
 40
0.5763644256
 40
0.6567286315
 40
0.7399736368
 40
0.8254144652
 40
0.9123339461
 40
1.0
 40
1.0
 40
1.0
 40
1.0
 10
10.4176923088
 20
12.2237640479
 30
0.0
 10
10.4176923088
 20
12.2251661559
 30
0.0
 10
10.4174872403
 20
12.2279995565
 30
0.0
 10
10.4165688657
 20
12.2322191504
 30
0.0
 10
10.4150444337
 20
12.2364119278
 30
0.0
 10
10.4129211702
 20
12.2405657533
 30
0.0
 10
10.4102072026
 20
12.2446716578
 30
0.0
 10
10.4069111185
 20
12.2487212928
 30
0.0
 10
10.4030416444
 20
12.2527064344
 30
0.0
 10
10.3986085437
 20
12.2566191077
 30
0.0
 10
10.3936222413
 20
12.2604508498
 30
0.0
 10
10.3880945214
 20
12.2641933419
 30
0.0
 10
10.3820383114
 20
12.2678381088
 30
0.0
 10
10.3754678127
 20
12.271376675
 30
0.0
 10
10.3683985729
 20
12.2748008868
 30
0.0
 10
10.3608472773
 20
12.2781024793
 30
0.0
 10
10.3528319238
 20
12.281273742
 30
0.0
 10
10.3443715879
 20
12.2843069713
 30
0.0
 10
10.3354864921
 20
12.2871949295
 30
0.0
 10
10.3261979134
 20
12.2899306771
 30
0.0
 10
10.3165280643
 20
12.2925075889
 30
0.0
 10
10.3029759047
 20
12.2957669772
 30
0.0
 10
10.2852451976
 20
12.2993814385
 30
0.0
 10
10.2631177606
 20
12.3029428848
 30
0.0
 10
10.2400745057
 20
12.3057495774
 30
0.0
 10
10.2163366774
 20
12.3077741383
 30
0.0
 10
10.1921320538
 20
12.3089968818
 30
0.0
 10
10.1758616566
 20
12.3092690837
 30
0.0
 10
10.1676923427
 20
12.3092690837
 30
0.0
  0
SPLINE
  5
2DD
100
AcDbEntity
  8
0
100
AcDbSpline
 62
9
  6
CONTINUOUS
 70
0
 71
3
 72
13
 73
9
 74
0
 42
0.0000001
 43
0.0000001
 44
0.0000000001
 40
0.0
 40
0.0
 40
0.0
 40
0.0
 40
0.1193866204
 40
0.2393680669
 40
0.3604722653
 40
0.4832123717
 40
0.7354689867
 40
1.0
 40
1.0
 40
1.0
 40
1.0
 10
10.4910588803
 20
11.5002517309
 30
0.0
 10
10.4910590107
 20
11.4993304685
 30
0.0
 10
10.4909914206
 20
11.4974826356
 30
0.0
 10
10.4906873012
 20
11.4947153716
 30
0.0
 10
10.490180745
 20
11.4919514412
 30
0.0
 10
10.4892277051
 20
11.488240941
 30
0.0
 10
10.487509406
 20
11.4835985992
 30
0.0
 10
10.4856628952
 20
11.480052067
 30
0.0
 10
10.4846227238
 20
11.4782956787
 30
0.0
  0
SPLINE
  5
2DE
100
AcDbEntity
  8
0
100
AcDbSpline
 62
9
  6
CONTINUOUS
 70
0
 71
3
 72
15
 73
11
 74
0
 42
0.0000001
 43
0.0000001
 44
0.0000000001
 40
0.0
 40
0.0
 40
0.0
 40
0.0
 40
0.1150198866
 40
0.2310912322
 40
0.3491912799
 40
0.4702563804
 40
0.5951525337
 40
0.7246482154
 40
0.8594078559
 40
1.0
 40
1.0
 40
1.0
 40
1.0
 10
10.4982102493
 20
11.5086599818
 30
0.0
 10
10.4982102493
 20
11.5073547352
 30
0.0
 10
10.4980768036
 20
11.5047304113
 30
0.0
 10
10.4974782359
 20
11.5008069718
 30
0.0
 10
10.4964818244
 20
11.496894341
 30
0.0
 10
10.4950897171
 20
11.4929985071
 30
0.0
 10
10.4933044303
 20
11.4891241494
 30
0.0
 10
10.4911288279
 20
11.4852757485
 30
0.0
 10
10.488566343
 20
11.4814577609
 30
0.0
 10
10.4866447965
 20
11.4789902243
 30
0.0
 10
10.485625284
 20
11.477763022
 30
0.0
  0
SPLINE
  5
2DF
100
AcDbEntity
  8
0
100
AcDbSpline
 62
9
  6
CONTINUOUS
 70
0
 71
3
 72
14
 73
10
 74
0
 42
0.0000001
 43
0.0000001
 44
0.0000000001
 40
0.0
 40
0.0
 40
0.0
 40
0.0
 40
0.1137814391
 40
0.2287578647
 40
0.346039803
 40
0.4666831993
 40
0.7215367926
 40
0.8575346199
 40
1.0
 40
1.0
 40
1.0
 40
1.0
 10
10.5001923429
 20
11.5109115342
 30
0.0
 10
10.5001923429
 20
11.5095009471
 30
0.0
 10
10.5000372164
 20
11.506662585
 30
0.0
 10
10.4993417416
 20
11.5024215963
 30
0.0
 10
10.4981841416
 20
11.4981942188
 30
0.0
 10
10.4959899131
 20
11.4924838513
 30
0.0
 10
10.492878212
 20
11.4869149549
 30
0.0
 10
10.4890018707
 20
11.4815548906
 30
0.0
 10
10.4867797042
 20
11.4789081146
 30
0.0
 10
10.4856011376
 20
11.4775926626
 30
0.0
  0
SPLINE
  5
2E0
100
AcDbEntity
  8
0
100
AcDbSpline
 62
9
  6
CONTINUOUS
 70
0
 71
3
 72
17
 73
13
 74
0
 42
0.0000001
 43
0.0000001
 44
0.0000000001
 40
0.0
 40
0.0
 40
0.0
 40
0.0
 40
0.0245671172
 40
0.0557576638
 40
0.0933538334
 40
0.1371089234
 40
0.2418701165
 40
0.3672061522
 40
0.5097213883
 40
0.6655523397
 40
0.8304644322
 40
1.0
 40
1.0
 40
1.0
 40
1.0
 10
12.0943940029
 20
7.1301437151
 30
0.0
 10
12.094686987
 20
7.1301277354
 30
0.0
 10
12.0953524627
 20
7.1301011824
 30
0.0
 10
12.0964671003
 20
7.1300730119
 30
0.0
 10
12.0978111181
 20
7.1300525709
 30
0.0
 10
12.1000339109
 20
7.1300349151
 30
0.0
 10
12.1033047426
 20
7.1300369614
 30
0.0
 10
12.1077549642
 20
7.1300707792
 30
0.0
 10
12.1128148485
 20
7.1301362293
 30
0.0
 10
12.1183470061
 20
7.1302316615
 30
0.0
 10
12.1242014122
 20
7.1303546855
 30
0.0
 10
12.12819473
 20
7.1304524604
 30
0.0
 10
12.1302188999
 20
7.1305054424
 30
0.0
  0
LINE
  5
2E1
100
AcDbEntity
  8
0
100
AcDbLine
 62
9
  6
CONTINUOUS
 10
12.1164950793
 20
7.0961602259
 11
12.1319248356
 21
7.1278769348
  0
SPLINE
  5
2E2
100
AcDbEntity
  8
0
100
AcDbSpline
 62
9
  6
CONTINUOUS
 70
0
 71
3
 72
11
 73
7
 74
0
 42
0.0000001
 43
0.0000001
 44
0.0000000001
 40
0.0
 40
0.0
 40
0.0
 40
0.0
 40
0.2504987679
 40
0.5006930049
 40
0.7504929773
 40
1.0
 40
1.0
 40
1.0
 40
1.0
 10
12.1164950793
 20
7.0961602259
 30
0.0
 10
12.1151792281
 20
7.0967885548
 30
0.0
 10
12.1126230268
 20
7.098205946
 30
0.0
 10
12.1090737129
 20
7.1007701161
 30
0.0
 10
12.1058592035
 20
7.1037346753
 30
0.0
 10
12.1039628717
 20
7.1059473597
 30
0.0
 10
12.1030821643
 20
7.1071022682
 30
0.0
  0
SPLINE
  5
2E3
100
AcDbEntity
  8
0
100
AcDbSpline
 62
9
  6
CONTINUOUS
 70
0
 71
3
 72
11
 73
7
 74
0
 42
0.0000001
 43
0.0000001
 44
0.0000000001
 40
0.0
 40
0.0
 40
0.0
 40
0.0
 40
0.2496717267
 40
0.4995606958
 40
0.7497217077
 40
1.0
 40
1.0
 40
1.0
 40
1.0
 10
12.0987456066
 20
7.1138562
 30
0.0
 10
12.0980792092
 20
7.1151044394
 30
0.0
 10
12.0968829325
 20
7.1176781851
 30
0.0
 10
12.0955391765
 20
7.1217187989
 30
0.0
 10
12.0946758613
 20
7.1258922657
 30
0.0
 10
12.094431091
 20
7.1287257759
 30
0.0
 10
12.0943940018
 20
7.1301437151
 30
0.0
  0
LINE
  5
2E4
100
AcDbEntity
  8
0
100
AcDbLine
 62
9
  6
CONTINUOUS
 10
12.4688896017
 20
7.0961602374
 11
12.4534598499
 21
7.1278769348
  0
SPLINE
  5
2E5
100
AcDbEntity
  8
0
100
AcDbSpline
 62
9
  6
CONTINUOUS
 70
0
 71
3
 72
11
 73
7
 74
0
 42
0.0000001
 43
0.0000001
 44
0.0000000001
 40
0.0
 40
0.0
 40
0.0
 40
0.0
 40
0.2495070514
 40
0.4993059801
 40
0.7494994191
 40
1.0
 40
1.0
 40
1.0
 40
1.0
 10
12.482301635
 20
7.1071014367
 30
0.0
 10
12.4814210948
 20
7.1059465196
 30
0.0
 10
12.4795247646
 20
7.1037340847
 30
0.0
 10
12.4763107385
 20
7.1007694661
 30
0.0
 10
12.4727616273
 20
7.0982054317
 30
0.0
 10
12.4702053635
 20
7.0967885578
 30
0.0
 10
12.4688896018
 20
7.0961602372
 30
0.0
  0
SPLINE
  5
2E6
100
AcDbEntity
  8
0
100
AcDbSpline
 62
9
  6
CONTINUOUS
 70
0
 71
3
 72
17
 73
13
 74
0
 42
0.0000001
 43
0.0000001
 44
0.0000000001
 40
0.0
 40
0.0
 40
0.0
 40
0.0
 40
0.0245671165
 40
0.0557576627
 40
0.0933538321
 40
0.137108922
 40
0.2418701151
 40
0.367206151
 40
0.5097213873
 40
0.6655523391
 40
0.8304644319
 40
1.0
 40
1.0
 40
1.0
 40
1.0
 10
12.4909906826
 20
7.1301437165
 30
0.0
 10
12.4906976985
 20
7.130127737
 30
0.0
 10
12.4900322228
 20
7.1301011843
 30
0.0
 10
12.4889175852
 20
7.1300730141
 30
0.0
 10
12.4875735674
 20
7.1300525733
 30
0.0
 10
12.4853507747
 20
7.1300349178
 30
0.0
 10
12.4820799429
 20
7.1300369642
 30
0.0
 10
12.4776297213
 20
7.1300707819
 30
0.0
 10
12.472569837
 20
7.1301362317
 30
0.0
 10
12.4670376794
 20
7.1302316634
 30
0.0
 10
12.4611832733
 20
7.1303546864
 30
0.0
 10
12.4571899555
 20
7.1304524607
 30
0.0
 10
12.4551657856
 20
7.1305054424
 30
0.0
  0
SPLINE
  5
2E7
100
AcDbEntity
  8
0
100
AcDbSpline
 62
9
  6
CONTINUOUS
 70
0
 71
3
 72
11
 73
7
 74
0
 42
0.0000001
 43
0.0000001
 44
0.0000000001
 40
0.0
 40
0.0
 40
0.0
 40
0.0
 40
0.250280544
 40
0.5004412608
 40
0.7503273443
 40
1.0
 40
1.0
 40
1.0
 40
1.0
 10
12.4909906832
 20
7.1301437165
 30
0.0
 10
12.4909536023
 20
7.1287256549
 30
0.0
 10
12.4907084498
 20
7.1258919353
 30
0.0
 10
12.4898450069
 20
7.1217182017
 30
0.0
 10
12.4885015216
 20
7.1176771454
 30
0.0
 10
12.4873049211
 20
7.1151033238
 30
0.0
 10
12.4866385712
 20
7.1138549294
 30
0.0
  0
SPLINE
  5
2E8
100
AcDbEntity
  8
0
100
AcDbSpline
 62
9
  6
CONTINUOUS
 70
0
 71
3
 72
17
 73
13
 74
0
 42
0.0000001
 43
0.0000001
 44
0.0000000001
 40
0.0
 40
0.0
 40
0.0
 40
0.0
 40
0.0245671172
 40
0.0557576638
 40
0.0933538334
 40
0.1371089234
 40
0.2418701165
 40
0.3672061522
 40
0.5097213882
 40
0.6655523397
 40
0.8304644322
 40
1.0
 40
1.0
 40
1.0
 40
1.0
 10
12.5352321498
 20
8.8196571858
 30
0.0
 10
12.5349391657
 20
8.8196412061
 30
0.0
 10
12.53427369
 20
8.8196146531
 30
0.0
 10
12.5331590524
 20
8.8195864826
 30
0.0
 10
12.5318150346
 20
8.8195660416
 30
0.0
 10
12.5295922418
 20
8.8195483859
 30
0.0
 10
12.5263214101
 20
8.8195504321
 30
0.0
 10
12.5218711885
 20
8.8195842499
 30
0.0
 10
12.5168113042
 20
8.8196497
 30
0.0
 10
12.5112791466
 20
8.8197451322
 30
0.0
 10
12.5054247405
 20
8.8198681562
 30
0.0
 10
12.5014314227
 20
8.8199659311
 30
0.0
 10
12.4994072528
 20
8.8200189131
 30
0.0
  0
SPLINE
  5
2E9
100
AcDbEntity
  8
0
100
AcDbSpline
 62
9
  6
CONTINUOUS
 70
0
 71
3
 72
12
 73
8
 74
0
 42
0.0000001
 43
0.0000001
 44
0.0000000001
 40
0.0
 40
0.0
 40
0.0
 40
0.0
 40
0.250327271
 40
0.5004363616
 40
0.6254255014
 40
0.7503676474
 40
1.0
 40
1.0
 40
1.0
 40
1.0
 10
12.5125776152
 20
8.8560351361
 30
0.0
 10
12.5140495855
 20
8.8553622107
 30
0.0
 10
12.5169032949
 20
8.8538131401
 30
0.0
 10
12.5201775195
 20
8.8514191223
 30
0.0
 10
12.5225850704
 20
8.8492580345
 30
0.0
 10
12.5248432429
 20
8.8469463272
 30
0.0
 10
12.5263650305
 20
8.8450512799
 30
0.0
 10
12.5272949866
 20
8.8437321199
 30
0.0
  0
SPLINE
  5
2EA
100
AcDbEntity
  8
0
100
AcDbSpline
 62
9
  6
CONTINUOUS
 70
0
 71
3
 72
11
 73
7
 74
0
 42
0.0000001
 43
0.0000001
 44
0.0000000001
 40
0.0
 40
0.0
 40
0.0
 40
0.0
 40
0.2494032059
 40
0.4991056772
 40
0.7493211913
 40
1.0
 40
1.0
 40
1.0
 40
1.0
 10
12.5316487686
 20
8.8362966946
 30
0.0
 10
12.5322633958
 20
8.8350083433
 30
0.0
 10
12.5333499033
 20
8.8323585861
 30
0.0
 10
12.5345094435
 20
8.8282195735
 30
0.0
 10
12.5351703395
 20
8.8239647629
 30
0.0
 10
12.5352697711
 20
8.8210914441
 30
0.0
 10
12.535232151
 20
8.8196571858
 30
0.0
  0
LINE
  5
2EB
100
AcDbEntity
  8
0
100
AcDbLine
 62
9
  6
CONTINUOUS
 10
12.5125776152
 20
8.8560351361
 11
12.4976555213
 21
8.8228258851
  0
LINE
  5
2EC
100
AcDbEntity
  8
0
100
AcDbLine
 62
9
  6
CONTINUOUS
 10
12.0728070734
 20
8.8560351241
 11
12.0877291642
 21
8.8228258851
  0
SPLINE
  5
2ED
100
AcDbEntity
  8
0
100
AcDbSpline
 62
9
  6
CONTINUOUS
 70
0
 71
3
 72
11
 73
7
 74
0
 42
0.0000001
 43
0.0000001
 44
0.0000000001
 40
0.0
 40
0.0
 40
0.0
 40
0.0
 40
0.2496662992
 40
0.4994972359
 40
0.7496394249
 40
1.0
 40
1.0
 40
1.0
 40
1.0
 10
12.058090338
 20
8.8437324937
 30
0.0
 10
12.0590202454
 20
8.8450516274
 30
0.0
 10
12.0610480934
 20
8.8475775021
 30
0.0
 10
12.0645544949
 20
8.8509422328
 30
0.0
 10
12.0684811195
 20
8.8538135463
 30
0.0
 10
12.0713351483
 20
8.855362231
 30
0.0
 10
12.0728070731
 20
8.8560351249
 30
0.0
  0
SPLINE
  5
2EE
100
AcDbEntity
  8
0
100
AcDbSpline
 62
9
  6
CONTINUOUS
 70
0
 71
3
 72
17
 73
13
 74
0
 42
0.0000001
 43
0.0000001
 44
0.0000000001
 40
0.0
 40
0.0
 40
0.0
 40
0.0
 40
0.0245671179
 40
0.0557576649
 40
0.0933538349
 40
0.137108925
 40
0.2418701181
 40
0.3672061535
 40
0.5097213893
 40
0.6655523403
 40
0.8304644324
 40
1.0
 40
1.0
 40
1.0
 40
1.0
 10
12.0501525357
 20
8.8196571841
 30
0.0
 10
12.0504455198
 20
8.8196412043
 30
0.0
 10
12.0511109955
 20
8.8196146511
 30
0.0
 10
12.0522256332
 20
8.8195864802
 30
0.0
 10
12.053569651
 20
8.819566039
 30
0.0
 10
12.0557924437
 20
8.8195483829
 30
0.0
 10
12.0590632755
 20
8.819550429
 30
0.0
 10
12.063513497
 20
8.819584247
 30
0.0
 10
12.0685733813
 20
8.8196496974
 30
0.0
 10
12.0741055389
 20
8.8197451301
 30
0.0
 10
12.079959945
 20
8.8198681552
 30
0.0
 10
12.0839532627
 20
8.8199659308
 30
0.0
 10
12.0859774326
 20
8.8200189131
 30
0.0
  0
SPLINE
  5
2EF
100
AcDbEntity
  8
0
100
AcDbSpline
 62
9
  6
CONTINUOUS
 70
0
 71
3
 72
11
 73
7
 74
0
 42
0.0000001
 43
0.0000001
 44
0.0000000001
 40
0.0
 40
0.0
 40
0.0
 40
0.0
 40
0.2506795401
 40
0.5008952006
 40
0.7505964137
 40
1.0
 40
1.0
 40
1.0
 40
1.0
 10
12.0501525343
 20
8.8196571842
 30
0.0
 10
12.0501148779
 20
8.8210915296
 30
0.0
 10
12.0502146834
 20
8.8239650298
 30
0.0
 10
12.0508758784
 20
8.8282199955
 30
0.0
 10
12.0520348398
 20
8.8323594507
 30
0.0
 10
12.0531218137
 20
8.8350091922
 30
0.0
 10
12.0537363292
 20
8.8362976915
 30
0.0
  0
SPLINE
  5
2F0
100
AcDbEntity
  8
0
100
AcDbSpline
 62
9
  6
CONTINUOUS
 70
0
 71
3
 72
25
 73
21
 74
0
 42
0.0000001
 43
0.0000001
 44
0.0000000001
 40
0.0
 40
0.0
 40
0.0
 40
0.0
 40
0.0217463362
 40
0.0442999606
 40
0.0680065784
 40
0.0932702109
 40
0.1503752871
 40
0.1835365215
 40
0.2207957605
 40
0.2632044991
 40
0.3121473006
 40
0.3695445594
 40
0.4382300044
 40
0.5227628702
 40
0.6313670244
 40
0.6994472441
 40
0.7812233082
 40
0.8814517017
 40
0.9391076929
 40
1.0
 40
1.0
 40
1.0
 40
1.0
 10
9.2101660269
 20
4.7512187251
 30
0.0
 10
9.2101660266
 20
4.7508740862
 30
0.0
 10
9.2102052154
 20
4.7501713814
 30
0.0
 10
9.2103872501
 20
4.7491068227
 30
0.0
 10
9.2107058688
 20
4.7480163077
 30
0.0
 10
9.2113594241
 20
4.7464640225
 30
0.0
 10
9.2123634318
 20
4.7449124856
 30
0.0
 10
9.2137020298
 20
4.7433956657
 30
0.0
 10
9.2150132662
 20
4.7421753771
 30
0.0
 10
9.2166303628
 20
4.7409302593
 30
0.0
 10
9.2186202805
 20
4.7396608627
 30
0.0
 10
9.2210787142
 20
4.738369577
 30
0.0
 10
9.2241528254
 20
4.7370600665
 30
0.0
 10
9.2280915256
 20
4.7357412289
 30
0.0
 10
9.2321151789
 20
4.7347465396
 30
0.0
 10
9.2361440958
 20
4.734002089
 30
0.0
 10
9.240071999
 20
4.7334617281
 30
0.0
 10
9.2438579991
 20
4.7331335055
 30
0.0
 10
9.2473221111
 20
4.7329786011
 30
0.0
 10
9.2492009974
 20
4.7329484297
 30
0.0
 10
9.2501660269
 20
4.7329484259
 30
0.0
  0
SPLINE
  5
2F1
100
AcDbEntity
  8
0
100
AcDbSpline
 62
9
  6
CONTINUOUS
 70
0
 71
3
 72
59
 73
55
 74
0
 42
0.0000001
 43
0.0000001
 44
0.0000000001
 40
0.0
 40
0.0
 40
0.0
 40
0.0
 40
0.0075598929
 40
0.0153993841
 40
0.0236151481
 40
0.0322875738
 40
0.0414814395
 40
0.0512470499
 40
0.0616216791
 40
0.0726316431
 40
0.0842936602
 40
0.0966166158
 40
0.1096026344
 40
0.1232480177
 40
0.1375443191
 40
0.1524786441
 40
0.168034519
 40
0.1841921634
 40
0.2009288312
 40
0.2182193365
 40
0.2360360173
 40
0.2543492595
 40
0.2923356348
 40
0.3319094676
 40
0.3727779688
 40
0.4146316956
 40
0.4571489583
 40
0.4999999968
 40
0.5428510354
 40
0.5853682982
 40
0.6272220251
 40
0.6680905267
 40
0.7076643598
 40
0.7456507355
 40
0.7639639779
 40
0.7817806589
 40
0.7990711645
 40
0.8158078325
 40
0.8319654772
 40
0.8475213524
 40
0.8624556776
 40
0.8767519793
 40
0.8903973629
 40
0.9033833818
 40
0.9157063377
 40
0.9273683551
 40
0.9383783194
 40
0.9487529489
 40
0.9585185596
 40
0.9677124255
 40
0.9763848514
 40
0.9846006157
 40
0.992440107
 40
1.0
 40
1.0
 40
1.0
 40
1.0
 10
10.4812478887
 20
11.2348208649
 30
0.0
 10
10.4809142979
 20
11.2365231944
 30
0.0
 10
10.4799991
 20
11.2399484106
 30
0.0
 10
10.4779500509
 20
11.2449782073
 30
0.0
 10
10.4752136053
 20
11.249961992
 30
0.0
 10
10.4717989146
 20
11.2548886996
 30
0.0
 10
10.4677150677
 20
11.2597493429
 30
0.0
 10
10.4629719425
 20
11.2645347231
 30
0.0
 10
10.4575802962
 20
11.2692358514
 30
0.0
 10
10.4515517702
 20
11.273843286
 30
0.0
 10
10.4448994585
 20
11.2783477972
 30
0.0
 10
10.4376376333
 20
11.2827399393
 30
0.0
 10
10.429781956
 20
11.2870103712
 30
0.0
 10
10.4213494726
 20
11.2911500128
 30
0.0
 10
10.4123584572
 20
11.2951497477
 30
0.0
 10
10.4028285523
 20
11.299000961
 30
0.0
 10
10.3927805677
 20
11.3026951427
 30
0.0
 10
10.3822365109
 20
11.3062241471
 30
0.0
 10
10.3712195287
 20
11.309580275
 30
0.0
 10
10.3597538108
 20
11.3127559833
 30
0.0
 10
10.3478645502
 20
11.3157444149
 30
0.0
 10
10.3312799699
 20
11.319516161
 30
0.0
 10
10.3096744946
 20
11.3236962676
 30
0.0
 10
10.2828071702
 20
11.3278138126
 30
0.0
 10
10.2549267803
 20
11.3310551105
 30
0.0
 10
10.2262787877
 20
11.3333912542
 30
0.0
 10
10.1971150737
 20
11.334801348
 30
0.0
 10
10.1676923461
 20
11.3352727883
 30
0.0
 10
10.1382696185
 20
11.3348013483
 30
0.0
 10
10.1091059044
 20
11.3333912546
 30
0.0
 10
10.0804579116
 20
11.3310551111
 30
0.0
 10
10.0525775215
 20
11.3278138134
 30
0.0
 10
10.0257101968
 20
11.3236962686
 30
0.0
 10
10.0041047213
 20
11.3195161622
 30
0.0
 10
9.9875201408
 20
11.3157444163
 30
0.0
 10
9.97563088
 20
11.3127559847
 30
0.0
 10
9.964165162
 20
11.3095802765
 30
0.0
 10
9.9531481795
 20
11.3062241487
 30
0.0
 10
9.9426041225
 20
11.3026951443
 30
0.0
 10
9.9325561377
 20
11.2990009627
 30
0.0
 10
9.9230262325
 20
11.2951497494
 30
0.0
 10
9.9140352169
 20
11.2911500146
 30
0.0
 10
9.9056027332
 20
11.2870103732
 30
0.0
 10
9.8977470556
 20
11.2827399413
 30
0.0
 10
9.8904852302
 20
11.2783477992
 30
0.0
 10
9.8838329182
 20
11.2738432881
 30
0.0
 10
9.8778043919
 20
11.2692358536
 30
0.0
 10
9.8724127453
 20
11.2645347252
 30
0.0
 10
9.8676696198
 20
11.2597493451
 30
0.0
 10
9.8635857726
 20
11.2548887018
 30
0.0
 10
9.8601710816
 20
11.2499619942
 30
0.0
 10
9.8574346357
 20
11.2449782096
 30
0.0
 10
9.8553855863
 20
11.2399484128
 30
0.0
 10
9.8544703881
 20
11.2365231967
 30
0.0
 10
9.8541367972
 20
11.2348208672
 30
0.0
  0
SPLINE
  5
2F2
100
AcDbEntity
  8
0
100
AcDbSpline
 62
9
  6
CONTINUOUS
 70
0
 71
3
 72
61
 73
57
 74
0
 42
0.0000001
 43
0.0000001
 44
0.0000000001
 40
0.0
 40
0.0
 40
0.0
 40
0.0
 40
0.0075226437
 40
0.0151810088
 40
0.023100109
 40
0.0313928716
 40
0.0401539905
 40
0.0494596137
 40
0.0593685804
 40
0.0699244479
 40
0.0811575761
 40
0.0930870871
 40
0.1057229766
 40
0.1190672375
 40
0.133115314
 40
0.1478570728
 40
0.1632773548
 40
0.1793569669
 40
0.1960728861
 40
0.213398841
 40
0.2313057547
 40
0.2497618028
 40
0.2687329948
 40
0.2881831991
 40
0.3283650984
 40
0.3699874428
 40
0.4127074916
 40
0.4561675308
 40
0.5
 40
0.5438324692
 40
0.5872925084
 40
0.6300125572
 40
0.6716349016
 40
0.7118168009
 40
0.7312670052
 40
0.7502381972
 40
0.7686942453
 40
0.786601159
 40
0.8039271139
 40
0.8206430331
 40
0.8367226452
 40
0.8521429272
 40
0.866884686
 40
0.8809327625
 40
0.8942770234
 40
0.9069129129
 40
0.9188424239
 40
0.9300755521
 40
0.9406314196
 40
0.9505403863
 40
0.9598460095
 40
0.9686071284
 40
0.976899891
 40
0.9848189912
 40
0.9924773563
 40
1.0
 40
1.0
 40
1.0
 40
1.0
 10
10.4714422856
 20
11.1920212481
 30
0.0
 10
10.4714422856
 20
11.1937247115
 30
0.0
 10
10.4711929374
 20
11.1971672964
 30
0.0
 10
10.4700773809
 20
11.2022941621
 30
0.0
 10
10.4682250832
 20
11.2073884603
 30
0.0
 10
10.4656452552
 20
11.2124352782
 30
0.0
 10
10.4623479084
 20
11.217424032
 30
0.0
 10
10.4583430606
 20
11.2223442559
 30
0.0
 10
10.453641716
 20
11.2271862678
 30
0.0
 10
10.4482554718
 20
11.2319401312
 30
0.0
 10
10.4421971168
 20
11.236595694
 30
0.0
 10
10.4354809559
 20
11.2411428552
 30
0.0
 10
10.428122638
 20
11.2455711979
 30
0.0
 10
10.420139501
 20
11.2498705983
 30
0.0
 10
10.411550366
 20
11.2540309859
 30
0.0
 10
10.4023755479
 20
11.2580424346
 30
0.0
 10
10.3926368951
 20
11.2618955138
 30
0.0
 10
10.3823575881
 20
11.2655808879
 30
0.0
 10
10.3715622
 20
11.2690897536
 30
0.0
 10
10.360276573
 20
11.2724136958
 30
0.0
 10
10.3485277322
 20
11.275544608
 30
0.0
 10
10.3363438939
 20
11.2784750332
 30
0.0
 10
10.3237542567
 20
11.2811978694
 30
0.0
 10
10.3062778824
 20
11.2845792137
 30
0.0
 10
10.2836339355
 20
11.2882234815
 30
0.0
 10
10.2556367437
 20
11.2916336605
 30
0.0
 10
10.2267951837
 20
11.2940935193
 30
0.0
 10
10.1973863256
 20
11.2955791012
 30
0.0
 10
10.1676923428
 20
11.2960759084
 30
0.0
 10
10.1379983599
 20
11.2955791012
 30
0.0
 10
10.1085895019
 20
11.2940935193
 30
0.0
 10
10.0797479418
 20
11.2916336605
 30
0.0
 10
10.05175075
 20
11.2882234815
 30
0.0
 10
10.0291068031
 20
11.2845792137
 30
0.0
 10
10.0116304288
 20
11.2811978694
 30
0.0
 10
9.9990407916
 20
11.2784750332
 30
0.0
 10
9.9868569533
 20
11.275544608
 30
0.0
 10
9.9751081125
 20
11.2724136958
 30
0.0
 10
9.9638224855
 20
11.2690897536
 30
0.0
 10
9.9530270975
 20
11.2655808879
 30
0.0
 10
9.9427477905
 20
11.2618955138
 30
0.0
 10
9.9330091376
 20
11.2580424346
 30
0.0
 10
9.9238343195
 20
11.2540309859
 30
0.0
 10
9.9152451845
 20
11.2498705983
 30
0.0
 10
9.9072620475
 20
11.2455711979
 30
0.0
 10
9.8999037296
 20
11.2411428552
 30
0.0
 10
9.8931875687
 20
11.236595694
 30
0.0
 10
9.8871292138
 20
11.2319401312
 30
0.0
 10
9.8817429695
 20
11.2271862678
 30
0.0
 10
9.877041625
 20
11.2223442559
 30
0.0
 10
9.8730367771
 20
11.217424032
 30
0.0
 10
9.8697394303
 20
11.2124352782
 30
0.0
 10
9.8671596023
 20
11.2073884603
 30
0.0
 10
9.8653073047
 20
11.2022941621
 30
0.0
 10
9.8641917481
 20
11.1971672964
 30
0.0
 10
9.8639423999
 20
11.1937247115
 30
0.0
 10
9.8639423999
 20
11.1920212481
 30
0.0
  0
SPLINE
  5
2F3
100
AcDbEntity
  8
0
100
AcDbSpline
 62
9
  6
CONTINUOUS
 70
0
 71
3
 72
61
 73
57
 74
0
 42
0.0000001
 43
0.0000001
 44
0.0000000001
 40
0.0
 40
0.0
 40
0.0
 40
0.0
 40
0.0075226437
 40
0.0151810088
 40
0.023100109
 40
0.0313928716
 40
0.0401539905
 40
0.0494596137
 40
0.0593685804
 40
0.0699244479
 40
0.0811575761
 40
0.0930870871
 40
0.1057229766
 40
0.1190672375
 40
0.133115314
 40
0.1478570728
 40
0.1632773548
 40
0.1793569669
 40
0.1960728861
 40
0.213398841
 40
0.2313057547
 40
0.2497618028
 40
0.2687329948
 40
0.2881831991
 40
0.3283650984
 40
0.3699874428
 40
0.4127074916
 40
0.4561675308
 40
0.5
 40
0.5438324692
 40
0.5872925084
 40
0.6300125572
 40
0.6716349016
 40
0.7118168009
 40
0.7312670052
 40
0.7502381972
 40
0.7686942453
 40
0.786601159
 40
0.8039271139
 40
0.8206430331
 40
0.8367226452
 40
0.8521429272
 40
0.866884686
 40
0.8809327625
 40
0.8942770234
 40
0.9069129129
 40
0.9188424239
 40
0.9300755521
 40
0.9406314196
 40
0.9505403863
 40
0.9598460095
 40
0.9686071284
 40
0.976899891
 40
0.9848189912
 40
0.9924773563
 40
1.0
 40
1.0
 40
1.0
 40
1.0
 10
10.4564848888
 20
11.4194228276
 30
0.0
 10
10.4564848888
 20
11.4210424083
 30
0.0
 10
10.4562478191
 20
11.4243154718
 30
0.0
 10
10.4551871953
 20
11.429189878
 30
0.0
 10
10.4534261094
 20
11.4340333204
 30
0.0
 10
10.4509733185
 20
11.4388316205
 30
0.0
 10
10.4478383411
 20
11.4435747158
 30
0.0
 10
10.4440307019
 20
11.4482526557
 30
0.0
 10
10.4395608632
 20
11.452856235
 30
0.0
 10
10.4344398509
 20
11.4573760064
 30
0.0
 10
10.4286798242
 20
11.4618023178
 30
0.0
 10
10.4222943837
 20
11.4661255656
 30
0.0
 10
10.4152984075
 20
11.4703358457
 30
0.0
 10
10.4077083799
 20
11.474423533
 30
0.0
 10
10.3995421952
 20
11.4783790529
 30
0.0
 10
10.3908191677
 20
11.482192968
 30
0.0
 10
10.3815600702
 20
11.4858563121
 30
0.0
 10
10.3717869416
 20
11.4893602092
 30
0.0
 10
10.3615231451
 20
11.4926962897
 30
0.0
 10
10.3507932503
 20
11.4958565528
 30
0.0
 10
10.3396229513
 20
11.4988332911
 30
0.0
 10
10.3280390753
 20
11.501619415
 30
0.0
 10
10.3160693829
 20
11.504208172
 30
0.0
 10
10.2994535884
 20
11.5074230105
 30
0.0
 10
10.2779246853
 20
11.5108878256
 30
0.0
 10
10.2513061444
 20
11.514130079
 30
0.0
 10
10.2238848139
 20
11.5164688083
 30
0.0
 10
10.1959241206
 20
11.5178812365
 30
0.0
 10
10.1676923428
 20
11.5183535797
 30
0.0
 10
10.1394605649
 20
11.5178812365
 30
0.0
 10
10.1114998716
 20
11.5164688083
 30
0.0
 10
10.0840785411
 20
11.514130079
 30
0.0
 10
10.0574600002
 20
11.5108878256
 30
0.0
 10
10.0359310971
 20
11.5074230105
 30
0.0
 10
10.0193153026
 20
11.504208172
 30
0.0
 10
10.0073456102
 20
11.501619415
 30
0.0
 10
9.9957617342
 20
11.4988332911
 30
0.0
 10
9.9845914353
 20
11.4958565528
 30
0.0
 10
9.9738615404
 20
11.4926962897
 30
0.0
 10
9.9635977439
 20
11.4893602092
 30
0.0
 10
9.9538246154
 20
11.4858563121
 30
0.0
 10
9.9445655178
 20
11.482192968
 30
0.0
 10
9.9358424904
 20
11.4783790529
 30
0.0
 10
9.9276763056
 20
11.474423533
 30
0.0
 10
9.920086278
 20
11.4703358457
 30
0.0
 10
9.9130903018
 20
11.4661255656
 30
0.0
 10
9.9067048613
 20
11.4618023178
 30
0.0
 10
9.9009448346
 20
11.4573760064
 30
0.0
 10
9.8958238223
 20
11.452856235
 30
0.0
 10
9.8913539836
 20
11.4482526557
 30
0.0
 10
9.8875463444
 20
11.4435747158
 30
0.0
 10
9.884411367
 20
11.4388316205
 30
0.0
 10
9.8819585761
 20
11.4340333204
 30
0.0
 10
9.8801974902
 20
11.429189878
 30
0.0
 10
9.8791368664
 20
11.4243154718
 30
0.0
 10
9.8788997968
 20
11.4210424083
 30
0.0
 10
9.8788997968
 20
11.4194228276
 30
0.0
  0
LINE
  5
2F4
100
AcDbEntity
  8
0
100
AcDbLine
 62
9
  6
CONTINUOUS
 10
9.2348763848
 20
4.8781942517
 11
9.2356510414
 21
4.878185477
  0
SPLINE
  5
2F5
100
AcDbEntity
  8
0
100
AcDbSpline
 62
9
  6
CONTINUOUS
 70
0
 71
3
 72
14
 73
10
 74
0
 42
0.0000001
 43
0.0000001
 44
0.0000000001
 40
0.0
 40
0.0
 40
0.0
 40
0.0
 40
0.0546235427
 40
0.1286746287
 40
0.2222712015
 40
0.3356927502
 40
0.4693856443
 40
0.6239954115
 40
1.0
 40
1.0
 40
1.0
 40
1.0
 10
9.2356510414
 20
4.878185477
 30
0.0
 10
9.2359227226
 20
4.8781822939
 30
0.0
 10
9.2365627206
 20
4.8781725199
 30
0.0
 10
9.2376673812
 20
4.8781215158
 30
0.0
 10
9.2390607144
 20
4.8780015933
 30
0.0
 10
9.2407414993
 20
4.877780306
 30
0.0
 10
9.242709077
 20
4.877426652
 30
0.0
 10
9.2459258773
 20
4.8766654915
 30
0.0
 10
9.2484327103
 20
4.8758104857
 30
0.0
 10
9.2501660269
 20
4.8751079922
 30
0.0
  0
SPLINE
  5
2F6
100
AcDbEntity
  8
0
100
AcDbSpline
 62
9
  6
CONTINUOUS
 70
0
 71
3
 72
35
 73
31
 74
0
 42
0.0000001
 43
0.0000001
 44
0.0000000001
 40
0.0
 40
0.0
 40
0.0
 40
0.0
 40
0.0000600809
 40
0.0002424867
 40
0.0005472286
 40
0.0009743167
 40
0.0015237614
 40
0.0021955736
 40
0.003906345
 40
0.0061067239
 40
0.0087968093
 40
0.0119767053
 40
0.0156465221
 40
0.0244563822
 40
0.0352273854
 40
0.047960615
 40
0.0626572441
 40
0.0793185359
 40
0.0979458435
 40
0.1185406026
 40
0.1411020681
 40
0.1921005325
 40
0.2508932883
 40
0.3174399954
 40
0.3917095282
 40
0.4736804179
 40
0.5633513605
 40
0.6607575903
 40
0.7659535527
 40
1.0
 40
1.0
 40
1.0
 40
1.0
 10
9.2533893643
 20
4.9045804615
 30
0.0
 10
9.253388898
 20
4.9045802328
 30
0.0
 10
9.2533934118
 20
4.904580776
 30
0.0
 10
9.2533957903
 20
4.9045802498
 30
0.0
 10
9.253405039
 20
4.9045805578
 30
0.0
 10
9.2534155188
 20
4.9045804247
 30
0.0
 10
9.2534299986
 20
4.9045804678
 30
0.0
 10
9.2534552336
 20
4.9045804067
 30
0.0
 10
9.2534949221
 20
4.9045803113
 30
0.0
 10
9.2535519529
 20
4.9045800402
 30
0.0
 10
9.2536217253
 20
4.9045795902
 30
0.0
 10
9.2537041832
 20
4.9045788984
 30
0.0
 10
9.2538395434
 20
4.904577506
 30
0.0
 10
9.2540405104
 20
4.9045748267
 30
0.0
 10
9.2543198023
 20
4.9045700319
 30
0.0
 10
9.2546499487
 20
4.9045630877
 30
0.0
 10
9.2550309676
 20
4.9045535964
 30
0.0
 10
9.2554628758
 20
4.9045411602
 30
0.0
 10
9.2559456902
 20
4.9045253755
 30
0.0
 10
9.2564794091
 20
4.9045058674
 30
0.0
 10
9.2572926405
 20
4.9044728562
 30
0.0
 10
9.258435409
 20
4.9044172393
 30
0.0
 10
9.2599568764
 20
4.9043233265
 30
0.0
 10
9.2616773842
 20
4.9041915808
 30
0.0
 10
9.2635950756
 20
4.9040137276
 30
0.0
 10
9.2657081975
 20
4.9037816069
 30
0.0
 10
9.2680152457
 20
4.9034864148
 30
0.0
 10
9.2705147622
 20
4.9031169417
 30
0.0
 10
9.2742367114
 20
4.9024880853
 30
0.0
 10
9.2771115315
 20
4.9019027761
 30
0.0
 10
9.2790849756
 20
4.9014570147
 30
0.0
  0
SPLINE
  5
2F7
100
AcDbEntity
  8
0
100
AcDbSpline
 62
9
  6
CONTINUOUS
 70
0
 71
3
 72
67
 73
63
 74
0
 42
0.0000001
 43
0.0000001
 44
0.0000000001
 40
0.0
 40
0.0
 40
0.0
 40
0.0
 40
0.0000012035
 40
0.0000048164
 40
0.0000108388
 40
0.0000192707
 40
0.000030112
 40
0.0000433628
 40
0.0000770931
 40
0.0001204616
 40
0.0001734686
 40
0.0002361143
 40
0.0003083986
 40
0.000390322
 40
0.0004818844
 40
0.0006939274
 40
0.0009445288
 40
0.0012336716
 40
0.0015612905
 40
0.0019273122
 40
0.0023316635
 40
0.0027742711
 40
0.0037739626
 40
0.004925801
 40
0.0062292012
 40
0.0076835779
 40
0.0092883826
 40
0.0110434439
 40
0.0129488137
 40
0.0150045466
 40
0.0195673197
 40
0.0247321181
 40
0.0304960583
 40
0.0368519857
 40
0.043792455
 40
0.0513106217
 40
0.0594023834
 40
0.0680644216
 40
0.0772933447
 40
0.0870838345
 40
0.0974285074
 40
0.1197498485
 40
0.144183558
 40
0.1706460403
 40
0.199077981
 40
0.2294252936
 40
0.2616062444
 40
0.2955316731
 40
0.3311111839
 40
0.3682598748
 40
0.4469326353
 40
0.5308094743
 40
0.6191174129
 40
0.6646856996
 40
0.7110578516
 40
0.7581275611
 40
0.8057865561
 40
0.8539191562
 40
0.9024106195
 40
0.9267563769
 40
0.9511487135
 40
1.0
 40
1.0
 40
1.0
 40
1.0
 10
9.2702142133
 20
4.9302217505
 30
0.0
 10
9.2702141588
 20
4.9302221102
 30
0.0
 10
9.2702165832
 20
4.9302207473
 30
0.0
 10
9.2702188205
 20
4.9302210829
 30
0.0
 10
9.2702247127
 20
4.9302193525
 30
0.0
 10
9.2702319461
 20
4.9302180036
 30
0.0
 10
9.2702416543
 20
4.9302158368
 30
0.0
 10
9.2702587008
 20
4.9302122092
 30
0.0
 10
9.2702854361
 20
4.9302064337
 30
0.0
 10
9.27032388
 20
4.9301981741
 30
0.0
 10
9.270370888
 20
4.930188056
 30
0.0
 10
9.2704264364
 20
4.9301761046
 30
0.0
 10
9.2704905339
 20
4.930162311
 30
0.0
 10
9.2705631776
 20
4.9301466781
 30
0.0
 10
9.2706771307
 20
4.9301221541
 30
0.0
 10
9.2708409405
 20
4.9300868989
 30
0.0
 10
9.2710631497
 20
4.9300390721
 30
0.0
 10
9.2713195204
 20
4.929983894
 30
0.0
 10
9.2716100123
 20
4.9299214
 30
0.0
 10
9.2719345675
 20
4.9298516262
 30
0.0
 10
9.2722931261
 20
4.9297746101
 30
0.0
 10
9.2728390229
 20
4.9296574747
 30
0.0
 10
9.2736059474
 20
4.9294932033
 30
0.0
 10
9.2746274696
 20
4.9292749605
 30
0.0
 10
9.2757835689
 20
4.9290286521
 30
0.0
 10
9.2770737759
 20
4.9287545705
 30
0.0
 10
9.27849775
 20
4.9284530133
 30
0.0
 10
9.2800552857
 20
4.928123989
 30
0.0
 10
9.2817463381
 20
4.9277673799
 30
0.0
 10
9.284268146
 20
4.9272362285
 30
0.0
 10
9.2877544447
 20
4.9265028337
 30
0.0
 10
9.2923378952
 20
4.9255387025
 30
0.0
 10
9.2974519439
 20
4.9244632585
 30
0.0
 10
9.3030918289
 20
4.9232795456
 30
0.0
 10
9.3092515328
 20
4.9219904652
 30
0.0
 10
9.3159259682
 20
4.9205988684
 30
0.0
 10
9.3231109877
 20
4.9191060136
 30
0.0
 10
9.3308034737
 20
4.9175129817
 30
0.0
 10
9.3389999198
 20
4.91582079
 30
0.0
 10
9.3476957589
 20
4.9140313967
 30
0.0
 10
9.3602707675
 20
4.911453911
 30
0.0
 10
9.3771873689
 20
4.9080093382
 30
0.0
 10
9.3988886208
 20
4.903639426
 30
0.0
 10
9.4224139031
 20
4.8989692029
 30
0.0
 10
9.4477073046
 20
4.8940239287
 30
0.0
 10
9.4747131728
 20
4.8888275383
 30
0.0
 10
9.5033695345
 20
4.8834194695
 30
0.0
 10
9.5336034256
 20
4.8778414438
 30
0.0
 10
9.5653408727
 20
4.8721362613
 30
0.0
 10
9.6104351191
 20
4.8642698299
 30
0.0
 10
9.6700054094
 20
4.8544190449
 30
0.0
 10
9.7450097804
 20
4.8431365044
 30
0.0
 10
9.8102853106
 20
4.8345241278
 30
0.0
 10
9.8644256886
 20
4.8282909822
 30
0.0
 10
9.906235582
 20
4.8239954977
 30
0.0
 10
9.9487289401
 20
4.8202027656
 30
0.0
 10
9.9918038678
 20
4.8169870698
 30
0.0
 10
10.0353523136
 20
4.8144074031
 30
0.0
 10
10.0718947757
 20
4.8128356708
 30
0.0
 10
10.1012783158
 20
4.8119447782
 30
0.0
 10
10.1307771376
 20
4.8113050415
 30
0.0
 10
10.1529224805
 20
4.811111441
 30
0.0
 10
10.1676923427
 20
4.8111113907
 30
0.0
  0
SPLINE
  5
2F8
100
AcDbEntity
  8
0
100
AcDbSpline
 62
9
  6
CONTINUOUS
 70
0
 71
3
 72
15
 73
11
 74
0
 42
0.0000001
 43
0.0000001
 44
0.0000000001
 40
0.0
 40
0.0
 40
0.0
 40
0.0
 40
0.1231261764
 40
0.2467389272
 40
0.3709606283
 40
0.4958347129
 40
0.621321268
 40
0.7473032612
 40
0.8736020597
 40
1.0
 40
1.0
 40
1.0
 40
1.0
 10
11.0852186519
 20
4.8751079753
 30
0.0
 10
11.0834711589
 20
4.8751312554
 30
0.0
 10
11.0799651952
 20
4.8755028587
 30
0.0
 10
11.0748914954
 20
4.8770117098
 30
0.0
 10
11.0701501907
 20
4.8794233782
 30
0.0
 10
11.0658959121
 20
4.8826593326
 30
0.0
 10
11.0622642657
 20
4.8866146586
 30
0.0
 10
11.0593713351
 20
4.8911624458
 30
0.0
 10
11.0573096169
 20
4.8961545003
 30
0.0
 10
11.0565322894
 20
4.899678081
 30
0.0
 10
11.0562998052
 20
4.9014570416
 30
0.0
  0
SPLINE
  5
2F9
100
AcDbEntity
  8
0
100
AcDbSpline
 62
9
  6
CONTINUOUS
 70
0
 71
3
 72
34
 73
30
 74
0
 42
0.0000001
 43
0.0000001
 44
0.0000000001
 40
0.0
 40
0.0
 40
0.0
 40
0.0
 40
0.0425052679
 40
0.0849446872
 40
0.1272433547
 40
0.1693346163
 40
0.2111501348
 40
0.2526198373
 40
0.2936724168
 40
0.3342387988
 40
0.3742513621
 40
0.4136415498
 40
0.4902808272
 40
0.563634406
 40
0.6331927727
 40
0.6663876156
 40
0.6984513275
 40
0.7589811067
 40
0.8143234793
 40
0.8399034719
 40
0.8640311151
 40
0.8866737587
 40
0.9077935618
 40
0.9273474
 40
0.9452716124
 40
0.9615049832
 40
0.9760437419
 40
0.9888922136
 40
1.0
 40
1.0
 40
1.0
 40
1.0
 10
10.1676923353
 20
4.7414610242
 30
0.0
 10
10.180858364
 20
4.7414610926
 30
0.0
 10
10.2071705546
 20
4.7416812284
 30
0.0
 10
10.2465736165
 20
4.7426677247
 30
0.0
 10
10.2858271077
 20
4.744294757
 30
0.0
 10
10.3248566608
 20
4.7465347009
 30
0.0
 10
10.3635914146
 20
4.7493489798
 30
0.0
 10
10.4019607566
 20
4.7526951367
 30
0.0
 10
10.439895489
 20
4.756528289
 30
0.0
 10
10.4773293358
 20
4.7607963226
 30
0.0
 10
10.5141992695
 20
4.7654407966
 30
0.0
 10
10.5620866756
 20
4.7720025495
 30
0.0
 10
10.6200839971
 20
4.7808291827
 30
0.0
 10
10.6871408927
 20
4.7921657532
 30
0.0
 10
10.7408014107
 20
4.8019800365
 30
0.0
 10
10.7818144781
 20
4.8098416888
 30
0.0
 10
10.8200439071
 20
4.8173674225
 30
0.0
 10
10.8649482756
 20
4.8265003365
 30
0.0
 10
10.907821396
 20
4.8355373234
 30
0.0
 10
10.9396292551
 20
4.8423979476
 30
0.0
 10
10.9615234387
 20
4.8471810285
 30
0.0
 10
10.9820584427
 20
4.8517123182
 30
0.0
 10
11.0012022361
 20
4.8559732994
 30
0.0
 10
11.0189133993
 20
4.8599436144
 30
0.0
 10
11.0351415651
 20
4.8636098722
 30
0.0
 10
11.0498473949
 20
4.8669650752
 30
0.0
 10
11.0630158428
 20
4.8699904274
 30
0.0
 10
11.0746362008
 20
4.8726635343
 30
0.0
 10
11.081866722
 20
4.8743317276
 30
0.0
 10
11.0852186585
 20
4.8751079639
 30
0.0
  0
SPLINE
  5
2FA
100
AcDbEntity
  8
0
100
AcDbSpline
 62
9
  6
CONTINUOUS
 70
0
 71
3
 72
34
 73
30
 74
0
 42
0.0000001
 43
0.0000001
 44
0.0000000001
 40
0.0
 40
0.0
 40
0.0
 40
0.0
 40
0.0111070889
 40
0.0239554649
 40
0.0384945979
 40
0.054728351
 40
0.0726525103
 40
0.0922062688
 40
0.1133263769
 40
0.1359692511
 40
0.1600967335
 40
0.1856765481
 40
0.2410189416
 40
0.3015487847
 40
0.3336125103
 40
0.3668073744
 40
0.4363654277
 40
0.509718912
 40
0.5863584127
 40
0.6257485109
 40
0.6657609794
 40
0.7063273774
 40
0.7473800188
 40
0.7888497366
 40
0.8306652718
 40
0.8727565606
 40
0.9150552546
 40
0.9574947172
 40
1.0
 40
1.0
 40
1.0
 40
1.0
 10
9.2501660269
 20
4.8751079326
 30
0.0
 10
9.2535177241
 20
4.8743316207
 30
0.0
 10
9.2607479816
 20
4.8726633777
 30
0.0
 10
9.2723682204
 20
4.869990333
 30
0.0
 10
9.2855368928
 20
4.8669650453
 30
0.0
 10
9.300242956
 20
4.8636098877
 30
0.0
 10
9.3164711857
 20
4.8599435644
 30
0.0
 10
9.3341823931
 20
4.8559732043
 30
0.0
 10
9.353326352
 20
4.8517123189
 30
0.0
 10
9.3738614841
 20
4.8471810738
 30
0.0
 10
9.3957556188
 20
4.8423979293
 30
0.0
 10
9.4275633658
 20
4.8355372556
 30
0.0
 10
9.470436468
 20
4.8265003276
 30
0.0
 10
9.5153408692
 20
4.8173674273
 30
0.0
 10
9.5535703342
 20
4.8098417231
 30
0.0
 10
9.5945833245
 20
4.8019801336
 30
0.0
 10
9.6482436869
 20
4.7921656781
 30
0.0
 10
9.7153005158
 20
4.7808290479
 30
0.0
 10
9.7732979015
 20
4.7720027722
 30
0.0
 10
9.8211853008
 20
4.7654408973
 30
0.0
 10
9.8580551702
 20
4.7607963345
 30
0.0
 10
9.895489013
 20
4.7565283171
 30
0.0
 10
9.9334237786
 20
4.7526952202
 30
0.0
 10
9.971793141
 20
4.749348977
 30
0.0
 10
10.0105279129
 20
4.7465346984
 30
0.0
 10
10.0495574887
 20
4.7442947935
 30
0.0
 10
10.0888110069
 20
4.7426677145
 30
0.0
 10
10.1282140944
 20
4.74168122
 30
0.0
 10
10.1545263023
 20
4.7414610953
 30
0.0
 10
10.1676923353
 20
4.7414610242
 30
0.0
  0
SPLINE
  5
2FB
100
AcDbEntity
  8
0
100
AcDbSpline
 62
9
  6
CONTINUOUS
 70
0
 71
3
 72
31
 73
27
 74
0
 42
0.0000001
 43
0.0000001
 44
0.0000000001
 40
0.0
 40
0.0
 40
0.0
 40
0.0
 40
0.0006232895
 40
0.0010752184
 40
0.0016466117
 40
0.0031775067
 40
0.0052495893
 40
0.0078741235
 40
0.0110561058
 40
0.019097872
 40
0.029372625
 40
0.0418684214
 40
0.0565672463
 40
0.0734423546
 40
0.0924652282
 40
0.1136031129
 40
0.1620638997
 40
0.2184769376
 40
0.2824329259
 40
0.35346647
 40
0.4310620375
 40
0.5146547452
 40
0.603636751
 40
0.6973584417
 40
0.7951341001
 40
1.0
 40
1.0
 40
1.0
 40
1.0
 10
12.577053852
 20
8.8444702268
 30
0.0
 10
12.5770536784
 20
8.8444635977
 30
0.0
 10
12.5770460533
 20
8.8444530672
 30
0.0
 10
12.5770317844
 20
8.8444433379
 30
0.0
 10
12.5770073874
 20
8.8444309504
 30
0.0
 10
12.5769651267
 20
8.8444170163
 30
0.0
 10
12.5769006693
 20
8.8444014998
 30
0.0
 10
12.576818182
 20
8.8443864337
 30
0.0
 10
12.5766723721
 20
8.844365151
 30
0.0
 10
12.5764448323
 20
8.8443411685
 30
0.0
 10
12.5761179844
 20
8.8443157522
 30
0.0
 10
12.5757200047
 20
8.8442923423
 30
0.0
 10
12.5752516131
 20
8.8442709878
 30
0.0
 10
12.5747136343
 20
8.8442518068
 30
0.0
 10
12.5741070461
 20
8.8442348575
 30
0.0
 10
12.5731643946
 20
8.8442143811
 30
0.0
 10
12.5718238314
 20
8.8441957707
 30
0.0
 10
12.5700276364
 20
8.8441835643
 30
0.0
 10
12.567991245
 20
8.8441808627
 30
0.0
 10
12.5657294982
 20
8.844187722
 30
0.0
 10
12.5632588763
 20
8.8442041458
 30
0.0
 10
12.560597368
 20
8.8442300384
 30
0.0
 10
12.5577643827
 20
8.8442652299
 30
0.0
 10
12.5547806108
 20
8.8443094731
 30
0.0
 10
12.5505642015
 20
8.8443812527
 30
0.0
 10
12.5473449544
 20
8.8444459773
 30
0.0
 10
12.5451658515
 20
8.8444936732
 30
0.0
  0
SPLINE
  5
2FC
100
AcDbEntity
  8
0
100
AcDbSpline
 62
9
  6
CONTINUOUS
 70
0
 71
3
 72
11
 73
7
 74
0
 42
0.0000001
 43
0.0000001
 44
0.0000000001
 40
0.0
 40
0.0
 40
0.0
 40
0.0
 40
0.2500845186
 40
0.5001785438
 40
0.7501571836
 40
1.0
 40
1.0
 40
1.0
 40
1.0
 10
12.5042958125
 20
7.1300875677
 30
0.0
 10
12.5042413568
 20
7.1280064055
 30
0.0
 10
12.503969369
 20
7.1238464932
 30
0.0
 10
12.5030764823
 20
7.1176595297
 30
0.0
 10
12.5016928406
 20
7.1115652383
 30
0.0
 10
12.5004376067
 20
7.107592095
 30
0.0
 10
12.4997262952
 20
7.1056376479
 30
0.0
  0
SPLINE
  5
2FD
100
AcDbEntity
  8
0
100
AcDbSpline
 62
9
  6
CONTINUOUS
 70
0
 71
3
 72
10
 73
6
 74
0
 42
0.0000001
 43
0.0000001
 44
0.0000000001
 40
0.0
 40
0.0
 40
0.0
 40
0.0
 40
0.4992492344
 40
0.7495085321
 40
1.0
 40
1.0
 40
1.0
 40
1.0
 10
12.5451658515
 20
8.8444936732
 30
0.0
 10
12.5464128318
 20
8.8404871724
 30
0.0
 10
12.5477593668
 20
8.8342929211
 30
0.0
 10
12.5485363081
 20
8.8259191993
 30
0.0
 10
12.5485923725
 20
8.8217051131
 30
0.0
 10
12.548537266
 20
8.8196005135
 30
0.0
  0
SPLINE
  5
2FE
100
AcDbEntity
  8
0
100
AcDbSpline
 62
9
  6
CONTINUOUS
 70
0
 71
3
 72
31
 73
27
 74
0
 42
0.0000001
 43
0.0000001
 44
0.0000000001
 40
0.0
 40
0.0
 40
0.0
 40
0.0
 40
0.0006238024
 40
0.001075774
 40
0.0016470803
 40
0.0031774637
 40
0.0052486412
 40
0.0078719098
 40
0.0110522844
 40
0.0190898684
 40
0.0293592367
 40
0.0418485292
 40
0.056539834
 40
0.0734065258
 40
0.0924202015
 40
0.1135482524
 40
0.1619881079
 40
0.2183797144
 40
0.2823153735
 40
0.3533314815
 40
0.4309144481
 40
0.5145014679
 40
0.6034868715
 40
0.6972232998
 40
0.795027333
 40
1.0
 40
1.0
 40
1.0
 40
1.0
 10
12.5315203582
 20
7.1056162551
 30
0.0
 10
12.531520185
 20
7.1056096401
 30
0.0
 10
12.5315125919
 20
7.10559913
 30
0.0
 10
12.5314983682
 20
7.105589413
 30
0.0
 10
12.5314740579
 20
7.1055770471
 30
0.0
 10
12.531431944
 20
7.1055631343
 30
0.0
 10
12.531367711
 20
7.105547642
 30
0.0
 10
12.5312855111
 20
7.105532598
 30
0.0
 10
12.5311402108
 20
7.1055113455
 30
0.0
 10
12.530913464
 20
7.1054873933
 30
0.0
 10
12.530587753
 20
7.1054620045
 30
0.0
 10
12.5301911538
 20
7.1054386143
 30
0.0
 10
12.5297243817
 20
7.1054172717
 30
0.0
 10
12.5291882552
 20
7.1053980943
 30
0.0
 10
12.5285837455
 20
7.1053811402
 30
0.0
 10
12.5276442946
 20
7.1053606448
 30
0.0
 10
12.5263082328
 20
7.1053419872
 30
0.0
 10
12.5245179911
 20
7.1053296924
 30
0.0
 10
12.5224882224
 20
7.1053268681
 30
0.0
 10
12.5202336675
 20
7.1053335712
 30
0.0
 10
12.5177706964
 20
7.1053498064
 30
0.0
 10
12.5151171795
 20
7.1053754799
 30
0.0
 10
12.5122923999
 20
7.1054104239
 30
0.0
 10
12.5093169158
 20
7.105454394
 30
0.0
 10
12.5051113252
 20
7.1055257786
 30
0.0
 10
12.5019001181
 20
7.1055901803
 30
0.0
 10
12.4997262952
 20
7.1056376479
 30
0.0
  0
SPLINE
  5
2FF
100
AcDbEntity
  8
0
100
AcDbSpline
 62
9
  6
CONTINUOUS
 70
0
 71
3
 72
11
 73
7
 74
0
 42
0.0000001
 43
0.0000001
 44
0.0000000001
 40
0.0
 40
0.0
 40
0.0
 40
0.0
 40
0.2497174742
 40
0.499611557
 40
0.7497241889
 40
1.0
 40
1.0
 40
1.0
 40
1.0
 10
12.4953944707
 20
7.0988924024
 30
0.0
 10
12.4939076674
 20
7.0973814559
 30
0.0
 10
12.4907954515
 20
7.0944905888
 30
0.0
 10
12.4857632103
 20
7.0905816955
 30
0.0
 10
12.4804078324
 20
7.0871204656
 30
0.0
 10
12.4766517444
 20
7.0851239349
 30
0.0
 10
12.4747348705
 20
7.0842078267
 30
0.0
  0
SPLINE
  5
300
100
AcDbEntity
  8
0
100
AcDbSpline
 62
9
  6
CONTINUOUS
 70
0
 71
3
 72
32
 73
28
 74
0
 42
0.0000001
 43
0.0000001
 44
0.0000000001
 40
0.0
 40
0.0
 40
0.0
 40
0.0
 40
0.0003948207
 40
0.0012933849
 40
0.0027443842
 40
0.0047561713
 40
0.0073311589
 40
0.0104700605
 40
0.0141725626
 40
0.0184371769
 40
0.0286453128
 40
0.0410787843
 40
0.0557176881
 40
0.072534346
 40
0.0914998605
 40
0.1125815405
 40
0.1357400549
 40
0.160935263
 40
0.2172526678
 40
0.2811317429
 40
0.3521159141
 40
0.4296996187
 40
0.5133288747
 40
0.6024074
 40
0.6962976485
 40
0.7943262465
 40
1.0
 40
1.0
 40
1.0
 40
1.0
 10
12.5109332577
 20
7.0716823192
 30
0.0
 10
12.5109296504
 20
7.0716803187
 30
0.0
 10
12.5109152964
 20
7.071689669
 30
0.0
 10
12.5108973923
 20
7.0717085284
 30
0.0
 10
12.5108672519
 20
7.0717446364
 30
0.0
 10
12.510830077
 20
7.0717948465
 30
0.0
 10
12.5107834997
 20
7.0718610644
 30
0.0
 10
12.5107286168
 20
7.0719426133
 30
0.0
 10
12.5106651158
 20
7.0720397624
 30
0.0
 10
12.5105628666
 20
7.0721997566
 30
0.0
 10
12.5104142956
 20
7.0724384079
 30
0.0
 10
12.5102114522
 20
7.0727709069
 30
0.0
 10
12.5099751107
 20
7.0731638408
 30
0.0
 10
12.5097057564
 20
7.0736165454
 30
0.0
 10
12.5094039236
 20
7.0741282453
 30
0.0
 10
12.5090701862
 20
7.0746980461
 30
0.0
 10
12.5087051239
 20
7.0753249237
 30
0.0
 10
12.5081567901
 20
7.0762710688
 30
0.0
 10
12.5073987269
 20
7.0775873725
 30
0.0
 10
12.5064065386
 20
7.0793208744
 30
0.0
 10
12.5053081016
 20
7.0812495565
 30
0.0
 10
12.5041112664
 20
7.0833596516
 30
0.0
 10
12.5028245871
 20
7.0856361164
 30
0.0
 10
12.5014572631
 20
7.0880626892
 30
0.0
 10
12.5000190827
 20
7.0906220097
 30
0.0
 10
12.4979880169
 20
7.0942454463
 30
0.0
 10
12.4964407195
 20
7.0970155377
 30
0.0
 10
12.4953944709
 20
7.0988924021
 30
0.0
  0
SPLINE
  5
301
100
AcDbEntity
  8
0
100
AcDbSpline
 62
9
  6
CONTINUOUS
 70
0
 71
3
 72
21
 73
17
 74
0
 42
0.0000001
 43
0.0000001
 44
0.0000000001
 40
0.0
 40
0.0
 40
0.0
 40
0.0
 40
0.04437947
 40
0.0928425286
 40
0.1450060165
 40
0.200519504
 40
0.2589622939
 40
0.3198984285
 40
0.3829534085
 40
0.4477801337
 40
0.5140792464
 40
0.5815727561
 40
0.6500242221
 40
0.7192157914
 40
0.8591162881
 40
1.0
 40
1.0
 40
1.0
 40
1.0
 10
12.4747211274
 20
7.0536808212
 30
0.0
 10
12.4741265064
 20
7.0534178685
 30
0.0
 10
12.472857558
 20
7.0529240005
 30
0.0
 10
12.470834303
 20
7.0522740485
 30
0.0
 10
12.4686283971
 20
7.0516667765
 30
0.0
 10
12.4662647955
 20
7.0510861906
 30
0.0
 10
12.4637660576
 20
7.0505190817
 30
0.0
 10
12.4611540494
 20
7.0499527172
 30
0.0
 10
12.4584485059
 20
7.0493765287
 30
0.0
 10
12.4556670375
 20
7.0487796487
 30
0.0
 10
12.4528251689
 20
7.0481544042
 30
0.0
 10
12.4499370924
 20
7.0474924726
 30
0.0
 10
12.4470151101
 20
7.0467894435
 30
0.0
 10
12.4430744843
 20
7.045786851
 30
0.0
 10
12.4381329727
 20
7.044416482
 30
0.0
 10
12.4342043485
 20
7.0431944149
 30
0.0
 10
12.4322430283
 20
7.0425516006
 30
0.0
  0
SPLINE
  5
302
100
AcDbEntity
  8
0
100
AcDbSpline
 62
9
  6
CONTINUOUS
 70
0
 71
3
 72
32
 73
28
 74
0
 42
0.0000001
 43
0.0000001
 44
0.0000000001
 40
0.0
 40
0.0
 40
0.0
 40
0.0
 40
0.0003951998
 40
0.0012942008
 40
0.0027455724
 40
0.004757652
 40
0.0073328474
 40
0.010471871
 40
0.0141744205
 40
0.0184390363
 40
0.0286471114
 40
0.0410805112
 40
0.0557193649
 40
0.0725359809
 40
0.0915014491
 40
0.1125830736
 40
0.1357415258
 40
0.160936668
 40
0.2172539327
 40
0.2811328567
 40
0.352116869
 40
0.4297004113
 40
0.5133295061
 40
0.6024078753
 40
0.696297978
 40
0.7943264456
 40
1.0
 40
1.0
 40
1.0
 40
1.0
 10
12.0744514278
 20
7.0716823191
 30
0.0
 10
12.0744550386
 20
7.0716803167
 30
0.0
 10
12.0744694058
 20
7.0716896525
 30
0.0
 10
12.0744873557
 20
7.0717084912
 30
0.0
 10
12.0745175465
 20
7.071744569
 30
0.0
 10
12.0745547812
 20
7.0717947476
 30
0.0
 10
12.0746014117
 20
7.0718609354
 30
0.0
 10
12.0746563342
 20
7.0719424625
 30
0.0
 10
12.0747198539
 20
7.0720396011
 30
0.0
 10
12.0748221081
 20
7.0721995914
 30
0.0
 10
12.074970655
 20
7.0724382551
 30
0.0
 10
12.0751734691
 20
7.0727707683
 30
0.0
 10
12.0754098037
 20
7.0731637028
 30
0.0
 10
12.0756791593
 20
7.073616403
 30
0.0
 10
12.0759809931
 20
7.0741280985
 30
0.0
 10
12.0763147247
 20
7.0746978984
 30
0.0
 10
12.0766797783
 20
7.0753247764
 30
0.0
 10
12.0772280996
 20
7.0762709216
 30
0.0
 10
12.0779861501
 20
7.0775872231
 30
0.0
 10
12.0789783202
 20
7.079320723
 30
0.0
 10
12.0800767367
 20
7.0812494034
 30
0.0
 10
12.0812735502
 20
7.0833594967
 30
0.0
 10
12.0825602063
 20
7.0856359597
 30
0.0
 10
12.0839275057
 20
7.0880625312
 30
0.0
 10
12.0853656607
 20
7.0906218507
 30
0.0
 10
12.0873966913
 20
7.094245287
 30
0.0
 10
12.0889439618
 20
7.0970153786
 30
0.0
 10
12.0899901924
 20
7.0988922432
 30
0.0
  0
SPLINE
  5
303
100
AcDbEntity
  8
0
100
AcDbSpline
 62
9
  6
CONTINUOUS
 70
0
 71
3
 72
31
 73
27
 74
0
 42
0.0000001
 43
0.0000001
 44
0.0000000001
 40
0.0
 40
0.0
 40
0.0
 40
0.0
 40
0.000623802
 40
0.0010757734
 40
0.0016470798
 40
0.0031774638
 40
0.0052486421
 40
0.0078719118
 40
0.0110522878
 40
0.0190898757
 40
0.0293592488
 40
0.0418485473
 40
0.056539859
 40
0.0734065584
 40
0.0924202425
 40
0.1135483023
 40
0.1619881768
 40
0.2183798028
 40
0.2823154804
 40
0.3533316042
 40
0.4309145824
 40
0.5145016073
 40
0.6034870078
 40
0.6972234227
 40
0.7950274301
 40
1.0
 40
1.0
 40
1.0
 40
1.0
 10
12.0538643272
 20
7.1056162551
 30
0.0
 10
12.0538645005
 20
7.1056096401
 30
0.0
 10
12.0538720936
 20
7.10559913
 30
0.0
 10
12.0538863173
 20
7.105589413
 30
0.0
 10
12.0539106277
 20
7.105577047
 30
0.0
 10
12.0539527418
 20
7.1055631343
 30
0.0
 10
12.054016975
 20
7.1055476419
 30
0.0
 10
12.0540991752
 20
7.1055325979
 30
0.0
 10
12.0542444759
 20
7.1055113453
 30
0.0
 10
12.0544712234
 20
7.1054873931
 30
0.0
 10
12.0547969355
 20
7.1054620043
 30
0.0
 10
12.0551935359
 20
7.1054386141
 30
0.0
 10
12.0556603095
 20
7.1054172714
 30
0.0
 10
12.0561964377
 20
7.1053980941
 30
0.0
 10
12.0568009493
 20
7.10538114
 30
0.0
 10
12.0577404031
 20
7.1053606446
 30
0.0
 10
12.059076469
 20
7.105341987
 30
0.0
 10
12.0608667161
 20
7.1053296923
 30
0.0
 10
12.0628964908
 20
7.1053268681
 30
0.0
 10
12.0651510522
 20
7.1053335714
 30
0.0
 10
12.0676140303
 20
7.1053498067
 30
0.0
 10
12.0702675545
 20
7.1053754804
 30
0.0
 10
12.0730923416
 20
7.1054104246
 30
0.0
 10
12.0760678332
 20
7.105454395
 30
0.0
 10
12.0802734337
 20
7.10552578
 30
0.0
 10
12.083484648
 20
7.105590182
 30
0.0
 10
12.0856584758
 20
7.1056376497
 30
0.0
  0
SPLINE
  5
304
100
AcDbEntity
  8
0
100
AcDbSpline
 62
9
  6
CONTINUOUS
 70
0
 71
3
 72
11
 73
7
 74
0
 42
0.0000001
 43
0.0000001
 44
0.0000000001
 40
0.0
 40
0.0
 40
0.0
 40
0.0
 40
0.2503805115
 40
0.5005326129
 40
0.7503800608
 40
1.0
 40
1.0
 40
1.0
 40
1.0
 10
12.0368474206
 20
8.8196004726
 30
0.0
 10
12.0367922673
 20
8.8217050722
 30
0.0
 10
12.0368487495
 20
8.825918562
 30
0.0
 10
12.0374318566
 20
8.8322076417
 30
0.0
 10
12.03852266
 20
8.8384227173
 30
0.0
 10
12.0395957249
 20
8.8424893639
 30
0.0
 10
12.040218814
 20
8.8444936727
 30
0.0
  0
SPLINE
  5
305
100
AcDbEntity
  8
0
100
AcDbSpline
 62
9
  6
CONTINUOUS
 70
0
 71
3
 72
10
 73
6
 74
0
 42
0.0000001
 43
0.0000001
 44
0.0000000001
 40
0.0
 40
0.0
 40
0.0
 40
0.0
 40
0.4996084435
 40
0.7498079261
 40
1.0
 40
1.0
 40
1.0
 40
1.0
 10
12.0856584758
 20
7.1056376497
 30
0.0
 10
12.0842364688
 20
7.1095441879
 30
0.0
 10
12.0826043905
 20
7.1156053536
 30
0.0
 10
12.0814150367
 20
7.1238458445
 30
0.0
 10
12.0811433817
 20
7.1280063574
 30
0.0
 10
12.0810888742
 20
7.1300875212
 30
0.0
  0
SPLINE
  5
306
100
AcDbEntity
  8
0
100
AcDbSpline
 62
9
  6
CONTINUOUS
 70
0
 71
3
 72
31
 73
27
 74
0
 42
0.0000001
 43
0.0000001
 44
0.0000000001
 40
0.0
 40
0.0
 40
0.0
 40
0.0
 40
0.0006232896
 40
0.0010752185
 40
0.0016466118
 40
0.0031775067
 40
0.0052495891
 40
0.007874123
 40
0.011056105
 40
0.0190978703
 40
0.0293726221
 40
0.0418684172
 40
0.0565672405
 40
0.073442347
 40
0.0924652187
 40
0.1136031013
 40
0.1620638837
 40
0.218476917
 40
0.282432901
 40
0.3534664414
 40
0.4310620062
 40
0.5146547128
 40
0.6036367193
 40
0.697358413
 40
0.7951340775
 40
1.0
 40
1.0
 40
1.0
 40
1.0
 10
12.0083308335
 20
8.8444702268
 30
0.0
 10
12.0083310071
 20
8.8444635977
 30
0.0
 10
12.0083386321
 20
8.8444530672
 30
0.0
 10
12.0083529011
 20
8.8444433379
 30
0.0
 10
12.008377298
 20
8.8444309504
 30
0.0
 10
12.0084195587
 20
8.8444170163
 30
0.0
 10
12.008484016
 20
8.8444014998
 30
0.0
 10
12.0085665034
 20
8.8443864338
 30
0.0
 10
12.0087123131
 20
8.844365151
 30
0.0
 10
12.0089398528
 20
8.8443411685
 30
0.0
 10
12.0092667003
 20
8.8443157522
 30
0.0
 10
12.0096646798
 20
8.8442923423
 30
0.0
 10
12.0101330711
 20
8.8442709878
 30
0.0
 10
12.0106710495
 20
8.8442518068
 30
0.0
 10
12.0112776372
 20
8.8442348576
 30
0.0
 10
12.012220288
 20
8.8442143812
 30
0.0
 10
12.0135608503
 20
8.8441957707
 30
0.0
 10
12.015357044
 20
8.8441835643
 30
0.0
 10
12.017393434
 20
8.8441808627
 30
0.0
 10
12.0196551793
 20
8.844187722
 30
0.0
 10
12.0221257996
 20
8.8442041457
 30
0.0
 10
12.0247873062
 20
8.8442300383
 30
0.0
 10
12.0276202897
 20
8.8442652297
 30
0.0
 10
12.0306040599
 20
8.8443094729
 30
0.0
 10
12.0348204669
 20
8.8443812524
 30
0.0
 10
12.0380397123
 20
8.8444459769
 30
0.0
 10
12.040218814
 20
8.8444936727
 30
0.0
  0
LINE
  5
307
100
AcDbEntity
  8
0
100
AcDbLine
 62
9
  6
CONTINUOUS
 10
12.2927074333
 20
8.945218414
 11
12.2926850137
 21
8.9172131755
  0
SPLINE
  5
308
100
AcDbEntity
  8
0
100
AcDbSpline
 62
9
  6
CONTINUOUS
 70
0
 71
3
 72
10
 73
6
 74
0
 42
0.0000001
 43
0.0000001
 44
0.0000000001
 40
0.0
 40
0.0
 40
0.0
 40
0.0
 40
0.2503223611
 40
0.5005553032
 40
1.0
 40
1.0
 40
1.0
 40
1.0
 10
12.5180015618
 20
8.868176993
 30
0.0
 10
12.5201388633
 20
8.8672005414
 30
0.0
 10
12.5243235398
 20
8.8650437159
 30
0.0
 10
12.5322347244
 20
8.8599760324
 30
0.0
 10
12.537600559
 20
8.8553303879
 30
0.0
 10
12.5408174092
 20
8.8519197891
 30
0.0
  0
SPLINE
  5
309
100
AcDbEntity
  8
0
100
AcDbSpline
 62
9
  6
CONTINUOUS
 70
0
 71
3
 72
33
 73
29
 74
0
 42
0.0000001
 43
0.0000001
 44
0.0000000001
 40
0.0
 40
0.0
 40
0.0
 40
0.0
 40
0.0001451846
 40
0.0003943635
 40
0.0012907744
 40
0.0027464892
 40
0.0047687813
 40
0.0073596393
 40
0.0105195539
 40
0.0142479617
 40
0.0185429911
 40
0.0288243041
 40
0.0413458857
 40
0.0560863006
 40
0.0730163661
 40
0.0921056514
 40
0.1133196493
 40
0.1366168384
 40
0.1619548657
 40
0.2185603588
 40
0.2827125759
 40
0.3539309254
 40
0.431683777
 40
0.5153892583
 40
0.6044218656
 40
0.6981137785
 40
0.7957607812
 40
1.0
 40
1.0
 40
1.0
 40
1.0
 10
12.5555109714
 20
8.8810115371
 30
0.0
 10
12.5555123714
 20
8.8810108097
 30
0.0
 10
12.5555143637
 20
8.8810063605
 30
0.0
 10
12.5555137012
 20
8.8809924903
 30
0.0
 10
12.5555069826
 20
8.8809646859
 30
0.0
 10
12.5554919905
 20
8.8809197186
 30
0.0
 10
12.5554685904
 20
8.8808579802
 30
0.0
 10
12.5554367212
 20
8.8807797806
 30
0.0
 10
12.5553963693
 20
8.8806849957
 30
0.0
 10
12.5553475601
 20
8.8805737073
 30
0.0
 10
12.5552661646
 20
8.8803922137
 30
0.0
 10
12.5551429747
 20
8.880124758
 30
0.0
 10
12.5549691593
 20
8.8797556742
 30
0.0
 10
12.5547617986
 20
8.8793225408
 30
0.0
 10
12.5545213369
 20
8.8788261378
 30
0.0
 10
12.5542482384
 20
8.8782673856
 30
0.0
 10
12.5539430341
 20
8.8776473192
 30
0.0
 10
12.553606274
 20
8.8769671063
 30
0.0
 10
12.5530968767
 20
8.8759432362
 30
0.0
 10
12.5523860732
 20
8.8745237166
 30
0.0
 10
12.5514474216
 20
8.8726607324
 30
0.0
 10
12.5504012439
 20
8.8705946141
 30
0.0
 10
12.5492553514
 20
8.8683408314
 30
0.0
 10
12.548018301
 20
8.8659162392
 30
0.0
 10
12.546699348
 20
8.8633389959
 30
0.0
 10
12.5453083785
 20
8.8606284301
 30
0.0
 10
12.5433419819
 20
8.8568060617
 30
0.0
 10
12.541837179
 20
8.853891147
 30
0.0
 10
12.5408174814
 20
8.8519199252
 30
0.0
  0
SPLINE
  5
30A
100
AcDbEntity
  8
0
100
AcDbSpline
 62
9
  6
CONTINUOUS
 70
0
 71
3
 72
11
 73
7
 74
0
 42
0.0000001
 43
0.0000001
 44
0.0000000001
 40
0.0
 40
0.0
 40
0.0
 40
0.0
 40
0.2498222084
 40
0.4997460187
 40
0.7498283394
 40
1.0
 40
1.0
 40
1.0
 40
1.0
 10
12.0445672941
 20
8.8519196765
 30
0.0
 10
12.0461778291
 20
8.8536262308
 30
0.0
 10
12.0495734592
 20
8.8568803334
 30
0.0
 10
12.0551204504
 20
8.861237396
 30
0.0
 10
12.0610615597
 20
8.8650448409
 30
0.0
 10
12.0652458391
 20
8.8672005326
 30
0.0
 10
12.0673831244
 20
8.868177045
 30
0.0
  0
SPLINE
  5
30B
100
AcDbEntity
  8
0
100
AcDbSpline
 62
9
  6
CONTINUOUS
 70
0
 71
3
 72
33
 73
29
 74
0
 42
0.0000001
 43
0.0000001
 44
0.0000000001
 40
0.0
 40
0.0
 40
0.0
 40
0.0
 40
0.0001452579
 40
0.0003945551
 40
0.0012911945
 40
0.0027471009
 40
0.0047695438
 40
0.0073605114
 40
0.0105204942
 40
0.0142489337
 40
0.018543972
 40
0.0288252716
 40
0.0413468374
 40
0.0560872517
 40
0.0730173239
 40
0.0921066162
 40
0.1133206181
 40
0.1366178094
 40
0.1619558378
 40
0.2185613293
 40
0.2827135355
 40
0.3539318604
 40
0.4316846695
 40
0.5153900858
 40
0.6044226015
 40
0.6981143899
 40
0.7957612289
 40
1.0
 40
1.0
 40
1.0
 40
1.0
 10
12.029873714
 20
8.8810115371
 30
0.0
 10
12.0298723133
 20
8.8810108093
 30
0.0
 10
12.029870319
 20
8.8810063591
 30
0.0
 10
12.0298709678
 20
8.8809924842
 30
0.0
 10
12.029877664
 20
8.8809646672
 30
0.0
 10
12.0298926235
 20
8.8809196824
 30
0.0
 10
12.0299159888
 20
8.8808579247
 30
0.0
 10
12.0299478255
 20
8.8807797072
 30
0.0
 10
12.0299881537
 20
8.8806849089
 30
0.0
 10
12.0300369521
 20
8.8805736133
 30
0.0
 10
12.0301183449
 20
8.8803921164
 30
0.0
 10
12.0302415503
 20
8.8801246654
 30
0.0
 10
12.0304153845
 20
8.8797555872
 30
0.0
 10
12.03062275
 20
8.8793224521
 30
0.0
 10
12.0308632119
 20
8.878826044
 30
0.0
 10
12.0311363108
 20
8.8782672864
 30
0.0
 10
12.0314415202
 20
8.8776472161
 30
0.0
 10
12.031778287
 20
8.8769669997
 30
0.0
 10
12.0322876943
 20
8.8759431244
 30
0.0
 10
12.0329985087
 20
8.8745235962
 30
0.0
 10
12.0339371757
 20
8.8726606015
 30
0.0
 10
12.0349833707
 20
8.8705944723
 30
0.0
 10
12.0361292814
 20
8.8683406779
 30
0.0
 10
12.0373663514
 20
8.8659160737
 30
0.0
 10
12.0386853249
 20
8.8633388184
 30
0.0
 10
12.0400763157
 20
8.8606282408
 30
0.0
 10
12.0420427407
 20
8.8568058574
 30
0.0
 10
12.043547567
 20
8.8538909328
 30
0.0
 10
12.0445672794
 20
8.8519197043
 30
0.0
  0
SPLINE
  5
30C
100
AcDbEntity
  8
0
100
AcDbSpline
 62
9
  6
CONTINUOUS
 70
0
 71
3
 72
69
 73
65
 74
0
 42
0.0000001
 43
0.0000001
 44
0.0000000001
 40
0.0
 40
0.0
 40
0.0
 40
0.0
 40
0.0000012206
 40
0.0000048612
 40
0.0000109211
 40
0.0000193995
 40
0.0000302957
 40
0.0000436091
 40
0.0000774843
 40
0.0001210194
 40
0.0001742088
 40
0.0002370469
 40
0.000309528
 40
0.0004833969
 40
0.0006957711
 40
0.0009466067
 40
0.0012358599
 40
0.0015634874
 40
0.0019294464
 40
0.0023336944
 40
0.0027761893
 40
0.0037757531
 40
0.0049278453
 40
0.0062322281
 40
0.0076886651
 40
0.0092969174
 40
0.011056745
 40
0.0129679067
 40
0.0150301547
 40
0.0196065716
 40
0.0247830598
 40
0.0305566277
 40
0.0369237995
 40
0.0438790066
 40
0.0514161217
 40
0.0595290704
 40
0.0682122972
 40
0.0774606001
 40
0.0872687665
 40
0.097630525
 40
0.1085375777
 40
0.1199814068
 40
0.1444456393
 40
0.1709566681
 40
0.1994456675
 40
0.2298384472
 40
0.2620562174
 40
0.2960162539
 40
0.3316327824
 40
0.368818199
 40
0.4074826768
 40
0.4475341124
 40
0.488877935
 40
0.5314177077
 40
0.6196905117
 40
0.6652227298
 40
0.7115469698
 40
0.7585569439
 40
0.8061443075
 40
0.854196142
 40
0.9025998772
 40
0.9268994494
 40
0.9512445128
 40
1.0
 40
1.0
 40
1.0
 40
1.0
 10
9.2926923428
 20
4.9662187254
 30
0.0
 10
9.2926926644
 20
4.9662188868
 30
0.0
 10
9.2926941279
 20
4.9662179615
 30
0.0
 10
9.2926971886
 20
4.9662177662
 30
0.0
 10
9.2927024344
 20
4.9662161745
 30
0.0
 10
9.292709703
 20
4.9662145416
 30
0.0
 10
9.2927190736
 20
4.9662122071
 30
0.0
 10
9.2927357109
 20
4.9662081881
 30
0.0
 10
9.2927617077
 20
4.9662018672
 30
0.0
 10
9.2927991342
 20
4.9661928298
 30
0.0
 10
9.2928448712
 20
4.966181814
 30
0.0
 10
9.2928989157
 20
4.9661688499
 30
0.0
 10
9.2929875772
 20
4.9661476612
 30
0.0
 10
9.2931191624
 20
4.9661164077
 30
0.0
 10
9.2933019847
 20
4.9660733238
 30
0.0
 10
9.293518009
 20
4.9660228211
 30
0.0
 10
9.2937672251
 20
4.965965029
 30
0.0
 10
9.2940496231
 20
4.9659000773
 30
0.0
 10
9.2943651928
 20
4.9658280954
 30
0.0
 10
9.2947139243
 20
4.9657492139
 30
0.0
 10
9.2952450748
 20
4.9656300773
 30
0.0
 10
9.295991851
 20
4.9654648502
 30
0.0
 10
9.2969874577
 20
4.9652480107
 30
0.0
 10
9.2981152484
 20
4.9650051369
 30
0.0
 10
9.2993750014
 20
4.9647362201
 30
0.0
 10
9.3007664827
 20
4.9644411897
 30
0.0
 10
9.302289462
 20
4.9641199926
 30
0.0
 10
9.3039437035
 20
4.9637725591
 30
0.0
 10
9.3064109789
 20
4.9632561026
 30
0.0
 10
9.3098210129
 20
4.9625446205
 30
0.0
 10
9.3143022049
 20
4.9616097207
 30
0.0
 10
9.3192996941
 20
4.9605643877
 30
0.0
 10
9.3248094538
 20
4.9594067217
 30
0.0
 10
9.3308282933
 20
4.9581433014
 30
0.0
 10
9.3373521735
 20
4.9567803908
 30
0.0
 10
9.3443773161
 20
4.9553255789
 30
0.0
 10
9.3518985554
 20
4.9537784949
 30
0.0
 10
9.3599101602
 20
4.9521346754
 30
0.0
 10
9.3684062709
 20
4.9503900372
 30
0.0
 10
9.3773807336
 20
4.9485436121
 30
0.0
 10
9.3868284272
 20
4.9466042906
 30
0.0
 10
9.4003518032
 20
4.9438424199
 30
0.0
 10
9.4183914588
 20
4.9402031811
 30
0.0
 10
9.4413704211
 20
4.9356356575
 30
0.0
 10
9.4660769282
 20
4.9307940744
 30
0.0
 10
9.4924485125
 20
4.9257006575
 30
0.0
 10
9.5204206909
 20
4.9203891508
 30
0.0
 10
9.5499271586
 20
4.9149030285
 30
0.0
 10
9.5808991444
 20
4.9092883054
 30
0.0
 10
9.6132656556
 20
4.9035925795
 30
0.0
 10
9.6469521424
 20
4.8978561088
 30
0.0
 10
9.6818832572
 20
4.8921289255
 30
0.0
 10
9.7179832886
 20
4.8864742686
 30
0.0
 10
9.768190668
 20
4.8790230276
 30
0.0
 10
9.8197224623
 20
4.8720906496
 30
0.0
 10
9.8724665401
 20
4.865878746
 30
0.0
 10
9.9131847124
 20
4.8615918003
 30
0.0
 10
9.9545606233
 20
4.8577996334
 30
0.0
 10
9.9964958294
 20
4.8545757149
 30
0.0
 10
10.0388868769
 20
4.8519863861
 30
0.0
 10
10.0744561145
 20
4.8504095484
 30
0.0
 10
10.1030552667
 20
4.8495146595
 30
0.0
 10
10.1317648387
 20
4.8488712556
 30
0.0
 10
10.153317743
 20
4.8486760183
 30
0.0
 10
10.1676923427
 20
4.8486759173
 30
0.0
  0
SPLINE
  5
30D
100
AcDbEntity
  8
0
100
AcDbSpline
 62
9
  6
CONTINUOUS
 70
0
 71
3
 72
11
 73
7
 74
0
 42
0.0000001
 43
0.0000001
 44
0.0000000001
 40
0.0
 40
0.0
 40
0.0
 40
0.0
 40
0.2502760475
 40
0.5003885012
 40
0.7502827822
 40
1.0
 40
1.0
 40
1.0
 40
1.0
 10
12.1106498103
 20
7.084207899
 30
0.0
 10
12.1087329562
 20
7.0851240175
 30
0.0
 10
12.1049768143
 20
7.0871204405
 30
0.0
 10
12.099622092
 20
7.0905825338
 30
0.0
 10
12.094588991
 20
7.0944902332
 30
0.0
 10
12.0914771213
 20
7.0973814549
 30
0.0
 10
12.0899902053
 20
7.0988922658
 30
0.0
  0
LINE
  5
30E
100
AcDbEntity
  8
0
100
AcDbLine
 62
9
  6
CONTINUOUS
 10
12.2926945172
 20
7.0202679667
 11
12.2927067946
 21
7.0429386746
  0
SPLINE
  5
30F
100
AcDbEntity
  8
0
100
AcDbSpline
 62
9
  6
CONTINUOUS
 70
0
 71
3
 72
21
 73
17
 74
0
 42
0.0000001
 43
0.0000001
 44
0.0000000001
 40
0.0
 40
0.0
 40
0.0
 40
0.0
 40
0.1408799683
 40
0.280786173
 40
0.3499789035
 40
0.4184277344
 40
0.4859198919
 40
0.5522222493
 40
0.6170520728
 40
0.6801050942
 40
0.7410382712
 40
0.7994827001
 40
0.8550015869
 40
0.9071699322
 40
0.9556289615
 40
1.0
 40
1.0
 40
1.0
 40
1.0
 10
12.1531418761
 20
7.0425516238
 30
0.0
 10
12.1511806235
 20
7.0431945045
 30
0.0
 10
12.1472514791
 20
7.0444150696
 30
0.0
 10
12.1423102333
 20
7.0457865694
 30
0.0
 10
12.1383697202
 20
7.0467899735
 30
0.0
 10
12.135447706
 20
7.0474927718
 30
0.0
 10
12.1325595636
 20
7.0481544343
 30
0.0
 10
12.1297176573
 20
7.0487799176
 30
0.0
 10
12.126936177
 20
7.0493771246
 30
0.0
 10
12.1242306319
 20
7.0499532497
 30
0.0
 10
12.1216186184
 20
7.0505194334
 30
0.0
 10
12.1191198183
 20
7.0510866057
 30
0.0
 10
12.116756064
 20
7.0516673568
 30
0.0
 10
12.1145500705
 20
7.0522746965
 30
0.0
 10
12.112526885
 20
7.0529245328
 30
0.0
 10
12.1112580801
 20
7.0534182918
 30
0.0
 10
12.1106635708
 20
7.0536812005
 30
0.0
  0
SPLINE
  5
310
100
AcDbEntity
  8
0
100
AcDbSpline
 62
9
  6
CONTINUOUS
 70
0
 71
3
 72
14
 73
10
 74
0
 42
0.0000001
 43
0.0000001
 44
0.0000000001
 40
0.0
 40
0.0
 40
0.0
 40
0.0
 40
0.1424565763
 40
0.2784486004
 40
0.5332991461
 40
0.653944672
 40
0.7712306566
 40
0.8862124727
 40
1.0
 40
1.0
 40
1.0
 40
1.0
 10
9.8497740448
 20
11.4776032714
 30
0.0
 10
9.8485962294
 20
11.4789183429
 30
0.0
 10
9.846375482
 20
11.4815643468
 30
0.0
 10
9.8425016244
 20
11.4869228147
 30
0.0
 10
9.8393919775
 20
11.4924899508
 30
0.0
 10
9.8371992158
 20
11.4981984119
 30
0.0
 10
9.8360423804
 20
11.5024244048
 30
0.0
 10
9.8353473661
 20
11.5066639938
 30
0.0
 10
9.8351923426
 20
11.5095014111
 30
0.0
 10
9.8351923426
 20
11.5109115342
 30
0.0
  0
LINE
  5
311
100
AcDbEntity
  8
0
100
AcDbLine
 62
9
  6
CONTINUOUS
 10
12.4688895118
 20
7.0961601944
 11
12.4747348698
 21
7.0842078264
  0
SPLINE
  5
312
100
AcDbEntity
  8
0
100
AcDbSpline
 62
9
  6
CONTINUOUS
 70
0
 71
3
 72
16
 73
12
 74
0
 42
0.0000001
 43
0.0000001
 44
0.0000000001
 40
0.0
 40
0.0
 40
0.0
 40
0.0
 40
0.0279590873
 40
0.0614799976
 40
0.1004674237
 40
0.1447782264
 40
0.2486437705
 40
0.3712841805
 40
0.5104638828
 40
0.6635867526
 40
1.0
 40
1.0
 40
1.0
 40
1.0
 10
12.4823016358
 20
7.1071014378
 30
0.0
 10
12.4824391057
 20
7.1070574477
 30
0.0
 10
12.4827370149
 20
7.1069470862
 30
0.0
 10
12.483212983
 20
7.106740691
 30
0.0
 10
12.4837563782
 20
7.1064788171
 30
0.0
 10
12.4846136874
 20
7.1060329405
 30
0.0
 10
12.4858295745
 20
7.1053419718
 30
0.0
 10
12.4874405535
 20
7.1043574196
 30
0.0
 10
12.4892406689
 20
7.1031959366
 30
0.0
 10
12.4919328245
 20
7.1013827214
 30
0.0
 10
12.4939925507
 20
7.0999174769
 30
0.0
 10
12.4953944707
 20
7.0988924024
 30
0.0
  0
LINE
  5
313
100
AcDbEntity
  8
0
100
AcDbLine
 62
9
  6
CONTINUOUS
 10
12.5125777988
 20
8.856035051
 11
12.518001563
 21
8.8681769924
  0
LINE
  5
314
100
AcDbEntity
  8
0
100
AcDbLine
 62
9
  6
CONTINUOUS
 10
12.0728071857
 20
8.8560351754
 11
12.0673830936
 21
8.8681770309
  0
SPLINE
  5
315
100
AcDbEntity
  8
0
100
AcDbSpline
 62
9
  6
CONTINUOUS
 70
0
 71
3
 72
16
 73
12
 74
0
 42
0.0000001
 43
0.0000001
 44
0.0000000001
 40
0.0
 40
0.0
 40
0.0
 40
0.0
 40
0.0288915924
 40
0.0633107081
 40
0.1031199589
 40
0.1481489984
 40
0.253071465
 40
0.3761793918
 40
0.5151756322
 40
0.6674286746
 40
1.0
 40
1.0
 40
1.0
 40
1.0
 10
12.0580903384
 20
8.8437324941
 30
0.0
 10
12.0579476906
 20
8.8437862325
 30
0.0
 10
12.0576388949
 20
8.8439140393
 30
0.0
 10
12.0571447032
 20
8.8441417882
 30
0.0
 10
12.0565811407
 20
8.8444217877
 30
0.0
 10
12.0556947524
 20
8.844887432
 30
0.0
 10
12.0544382124
 20
8.8455926987
 30
0.0
 10
12.052772835
 20
8.8465810527
 30
0.0
 10
12.0509139311
 20
8.8477318618
 30
0.0
 10
12.0481421466
 20
8.8495068505
 30
0.0
 10
12.0460156369
 20
8.8509291276
 30
0.0
 10
12.0445673047
 20
8.8519196873
 30
0.0
  0
SPLINE
  5
316
100
AcDbEntity
  8
0
100
AcDbSpline
 62
9
  6
CONTINUOUS
 70
0
 71
3
 72
16
 73
12
 74
0
 42
0.0000001
 43
0.0000001
 44
0.0000000001
 40
0.0
 40
0.0
 40
0.0
 40
0.0
 40
0.1194736283
 40
0.2396588773
 40
0.3611938712
 40
0.4845782147
 40
0.6101290996
 40
0.7379601236
 40
0.8027468415
 40
0.8680638311
 40
1.0
 40
1.0
 40
1.0
 40
1.0
 10
12.474721479
 20
7.0536797162
 30
0.0
 10
12.4739128609
 20
7.0533220664
 30
0.0
 10
12.4723484445
 20
7.052465427
 30
0.0
 10
12.4702428089
 20
7.0507995835
 30
0.0
 10
12.4684200094
 20
7.0487886054
 30
0.0
 10
12.4669214567
 20
7.0464789912
 30
0.0
 10
12.465779712
 20
7.0439234834
 30
0.0
 10
12.4651485855
 20
7.0416454845
 30
0.0
 10
12.4648399217
 20
7.0397602893
 30
0.0
 10
12.4646631107
 20
7.0378278902
 30
0.0
 10
12.464683903
 20
7.036362103
 30
0.0
 10
12.4647638413
 20
7.0353889686
 30
0.0
  0
LINE
  5
317
100
AcDbEntity
  8
0
100
AcDbLine
 62
9
  6
CONTINUOUS
 10
12.1531418746
 20
7.0425516242
 11
12.1476923427
 21
7.0258645133
  0
SPLINE
  5
318
100
AcDbEntity
  8
0
100
AcDbSpline
 62
9
  6
CONTINUOUS
 70
0
 71
3
 72
16
 73
12
 74
0
 42
0.0000001
 43
0.0000001
 44
0.0000000001
 40
0.0
 40
0.0
 40
0.0
 40
0.0
 40
0.1194704534
 40
0.2396542946
 40
0.3611891287
 40
0.4845740882
 40
0.610125988
 40
0.7379581493
 40
0.8027454212
 40
0.8680629312
 40
1.0
 40
1.0
 40
1.0
 40
1.0
 10
12.1106633685
 20
7.053679837
 30
0.0
 10
12.1114719524
 20
7.0533221906
 30
0.0
 10
12.1130363097
 20
7.0524655529
 30
0.0
 10
12.1151418718
 20
7.0507997192
 30
0.0
 10
12.1169646268
 20
7.0487887496
 30
0.0
 10
12.1184631586
 20
7.0464791441
 30
0.0
 10
12.1196049012
 20
7.0439236456
 30
0.0
 10
12.1202360385
 20
7.041645655
 30
0.0
 10
12.120544717
 20
7.0397604659
 30
0.0
 10
12.1207215464
 20
7.0378280743
 30
0.0
 10
12.1207007712
 20
7.0363622918
 30
0.0
 10
12.1206208458
 20
7.0353891599
 30
0.0
  0
SPLINE
  5
319
100
AcDbEntity
  8
0
100
AcDbSpline
 62
9
  6
CONTINUOUS
 70
0
 71
3
 72
21
 73
17
 74
0
 42
0.0000001
 43
0.0000001
 44
0.0000000001
 40
0.0
 40
0.0
 40
0.0
 40
0.0
 40
0.1267653906
 40
0.2532406375
 40
0.316369734
 40
0.3793426437
 40
0.4421428299
 40
0.5047586645
 40
0.5671861175
 40
0.629428328
 40
0.6914950919
 40
0.7534047061
 40
0.8151789705
 40
0.8768436505
 40
0.9384501851
 40
1.0
 40
1.0
 40
1.0
 40
1.0
 10
12.0876923427
 20
6.7337100469
 30
0.0
 10
12.0896521772
 20
6.7337100462
 30
0.0
 10
12.0935769679
 20
6.7340837423
 30
0.0
 10
12.0982994009
 20
6.7354723785
 30
0.0
 10
12.1018536083
 20
6.7371022135
 30
0.0
 10
12.1043828966
 20
6.7385717691
 30
0.0
 10
12.1067513629
 20
6.7402746731
 30
0.0
 10
12.1089364723
 20
6.7421946279
 30
0.0
 10
12.1109171452
 20
6.7443130991
 30
0.0
 10
12.1126742225
 20
6.7466097892
 30
0.0
 10
12.1141907227
 20
6.7490626048
 30
0.0
 10
12.1154520437
 20
6.7516478934
 30
0.0
 10
12.1164459581
 20
6.7543406823
 30
0.0
 10
12.1171629378
 20
6.7571153315
 30
0.0
 10
12.1175957075
 20
6.7599444529
 30
0.0
 10
12.1176923427
 20
6.7618498868
 30
0.0
 10
12.1176923427
 20
6.7628014671
 30
0.0
  0
LINE
  5
31A
100
AcDbEntity
  8
0
100
AcDbLine
 62
9
  6
CONTINUOUS
 10
12.5352321464
 20
8.8196570552
 11
12.548537266
 21
8.8196005135
  0
SPLINE
  5
31B
100
AcDbEntity
  8
0
100
AcDbSpline
 62
9
  6
CONTINUOUS
 70
0
 71
3
 72
16
 73
12
 74
0
 42
0.0000001
 43
0.0000001
 44
0.0000000001
 40
0.0
 40
0.0
 40
0.0
 40
0.0
 40
0.0293851183
 40
0.0641421197
 40
0.1041738002
 40
0.1493367428
 40
0.2543293125
 40
0.377327926
 40
0.5161005909
 40
0.6680638397
 40
1.0
 40
1.0
 40
1.0
 40
1.0
 10
12.5316487666
 20
8.8362966988
 30
0.0
 10
12.5317564208
 20
8.8364085505
 30
0.0
 10
12.5320021425
 20
8.8366423662
 30
0.0
 10
12.5324212936
 20
8.8369992638
 30
0.0
 10
12.5329204691
 20
8.8373899071
 30
0.0
 10
12.5337313013
 20
8.8379835015
 30
0.0
 10
12.534928945
 20
8.8387894922
 30
0.0
 10
12.536573124
 20
8.8398151546
 30
0.0
 10
12.5384582588
 20
8.8409219024
 30
0.0
 10
12.5413310412
 20
8.8425249269
 30
0.0
 10
12.5435987975
 20
8.843706555
 30
0.0
 10
12.5451658515
 20
8.8444936733
 30
0.0
  0
SPLINE
  5
31C
100
AcDbEntity
  8
0
100
AcDbSpline
 62
9
  6
CONTINUOUS
 70
0
 71
3
 72
16
 73
12
 74
0
 42
0.0000001
 43
0.0000001
 44
0.0000000001
 40
0.0
 40
0.0
 40
0.0
 40
0.0
 40
0.0288912781
 40
0.0633102284
 40
0.1031194086
 40
0.1481484342
 40
0.2530709507
 40
0.3761789548
 40
0.5151752701
 40
0.667428388
 40
1.0
 40
1.0
 40
1.0
 40
1.0
 10
12.5272949825
 20
8.8437321256
 30
0.0
 10
12.5274376205
 20
8.843785881
 30
0.0
 10
12.5277463969
 20
8.8439137188
 30
0.0
 10
12.528240562
 20
8.8441415059
 30
0.0
 10
12.528804099
 20
8.8444215401
 30
0.0
 10
12.5296904525
 20
8.8448872294
 30
0.0
 10
12.5309469493
 20
8.8455925461
 30
0.0
 10
12.5326122728
 20
8.8465809564
 30
0.0
 10
12.534471116
 20
8.8477318264
 30
0.0
 10
12.5372428044
 20
8.8495069111
 30
0.0
 10
12.5393692226
 20
8.8509292854
 30
0.0
 10
12.5408174804
 20
8.8519199268
 30
0.0
  0
SPLINE
  5
31D
100
AcDbEntity
  8
0
100
AcDbSpline
 62
9
  6
CONTINUOUS
 70
0
 71
3
 72
16
 73
12
 74
0
 42
0.0000001
 43
0.0000001
 44
0.0000000001
 40
0.0
 40
0.0
 40
0.0
 40
0.0
 40
0.0293851839
 40
0.064142291
 40
0.1041740894
 40
0.1493371419
 40
0.2543298572
 40
0.3773284947
 40
0.5161010693
 40
0.6680641514
 40
1.0
 40
1.0
 40
1.0
 40
1.0
 10
12.0537363492
 20
8.836297734
 30
0.0
 10
12.0536286896
 20
8.8364095793
 30
0.0
 10
12.053382958
 20
8.8366433818
 30
0.0
 10
12.052963794
 20
8.8370002597
 30
0.0
 10
12.0524646057
 20
8.8373908811
 30
0.0
 10
12.0516537554
 20
8.8379844403
 30
0.0
 10
12.0504560871
 20
8.8387903763
 30
0.0
 10
12.048811872
 20
8.8398159522
 30
0.0
 10
12.0469266889
 20
8.8409225806
 30
0.0
 10
12.0440538173
 20
8.8425253848
 30
0.0
 10
12.0417859575
 20
8.8437067679
 30
0.0
 10
12.040218814
 20
8.8444936727
 30
0.0
  0
LINE
  5
31E
100
AcDbEntity
  8
0
100
AcDbLine
 62
9
  6
CONTINUOUS
 10
12.0501525396
 20
8.819657034
 11
12.0368474206
 21
8.8196004726
  0
LINE
  5
31F
100
AcDbEntity
  8
0
100
AcDbLine
 62
9
  6
CONTINUOUS
 10
12.0943940001
 20
7.1301438237
 11
12.0810888742
 21
7.1300875212
  0
SPLINE
  5
320
100
AcDbEntity
  8
0
100
AcDbSpline
 62
9
  6
CONTINUOUS
 70
0
 71
3
 72
16
 73
12
 74
0
 42
0.0000001
 43
0.0000001
 44
0.0000000001
 40
0.0
 40
0.0
 40
0.0
 40
0.0
 40
0.0276166146
 40
0.0609047206
 40
0.0997393527
 40
0.1439581045
 40
0.2477744281
 40
0.3704880458
 40
0.5098197817
 40
0.6631417316
 40
1.0
 40
1.0
 40
1.0
 40
1.0
 10
12.0987456058
 20
7.1138562014
 30
0.0
 10
12.0986419508
 20
7.1137584975
 30
0.0
 10
12.0984056208
 20
7.1135512462
 30
0.0
 10
12.0980047007
 20
7.1132287525
 30
0.0
 10
12.0975255983
 20
7.1128672895
 30
0.0
 10
12.0967426109
 20
7.1123050814
 30
0.0
 10
12.0955851053
 20
7.1115233406
 30
0.0
 10
12.0939957918
 20
7.110505697
 30
0.0
 10
12.0921700544
 20
7.1093844553
 30
0.0
 10
12.089377711
 20
7.1077272921
 30
0.0
 10
12.0871782662
 20
7.1064797348
 30
0.0
 10
12.0856584758
 20
7.1056376497
 30
0.0
  0
SPLINE
  5
321
100
AcDbEntity
  8
0
100
AcDbSpline
 62
9
  6
CONTINUOUS
 70
0
 71
3
 72
16
 73
12
 74
0
 42
0.0000001
 43
0.0000001
 44
0.0000000001
 40
0.0
 40
0.0
 40
0.0
 40
0.0
 40
0.0279590979
 40
0.0614799796
 40
0.1004673491
 40
0.1447780772
 40
0.2486434508
 40
0.3712837054
 40
0.5104633142
 40
0.6635861994
 40
1.0
 40
1.0
 40
1.0
 40
1.0
 10
12.1030821604
 20
7.1071022734
 30
0.0
 10
12.1029446952
 20
7.1070582744
 30
0.0
 10
12.1026467978
 20
7.106947893
 30
0.0
 10
12.1021708517
 20
7.1067414651
 30
0.0
 10
12.1016274845
 20
7.1064795531
 30
0.0
 10
12.1007702231
 20
7.1060336153
 30
0.0
 10
12.0995544095
 20
7.1053425583
 30
0.0
 10
12.0979435345
 20
7.1043578871
 30
0.0
 10
12.0961435411
 20
7.1031962687
 30
0.0
 10
12.0934515738
 20
7.1013828453
 30
0.0
 10
12.0913920022
 20
7.099917435
 30
0.0
 10
12.0899901926
 20
7.0988922429
 30
0.0
  0
SPLINE
  5
322
100
AcDbEntity
  8
0
100
AcDbSpline
 62
9
  6
CONTINUOUS
 70
0
 71
3
 72
16
 73
12
 74
0
 42
0.0000001
 43
0.0000001
 44
0.0000000001
 40
0.0
 40
0.0
 40
0.0
 40
0.0
 40
0.0276164975
 40
0.0609046169
 40
0.09973934
 40
0.1439582152
 40
0.2477747638
 40
0.3704884985
 40
0.5098202208
 40
0.6631420512
 40
1.0
 40
1.0
 40
1.0
 40
1.0
 10
12.4866385702
 20
7.1138549276
 30
0.0
 10
12.4867422367
 20
7.1137572389
 30
0.0
 10
12.4869785871
 20
7.1135500171
 30
0.0
 10
12.487379532
 20
7.1132275631
 30
0.0
 10
12.4878586566
 20
7.1128661383
 30
0.0
 10
12.488641673
 20
7.1123039841
 30
0.0
 10
12.4897992127
 20
7.1115223159
 30
0.0
 10
12.4913885711
 20
7.1105047761
 30
0.0
 10
12.4932143663
 20
7.1093836713
 30
0.0
 10
12.4960068161
 20
7.107726759
 30
0.0
 10
12.4982063897
 20
7.1064794841
 30
0.0
 10
12.4997262952
 20
7.1056376478
 30
0.0
  0
LINE
  5
323
100
AcDbEntity
  8
0
100
AcDbLine
 62
9
  6
CONTINUOUS
 10
12.490990686
 20
7.1301438477
 11
12.5042958125
 21
7.1300875677
  0
SPLINE
  5
324
100
AcDbEntity
  8
0
100
AcDbSpline
 62
9
  6
CONTINUOUS
 70
0
 71
3
 72
21
 73
17
 74
0
 42
0.0000001
 43
0.0000001
 44
0.0000000001
 40
0.0
 40
0.0
 40
0.0
 40
0.0
 40
0.1267654035
 40
0.2532406681
 40
0.3163697738
 40
0.379342692
 40
0.4421428854
 40
0.5047587255
 40
0.5671861815
 40
0.6294283923
 40
0.6914951536
 40
0.753404762
 40
0.8151790174
 40
0.876843685
 40
0.938450204
 40
1.0
 40
1.0
 40
1.0
 40
1.0
 10
12.4976923427
 20
6.7337100469
 30
0.0
 10
12.4957325082
 20
6.7337100469
 30
0.0
 10
12.4918077175
 20
6.7340837444
 30
0.0
 10
12.4870852845
 20
6.7354723818
 30
0.0
 10
12.4835310772
 20
6.7371022175
 30
0.0
 10
12.4810017889
 20
6.7385717734
 30
0.0
 10
12.4786333226
 20
6.7402746777
 30
0.0
 10
12.4764482132
 20
6.7421946326
 30
0.0
 10
12.4744675403
 20
6.7443131037
 30
0.0
 10
12.472710463
 20
6.7466097935
 30
0.0
 10
12.4711939628
 20
6.7490626088
 30
0.0
 10
12.4699326418
 20
6.7516478968
 30
0.0
 10
12.4689387274
 20
6.754340685
 30
0.0
 10
12.4682217477
 20
6.7571153335
 30
0.0
 10
12.467788978
 20
6.759944454
 30
0.0
 10
12.4676923427
 20
6.7618498871
 30
0.0
 10
12.4676923427
 20
6.7628014671
 30
0.0
  0
SPLINE
  5
325
100
AcDbEntity
  8
0
100
AcDbSpline
 62
9
  6
CONTINUOUS
 70
0
 71
3
 72
39
 73
35
 74
0
 42
0.0000001
 43
0.0000001
 44
0.0000000001
 40
0.0
 40
0.0
 40
0.0
 40
0.0
 40
0.0538866755
 40
0.081483947
 40
0.109485935
 40
0.1666190412
 40
0.2251073726
 40
0.284748804
 40
0.3453533076
 40
0.4067530228
 40
0.4688047726
 40
0.5313922707
 40
0.5944295346
 40
0.6578693857
 40
0.721723592
 40
0.753838392
 40
0.7861176932
 40
0.8186201662
 40
0.8514514749
 40
0.8680494024
 40
0.8848206261
 40
0.9018325385
 40
0.9191927783
 40
0.937097475
 40
0.9463641044
 40
0.9559350283
 40
0.9608718977
 40
0.9659358415
 40
0.9711511783
 40
0.9765478027
 40
0.9821402866
 40
0.9879326889
 40
0.9939102009
 40
1.0
 40
1.0
 40
1.0
 40
1.0
 10
12.1176923427
 20
6.7628014671
 30
0.0
 10
12.1176923475
 20
6.7614014228
 30
0.0
 10
12.1178019217
 20
6.7592834361
 30
0.0
 10
12.1181140776
 20
6.7564558184
 30
0.0
 10
12.1185339062
 20
6.753556566
 30
0.0
 10
12.1192356508
 20
6.7498896382
 30
0.0
 10
12.1203008353
 20
6.7454611378
 30
0.0
 10
12.1215586512
 20
6.740990003
 30
0.0
 10
12.1229805229
 20
6.7364892098
 30
0.0
 10
12.124545127
 20
6.7319698513
 30
0.0
 10
12.1262369655
 20
6.7274416208
 30
0.0
 10
12.1280462002
 20
6.7229131987
 30
0.0
 10
12.1299690967
 20
6.7183926134
 30
0.0
 10
12.1320099411
 20
6.7138878474
 30
0.0
 10
12.1338184763
 20
6.7101611598
 30
0.0
 10
12.1353492629
 20
6.7072013571
 30
0.0
 10
12.1365518411
 20
6.7049894016
 30
0.0
 10
12.1378199509
 20
6.7027927386
 30
0.0
 10
12.138946307
 20
6.7009856703
 30
0.0
 10
12.1399082256
 20
6.6995596049
 30
0.0
 10
12.1406720749
 20
6.6984963303
 30
0.0
 10
12.1414885292
 20
6.6974474413
 30
0.0
 10
12.1423750867
 20
6.696417625
 30
0.0
 10
12.1431903236
 20
6.6955943706
 30
0.0
 10
12.1439120253
 20
6.694968846
 30
0.0
 10
12.1444042713
 20
6.6945946525
 30
0.0
 10
12.1448276324
 20
6.6943127136
 30
0.0
 10
12.1451668443
 20
6.694109323
 30
0.0
 10
12.145527921
 20
6.6939203229
 30
0.0
 10
12.1459136856
 20
6.6937507782
 30
0.0
 10
12.1463251362
 20
6.6936053071
 30
0.0
 10
12.1467616014
 20
6.6934889946
 30
0.0
 10
12.1472203336
 20
6.6934140248
 30
0.0
 10
12.147534122
 20
6.6933966955
 30
0.0
 10
12.1476923427
 20
6.6933967196
 30
0.0
  0
LINE
  5
326
100
AcDbEntity
  8
0
100
AcDbLine
 62
9
  6
CONTINUOUS
 10
12.1206208458
 20
7.0353891599
 11
12.1176923427
 21
7.0375798591
  0
SPLINE
  5
327
100
AcDbEntity
  8
0
100
AcDbSpline
 62
9
  6
CONTINUOUS
 70
0
 71
3
 72
21
 73
17
 74
0
 42
0.0000001
 43
0.0000001
 44
0.0000000001
 40
0.0
 40
0.0
 40
0.0
 40
0.0
 40
0.1523636517
 40
0.2278432897
 40
0.3023765296
 40
0.3755943634
 40
0.4470883996
 40
0.5164694502
 40
0.5833580069
 40
0.6474178786
 40
0.7083362237
 40
0.7658625966
 40
0.8198057298
 40
0.8700730917
 40
0.9167073964
 40
1.0
 40
1.0
 40
1.0
 40
1.0
 10
12.1476923427
 20
7.0258645133
 30
0.0
 10
12.1464061996
 20
7.0265637111
 30
0.0
 10
12.1444419029
 20
7.0275365338
 30
0.0
 10
12.1417670268
 20
7.0286716823
 30
0.0
 10
12.1397597817
 20
7.0294292032
 30
0.0
 10
12.1377613653
 20
7.0300967399
 30
0.0
 10
12.1357893945
 20
7.0306832023
 30
0.0
 10
12.133860766
 20
7.0311989718
 30
0.0
 10
12.1319909687
 20
7.0316560763
 30
0.0
 10
12.1301951171
 20
7.0320723711
 30
0.0
 10
12.1284864013
 20
7.0324661207
 30
0.0
 10
12.1268764637
 20
7.0328557752
 30
0.0
 10
12.125375695
 20
7.0332594903
 30
0.0
 10
12.123992563
 20
7.0336961222
 30
0.0
 10
12.1223778293
 20
7.0343196294
 30
0.0
 10
12.1212659893
 20
7.0349156271
 30
0.0
 10
12.1206208458
 20
7.0353891599
 30
0.0
  0
SPLINE
  5
328
100
AcDbEntity
  8
0
100
AcDbSpline
 62
9
  6
CONTINUOUS
 70
0
 71
3
 72
40
 73
36
 74
0
 42
0.0000001
 43
0.0000001
 44
0.0000000001
 40
0.0
 40
0.0
 40
0.0
 40
0.0
 40
0.0060898415
 40
0.0120666002
 40
0.0178578954
 40
0.023449079
 40
0.034059496
 40
0.0440557841
 40
0.0536256511
 40
0.0628947522
 40
0.0719350238
 40
0.0808009076
 40
0.0895357284
 40
0.0981652084
 40
0.1151752248
 40
0.1319476875
 40
0.1485451092
 40
0.1650127573
 40
0.1813784333
 40
0.2138812229
 40
0.2461607437
 40
0.2782757309
 40
0.3421303156
 40
0.4055708512
 40
0.4686083845
 40
0.5311962912
 40
0.5932482507
 40
0.6546488745
 40
0.7152538691
 40
0.7748948985
 40
0.8333838309
 40
0.8905163228
 40
0.9185169167
 40
0.9461129104
 40
1.0
 40
1.0
 40
1.0
 40
1.0
 10
12.4376923427
 20
6.6933967196
 30
0.0
 10
12.4378505644
 20
6.6933966698
 30
0.0
 10
12.4381643432
 20
6.6934139075
 30
0.0
 10
12.4386230097
 20
6.6934890195
 30
0.0
 10
12.4390593376
 20
6.6936055738
 30
0.0
 10
12.4395984293
 20
6.6937963974
 30
0.0
 10
12.4402136638
 20
6.6940928672
 30
0.0
 10
12.440875787
 20
6.6945149907
 30
0.0
 10
12.4414723888
 20
6.6949691289
 30
0.0
 10
12.4420207924
 20
6.6954429149
 30
0.0
 10
12.4425299247
 20
6.6959324908
 30
0.0
 10
12.4430075536
 20
6.6964336799
 30
0.0
 10
12.4434611544
 20
6.6969424195
 30
0.0
 10
12.4440363185
 20
6.6976257898
 30
0.0
 10
12.4447118011
 20
6.6984968966
 30
0.0
 10
12.4454770285
 20
6.6995590977
 30
0.0
 10
12.446200251
 20
6.7006333427
 30
0.0
 10
12.4468930954
 20
6.7017148074
 30
0.0
 10
12.4477783381
 20
6.7031633328
 30
0.0
 10
12.4488330996
 20
6.7049892383
 30
0.0
 10
12.4500353044
 20
6.7072013925
 30
0.0
 10
12.4515662868
 20
6.7101611168
 30
0.0
 10
12.4533748212
 20
6.713887839
 30
0.0
 10
12.455415533
 20
6.7183926962
 30
0.0
 10
12.4573385717
 20
6.722913254
 30
0.0
 10
12.459147749
 20
6.7274417193
 30
0.0
 10
12.4608396571
 20
6.7319699614
 30
0.0
 10
12.4624041533
 20
6.7364893973
 30
0.0
 10
12.4638260153
 20
6.7409902145
 30
0.0
 10
12.4650838684
 20
6.7454613532
 30
0.0
 10
12.4661490457
 20
6.7498898395
 30
0.0
 10
12.4668508108
 20
6.7535567228
 30
0.0
 10
12.4672705924
 20
6.7564558937
 30
0.0
 10
12.467582673
 20
6.7592834566
 30
0.0
 10
12.4676923356
 20
6.7614014134
 30
0.0
 10
12.4676923427
 20
6.7628014671
 30
0.0
  0
SPLINE
  5
329
100
AcDbEntity
  8
0
100
AcDbSpline
 62
9
  6
CONTINUOUS
 70
0
 71
3
 72
20
 73
16
 74
0
 42
0.0000001
 43
0.0000001
 44
0.0000000001
 40
0.0
 40
0.0
 40
0.0
 40
0.0
 40
0.0832922548
 40
0.1299305559
 40
0.1801998234
 40
0.234142586
 40
0.2916689926
 40
0.3525878601
 40
0.4166487661
 40
0.4835387406
 40
0.5529206996
 40
0.6244147631
 40
0.6976333944
 40
0.8476250765
 40
1.0
 40
1.0
 40
1.0
 40
1.0
 10
12.4647638419
 20
7.0353889691
 30
0.0
 10
12.464118631
 20
7.0349155679
 30
0.0
 10
12.4630067306
 20
7.0343197899
 30
0.0
 10
12.461392285
 20
7.0336955221
 30
0.0
 10
12.4600091807
 20
7.0332587055
 30
0.0
 10
12.458508381
 20
7.0328551939
 30
0.0
 10
12.4568984224
 20
7.0324657985
 30
0.0
 10
12.4551897173
 20
7.032072134
 30
0.0
 10
12.4533939457
 20
7.031655569
 30
0.0
 10
12.451524212
 20
7.0311982869
 30
0.0
 10
12.4495954021
 20
7.0306833362
 30
0.0
 10
12.4476234016
 20
7.0300969748
 30
0.0
 10
12.4449377307
 20
7.029198584
 30
0.0
 10
12.4415830374
 20
7.0278583222
 30
0.0
 10
12.4389782299
 20
7.0265642367
 30
0.0
 10
12.4376923427
 20
7.0258644187
 30
0.0
  0
LINE
  5
32A
100
AcDbEntity
  8
0
100
AcDbLine
 62
9
  6
CONTINUOUS
 10
12.1164949262
 20
7.0961602998
 11
12.1106498474
 21
7.0842078793
  0
LINE
  5
32B
100
AcDbEntity
  8
0
100
AcDbLine
 62
9
  6
CONTINUOUS
 10
12.4676923427
 20
7.0375798591
 11
12.4647638419
 21
7.0353889691
  0
ENDSEC
  0
SECTION
  2
OBJECTS
  0
DICTIONARY
  5
C
100
AcDbDictionary
280
0
281
1
  3
ACAD_GROUP
350
D
  3
ACAD_MLINESTYLE
350
17
  3
ACAD_LAYOUT
350
1A
  3
ACAD_PLOTSETTINGS
350
19
  3
ACAD_PLOTSTYLENAME
350
E
  0
DICTIONARY
  5
D
102
{ACAD_REACTORS
330
C
102
}
100
AcDbDictionary
280
0
281
1
  0
ACDBDICTIONARYWDFLT
  5
E
102
{ACAD_REACTORS
330
C
102
}
100
AcDbDictionary
281
1
  3
Normal
350
F
100
AcDbDictionaryWithDefault
340
F
  0
DICTIONARY
  5
17
102
{ACAD_REACTORS
330
C
102
}
100
AcDbDictionary
280
0
281
1
  3
Standard
350
18
  0
DICTIONARY
  5
19
102
{ACAD_REACTORS
330
C
102
}
100
AcDbDictionary
281
1
  0
DICTIONARY
  5
1A
102
{ACAD_REACTORS
330
C
102
}
100
AcDbDictionary
281
1
  3
Model
350
32C
  3
Layout1
350
32D
  0
ACDBPLACEHOLDER
  5
F
102
{ACAD_REACTORS
330
E
102
}
  0
MLINESTYLE
  5
18
102
{ACAD_REACTORS
330
17
102
}
100
AcDbMlineStyle
  2
STANDARD
 70
0
  3

 62
256
 51
90.0
 52
90.0
 71
2
 49
0.5
 62
256
  6
BYLAYER
 49
-0.5
 62
256
  6
BYLAYER
  0
LAYOUT
  5
32C
102
{ACAD_REACTORS
330
1A
102
}
100
AcDbPlotSettings
  1

  2
none_device
  4
ANSI_C_(22.00_x_17.00_Inches)
  6

 40
0.0
 41
0.0
 42
0.0
 43
0.0
 44
558.8
 45
431.8
 46
0.0
 47
0.0
 48
0.0
 49
0.0
140
0.0
141
0.0
142
1.0
143
1.0
 70
1024
 72
0
 73
0
 74
0
  7

 75
0
147
1.0
148
0.0
149
0.0
100
AcDbLayout
  1
Model
 70
0
 71
0
 10
0.0
 20
0.0
 11
22.0
 21
17.0
 12
0.0
 22
0.0
 32
0.0
 14
0.0
 24
0.0
 34
0.0
 15
0.0
 25
0.0
 35
0.0
146
0.0
 13
0.0
 23
0.0
 33
0.0
 16
1.0
 26
0.0
 36
0.0
 17
0.0
 27
1.0
 37
0.0
 76
0
330
205
345
0
346
0
  0
LAYOUT
  5
32D
102
{ACAD_REACTORS
330
1A
102
}
100
AcDbPlotSettings
  1

  2
none_device
  4
ANSI_C_(22.00_x_17.00_Inches)
  6

 40
0.0
 41
0.0
 42
0.0
 43
0.0
 44
558.8
 45
431.8
 46
0.0
 47
0.0
 48
0.0
 49
0.0
140
0.0
141
0.0
142
1.0
143
1.0
 70
0
 72
0
 73
0
 74
0
  7

 75
0
147
1.0
148
0.0
149
0.0
100
AcDbLayout
  1
Layout1
 70
0
 71
1
 10
0.0
 20
0.0
 11
22.0
 21
17.0
 12
0.0
 22
0.0
 32
0.0
 14
0.0
 24
0.0
 34
0.0
 15
0.0
 25
0.0
 35
0.0
146
0.0
 13
0.0
 23
0.0
 33
0.0
 16
1.0
 26
0.0
 36
0.0
 17
0.0
 27
1.0
 37
0.0
 76
0
330
206
345
0
346
0
  0
ENDSEC
  0
EOF
