999
DXF file: E:\BT Custom\CADOUTPUT\_RIGHT.dxf
999
Pro/ENGINEER 2018400 by Parametric Technology Corporation
  0
SECTION
  2
HEADER
  9
$ACADVER
  1
AC1018
  9
$DWGCODEPAGE
  3
ANSI_1252
  9
$EXTMAX
 10
22.0
 20
17.0
 30
0.0
  9
$EXTMIN
 10
0.0
 20
0.0
 30
0.0
  9
$LIMMIN
 10
0.0
 20
0.0
  9
$LIMMAX
 10
22.0
 20
17.0
  9
$VIEWCTR
 10
11.0
 20
8.5
  9
$VIEWSIZE
 40
17.0
  9
$CLAYER
  8
0
  9
$LTSCALE
 40
1.21
  9
$CELTYPE
  6
BYLAYER
  9
$DIMSCALE
 40
1.0
  9
$DIMASZ
 40
0.1
  9
$DIMEXO
 40
0.0625
  9
$DIMDLI
 40
0.836
  9
$DIMEXE
 40
0.125
  9
$DIMCEN
 40
0.198
  9
$DIMLFAC
 40
1.0
  9
$DIMBLK
  1
_FILLED
  9
$DIMALT
 70
1
  9
$DIMALTD
 70
2
  9
$DIMALTTD
 70
2
  9
$DIMALTF
 40
25.4
  9
$DIMTXT
 40
0.08
  9
$DIMTOL
 70
1
  9
$DIMLIM
 70
0
  9
$DIMTFAC
 40
1.0
  9
$DIMTP
 40
0.001
  9
$DIMTM
 40
0.001
  9
$DIMGAP
 40
0.09
  9
$DIMDSEP
 70
46
  9
$AUNITS
 70
0
  9
$PDMODE
 70
3
  9
$PDSIZE
 40
0.06
  9
$HANDSEED
  5
308
  9
$TILEMODE
 70
1
  9
$MEASUREMENT
 70
0
  9
$INSUNITS
 70
1
  0
ENDSEC
  0
SECTION
  2
CLASSES
  0
CLASS
  1
ACDBDICTIONARYWDFLT
  2
AcDbDictionaryWithDefault
  3
AutoCAD 2000
 90
0
 91
1
280
0
281
0
  0
CLASS
  1
ACDBPLACEHOLDER
  2
AcDbPlaceHolder
  3
AutoCAD 2000
 90
0
 91
1
280
0
281
0
  0
CLASS
  1
LAYOUT
  2
AcDbLayout
  3
AutoCAD 2000
 90
0
 91
0
280
0
281
0
  0
ENDSEC
  0
SECTION
  2
TABLES
  0
TABLE
  2
VPORT
  5
8
100
AcDbSymbolTable
 70
2
  0
VPORT
  5
1F4
100
AcDbSymbolTableRecord
100
AcDbViewportTableRecord
  2
*ACTIVE
 70
0
 10
0.0
 20
0.0
 11
1.0
 21
1.0
 12
11.0
 22
8.5
 13
0.0
 23
0.0
 14
1.0
 24
1.0
 15
0.0
 25
0.0
 16
0.0
 26
0.0
 36
1.0
 17
0.0
 27
0.0
 37
0.0
 40
17.0
 41
1.2941176471
 42
50.0
 43
0.0
 44
0.0
 50
0.0
 51
0.0
 71
0
 72
100
 73
1
 74
1
 75
0
 76
0
 77
0
 78
0
  0
ENDTAB
  0
TABLE
  2
LTYPE
  5
5
100
AcDbSymbolTable
 70
6
  0
LTYPE
  5
14
100
AcDbSymbolTableRecord
100
AcDbLinetypeTableRecord
  2
BYBLOCK
 70
0
  3

 72
65
 73
0
 40
0.0
  0
LTYPE
  5
15
100
AcDbSymbolTableRecord
100
AcDbLinetypeTableRecord
  2
BYLAYER
 70
0
  3

 72
65
 73
0
 40
0.0
  0
LTYPE
  5
16
100
AcDbSymbolTableRecord
100
AcDbLinetypeTableRecord
  2
CONTINUOUS
 70
64
  3
Solid line
 72
65
 73
0
 40
0.0
  0
LTYPE
  5
1F5
100
AcDbSymbolTableRecord
100
AcDbLinetypeTableRecord
  2
CENTER
 70
64
  3
____ _ ____ _ ____ _ ____ _ ____ _ ____ _ ____
 72
65
 73
4
 40
0.6
 49
0.375
 74
0
 49
-0.075
 74
0
 49
0.075
 74
0
 49
-0.075
 74
0
  0
LTYPE
  5
1F6
100
AcDbSymbolTableRecord
100
AcDbLinetypeTableRecord
  2
HIDDEN
 70
64
  3
- - - - - - - - - - - - - - - - - - - -
 72
65
 73
2
 40
0.2
 49
0.1
 74
0
 49
-0.1
 74
0
  0
LTYPE
  5
1F7
100
AcDbSymbolTableRecord
100
AcDbLinetypeTableRecord
  2
PHANTOM
 70
64
  3
_____ _ _ _____ _ _ _____ _ _ _____
 72
65
 73
6
 40
0.8
 49
0.45
 74
0
 49
-0.05
 74
0
 49
0.1
 74
0
 49
-0.05
 74
0
 49
0.1
 74
0
 49
-0.05
 74
0
  0
LTYPE
  5
1F8
100
AcDbSymbolTableRecord
100
AcDbLinetypeTableRecord
  2
DOT
 70
64
  3
. . . . . . . . . . . . . . . . . . . .
 72
65
 73
2
 40
0.2
 49
0.1
 74
0
 49
-0.1
 74
0
  0
LTYPE
  5
1F9
100
AcDbSymbolTableRecord
100
AcDbLinetypeTableRecord
  2
DASHED
 70
64
  3
- - - - - - - - - - - - - - - - - - - -
 72
65
 73
2
 40
0.2
 49
0.1
 74
0
 49
-0.1
 74
0
  0
ENDTAB
  0
TABLE
  2
LAYER
  5
2
100
AcDbSymbolTable
 70
36
  0
LAYER
  5
10
100
AcDbSymbolTableRecord
100
AcDbLayerTableRecord
  2
0
 70
0
 62
7
  6
CONTINUOUS
370
-3
390
F
  0
LAYER
  5
1FA
100
AcDbSymbolTableRecord
100
AcDbLayerTableRecord
  2
DEFAULT_1
 70
0
 62
7
  6
CENTER
370
-3
390
F
  0
LAYER
  5
1FB
100
AcDbSymbolTableRecord
100
AcDbLayerTableRecord
  2
DEFAULT_2
 70
0
 62
8
  6
HIDDEN
370
-3
390
F
  0
LAYER
  5
1FC
100
AcDbSymbolTableRecord
100
AcDbLayerTableRecord
  2
DEFAULT_3
 70
0
 62
7
  6
PHANTOM
370
-3
390
F
  0
LAYER
  5
1FD
100
AcDbSymbolTableRecord
100
AcDbLayerTableRecord
  2
ALL_FEATURES
 70
0
 62
7
  6
CONTINUOUS
370
-3
390
F
  0
LAYER
  5
1FE
100
AcDbSymbolTableRecord
100
AcDbLayerTableRecord
  2
AXES_FEATURES
 70
0
 62
7
  6
CONTINUOUS
370
-3
390
F
  0
LAYER
  5
1FF
100
AcDbSymbolTableRecord
100
AcDbLayerTableRecord
  2
DEFAULT_COORDINATE_SYSTEM
 70
0
 62
7
  6
CONTINUOUS
370
-3
390
F
  0
LAYER
  5
200
100
AcDbSymbolTableRecord
100
AcDbLayerTableRecord
  2
DEFAULT_DATUM_AXES
 70
0
 62
7
  6
CONTINUOUS
370
-3
390
F
  0
LAYER
  5
201
100
AcDbSymbolTableRecord
100
AcDbLayerTableRecord
  2
DEFAULT_DATUM_PLANES
 70
0
 62
7
  6
CONTINUOUS
370
-3
390
F
  0
LAYER
  5
202
100
AcDbSymbolTableRecord
100
AcDbLayerTableRecord
  2
DIMENSIONS
 70
0
 62
7
  6
CONTINUOUS
370
-3
390
F
  0
ENDTAB
  0
TABLE
  2
STYLE
  5
3
100
AcDbSymbolTable
 70
1
  0
STYLE
  5
11
100
AcDbSymbolTableRecord
100
AcDbTextStyleTableRecord
  2
STANDARD
 70
0
 40
0.0
 41
0.8
 50
0.0
 71
0
 42
0.2
  3
txt
  4

  0
STYLE
  5
203
100
AcDbSymbolTableRecord
100
AcDbTextStyleTableRecord
  2
TEXTSTYLE_1
 70
0
 40
0.0
 41
0.8
 50
0.0
 71
0
 42
0.2
  3
gdt
  4

  0
ENDTAB
  0
TABLE
  2
VIEW
  5
6
100
AcDbSymbolTable
 70
0
  0
ENDTAB
  0
TABLE
  2
UCS
  5
7
100
AcDbSymbolTable
 70
0
  0
ENDTAB
  0
TABLE
  2
APPID
  5
9
100
AcDbSymbolTable
 70
1
  0
APPID
  5
204
100
AcDbSymbolTableRecord
100
AcDbRegAppTableRecord
  2
ACAD
 70
0
  0
ENDTAB
  0
TABLE
  2
BLOCK_RECORD
  5
1
100
AcDbSymbolTable
 70
0
  0
BLOCK_RECORD
  5
205
100
AcDbSymbolTableRecord
100
AcDbBlockTableRecord
  2
*Model_Space
  0
BLOCK_RECORD
  5
206
100
AcDbSymbolTableRecord
100
AcDbBlockTableRecord
  2
*Paper_Space
  0
BLOCK_RECORD
  5
207
100
AcDbSymbolTableRecord
100
AcDbBlockTableRecord
  2
_FILLED
  0
ENDTAB
  0
TABLE
  2
DIMSTYLE
  5
A
100
AcDbSymbolTable
 70
1
100
AcDbDimStyleTable
 71
0
  0
DIMSTYLE
105
208
100
AcDbSymbolTableRecord
100
AcDbDimStyleTableRecord
  2
STANDARD
 70
0
  3

  4

 40
1.0
 41
0.1
 42
0.0625
 43
0.38
 44
0.125
 45
0.0
 46
0.0
 47
0.001
 48
0.001
140
0.08
141
0.09
142
0.0
143
25.4
144
1.0
145
0.0
146
1.0
147
0.09
 71
1.0
 72
0.0
 73
1
 74
1
 75
0
 76
0
 77
0
 78
4
 79
1
170
1
171
2
172
0
173
0
174
0
175
0
176
0
177
0
178
0
270
2
179
3
271
3
272
3
273
2
274
2
275
0
280
0
281
0
282
0
283
1
284
4
285
0
286
0
287
3
288
0
340
11
278
46
341
207
342
207
343
207
344
207
  0
ENDTAB
  0
ENDSEC
  0
SECTION
  2
BLOCKS
  0
BLOCK
  5
20
100
AcDbEntity
  8
0
100
AcDbBlockBegin
  2
*Model_Space
 70
0
 10
0.0
 20
0.0
 30
0.0
  3
*Model_Space
  1

  0
ENDBLK
  5
21
100
AcDbEntity
  8
0
100
AcDbBlockEnd
  0
BLOCK
  5
1C
100
AcDbEntity
  8
0
100
AcDbBlockBegin
  2
*Paper_Space
 70
0
 10
0.0
 20
0.0
 30
0.0
  3
*Paper_Space
  1

  0
ENDBLK
  5
1D
100
AcDbEntity
  8
0
100
AcDbBlockEnd
  0
BLOCK
  5
209
100
AcDbEntity
  8
0
100
AcDbBlockBegin
  2
_FILLED
 70
64
 10
0.0
 20
0.0
  3
_FILLED
  1

  0
SOLID
  5
20A
100
AcDbEntity
  8
0
  6
BYBLOCK
 62
0
100
AcDbTrace
 10
0.0
 20
0.0
 11
-1.0
 21
0.2
 12
-1.0
 22
-0.2
 13
-1.0
 23
-0.2
  0
ENDBLK
  5
20B
100
AcDbEntity
  8
0
  6
BYBLOCK
 62
0
100
AcDbBlockEnd
  0
ENDSEC
  0
SECTION
  2
ENTITIES
  0
LINE
  5
20C
100
AcDbEntity
  8
0
100
AcDbLine
 62
7
  6
CONTINUOUS
 10
11.6866679548
 20
4.3234410273
 11
13.7366679548
 21
4.3234410273
  0
LINE
  5
20D
100
AcDbEntity
  8
0
100
AcDbLine
 62
9
  6
CONTINUOUS
 10
11.6866679548
 20
4.4334410273
 11
13.7366679548
 21
4.4334410273
  0
LINE
  5
20E
100
AcDbEntity
  8
0
100
AcDbLine
 62
7
  6
CONTINUOUS
 10
11.7266679548
 20
4.4734410273
 11
13.6966679548
 21
4.4734410273
  0
LINE
  5
20F
100
AcDbEntity
  8
0
100
AcDbLine
 62
9
  6
CONTINUOUS
 10
11.9275648278
 20
4.4934410273
 11
13.4957711217
 21
4.4934410273
  0
LINE
  5
210
100
AcDbEntity
  8
0
100
AcDbLine
 62
9
  6
CONTINUOUS
 10
11.8366679548
 20
4.7084410273
 11
13.5866679548
 21
4.7084410273
  0
LINE
  5
211
100
AcDbEntity
  8
0
100
AcDbLine
 62
7
  6
CONTINUOUS
 10
11.8766679548
 20
4.7484410273
 11
13.5466679548
 21
4.7484410273
  0
LINE
  5
212
100
AcDbEntity
  8
0
100
AcDbLine
 62
7
  6
CONTINUOUS
 10
7.7809391259
 20
11.4194141098
 11
7.7804346753
 21
11.4185474512
  0
LINE
  5
213
100
AcDbEntity
  8
0
100
AcDbLine
 62
7
  6
CONTINUOUS
 10
8.1124364029
 20
12.0514913856
 11
7.8832829068
 21
11.4218973297
  0
LINE
  5
214
100
AcDbEntity
  8
0
100
AcDbLine
 62
7
  6
CONTINUOUS
 10
7.7483425376
 20
11.1503852118
 11
7.7577850289
 21
11.1748298956
  0
LINE
  5
215
100
AcDbEntity
  8
0
100
AcDbLine
 62
7
  6
CONTINUOUS
 10
8.2819749119
 20
10.9561589115
 11
8.2904542839
 21
10.9809541421
  0
LINE
  5
216
100
AcDbEntity
  8
0
100
AcDbLine
 62
7
  6
CONTINUOUS
 10
8.5822827133
 20
11.880481314
 11
8.3531292172
 21
11.250887258
  0
LINE
  5
217
100
AcDbEntity
  8
0
100
AcDbLine
 62
7
  6
CONTINUOUS
 10
8.3878877599
 20
11.1318761635
 11
8.3976682013
 21
11.1378385022
  0
LINE
  5
218
100
AcDbEntity
  8
0
100
AcDbLine
 62
7
  6
CONTINUOUS
 10
8.400350258
 20
11.1394121387
 11
8.3976682014
 21
11.1378385019
  0
LINE
  5
219
100
AcDbEntity
  8
0
100
AcDbLine
 62
7
  6
CONTINUOUS
 10
8.4299329189
 20
11.1831996869
 11
8.4297622732
 21
11.1822115333
  0
LINE
  5
21A
100
AcDbEntity
  8
0
100
AcDbLine
 62
9
  6
CONTINUOUS
 10
12.6566679548
 20
6.67956031
 11
12.6266679548
 21
6.67956031
  0
LINE
  5
21B
100
AcDbEntity
  8
0
100
AcDbLine
 62
9
  6
CONTINUOUS
 10
12.7666679548
 20
6.67956031
 11
12.7966679548
 21
6.67956031
  0
LINE
  5
21C
100
AcDbEntity
  8
0
100
AcDbLine
 62
9
  6
CONTINUOUS
 10
12.7666679548
 20
6.779802161
 11
12.6566679548
 21
6.779802161
  0
LINE
  5
21D
100
AcDbEntity
  8
0
100
AcDbLine
 62
9
  6
CONTINUOUS
 10
12.7666679548
 20
6.7979995595
 11
12.6566679548
 21
6.7979995595
  0
LINE
  5
21E
100
AcDbEntity
  8
0
100
AcDbLine
 62
9
  6
CONTINUOUS
 10
12.7885545899
 20
6.8139046211
 11
12.6347813197
 21
6.8139046211
  0
LINE
  5
21F
100
AcDbEntity
  8
0
100
AcDbLine
 62
9
  6
CONTINUOUS
 10
12.7885545899
 20
6.847838557
 11
12.6347813197
 21
6.847838557
  0
LINE
  5
220
100
AcDbEntity
  8
0
100
AcDbLine
 62
7
  6
CONTINUOUS
 10
11.8816679548
 20
7.0464410273
 11
12.5506697276
 21
7.0464410273
  0
LINE
  5
221
100
AcDbEntity
  8
0
100
AcDbLine
 62
7
  6
CONTINUOUS
 10
12.8726661821
 20
7.0464410273
 11
13.5416679548
 21
7.0464410273
  0
LINE
  5
222
100
AcDbEntity
  8
0
100
AcDbLine
 62
9
  6
CONTINUOUS
 10
11.870856252
 20
7.1635531351
 11
12.5482425337
 21
7.1635531351
  0
LINE
  5
223
100
AcDbEntity
  8
0
100
AcDbLine
 62
9
  6
CONTINUOUS
 10
12.875093376
 20
7.1635531351
 11
13.5524796577
 21
7.1635531351
  0
LINE
  5
224
100
AcDbEntity
  8
0
100
AcDbLine
 62
7
  6
CONTINUOUS
 10
7.7754546655
 20
11.3668555339
 11
7.7764977258
 21
11.3639260655
  0
LINE
  5
225
100
AcDbEntity
  8
0
100
AcDbLine
 62
7
  6
CONTINUOUS
 10
7.7801574613
 20
11.3530719026
 11
7.7764977261
 21
11.3639260656
  0
LINE
  5
226
100
AcDbEntity
  8
0
100
AcDbLine
 62
9
  6
CONTINUOUS
 10
12.2512281766
 20
7.5771812154
 11
12.539669931
 21
7.5771812154
  0
LINE
  5
227
100
AcDbEntity
  8
0
100
AcDbLine
 62
9
  6
CONTINUOUS
 10
12.8836659787
 20
7.5771812154
 11
13.172107733
 21
7.5771812154
  0
LINE
  5
228
100
AcDbEntity
  8
0
100
AcDbLine
 62
9
  6
CONTINUOUS
 10
12.2169233394
 20
7.6498449179
 11
12.5381639475
 21
7.6498449179
  0
LINE
  5
229
100
AcDbEntity
  8
0
100
AcDbLine
 62
9
  6
CONTINUOUS
 10
12.8851719622
 20
7.6498449179
 11
13.2064125702
 21
7.6498449179
  0
LINE
  5
22A
100
AcDbEntity
  8
0
100
AcDbLine
 62
7
  6
CONTINUOUS
 10
12.2446679548
 20
7.7414410273
 11
12.5362655825
 21
7.7414410273
  0
LINE
  5
22B
100
AcDbEntity
  8
0
100
AcDbLine
 62
7
  6
CONTINUOUS
 10
12.8870703271
 20
7.7414410273
 11
13.1786679548
 21
7.7414410273
  0
LINE
  5
22C
100
AcDbEntity
  8
0
100
AcDbLine
 62
9
  6
CONTINUOUS
 10
12.8245930142
 20
8.5866925287
 11
12.5987428954
 21
8.5866925287
  0
LINE
  5
22D
100
AcDbEntity
  8
0
100
AcDbLine
 62
9
  6
CONTINUOUS
 10
12.8245930142
 20
8.623233839
 11
12.5987428954
 21
8.623233839
  0
LINE
  5
22E
100
AcDbEntity
  8
0
100
AcDbLine
 62
7
  6
CONTINUOUS
 10
12.5975055998
 20
8.6874410273
 11
12.8258303094
 21
8.6874410273
  0
LINE
  5
22F
100
AcDbEntity
  8
0
100
AcDbLine
 62
7
  6
CONTINUOUS
 10
11.6866679548
 20
4.4334410273
 11
11.6866679548
 21
4.3234410273
  0
LINE
  5
230
100
AcDbEntity
  8
0
100
AcDbLine
 62
9
  6
CONTINUOUS
 10
11.7266679548
 20
4.4734410273
 11
11.7266679548
 21
4.3234410273
  0
LINE
  5
231
100
AcDbEntity
  8
0
100
AcDbLine
 62
7
  6
CONTINUOUS
 10
11.8366679548
 20
4.5908982192
 11
11.8366679548
 21
4.7084410273
  0
LINE
  5
232
100
AcDbEntity
  8
0
100
AcDbLine
 62
7
  6
CONTINUOUS
 10
8.2214342062
 20
10.8305821022
 11
7.7140001918
 21
11.0152729793
  0
LINE
  5
233
100
AcDbEntity
  8
0
100
AcDbLine
 62
9
  6
CONTINUOUS
 10
7.7001112374
 20
11.0219035829
 11
8.2363358324
 21
10.8267337914
  0
LINE
  5
234
100
AcDbEntity
  8
0
100
AcDbLine
 62
9
  6
CONTINUOUS
 10
7.6864043097
 20
11.038132149
 11
8.2572674694
 21
10.830354951
  0
LINE
  5
235
100
AcDbEntity
  8
0
100
AcDbLine
 62
9
  6
CONTINUOUS
 10
7.6894901612
 20
11.0773375344
 11
8.280104306
 21
10.8623715658
  0
LINE
  5
236
100
AcDbEntity
  8
0
100
AcDbLine
 62
9
  6
CONTINUOUS
 10
7.7042492849
 20
11.0937394849
 11
8.2793411318
 21
10.8844231707
  0
LINE
  5
237
100
AcDbEntity
  8
0
100
AcDbLine
 62
9
  6
CONTINUOUS
 10
7.7483425376
 20
11.1503852118
 11
8.2819749119
 21
10.9561589115
  0
LINE
  5
238
100
AcDbEntity
  8
0
100
AcDbLine
 62
9
  6
CONTINUOUS
 10
7.7577850307
 20
11.174829895
 11
8.2904542821
 21
10.9809541427
  0
LINE
  5
239
100
AcDbEntity
  8
0
100
AcDbLine
 62
9
  6
CONTINUOUS
 10
7.7832270713
 20
11.2604179975
 11
8.3259795201
 21
11.0628722616
  0
LINE
  5
23A
100
AcDbEntity
  8
0
100
AcDbLine
 62
7
  6
CONTINUOUS
 10
11.9066679548
 20
4.7484410273
 11
11.9066679548
 21
7.0464410273
  0
LINE
  5
23B
100
AcDbEntity
  8
0
100
AcDbLine
 62
9
  6
CONTINUOUS
 10
11.9275648278
 20
4.4734410273
 11
11.9275648278
 21
4.4934410273
  0
LINE
  5
23C
100
AcDbEntity
  8
0
100
AcDbLine
 62
9
  6
CONTINUOUS
 10
7.7801574613
 20
11.3530719026
 11
8.3878877599
 21
11.1318761635
  0
LINE
  5
23D
100
AcDbEntity
  8
0
100
AcDbLine
 62
9
  6
CONTINUOUS
 10
7.7764977258
 20
11.3639260655
 11
8.3976682014
 21
11.1378385019
  0
LINE
  5
23E
100
AcDbEntity
  8
0
100
AcDbLine
 62
9
  6
CONTINUOUS
 10
7.7754546652
 20
11.3668555338
 11
8.4003502582
 21
11.1394121384
  0
LINE
  5
23F
100
AcDbEntity
  8
0
100
AcDbLine
 62
9
  6
CONTINUOUS
 10
7.7804346753
 20
11.4185474512
 11
8.4297622732
 21
11.1822115333
  0
LINE
  5
240
100
AcDbEntity
  8
0
100
AcDbLine
 62
9
  6
CONTINUOUS
 10
7.7809391312
 20
11.4194141067
 11
8.4299329129
 21
11.1831996879
  0
LINE
  5
241
100
AcDbEntity
  8
0
100
AcDbLine
 62
9
  6
CONTINUOUS
 10
7.7939840196
 20
11.4328707407
 11
8.4285897062
 21
11.2018931603
  0
LINE
  5
242
100
AcDbEntity
  8
0
100
AcDbLine
 62
7
  6
CONTINUOUS
 10
8.3968249255
 20
11.2349833209
 11
7.8395874734
 21
11.4378011668
  0
LINE
  5
243
100
AcDbEntity
  8
0
100
AcDbLine
 62
7
  6
CONTINUOUS
 10
12.5182711143
 20
8.6096741187
 11
12.5550793992
 21
6.8336743741
  0
LINE
  5
244
100
AcDbEntity
  8
0
100
AcDbLine
 62
9
  6
CONTINUOUS
 10
12.5470645438
 20
8.5618794877
 11
12.582080367
 21
6.8723660184
  0
LINE
  5
245
100
AcDbEntity
  8
0
100
AcDbLine
 62
9
  6
CONTINUOUS
 10
12.5611533438
 20
8.5618228154
 11
12.5961691562
 21
6.8723098696
  0
LINE
  5
246
100
AcDbEntity
  8
0
100
AcDbLine
 62
9
  6
CONTINUOUS
 10
12.5987428954
 20
8.5866925287
 11
12.6347813197
 21
6.847838557
  0
LINE
  5
247
100
AcDbEntity
  8
0
100
AcDbLine
 62
7
  6
CONTINUOUS
 10
12.4616679548
 20
7.7414410273
 11
12.4616679548
 21
11.1964410273
  0
LINE
  5
248
100
AcDbEntity
  8
0
100
AcDbLine
 62
9
  6
CONTINUOUS
 10
12.5987428954
 20
8.623233839
 11
12.5987428954
 21
8.5866925287
  0
LINE
  5
249
100
AcDbEntity
  8
0
100
AcDbLine
 62
7
  6
CONTINUOUS
 10
12.6266679548
 20
6.67956031
 11
12.6266679548
 21
6.7680867206
  0
LINE
  5
24A
100
AcDbEntity
  8
0
100
AcDbLine
 62
9
  6
CONTINUOUS
 10
12.6347813197
 20
6.847838557
 11
12.6347813197
 21
6.8139046211
  0
LINE
  5
24B
100
AcDbEntity
  8
0
100
AcDbLine
 62
9
  6
CONTINUOUS
 10
12.6566679548
 20
6.7979995595
 11
12.6566679548
 21
6.67956031
  0
LINE
  5
24C
100
AcDbEntity
  8
0
100
AcDbLine
 62
9
  6
CONTINUOUS
 10
12.7666679548
 20
6.67956031
 11
12.7666679548
 21
6.7979995595
  0
LINE
  5
24D
100
AcDbEntity
  8
0
100
AcDbLine
 62
9
  6
CONTINUOUS
 10
12.7885545899
 20
6.8139046211
 11
12.7885545899
 21
6.847838557
  0
LINE
  5
24E
100
AcDbEntity
  8
0
100
AcDbLine
 62
7
  6
CONTINUOUS
 10
12.7966679548
 20
6.7680868149
 11
12.7966679548
 21
6.67956031
  0
LINE
  5
24F
100
AcDbEntity
  8
0
100
AcDbLine
 62
9
  6
CONTINUOUS
 10
12.8245930142
 20
8.5866925287
 11
12.8245930142
 21
8.623233839
  0
LINE
  5
250
100
AcDbEntity
  8
0
100
AcDbLine
 62
7
  6
CONTINUOUS
 10
12.9616679548
 20
7.7414410273
 11
12.9616679548
 21
11.1964410273
  0
LINE
  5
251
100
AcDbEntity
  8
0
100
AcDbLine
 62
9
  6
CONTINUOUS
 10
12.7885545899
 20
6.847838557
 11
12.8245930142
 21
8.5866925287
  0
LINE
  5
252
100
AcDbEntity
  8
0
100
AcDbLine
 62
9
  6
CONTINUOUS
 10
12.8271667525
 20
6.8723098207
 11
12.8621825645
 21
8.5618227508
  0
LINE
  5
253
100
AcDbEntity
  8
0
100
AcDbLine
 62
9
  6
CONTINUOUS
 10
12.8412555426
 20
6.872366017
 11
12.8762713658
 21
8.5618794867
  0
LINE
  5
254
100
AcDbEntity
  8
0
100
AcDbLine
 62
7
  6
CONTINUOUS
 10
12.8682565105
 20
6.8336743738
 11
12.9050647953
 21
8.6096741184
  0
LINE
  5
255
100
AcDbEntity
  8
0
100
AcDbLine
 62
9
  6
CONTINUOUS
 10
12.4616679548
 20
11.1964410273
 11
12.9616679548
 21
11.1964410273
  0
LINE
  5
256
100
AcDbEntity
  8
0
100
AcDbLine
 62
9
  6
CONTINUOUS
 10
8.5822827133
 20
11.880481314
 11
8.1124364029
 21
12.0514913856
  0
LINE
  5
257
100
AcDbEntity
  8
0
100
AcDbLine
 62
9
  6
CONTINUOUS
 10
13.4957711217
 20
4.4734410273
 11
13.4957711217
 21
4.4934410273
  0
LINE
  5
258
100
AcDbEntity
  8
0
100
AcDbLine
 62
7
  6
CONTINUOUS
 10
13.5166679548
 20
4.7484410273
 11
13.5166679548
 21
7.0464410273
  0
LINE
  5
259
100
AcDbEntity
  8
0
100
AcDbLine
 62
7
  6
CONTINUOUS
 10
13.5866679548
 20
4.5908982192
 11
13.5866679548
 21
4.7084410273
  0
LINE
  5
25A
100
AcDbEntity
  8
0
100
AcDbLine
 62
9
  6
CONTINUOUS
 10
13.6966679548
 20
4.4734410273
 11
13.6966679548
 21
4.3234410273
  0
LINE
  5
25B
100
AcDbEntity
  8
0
100
AcDbLine
 62
7
  6
CONTINUOUS
 10
13.7366679548
 20
4.4334410273
 11
13.7366679548
 21
4.3234410273
  0
ARC
  5
25C
100
AcDbEntity
  8
0
100
AcDbCircle
 62
7
  6
CONTINUOUS
 10
8.9886458989
 20
10.7268331752
 40
0.743
100
AcDbArc
 50
153.1103674819
 51
159.9999999124
  0
ARC
  5
25D
100
AcDbEntity
  8
0
100
AcDbCircle
 62
7
  6
CONTINUOUS
 10
7.059593413
 20
11.4289508604
 40
0.743
100
AcDbArc
 50
340.0000000876
 51
346.8896325181
  0
ARC
  5
25E
100
AcDbEntity
  8
0
100
AcDbCircle
 62
7
  6
CONTINUOUS
 10
8.4856259301
 20
10.9819153344
 40
0.1790000008
100
AcDbArc
 50
123.0946198465
 51
153.1103674819
  0
ARC
  5
25F
100
AcDbEntity
  8
0
100
AcDbCircle
 62
7
  6
CONTINUOUS
 10
7.6088927164
 20
11.3010201276
 40
0.1790000008
100
AcDbArc
 50
346.8896325181
 51
16.9053801535
  0
ARC
  5
260
100
AcDbEntity
  8
0
100
AcDbCircle
 62
7
  6
CONTINUOUS
 10
8.4086372549
 20
10.9155922687
 40
0.1330000004
100
AcDbArc
 50
162.2410938151
 51
193.553553377
  0
ARC
  5
261
100
AcDbEntity
  8
0
100
AcDbCircle
 62
7
  6
CONTINUOUS
 10
7.6252378183
 20
11.2007263451
 40
0.1330000004
100
AcDbArc
 50
306.446446623
 51
337.7589061849
  0
ARC
  5
262
100
AcDbEntity
  8
0
100
AcDbCircle
 62
7
  6
CONTINUOUS
 10
8.2487958176
 20
10.9057575118
 40
0.08
100
AcDbArc
 50
250.0
 51
261.0397140499
  0
ARC
  5
263
100
AcDbEntity
  8
0
100
AcDbCircle
 62
7
  6
CONTINUOUS
 10
7.7413618033
 20
11.0904483889
 40
0.08
100
AcDbArc
 50
238.9602859501
 51
250.0
  0
ARC
  5
264
100
AcDbEntity
  8
0
100
AcDbCircle
 62
7
  6
CONTINUOUS
 10
8.3677495967
 20
11.1933212879
 40
0.0629999962
100
AcDbArc
 50
301.1627534366
 51
349.8430419522
  0
ARC
  5
265
100
AcDbEntity
  8
0
100
AcDbCircle
 62
7
  6
CONTINUOUS
 10
7.8350803541
 20
11.3871970369
 40
0.0629999962
100
AcDbArc
 50
150.1569580478
 51
198.8372465634
  0
ARC
  5
266
100
AcDbEntity
  8
0
100
AcDbCircle
 62
7
  6
CONTINUOUS
 10
8.2258728089
 20
10.8715336938
 40
0.0549999988
100
AcDbArc
 50
350.4107267091
 51
13.553553377
  0
ARC
  5
267
100
AcDbEntity
  8
0
100
AcDbCircle
 62
7
  6
CONTINUOUS
 10
7.7369232005
 20
11.0494967973
 40
0.0549999988
100
AcDbArc
 50
126.446446623
 51
149.5892732909
  0
ARC
  5
268
100
AcDbEntity
  8
0
100
AcDbCircle
 62
7
  6
CONTINUOUS
 10
8.379039878
 20
11.1861193046
 40
0.052
100
AcDbArc
 50
17.6585253029
 51
70.0
  0
ARC
  5
269
100
AcDbEntity
  8
0
100
AcDbCircle
 62
7
  6
CONTINUOUS
 10
7.8218021512
 20
11.3889372506
 40
0.052
100
AcDbArc
 50
70.0
 51
122.3414746971
  0
ARC
  5
26A
100
AcDbEntity
  8
0
100
AcDbCircle
 62
7
  6
CONTINUOUS
 10
8.2357330669
 20
10.8698678547
 40
0.0450000005
100
AcDbArc
 50
298.5902386693
 51
350.4107267091
  0
ARC
  5
26B
100
AcDbEntity
  8
0
100
AcDbCircle
 62
7
  6
CONTINUOUS
 10
7.728299024
 20
11.0545587422
 40
0.0450000005
100
AcDbArc
 50
149.5892732909
 51
201.4097613307
  0
ARC
  5
26C
100
AcDbEntity
  8
0
100
AcDbCircle
 62
7
  6
CONTINUOUS
 10
8.3904744535
 20
11.189759425
 40
0.0400000021
100
AcDbArc
 50
350.561234851
 51
17.6585253029
  0
ARC
  5
26D
100
AcDbEntity
  8
0
100
AcDbCircle
 62
7
  6
CONTINUOUS
 10
7.8153825825
 20
11.399075748
 40
0.0400000021
100
AcDbArc
 50
122.3414746971
 51
149.438765149
  0
ARC
  5
26E
100
AcDbEntity
  8
0
100
AcDbCircle
 62
7
  6
CONTINUOUS
 10
8.2414755763
 20
10.8593310765
 40
0.0329999994
100
AcDbArc
 50
261.0397140499
 51
298.5902386693
  0
ARC
  5
26F
100
AcDbEntity
  8
0
100
AcDbCircle
 62
7
  6
CONTINUOUS
 10
7.717127096
 20
11.0501783157
 40
0.0329999994
100
AcDbArc
 50
201.4097613307
 51
238.9602859501
  0
ARC
  5
270
100
AcDbEntity
  8
0
100
AcDbCircle
 62
7
  6
CONTINUOUS
 10
12.0986101346
 20
3.7008314006
 40
0.8475497503
100
AcDbArc
 50
112.5322509262
 51
113.9893514614
  0
ARC
  5
271
100
AcDbEntity
  8
0
100
AcDbCircle
 62
7
  6
CONTINUOUS
 10
11.8766679548
 20
4.7084410273
 40
0.04
100
AcDbArc
 50
90.0
 51
180.0
  0
ARC
  5
272
100
AcDbEntity
  8
0
100
AcDbCircle
 62
7
  6
CONTINUOUS
 10
11.7966679548
 20
4.5908982192
 40
0.04
100
AcDbArc
 50
290.0968465459
 51
360.0
  0
ARC
  5
273
100
AcDbEntity
  8
0
100
AcDbCircle
 62
7
  6
CONTINUOUS
 10
11.7266679548
 20
4.4334410273
 40
0.04
100
AcDbArc
 50
90.0
 51
180.0
  0
ARC
  5
274
100
AcDbEntity
  8
0
100
AcDbCircle
 62
7
  6
CONTINUOUS
 10
11.8207205154
 20
4.5251602977
 40
0.03
100
AcDbArc
 50
110.0968465459
 51
193.2680353701
  0
ARC
  5
275
100
AcDbEntity
  8
0
100
AcDbCircle
 62
7
  6
CONTINUOUS
 10
11.7623220916
 20
4.5113898911
 40
0.03
100
AcDbArc
 50
292.5489636902
 51
13.2680353791
  0
ARC
  5
276
100
AcDbEntity
  8
0
100
AcDbCircle
 62
7
  6
CONTINUOUS
 10
11.7458884036
 20
4.4934410273
 40
0.0199999587
100
AcDbArc
 50
271.0244241783
 51
294.0037360891
  0
ARC
  5
277
100
AcDbEntity
  8
0
100
AcDbCircle
 62
9
  6
CONTINUOUS
 10
12.2966679548
 20
6.67956031
 40
0.36
100
AcDbArc
 50
330.999076136
 51
360.0
  0
ARC
  5
278
100
AcDbEntity
  8
0
100
AcDbCircle
 62
7
  6
CONTINUOUS
 10
12.2966679548
 20
6.67956031
 40
0.33
100
AcDbArc
 50
325.1918213044
 51
360.0
  0
ARC
  5
279
100
AcDbEntity
  8
0
100
AcDbCircle
 62
7
  6
CONTINUOUS
 10
11.8816679548
 20
7.1054961454
 40
0.0590551181
100
AcDbArc
 50
100.5491060217
 51
270.0
  0
ARC
  5
27A
100
AcDbEntity
  8
0
100
AcDbCircle
 62
7
  6
CONTINUOUS
 10
12.6358475013
 20
6.7974413787
 40
0.0399999724
100
AcDbArc
 50
197.8791422497
 51
240.9006938481
  0
ARC
  5
27B
100
AcDbEntity
  8
0
100
AcDbCircle
 62
7
  6
CONTINUOUS
 10
12.5920714552
 20
6.8344410489
 40
0.037
100
AcDbArc
 50
181.1873073157
 51
256.4793558651
  0
ARC
  5
27C
100
AcDbEntity
  8
0
100
AcDbCircle
 62
7
  6
CONTINUOUS
 10
12.6066679548
 20
6.7450145876
 40
0.0200001361
100
AcDbArc
 50
0.000000001
 51
60.9006929671
  0
ARC
  5
27D
100
AcDbEntity
  8
0
100
AcDbCircle
 62
7
  6
CONTINUOUS
 10
12.578745101
 20
6.7790207636
 40
0.02
100
AcDbArc
 50
17.8791302583
 51
76.4793571974
  0
ARC
  5
27E
100
AcDbEntity
  8
0
100
AcDbCircle
 62
7
  6
CONTINUOUS
 10
13.6966679548
 20
4.4334410273
 40
0.04
100
AcDbArc
 50
0.0
 51
90.0
  0
ARC
  5
27F
100
AcDbEntity
  8
0
100
AcDbCircle
 62
7
  6
CONTINUOUS
 10
13.5466679548
 20
4.7084410273
 40
0.04
100
AcDbArc
 50
0.0
 51
90.0
  0
ARC
  5
280
100
AcDbEntity
  8
0
100
AcDbCircle
 62
7
  6
CONTINUOUS
 10
13.6266679548
 20
4.5908982192
 40
0.04
100
AcDbArc
 50
180.0
 51
249.9031534541
  0
ARC
  5
281
100
AcDbEntity
  8
0
100
AcDbCircle
 62
7
  6
CONTINUOUS
 10
13.6026153943
 20
4.5251602977
 40
0.03
100
AcDbArc
 50
346.7319646257
 51
69.9031534541
  0
ARC
  5
282
100
AcDbEntity
  8
0
100
AcDbCircle
 62
7
  6
CONTINUOUS
 10
13.6610138181
 20
4.5113898911
 40
0.03
100
AcDbArc
 50
166.73196462
 51
247.4510363098
  0
ARC
  5
283
100
AcDbEntity
  8
0
100
AcDbCircle
 62
7
  6
CONTINUOUS
 10
13.6774474044
 20
4.4934410273
 40
0.02
100
AcDbArc
 50
245.9964880406
 51
266.1029995582
  0
ARC
  5
284
100
AcDbEntity
  8
0
100
AcDbCircle
 62
7
  6
CONTINUOUS
 10
12.7116679548
 20
6.1074410273
 40
0.66
100
AcDbArc
 50
98.0711321365
 51
81.9288676007
  0
ARC
  5
285
100
AcDbEntity
  8
0
100
AcDbCircle
 62
9
  6
CONTINUOUS
 10
12.7116679548
 20
6.1074410273
 40
0.6409921564
100
AcDbArc
 50
97.6208527849
 51
82.3791472151
  0
ARC
  5
286
100
AcDbEntity
  8
0
100
AcDbCircle
 62
7
  6
CONTINUOUS
 10
12.7116679548
 20
6.1074410273
 40
0.52
100
AcDbArc
 50
100.0517549673
 51
79.9482450292
  0
ARC
  5
287
100
AcDbEntity
  8
0
100
AcDbCircle
 62
9
  6
CONTINUOUS
 10
12.7116679548
 20
6.1074410273
 40
0.47
100
AcDbArc
 50
102.995923305
 51
77.0040766957
  0
ARC
  5
288
100
AcDbEntity
  8
0
100
AcDbCircle
 62
9
  6
CONTINUOUS
 10
12.7116679548
 20
6.1074410273
 40
0.44
100
AcDbArc
 50
105.9380182669
 51
74.061981679
  0
CIRCLE
  5
289
100
AcDbEntity
  8
0
100
AcDbCircle
 62
7
  6
CONTINUOUS
 10
12.7116679548
 20
6.1074410273
 40
0.41
  0
ARC
  5
28A
100
AcDbEntity
  8
0
100
AcDbCircle
 62
9
  6
CONTINUOUS
 10
12.7116679548
 20
6.1074410273
 40
0.41
100
AcDbArc
 50
99.2268359996
 51
104.1371145983
  0
ARC
  5
28B
100
AcDbEntity
  8
0
100
AcDbCircle
 62
9
  6
CONTINUOUS
 10
12.7116679548
 20
6.1074410273
 40
0.41
100
AcDbArc
 50
95.1133888799
 51
97.2803652999
  0
ARC
  5
28C
100
AcDbEntity
  8
0
100
AcDbCircle
 62
9
  6
CONTINUOUS
 10
12.7116679548
 20
6.1074410273
 40
0.41
100
AcDbArc
 50
90.9876311979
 51
93.1452278853
  0
ARC
  5
28D
100
AcDbEntity
  8
0
100
AcDbCircle
 62
9
  6
CONTINUOUS
 10
12.7116679548
 20
6.1074410273
 40
0.41
100
AcDbArc
 50
86.854771733
 51
89.0123684491
  0
ARC
  5
28E
100
AcDbEntity
  8
0
100
AcDbCircle
 62
9
  6
CONTINUOUS
 10
12.7116679548
 20
6.1074410273
 40
0.41
100
AcDbArc
 50
75.8628853241
 51
78.5868148787
  0
ARC
  5
28F
100
AcDbEntity
  8
0
100
AcDbCircle
 62
9
  6
CONTINUOUS
 10
13.1266679548
 20
6.67956031
 40
0.36
100
AcDbArc
 50
180.0
 51
209.0009239191
  0
CIRCLE
  5
290
100
AcDbEntity
  8
0
100
AcDbCircle
 62
9
  6
CONTINUOUS
 10
12.7116679548
 20
6.1074410273
 40
0.3574596669
  0
ARC
  5
291
100
AcDbEntity
  8
0
100
AcDbCircle
 62
7
  6
CONTINUOUS
 10
13.1266679548
 20
6.67956031
 40
0.33
100
AcDbArc
 50
180.0
 51
214.8081794472
  0
ARC
  5
292
100
AcDbEntity
  8
0
100
AcDbCircle
 62
7
  6
CONTINUOUS
 10
13.5416679548
 20
7.1054961454
 40
0.0590551181
100
AcDbArc
 50
270.0
 51
79.4508939783
  0
ARC
  5
293
100
AcDbEntity
  8
0
100
AcDbCircle
 62
7
  6
CONTINUOUS
 10
12.7874884084
 20
6.7974413756
 40
0.0399999722
100
AcDbArc
 50
299.0993065345
 51
342.1208603396
  0
ARC
  5
294
100
AcDbEntity
  8
0
100
AcDbCircle
 62
7
  6
CONTINUOUS
 10
12.8312644544
 20
6.8344410486
 40
0.037
100
AcDbArc
 50
283.5206449608
 51
358.8126926843
  0
ARC
  5
295
100
AcDbEntity
  8
0
100
AcDbCircle
 62
7
  6
CONTINUOUS
 10
12.8166679548
 20
6.7450145855
 40
0.0200001353
100
AcDbArc
 50
119.0993076566
 51
179.9999999987
  0
ARC
  5
296
100
AcDbEntity
  8
0
100
AcDbCircle
 62
7
  6
CONTINUOUS
 10
12.8445908093
 20
6.7790207632
 40
0.02
100
AcDbArc
 50
103.5206433908
 51
162.1208724844
  0
ARC
  5
297
100
AcDbEntity
  8
0
100
AcDbCircle
 62
7
  6
CONTINUOUS
 10
10.4616679548
 20
11.1964410273
 40
2.5
100
AcDbArc
 50
0.0
 51
160.0
  0
ARC
  5
298
100
AcDbEntity
  8
0
100
AcDbCircle
 62
7
  6
CONTINUOUS
 10
10.4616679548
 20
11.1964410273
 40
2.0
100
AcDbArc
 50
0.0
 51
160.0
  0
ARC
  5
299
100
AcDbEntity
  8
0
100
AcDbCircle
 62
7
  6
CONTINUOUS
 10
11.7850834092
 20
7.624138587
 40
0.468503937
100
AcDbArc
 50
280.5491060217
 51
354.247680581
  0
ARC
  5
29A
100
AcDbEntity
  8
0
100
AcDbCircle
 62
7
  6
CONTINUOUS
 10
13.6382525005
 20
7.624138587
 40
0.468503937
100
AcDbArc
 50
185.752319419
 51
259.4508939783
  0
ARC
  5
29B
100
AcDbEntity
  8
0
100
AcDbCircle
 62
7
  6
CONTINUOUS
 10
12.1736679548
 20
7.5849942907
 40
0.0779527559
100
AcDbArc
 50
354.247680581
 51
56.2967024761
  0
ARC
  5
29C
100
AcDbEntity
  8
0
100
AcDbCircle
 62
7
  6
CONTINUOUS
 10
13.2496679548
 20
7.5849942907
 40
0.0779527559
100
AcDbArc
 50
123.7032975239
 51
185.752319419
  0
ARC
  5
29D
100
AcDbEntity
  8
0
100
AcDbCircle
 62
7
  6
CONTINUOUS
 10
12.2446679548
 20
7.6914410273
 40
0.05
100
AcDbArc
 50
90.0
 51
236.2967024761
  0
ARC
  5
29E
100
AcDbEntity
  8
0
100
AcDbCircle
 62
7
  6
CONTINUOUS
 10
13.1786679548
 20
7.6914410273
 40
0.05
100
AcDbArc
 50
303.7032975239
 51
90.0
  0
ARC
  5
29F
100
AcDbEntity
  8
0
100
AcDbCircle
 62
7
  6
CONTINUOUS
 10
12.8258303494
 20
8.6474407212
 40
0.0399999981
100
AcDbArc
 50
17.4497321258
 51
90.0010296434
  0
ARC
  5
2A0
100
AcDbEntity
  8
0
100
AcDbCircle
 62
7
  6
CONTINUOUS
 10
12.5975055597
 20
8.6474407184
 40
0.0399999974
100
AcDbArc
 50
89.9989633498
 51
162.5502651865
  0
ARC
  5
2A1
100
AcDbEntity
  8
0
100
AcDbCircle
 62
7
  6
CONTINUOUS
 10
12.555263166
 20
8.6104410016
 40
0.037
100
AcDbArc
 50
105.2538536866
 51
181.1873073157
  0
ARC
  5
2A2
100
AcDbEntity
  8
0
100
AcDbCircle
 62
7
  6
CONTINUOUS
 10
12.8680727436
 20
8.6104410018
 40
0.037
100
AcDbArc
 50
358.8126926843
 51
74.7461458624
  0
ARC
  5
2A3
100
AcDbEntity
  8
0
100
AcDbCircle
 62
7
  6
CONTINUOUS
 10
12.8830692211
 20
8.6654328689
 40
0.02
100
AcDbArc
 50
197.4497208446
 51
254.7461472521
  0
ARC
  5
2A4
100
AcDbEntity
  8
0
100
AcDbCircle
 62
7
  6
CONTINUOUS
 10
12.540266689
 20
8.6654328688
 40
0.02
100
AcDbArc
 50
285.2538522875
 51
342.5502765916
  0
SPLINE
  5
2A5
100
AcDbEntity
  8
0
100
AcDbSpline
 62
7
  6
CONTINUOUS
 70
0
 71
3
 72
11
 73
7
 74
0
 42
0.0000001
 43
0.0000001
 44
0.0000000001
 40
0.0
 40
0.0
 40
0.0
 40
0.0
 40
0.25
 40
0.5
 40
0.75
 40
1.0
 40
1.0
 40
1.0
 40
1.0
 10
13.6693115517
 20
4.4751706168
 30
0.0
 10
13.6284836617
 20
4.4933516669
 30
0.0
 10
13.5336249938
 20
4.5273797956
 30
0.0
 10
13.3575688836
 20
4.5693254313
 30
0.0
 10
13.1549779833
 20
4.6004507545
 30
0.0
 10
13.0077774297
 20
4.6131349963
 30
0.0
 10
12.9326524336
 20
4.6173304297
 30
0.0
  0
LINE
  5
2A6
100
AcDbEntity
  8
0
100
AcDbLine
 62
7
  6
CONTINUOUS
 10
11.7958363953
 20
4.4924946761
 11
11.796889318
 21
4.4929007193
  0
SPLINE
  5
2A7
100
AcDbEntity
  8
0
100
AcDbSpline
 62
7
  6
CONTINUOUS
 70
0
 71
3
 72
11
 73
7
 74
0
 42
0.0000001
 43
0.0000001
 44
0.0000000001
 40
0.0
 40
0.0
 40
0.0
 40
0.0
 40
0.25
 40
0.5
 40
0.75
 40
1.0
 40
1.0
 40
1.0
 40
1.0
 10
12.4906805407
 20
4.6173302658
 30
0.0
 10
12.4155558266
 20
4.6131347902
 30
0.0
 10
12.268355858
 20
4.6004504941
 30
0.0
 10
12.0657658029
 20
4.5693251781
 30
0.0
 10
11.8897104174
 20
4.5273796296
 30
0.0
 10
11.7948521014
 20
4.4933516026
 30
0.0
 10
11.7540243447
 20
4.4751706109
 30
0.0
  0
SPLINE
  5
2A8
100
AcDbEntity
  8
0
100
AcDbSpline
 62
9
  6
CONTINUOUS
 70
0
 71
3
 72
45
 73
41
 74
0
 42
0.0000001
 43
0.0000001
 44
0.0000000001
 40
0.0
 40
0.0
 40
0.0
 40
0.0
 40
0.0312479809
 40
0.0468745258
 40
0.0625020411
 40
0.0781295427
 40
0.0937559441
 40
0.1093814811
 40
0.125006648
 40
0.1562565049
 40
0.1718815501
 40
0.1875064125
 40
0.2187559229
 40
0.2500059944
 40
0.2812560819
 40
0.3125055099
 40
0.3437548244
 40
0.3750042489
 40
0.406253546
 40
0.4375027075
 40
0.5000000171
 40
0.5624973273
 40
0.5937464874
 40
0.6249957813
 40
0.6562452037
 40
0.6874945159
 40
0.7187439395
 40
0.7499940211
 40
0.7812440894
 40
0.8124935971
 40
0.8281184577
 40
0.843743501
 40
0.8749933548
 40
0.8906185205
 40
0.9062440564
 40
0.9218704571
 40
0.9374979581
 40
0.9531254731
 40
0.9687520181
 40
1.0
 40
1.0
 40
1.0
 40
1.0
 10
13.4957711217
 20
4.4934410273
 30
0.0
 10
13.4798809422
 20
4.4978374337
 30
0.0
 10
13.4559418981
 20
4.5040681763
 30
0.0
 10
13.4238644045
 20
4.511722276
 30
0.0
 10
13.3997321512
 20
4.5171563241
 30
0.0
 10
13.3755371495
 20
4.5223024905
 30
0.0
 10
13.3512877552
 20
4.5271804548
 30
0.0
 10
13.3269891073
 20
4.5318001718
 30
0.0
 10
13.2945310575
 20
4.5376284722
 30
0.0
 10
13.2619893554
 20
4.5429798923
 30
0.0
 10
13.2293809563
 20
4.5478940402
 30
0.0
 10
13.1967318967
 20
4.552529537
 30
0.0
 10
13.1558497538
 20
4.5578137141
 30
0.0
 10
13.1066975057
 20
4.563379461
 30
0.0
 10
13.0574680264
 20
4.5682127238
 30
0.0
 10
13.0081757508
 20
4.5723502831
 30
0.0
 10
12.9588316907
 20
4.5758100844
 30
0.0
 10
12.9094461231
 20
4.5786124115
 30
0.0
 10
12.8600286566
 20
4.5807787202
 30
0.0
 10
12.7941085115
 20
4.58283229
 30
0.0
 10
12.7116679488
 20
4.5838468441
 30
0.0
 10
12.6292273867
 20
4.5828323074
 30
0.0
 10
12.5633072429
 20
4.5807787596
 30
0.0
 10
12.5138897812
 20
4.5786124203
 30
0.0
 10
12.4645042186
 20
4.5758100756
 30
0.0
 10
12.4151601638
 20
4.5723502648
 30
0.0
 10
12.3658678964
 20
4.5682126873
 30
0.0
 10
12.3166384271
 20
4.5633793959
 30
0.0
 10
12.2674861841
 20
4.5578136611
 30
0.0
 10
12.2266040428
 20
4.552529503
 30
0.0
 10
12.1939549847
 20
4.54789402
 30
0.0
 10
12.1613465872
 20
4.5429798859
 30
0.0
 10
12.1288048851
 20
4.5376284865
 30
0.0
 10
12.096346836
 20
4.5318001976
 30
0.0
 10
12.0720481896
 20
4.5271804816
 30
0.0
 10
12.0477987983
 20
4.5223025079
 30
0.0
 10
12.0236038029
 20
4.517156316
 30
0.0
 10
11.9994715565
 20
4.5117222388
 30
0.0
 10
11.9673940685
 20
4.5040681141
 30
0.0
 10
11.9434550204
 20
4.4978373887
 30
0.0
 10
11.9275648278
 20
4.4934410273
 30
0.0
  0
SPLINE
  5
2A9
100
AcDbEntity
  8
0
100
AcDbSpline
 62
9
  6
CONTINUOUS
 70
0
 71
3
 72
133
 73
129
 74
0
 42
0.0000001
 43
0.0000001
 44
0.0000000001
 40
0.0
 40
0.0
 40
0.0
 40
0.0
 40
0.000000626
 40
0.0000025035
 40
0.0000056324
 40
0.0000100125
 40
0.0000156438
 40
0.0000225262
 40
0.0000400437
 40
0.0000625644
 40
0.0000900873
 40
0.0001226117
 40
0.0001601369
 40
0.0002026619
 40
0.0002501861
 40
0.0003602287
 40
0.0004902584
 40
0.0006402688
 40
0.0008102537
 40
0.0010002067
 40
0.0012101216
 40
0.0014399921
 40
0.0019595718
 40
0.0025587674
 40
0.0032372264
 40
0.0039945845
 40
0.0048304777
 40
0.005744543
 40
0.0067364183
 40
0.0078057427
 40
0.0101753247
 40
0.0128504947
 40
0.0158284849
 40
0.0191062787
 40
0.0226797171
 40
0.0265443653
 40
0.0306958321
 40
0.0351298748
 40
0.0398423845
 40
0.0500864101
 40
0.0613933177
 40
0.0737269749
 40
0.0870520655
 40
0.1013340346
 40
0.1165391144
 40
0.1326308328
 40
0.1495673115
 40
0.16730958
 40
0.185821794
 40
0.2050654836
 40
0.224998877
 40
0.2455721453
 40
0.266736438
 40
0.2884492296
 40
0.3106644456
 40
0.333330965
 40
0.3563941353
 40
0.3797981978
 40
0.3916114255
 40
0.4034899713
 40
0.4274143804
 40
0.4394454823
 40
0.4515126572
 40
0.4757267646
 40
0.4999999661
 40
0.5242731659
 40
0.5484872838
 40
0.5605544792
 40
0.5725856137
 40
0.5965100436
 40
0.6083885335
 40
0.6202016714
 40
0.6436056738
 40
0.6666691136
 40
0.6893357142
 40
0.7115506078
 40
0.7332633371
 40
0.7544278972
 40
0.7750012714
 40
0.7949345889
 40
0.8141781902
 40
0.8326903629
 40
0.8504326495
 40
0.8673691683
 40
0.8834609119
 40
0.8986659766
 40
0.9129479168
 40
0.9262730083
 40
0.9386066729
 40
0.949913575
 40
0.9601576138
 40
0.9648701379
 40
0.9693041919
 40
0.9734556596
 40
0.9773202973
 40
0.9808937192
 40
0.9841714956
 40
0.9871494719
 40
0.9898246336
 40
0.9921942168
 40
0.9932635465
 40
0.9942554302
 40
0.9951695061
 40
0.9960054107
 40
0.9967627797
 40
0.9974412481
 40
0.9980404501
 40
0.9985600318
 40
0.9987899011
 40
0.9989998138
 40
0.9991897637
 40
0.9993597449
 40
0.9995097515
 40
0.9996397773
 40
0.9997498164
 40
0.999797339
 40
0.9998398627
 40
0.9998773868
 40
0.9999099103
 40
0.9999374327
 40
0.9999599531
 40
0.9999774708
 40
0.9999843534
 40
0.999989985
 40
0.9999943656
 40
0.999997495
 40
0.9999993732
 40
1.0
 40
1.0
 40
1.0
 40
1.0
 10
11.8104122752
 20
4.5533336926
 30
0.0
 10
11.8104123349
 20
4.5533340689
 30
0.0
 10
11.8104145012
 20
4.5533339673
 30
0.0
 10
11.8104170304
 20
4.5533356904
 30
0.0
 10
11.8104228211
 20
4.5533372494
 30
0.0
 10
11.8104301881
 20
4.553340047
 30
0.0
 10
11.8104399568
 20
4.5533433954
 30
0.0
 10
11.8104571677
 20
4.5533494753
 30
0.0
 10
11.8104841318
 20
4.5533589101
 30
0.0
 10
11.8105229195
 20
4.5533725228
 30
0.0
 10
11.8105703403
 20
4.5533891392
 30
0.0
 10
11.8106263764
 20
4.5534087707
 30
0.0
 10
11.8106910336
 20
4.5534314092
 30
0.0
 10
11.8107643092
 20
4.5534570532
 30
0.0
 10
11.8108792436
 20
4.5534972562
 30
0.0
 10
11.8110444552
 20
4.5535550011
 30
0.0
 10
11.8112685646
 20
4.5536332553
 30
0.0
 10
11.8115271394
 20
4.5537234556
 30
0.0
 10
11.811820176
 20
4.5538255772
 30
0.0
 10
11.8121476709
 20
4.5539395952
 30
0.0
 10
11.8125096204
 20
4.5540654852
 30
0.0
 10
11.8130610861
 20
4.5542570999
 30
0.0
 10
11.8138364412
 20
4.5545261154
 30
0.0
 10
11.8148699561
 20
4.5548838609
 30
0.0
 10
11.8160406218
 20
4.5552877387
 30
0.0
 10
11.8173479858
 20
4.5557370381
 30
0.0
 10
11.8187915958
 20
4.5562310263
 30
0.0
 10
11.8203709967
 20
4.5567689763
 30
0.0
 10
11.822085737
 20
4.5573501533
 30
0.0
 10
11.8246406776
 20
4.5582116829
 30
0.0
 10
11.8281693663
 20
4.5593912973
 30
0.0
 10
11.8328055266
 20
4.5609213986
 30
0.0
 10
11.8379735515
 20
4.5626032721
 30
0.0
 10
11.843669468
 20
4.5644292523
 30
0.0
 10
11.8498886044
 20
4.5663903566
 30
0.0
 10
11.8566254289
 20
4.5684773277
 30
0.0
 10
11.8638742963
 20
4.5706808702
 30
0.0
 10
11.8716297036
 20
4.5729916696
 30
0.0
 10
11.8829573742
 20
4.5762964253
 30
0.0
 10
11.8983405942
 20
4.5806324807
 30
0.0
 10
11.9182549509
 20
4.585982466
 30
0.0
 10
11.9400522735
 20
4.5915434168
 30
0.0
 10
11.9636788375
 20
4.5972500971
 30
0.0
 10
11.9890808854
 20
4.6030393733
 30
0.0
 10
12.016202163
 20
4.6088514158
 30
0.0
 10
12.0449801576
 20
4.6146299827
 30
0.0
 10
12.075346263
 20
4.620329713
 30
0.0
 10
12.1072320232
 20
4.6259042004
 30
0.0
 10
12.1405701911
 20
4.6313088282
 30
0.0
 10
12.1752908375
 20
4.6365016787
 30
0.0
 10
12.2113148862
 20
4.6414405365
 30
0.0
 10
12.2485534214
 20
4.6461064876
 30
0.0
 10
12.2869179385
 20
4.6504761327
 30
0.0
 10
12.3263237982
 20
4.654509936
 30
0.0
 10
12.3666833301
 20
4.6581787851
 30
0.0
 10
12.4079007763
 20
4.6614580611
 30
0.0
 10
12.4498732206
 20
4.6643370446
 30
0.0
 10
12.4852801274
 20
4.6663905029
 30
0.0
 10
12.5139040175
 20
4.66782021
 30
0.0
 10
12.5428515934
 20
4.6691082235
 30
0.0
 10
12.5719416487
 20
4.6701671279
 30
0.0
 10
12.6011531796
 20
4.6710057265
 30
0.0
 10
12.6305448401
 20
4.6717005313
 30
0.0
 10
12.6673903978
 20
4.672287358
 30
0.0
 10
12.7116678917
 20
4.6725225811
 30
0.0
 10
12.75594539
 20
4.6722870797
 30
0.0
 10
12.7927909643
 20
4.6717002552
 30
0.0
 10
12.8221826684
 20
4.671005668
 30
0.0
 10
12.8513942549
 20
4.6701674519
 30
0.0
 10
12.8804843242
 20
4.6691089226
 30
0.0
 10
12.909431813
 20
4.6678206406
 30
0.0
 10
12.9380555464
 20
4.6663902914
 30
0.0
 10
12.9734624752
 20
4.6643360349
 30
0.0
 10
13.015435178
 20
4.661458313
 30
0.0
 10
13.0566527096
 20
4.6581797873
 30
0.0
 10
13.0970119229
 20
4.6545094395
 30
0.0
 10
13.1364176687
 20
4.6504753049
 30
0.0
 10
13.1747825023
 20
4.6461067709
 30
0.0
 10
13.2120212346
 20
4.6414408984
 30
0.0
 10
13.2480451826
 20
4.636501572
 30
0.0
 10
13.2827657086
 20
4.6313087745
 30
0.0
 10
13.3161038285
 20
4.6259042702
 30
0.0
 10
13.3479895866
 20
4.6203297086
 30
0.0
 10
13.3783557348
 20
4.6146299335
 30
0.0
 10
13.4071337675
 20
4.6088514016
 30
0.0
 10
13.4342550388
 20
4.6030393834
 30
0.0
 10
13.4596570594
 20
4.5972501048
 30
0.0
 10
13.4832836063
 20
4.5915434075
 30
0.0
 10
13.5050809289
 20
4.5859824507
 30
0.0
 10
13.5249953006
 20
4.5806324859
 30
0.0
 10
13.5403785364
 20
4.5762964364
 30
0.0
 10
13.5517062283
 20
4.5729916693
 30
0.0
 10
13.5594616496
 20
4.5706808598
 30
0.0
 10
13.5667105161
 20
4.5684773111
 30
0.0
 10
13.573447324
 20
4.5663903402
 30
0.0
 10
13.5796664344
 20
4.5644292432
 30
0.0
 10
13.5853623246
 20
4.5626032765
 30
0.0
 10
13.590530331
 20
4.5609214237
 30
0.0
 10
13.595166484
 20
4.5593913412
 30
0.0
 10
13.5986951741
 20
4.5582117342
 30
0.0
 10
13.6012501223
 20
4.5573501988
 30
0.0
 10
13.6029648745
 20
4.5567690111
 30
0.0
 10
13.6045442902
 20
4.5562310469
 30
0.0
 10
13.605987916
 20
4.5557370434
 30
0.0
 10
13.6072952954
 20
4.5552877293
 30
0.0
 10
13.6084659742
 20
4.5548838398
 30
0.0
 10
13.6094994984
 20
4.5545260877
 30
0.0
 10
13.6102748582
 20
4.5542570722
 30
0.0
 10
13.6108263248
 20
4.5540654629
 30
0.0
 10
13.6111882722
 20
4.5539395788
 30
0.0
 10
13.6115157637
 20
4.5538255677
 30
0.0
 10
13.6118087961
 20
4.5537234536
 30
0.0
 10
13.6120673661
 20
4.5536332606
 30
0.0
 10
13.6122914705
 20
4.5535550129
 30
0.0
 10
13.6124566779
 20
4.5534972726
 30
0.0
 10
13.6125716091
 20
4.5534570722
 30
0.0
 10
13.6126448826
 20
4.5534314294
 30
0.0
 10
13.6127095378
 20
4.5534087916
 30
0.0
 10
13.6127655723
 20
4.5533891599
 30
0.0
 10
13.6128129917
 20
4.5533725426
 30
0.0
 10
13.6128517782
 20
4.5533589283
 30
0.0
 10
13.612878742
 20
4.5533494911
 30
0.0
 10
13.6128959519
 20
4.5533434089
 30
0.0
 10
13.6129057216
 20
4.5533400582
 30
0.0
 10
13.6129130861
 20
4.5533372591
 30
0.0
 10
13.6129188829
 20
4.5533356961
 30
0.0
 10
13.6129214019
 20
4.553333973
 30
0.0
 10
13.6129235799
 20
4.5533340702
 30
0.0
 10
13.6129236345
 20
4.5533336926
 30
0.0
  0
SPLINE
  5
2AA
100
AcDbEntity
  8
0
100
AcDbSpline
 62
9
  6
CONTINUOUS
 70
0
 71
3
 72
72
 73
68
 74
0
 42
0.0000001
 43
0.0000001
 44
0.0000000001
 40
0.0
 40
0.0
 40
0.0
 40
0.0
 40
0.0000012499
 40
0.0000049974
 40
0.0000112421
 40
0.0000199836
 40
0.0000312215
 40
0.0000449555
 40
0.0000799101
 40
0.0001248442
 40
0.0001797546
 40
0.0002446383
 40
0.0003194922
 40
0.0004043131
 40
0.0004990979
 40
0.0007185469
 40
0.0009778142
 40
0.001276875
 40
0.0016157044
 40
0.0019942776
 40
0.0024125697
 40
0.0028705559
 40
0.0039055026
 40
0.0050987242
 40
0.0064496515
 40
0.00795771
 40
0.0096223269
 40
0.0114429311
 40
0.0134189536
 40
0.0155497834
 40
0.0202726791
 40
0.0256050647
 40
0.0315403958
 40
0.0380717604
 40
0.0451913681
 40
0.0528913849
 40
0.061163983
 40
0.0700009234
 40
0.079393871
 40
0.099814574
 40
0.1223589562
 40
0.1469595082
 40
0.1735479989
 40
0.2020553822
 40
0.2324111903
 40
0.2645443167
 40
0.2983823017
 40
0.3338488171
 40
0.3708651304
 40
0.4093492657
 40
0.4492166259
 40
0.4903793998
 40
0.5327457765
 40
0.576220285
 40
0.5983419149
 40
0.6207029984
 40
0.6660918337
 40
0.6890934839
 40
0.7122819811
 40
0.7591641811
 40
0.8066278936
 40
0.8545584067
 40
0.8786629511
 40
0.9028418183
 40
0.9270811747
 40
0.9513657046
 40
1.0
 40
1.0
 40
1.0
 40
1.0
 10
11.8366679548
 20
4.5908982192
 30
0.0
 10
11.8366679945
 20
4.5908985865
 30
0.0
 10
11.8366701274
 20
4.590898515
 30
0.0
 10
11.8366725253
 20
4.5909002227
 30
0.0
 10
11.8366781343
 20
4.5909018111
 30
0.0
 10
11.8366852292
 20
4.5909046232
 30
0.0
 10
11.8366946548
 20
4.5909080004
 30
0.0
 10
11.8367112509
 20
4.5909141251
 30
0.0
 10
11.836737255
 20
4.5909236315
 30
0.0
 10
11.8367746573
 20
4.590937344
 30
0.0
 10
11.8368203823
 20
4.5909540809
 30
0.0
 10
11.8368744105
 20
4.5909738523
 30
0.0
 10
11.8369367467
 20
4.5909966494
 30
0.0
 10
11.8370073873
 20
4.5910224702
 30
0.0
 10
11.8371181762
 20
4.5910629442
 30
0.0
 10
11.8372774119
 20
4.5911210683
 30
0.0
 10
11.837493393
 20
4.5911998219
 30
0.0
 10
11.8377425559
 20
4.5912905783
 30
0.0
 10
11.8380248879
 20
4.5913933075
 30
0.0
 10
11.8383403767
 20
4.5915079793
 30
0.0
 10
11.8386890095
 20
4.5916345642
 30
0.0
 10
11.8392200678
 20
4.5918271779
 30
0.0
 10
11.8399665857
 20
4.5920975153
 30
0.0
 10
11.8409615748
 20
4.5924568594
 30
0.0
 10
11.8420885625
 20
4.5928623913
 30
0.0
 10
11.8433472582
 20
4.5933134147
 30
0.0
 10
11.844737375
 20
4.593809216
 30
0.0
 10
11.846258625
 20
4.5943490854
 30
0.0
 10
11.8479107086
 20
4.5949323073
 30
0.0
 10
11.8503732014
 20
4.5957968596
 30
0.0
 10
11.8537752142
 20
4.5969801211
 30
0.0
 10
11.8582458637
 20
4.5985139002
 30
0.0
 10
11.8632298481
 20
4.60019847
 30
0.0
 10
11.8687232099
 20
4.602025563
 30
0.0
 10
11.8747218939
 20
4.6039857973
 30
0.0
 10
11.8812214674
 20
4.6060698242
 30
0.0
 10
11.888217314
 20
4.6082681766
 30
0.0
 10
11.8957045702
 20
4.6105714223
 30
0.0
 10
11.9066444764
 20
4.6138624376
 30
0.0
 10
11.9215079061
 20
4.6181741453
 30
0.0
 10
11.9407601852
 20
4.6234846511
 30
0.0
 10
11.9618463798
 20
4.6289954168
 30
0.0
 10
11.9847165287
 20
4.6346422685
 30
0.0
 10
12.0093185127
 20
4.6403620905
 30
0.0
 10
12.0355982117
 20
4.6460917126
 30
0.0
 10
12.0634965233
 20
4.6517815759
 30
0.0
 10
12.0929503639
 20
4.657390939
 30
0.0
 10
12.1238952803
 20
4.6628721357
 30
0.0
 10
12.1562630462
 20
4.6681789339
 30
0.0
 10
12.1899818803
 20
4.6732679695
 30
0.0
 10
12.2249753098
 20
4.6781058005
 30
0.0
 10
12.2611623246
 20
4.682669986
 30
0.0
 10
12.2984581189
 20
4.6869432348
 30
0.0
 10
12.3302003988
 20
4.6902274407
 30
0.0
 10
12.356083061
 20
4.6926743702
 30
0.0
 10
12.3825439955
 20
4.6950109498
 30
0.0
 10
12.4092845738
 20
4.6971314368
 30
0.0
 10
12.4362841223
 20
4.6990623302
 30
0.0
 10
12.4637335357
 20
4.7008860361
 30
0.0
 10
12.4984153797
 20
4.7029121151
 30
0.0
 10
12.540423209
 20
4.7048853115
 30
0.0
 10
12.5757213854
 20
4.7061680954
 30
0.0
 10
12.6041480693
 20
4.7069875223
 30
0.0
 10
12.6255779526
 20
4.707498744
 30
0.0
 10
12.6470632633
 20
4.7079068096
 30
0.0
 10
12.6757779869
 20
4.7083105725
 30
0.0
 10
12.6973311644
 20
4.7084412297
 30
0.0
 10
12.7117062294
 20
4.7084410273
 30
0.0
  0
SPLINE
  5
2AB
100
AcDbEntity
  8
0
100
AcDbSpline
 62
9
  6
CONTINUOUS
 70
0
 71
3
 72
43
 73
39
 74
0
 42
0.0000001
 43
0.0000001
 44
0.0000000001
 40
0.0
 40
0.0
 40
0.0
 40
0.0
 40
0.133734879
 40
0.2674011492
 40
0.3341748448
 40
0.4008805158
 40
0.4674862306
 40
0.5339457593
 40
0.6001902034
 40
0.6661126343
 40
0.6989024785
 40
0.7315376636
 40
0.763975165
 40
0.7961553219
 40
0.8279912391
 40
0.8593535699
 40
0.8900390132
 40
0.90502986
 40
0.9197053574
 40
0.9339790576
 40
0.9477261208
 40
0.9607625612
 40
0.9669360761
 40
0.9728208568
 40
0.9783586349
 40
0.9834872961
 40
0.9881153606
 40
0.9921372265
 40
0.9938873102
 40
0.9954447061
 40
0.9967951614
 40
0.9979244234
 40
0.9988190514
 40
0.9994691463
 40
0.999699702
 40
0.9998657741
 40
0.9999662458
 40
1.0
 40
1.0
 40
1.0
 40
1.0
 10
13.4957711215
 20
4.4934410274
 30
0.0
 10
13.5035206606
 20
4.4927609995
 30
0.0
 10
13.5190129469
 20
4.4913689681
 30
0.0
 10
13.538366059
 20
4.4895445003
 30
0.0
 10
13.5538321676
 20
4.488032977
 30
0.0
 10
13.565413208
 20
4.4868738718
 30
0.0
 10
13.5769732748
 20
4.4856890496
 30
0.0
 10
13.5885037723
 20
4.4844791894
 30
0.0
 10
13.5999917308
 20
4.4832451332
 30
0.0
 10
13.6095297735
 20
4.48219668
 30
0.0
 10
13.617122899
 20
4.481347658
 30
0.0
 10
13.6227794784
 20
4.4807079594
 30
0.0
 10
13.6284000088
 20
4.480065139
 30
0.0
 10
13.6339735471
 20
4.4794206456
 30
0.0
 10
13.6394841688
 20
4.4787765569
 30
0.0
 10
13.6449076577
 20
4.4781359788
 30
0.0
 10
13.6493574066
 20
4.4776050184
 30
0.0
 10
13.652842957
 20
4.4771860049
 30
0.0
 10
13.6553804906
 20
4.4768794851
 30
0.0
 10
13.6578460283
 20
4.4765802584
 30
0.0
 10
13.6602167562
 20
4.4762911955
 30
0.0
 10
13.6621196422
 20
4.4760581768
 30
0.0
 10
13.6635685178
 20
4.4758803027
 30
0.0
 10
13.6645844212
 20
4.4757553542
 30
0.0
 10
13.6655399688
 20
4.4756375688
 30
0.0
 10
13.6664229223
 20
4.4755283997
 30
0.0
 10
13.6672183425
 20
4.4754298935
 30
0.0
 10
13.6678187351
 20
4.4753556489
 30
0.0
 10
13.6682418803
 20
4.4753035055
 30
0.0
 10
13.6685108
 20
4.4752703915
 30
0.0
 10
13.6687438731
 20
4.475241659
 30
0.0
 10
13.6689386763
 20
4.4752175837
 30
0.0
 10
13.6690930206
 20
4.4751983058
 30
0.0
 10
13.6691954939
 20
4.475185501
 30
0.0
 10
13.6692558834
 20
4.4751777573
 30
0.0
 10
13.6692845967
 20
4.4751742835
 30
0.0
 10
13.6693018756
 20
4.4751717727
 30
0.0
 10
13.6693096716
 20
4.4751710973
 30
0.0
 10
13.669311598
 20
4.4751707175
 30
0.0
  0
SPLINE
  5
2AC
100
AcDbEntity
  8
0
100
AcDbSpline
 62
9
  6
CONTINUOUS
 70
0
 71
3
 72
51
 73
47
 74
0
 42
0.0000001
 43
0.0000001
 44
0.0000000001
 40
0.0
 40
0.0
 40
0.0
 40
0.0
 40
0.0000339722
 40
0.0000762258
 40
0.0001351156
 40
0.0003021774
 40
0.0005339051
 40
0.0008290462
 40
0.0011863486
 40
0.00160456
 40
0.0020824284
 40
0.0032116034
 40
0.004560901
 40
0.006116643
 40
0.0078651507
 40
0.0097927488
 40
0.0118858816
 40
0.0165151469
 40
0.0216458024
 40
0.0271828786
 40
0.0330653696
 40
0.0392381905
 40
0.0456531443
 40
0.0522766931
 40
0.0660254722
 40
0.0802969331
 40
0.0949720056
 40
0.1099638622
 40
0.1252057739
 40
0.1406500889
 40
0.1720118328
 40
0.2038475721
 40
0.2360277569
 40
0.2684651268
 40
0.301100175
 40
0.3338898815
 40
0.3668017502
 40
0.3998120934
 40
0.4660562935
 40
0.53251555
 40
0.5991209843
 40
0.665826391
 40
0.7325998249
 40
0.7994184585
 40
0.8662656493
 40
1.0
 40
1.0
 40
1.0
 40
1.0
 10
11.7540242263
 20
4.4751706487
 30
0.0
 10
11.7540223851
 20
4.4751699311
 30
0.0
 10
11.7540327673
 20
4.475172034
 30
0.0
 10
11.7540374811
 20
4.4751722562
 30
0.0
 10
11.7540546953
 20
4.4751747024
 30
0.0
 10
11.7540798154
 20
4.4751777722
 30
0.0
 10
11.7541204679
 20
4.4751830532
 30
0.0
 10
11.7541712527
 20
4.4751894834
 30
0.0
 10
11.7542331248
 20
4.4751973168
 30
0.0
 10
11.7543054367
 20
4.4752063977
 30
0.0
 10
11.7544223503
 20
4.4752209906
 30
0.0
 10
11.7545930158
 20
4.4752420696
 30
0.0
 10
11.7548259372
 20
4.4752706824
 30
0.0
 10
11.7550946179
 20
4.475303641
 30
0.0
 10
11.7553966834
 20
4.4753407443
 30
0.0
 10
11.755729757
 20
4.4753818053
 30
0.0
 10
11.7562291172
 20
4.4754435923
 30
0.0
 10
11.7569133651
 20
4.475528446
 30
0.0
 10
11.7577964535
 20
4.4756377126
 30
0.0
 10
11.758751966
 20
4.4757553152
 30
0.0
 10
11.759767686
 20
4.4758800055
 30
0.0
 10
11.7608341031
 20
4.4760108223
 30
0.0
 10
11.7619433026
 20
4.4761469216
 30
0.0
 10
11.7634899427
 20
4.4763364511
 30
0.0
 10
11.7654903341
 20
4.4765804793
 30
0.0
 10
11.7679558804
 20
4.4768791944
 30
0.0
 10
11.7704933245
 20
4.4771856708
 30
0.0
 10
11.7730869459
 20
4.4774978075
 30
0.0
 10
11.775725197
 20
4.4778135945
 30
0.0
 10
11.7793092164
 20
4.4782401652
 30
0.0
 10
11.783852244
 20
4.4787764859
 30
0.0
 10
11.7893628336
 20
4.4794205191
 30
0.0
 10
11.7949363359
 20
4.4800652228
 30
0.0
 10
11.8005568597
 20
4.4807080214
 30
0.0
 10
11.806213428
 20
4.481347651
 30
0.0
 10
11.8118982248
 20
4.4819832502
 30
0.0
 10
11.817605495
 20
4.4826142804
 30
0.0
 10
11.8252480601
 20
4.4834496947
 30
0.0
 10
11.8348324673
 20
4.4844792112
 30
0.0
 10
11.8463629207
 20
4.4856891385
 30
0.0
 10
11.8579229634
 20
4.4868738301
 30
0.0
 10
11.8695039653
 20
4.4880329438
 30
0.0
 10
11.8810999795
 20
4.4891662712
 30
0.0
 10
11.892706765
 20
4.4902738695
 30
0.0
 10
11.9081943017
 20
4.4917168332
 30
0.0
 10
11.9198153123
 20
4.4927609977
 30
0.0
 10
11.9275648271
 20
4.4934410271
 30
0.0
  0
SPLINE
  5
2AD
100
AcDbEntity
  8
0
100
AcDbSpline
 62
9
  6
CONTINUOUS
 70
0
 71
3
 72
26
 73
22
 74
0
 42
0.0000001
 43
0.0000001
 44
0.0000000001
 40
0.0
 40
0.0
 40
0.0
 40
0.0
 40
0.0621738691
 40
0.1244814469
 40
0.1869019887
 40
0.249410493
 40
0.3119911007
 40
0.3433036253
 40
0.3746281497
 40
0.4059624851
 40
0.4373042826
 40
0.5000003291
 40
0.562696393
 40
0.5940382125
 40
0.6253725768
 40
0.6880096426
 40
0.7505901912
 40
0.8130985172
 40
0.8755188655
 40
0.9378263164
 40
1.0
 40
1.0
 40
1.0
 40
1.0
 10
12.4906806313
 20
4.6173302893
 30
0.0
 10
12.499828113
 20
4.6178411759
 30
0.0
 10
12.5181531936
 20
4.6186821678
 30
0.0
 10
12.5456828885
 20
4.6195071935
 30
0.0
 10
12.5732694724
 20
4.6200032318
 30
0.0
 10
12.6008991527
 20
4.6202739698
 30
0.0
 10
12.6239458732
 20
4.6203675648
 30
0.0
 10
12.6423975111
 20
4.620397782
 30
0.0
 10
12.6562448248
 20
4.6204064009
 30
0.0
 10
12.6700964519
 20
4.6204104159
 30
0.0
 10
12.6885708839
 20
4.6204150663
 30
0.0
 10
12.7116666777
 20
4.6204174549
 30
0.0
 10
12.7347624747
 20
4.6204155727
 30
0.0
 10
12.7532369169
 20
4.6204108956
 30
0.0
 10
12.7717026638
 20
4.6204050726
 30
0.0
 10
12.7947716512
 20
4.6203861733
 30
0.0
 10
12.822434194
 20
4.6202738064
 30
0.0
 10
12.8500638126
 20
4.6200031784
 30
0.0
 10
12.8776503217
 20
4.6195070842
 30
0.0
 10
12.9051799465
 20
4.6186822311
 30
0.0
 10
12.9235049863
 20
4.6178413467
 30
0.0
 10
12.9326524429
 20
4.6173305012
 30
0.0
  0
SPLINE
  5
2AE
100
AcDbEntity
  8
0
100
AcDbSpline
 62
9
  6
CONTINUOUS
 70
0
 71
3
 72
23
 73
19
 74
0
 42
0.0000001
 43
0.0000001
 44
0.0000000001
 40
0.0
 40
0.0
 40
0.0
 40
0.0
 40
0.0112529219
 40
0.0229019534
 40
0.0352893405
 40
0.0486969495
 40
0.0793451722
 40
0.1160064645
 40
0.1591837003
 40
0.2089988379
 40
0.2653689868
 40
0.328044074
 40
0.3966818711
 40
0.4708408945
 40
0.5500239559
 40
0.6336546906
 40
0.8118034012
 40
1.0
 40
1.0
 40
1.0
 40
1.0
 10
12.9326524272
 20
4.6173304661
 30
0.0
 10
12.9325478357
 20
4.6173363071
 30
0.0
 10
12.9323356173
 20
4.6173692869
 30
0.0
 10
12.932024669
 20
4.6174803669
 30
0.0
 10
12.9317196465
 20
4.6176521225
 30
0.0
 10
12.9313033357
 20
4.6179752503
 30
0.0
 10
12.9308041768
 20
4.6185451729
 30
0.0
 10
12.9302629532
 20
4.6194229919
 30
0.0
 10
12.9297544496
 20
4.6205200216
 30
0.0
 10
12.9292816839
 20
4.6218289643
 30
0.0
 10
12.9288485603
 20
4.6233410468
 30
0.0
 10
12.9284582779
 20
4.6250447531
 30
0.0
 10
12.9281144632
 20
4.6269268962
 30
0.0
 10
12.9278197176
 20
4.6289726215
 30
0.0
 10
12.9275768238
 20
4.6311655679
 30
0.0
 10
12.9273191255
 20
4.6343295141
 30
0.0
 10
12.9271464532
 20
4.6385166243
 30
0.0
 10
12.9271595357
 20
4.6419281247
 30
0.0
 10
12.9272025641
 20
4.6436795367
 30
0.0
  0
LINE
  5
2AF
100
AcDbEntity
  8
0
100
AcDbLine
 62
9
  6
CONTINUOUS
 10
12.8399148955
 20
6.7984664782
 11
12.8407229632
 21
6.8383825286
  0
LINE
  5
2B0
100
AcDbEntity
  8
0
100
AcDbLine
 62
9
  6
CONTINUOUS
 10
12.8245930142
 20
8.623233839
 11
12.8258303094
 21
8.6874410273
  0
LINE
  5
2B1
100
AcDbEntity
  8
0
100
AcDbLine
 62
9
  6
CONTINUOUS
 10
12.5975055998
 20
8.6874410272
 11
12.5987428954
 21
8.623233839
  0
LINE
  5
2B2
100
AcDbEntity
  8
0
100
AcDbLine
 62
9
  6
CONTINUOUS
 10
12.5455286106
 20
8.646137476
 11
12.5465024814
 21
8.598257437
  0
LINE
  5
2B3
100
AcDbEntity
  8
0
100
AcDbLine
 62
9
  6
CONTINUOUS
 10
12.7882146777
 20
6.7959009237
 11
12.7885545899
 21
6.8139046211
  0
SPLINE
  5
2B4
100
AcDbEntity
  8
0
100
AcDbSpline
 62
9
  6
CONTINUOUS
 70
0
 71
3
 72
11
 73
7
 74
0
 42
0.0000001
 43
0.0000001
 44
0.0000000001
 40
0.0
 40
0.0
 40
0.0
 40
0.0
 40
0.2401214862
 40
0.4886122576
 40
0.7428476272
 40
1.0
 40
1.0
 40
1.0
 40
1.0
 10
12.7882146777
 20
6.7959009237
 30
0.0
 10
12.7865136673
 20
6.796244853
 30
0.0
 10
12.7830330917
 20
6.7968522857
 30
0.0
 10
12.7777024209
 20
6.7975085845
 30
0.0
 10
12.7722230492
 20
6.7979093178
 30
0.0
 10
12.7685264741
 20
6.7979995501
 30
0.0
 10
12.7666679548
 20
6.7979995595
 30
0.0
  0
SPLINE
  5
2B5
100
AcDbEntity
  8
0
100
AcDbSpline
 62
9
  6
CONTINUOUS
 70
0
 71
3
 72
11
 73
7
 74
0
 42
0.0000001
 43
0.0000001
 44
0.0000000001
 40
0.0
 40
0.0
 40
0.0
 40
0.0
 40
0.257154446
 40
0.5113881887
 40
0.7598787031
 40
1.0
 40
1.0
 40
1.0
 40
1.0
 10
12.6566679548
 20
6.7979995595
 30
0.0
 10
12.6548094204
 20
6.7979995562
 30
0.0
 10
12.6511128319
 20
6.7979095775
 30
0.0
 10
12.6456334824
 20
6.7975084663
 30
0.0
 10
12.6403028209
 20
6.7968522563
 30
0.0
 10
12.636822251
 20
6.7962447966
 30
0.0
 10
12.6351212402
 20
6.7959008754
 30
0.0
  0
LINE
  5
2B6
100
AcDbEntity
  8
0
100
AcDbLine
 62
9
  6
CONTINUOUS
 10
12.6347813197
 20
6.8139046211
 11
12.6351212402
 21
6.7959008754
  0
SPLINE
  5
2B7
100
AcDbEntity
  8
0
100
AcDbSpline
 62
9
  6
CONTINUOUS
 70
0
 71
3
 72
15
 73
11
 74
0
 42
0.0000001
 43
0.0000001
 44
0.0000000001
 40
0.0
 40
0.0
 40
0.0
 40
0.0
 40
0.130770785
 40
0.2601352766
 40
0.3877381597
 40
0.5133872446
 40
0.6371058172
 40
0.759132809
 40
0.8798982347
 40
1.0
 40
1.0
 40
1.0
 40
1.0
 10
12.876833469
 20
8.5982574261
 30
0.0
 10
12.8787945772
 20
8.5977665979
 30
0.0
 10
12.8826284406
 20
8.5964924124
 30
0.0
 10
12.8879780253
 20
8.5937370366
 30
0.0
 10
12.892763843
 20
8.5902173049
 30
0.0
 10
12.8968527085
 20
8.5860273814
 30
0.0
 10
12.9001315897
 20
8.5812801237
 30
0.0
 10
12.9025080464
 20
8.5761038623
 30
0.0
 10
12.903914576
 20
8.5706431105
 30
0.0
 10
12.9041783774
 20
8.5669044529
 30
0.0
 10
12.9041399056
 20
8.565048187
 30
0.0
  0
LINE
  5
2B8
100
AcDbEntity
  8
0
100
AcDbLine
 62
9
  6
CONTINUOUS
 10
12.876833469
 20
8.5982574261
 11
12.8778072993
 21
8.6461374764
  0
SPLINE
  5
2B9
100
AcDbEntity
  8
0
100
AcDbSpline
 62
9
  6
CONTINUOUS
 70
0
 71
3
 72
29
 73
25
 74
0
 42
0.0000001
 43
0.0000001
 44
0.0000000001
 40
0.0
 40
0.0
 40
0.0
 40
0.0
 40
0.2067818473
 40
0.3050404791
 40
0.3989840204
 40
0.4879797032
 40
0.5714160618
 40
0.6487291151
 40
0.7193966963
 40
0.7829374469
 40
0.8389246302
 40
0.8869808912
 40
0.9267844654
 40
0.9435096187
 40
0.9580794305
 40
0.9704721229
 40
0.9806744908
 40
0.9849517113
 40
0.9886790851
 40
0.9918581813
 40
0.994493376
 40
0.9965931599
 40
0.998175489
 40
1.0
 40
1.0
 40
1.0
 40
1.0
 10
12.8762713658
 20
8.5618794867
 30
0.0
 10
12.8781909387
 20
8.5618526076
 30
0.0
 10
12.8810227503
 20
8.5618192239
 30
0.0
 10
12.8847268027
 20
8.5617899844
 30
0.0
 10
12.8873374113
 20
8.5617766543
 30
0.0
 10
12.8898104393
 20
8.5617716083
 30
0.0
 10
12.8921290737
 20
8.5617748783
 30
0.0
 10
12.8942775227
 20
8.5617864185
 30
0.0
 10
12.8962411956
 20
8.5618061128
 30
0.0
 10
12.898006763
 20
8.5618337981
 30
0.0
 10
12.8995622296
 20
8.5618691772
 30
0.0
 10
12.9008970381
 20
8.5619119568
 30
0.0
 10
12.9018670847
 20
8.5619553532
 30
0.0
 10
12.9025259792
 20
8.5619950886
 30
0.0
 10
12.9029305051
 20
8.562024743
 30
0.0
 10
12.9032741524
 20
8.5620559269
 30
0.0
 10
12.9035220408
 20
8.5620844144
 30
0.0
 10
12.903689348
 20
8.5621087047
 30
0.0
 10
12.9037916792
 20
8.5621261462
 30
0.0
 10
12.9038785818
 20
8.5621439865
 30
0.0
 10
12.9039495711
 20
8.5621618312
 30
0.0
 10
12.9040061096
 20
8.5621805911
 30
0.0
 10
12.9040507585
 20
8.5622002997
 30
0.0
 10
12.904081379
 20
8.5622242799
 30
0.0
 10
12.90408173
 20
8.562241215
 30
0.0
  0
SPLINE
  5
2BA
100
AcDbEntity
  8
0
100
AcDbSpline
 62
9
  6
CONTINUOUS
 70
0
 71
3
 72
11
 73
7
 74
0
 42
0.0000001
 43
0.0000001
 44
0.0000000001
 40
0.0
 40
0.0
 40
0.0
 40
0.0
 40
0.2577372006
 40
0.5125922671
 40
0.7610713239
 40
1.0
 40
1.0
 40
1.0
 40
1.0
 10
12.87627136
 20
8.5618794868
 30
0.0
 10
12.8763010919
 20
8.5633142685
 30
0.0
 10
12.8764148959
 20
8.5661668989
 30
0.0
 10
12.8767302112
 20
8.5703935071
 30
0.0
 10
12.8771550239
 20
8.5745049452
 30
0.0
 10
12.8774801023
 20
8.5771993438
 30
0.0
 10
12.8776413201
 20
8.5785199024
 30
0.0
  0
SPLINE
  5
2BB
100
AcDbEntity
  8
0
100
AcDbSpline
 62
9
  6
CONTINUOUS
 70
0
 71
3
 72
9
 73
5
 74
0
 42
0.0000001
 43
0.0000001
 44
0.0000000001
 40
0.0
 40
0.0
 40
0.0
 40
0.0
 40
0.5124463797
 40
1.0
 40
1.0
 40
1.0
 40
1.0
 10
12.8776413201
 20
8.5785199024
 30
0.0
 10
12.8777954705
 20
8.5797825608
 30
0.0
 10
12.8779799589
 20
8.5822625768
 30
0.0
 10
12.8779008464
 20
8.5847496022
 30
0.0
 10
12.8777892696
 20
8.5859546904
 30
0.0
  0
SPLINE
  5
2BC
100
AcDbEntity
  8
0
100
AcDbSpline
 62
9
  6
CONTINUOUS
 70
0
 71
3
 72
14
 73
10
 74
0
 42
0.0000001
 43
0.0000001
 44
0.0000000001
 40
0.0
 40
0.0
 40
0.0
 40
0.0
 40
0.3071175079
 40
0.4482271956
 40
0.5799557332
 40
0.7015796556
 40
0.812493851
 40
0.9121503112
 40
1.0
 40
1.0
 40
1.0
 40
1.0
 10
12.8777892696
 20
8.5859546904
 30
0.0
 10
12.8776727513
 20
8.5872131412
 30
0.0
 10
12.87748657
 20
8.5890482787
 30
0.0
 10
12.8772470527
 20
8.5914228249
 30
0.0
 10
12.8770931493
 20
8.5930388036
 30
0.0
 10
12.8769685935
 20
8.5945326779
 30
0.0
 10
12.8768791559
 20
8.5958968926
 30
0.0
 10
12.8768303785
 20
8.5971241147
 30
0.0
 10
12.8768261987
 20
8.5978959857
 30
0.0
 10
12.8768334658
 20
8.5982574269
 30
0.0
  0
SPLINE
  5
2BD
100
AcDbEntity
  8
0
100
AcDbSpline
 62
9
  6
CONTINUOUS
 70
0
 71
3
 72
29
 73
25
 74
0
 42
0.0000001
 43
0.0000001
 44
0.0000000001
 40
0.0
 40
0.0
 40
0.0
 40
0.0
 40
0.2067818499
 40
0.3050404829
 40
0.3989840254
 40
0.4879797092
 40
0.5714160688
 40
0.648729123
 40
0.719396705
 40
0.7829374562
 40
0.8389246399
 40
0.8869809011
 40
0.9267844754
 40
0.9435096285
 40
0.9580794402
 40
0.9704721322
 40
0.9806744995
 40
0.9849517197
 40
0.9886790931
 40
0.9918581887
 40
0.9944933827
 40
0.9965931656
 40
0.9981754936
 40
1.0
 40
1.0
 40
1.0
 40
1.0
 10
12.8412555426
 20
6.872366017
 30
0.0
 10
12.8431751155
 20
6.872339138
 30
0.0
 10
12.8460069271
 20
6.8723057545
 30
0.0
 10
12.8497109796
 20
6.8722765152
 30
0.0
 10
12.8523215881
 20
6.8722631852
 30
0.0
 10
12.8547946161
 20
6.8722581392
 30
0.0
 10
12.8571132505
 20
6.8722614093
 30
0.0
 10
12.8592616995
 20
6.8722729494
 30
0.0
 10
12.8612253724
 20
6.8722926437
 30
0.0
 10
12.8629909398
 20
6.8723203289
 30
0.0
 10
12.8645464064
 20
6.8723557079
 30
0.0
 10
12.8658812149
 20
6.8723984874
 30
0.0
 10
12.8668512615
 20
6.8724418837
 30
0.0
 10
12.867510156
 20
6.8724816189
 30
0.0
 10
12.8679146819
 20
6.8725112732
 30
0.0
 10
12.8682583292
 20
6.8725424569
 30
0.0
 10
12.8685062176
 20
6.8725709444
 30
0.0
 10
12.8686735248
 20
6.8725952346
 30
0.0
 10
12.868775856
 20
6.8726126759
 30
0.0
 10
12.8688627585
 20
6.8726305162
 30
0.0
 10
12.8689337478
 20
6.8726483608
 30
0.0
 10
12.8689902864
 20
6.8726671207
 30
0.0
 10
12.8690349352
 20
6.8726868291
 30
0.0
 10
12.8690655558
 20
6.8727108092
 30
0.0
 10
12.8690659068
 20
6.8727277443
 30
0.0
  0
SPLINE
  5
2BE
100
AcDbEntity
  8
0
100
AcDbSpline
 62
9
  6
CONTINUOUS
 70
0
 71
3
 72
13
 73
9
 74
0
 42
0.0000001
 43
0.0000001
 44
0.0000000001
 40
0.0
 40
0.0
 40
0.0
 40
0.0
 40
0.0911744684
 40
0.1929754822
 40
0.3049262449
 40
0.4265960425
 40
0.6971570934
 40
1.0
 40
1.0
 40
1.0
 40
1.0
 10
12.8407229596
 20
6.8383825279
 30
0.0
 10
12.8407296816
 20
6.8387168303
 30
0.0
 10
12.8407575634
 20
6.8394241389
 30
0.0
 10
12.8408320453
 20
6.8405400222
 30
0.0
 10
12.8409398463
 20
6.8417654745
 30
0.0
 10
12.8411306431
 20
6.8436046768
 30
0.0
 10
12.8414365079
 20
6.8461354489
 30
0.0
 10
12.8416979976
 20
6.8482219892
 30
0.0
 10
12.8418313962
 20
6.8493245841
 30
0.0
  0
SPLINE
  5
2BF
100
AcDbEntity
  8
0
100
AcDbSpline
 62
9
  6
CONTINUOUS
 70
0
 71
3
 72
9
 73
5
 74
0
 42
0.0000001
 43
0.0000001
 44
0.0000000001
 40
0.0
 40
0.0
 40
0.0
 40
0.0
 40
0.4872322102
 40
1.0
 40
1.0
 40
1.0
 40
1.0
 10
12.8418313962
 20
6.8493245841
 30
0.0
 10
12.841963334
 20
6.8504150548
 30
0.0
 10
12.8421049701
 20
6.8526699562
 30
0.0
 10
12.8420194721
 20
6.854926497
 30
0.0
 10
12.8419240548
 20
6.8560785436
 30
0.0
  0
SPLINE
  5
2C0
100
AcDbEntity
  8
0
100
AcDbSpline
 62
9
  6
CONTINUOUS
 70
0
 71
3
 72
11
 73
7
 74
0
 42
0.0000001
 43
0.0000001
 44
0.0000000001
 40
0.0
 40
0.0
 40
0.0
 40
0.0
 40
0.2368221241
 40
0.4845116845
 40
0.7400382841
 40
1.0
 40
1.0
 40
1.0
 40
1.0
 10
12.8419240548
 20
6.8560785436
 30
0.0
 10
12.8418178024
 20
6.8573615761
 30
0.0
 10
12.8416062065
 20
6.8599870415
 30
0.0
 10
12.8413572094
 20
6.864002766
 30
0.0
 10
12.841220849
 20
6.8681500386
 30
0.0
 10
12.8412262525
 20
6.8709531033
 30
0.0
 10
12.8412555391
 20
6.872366017
 30
0.0
  0
SPLINE
  5
2C1
100
AcDbEntity
  8
0
100
AcDbSpline
 62
9
  6
CONTINUOUS
 70
0
 71
3
 72
15
 73
11
 74
0
 42
0.0000001
 43
0.0000001
 44
0.0000000001
 40
0.0
 40
0.0
 40
0.0
 40
0.0
 40
0.1312311627
 40
0.260928715
 40
0.388720202
 40
0.5144076574
 40
0.6380211377
 40
0.7598196125
 40
0.8802657967
 40
1.0
 40
1.0
 40
1.0
 40
1.0
 10
12.8407229596
 20
6.8383825279
 30
0.0
 10
12.8426820334
 20
6.8388028601
 30
0.0
 10
12.8465214404
 20
6.8399314612
 30
0.0
 10
12.8519148052
 20
6.8424624455
 30
0.0
 10
12.8567784184
 20
6.8457589362
 30
0.0
 10
12.8609791346
 20
6.8497344135
 30
0.0
 10
12.864402608
 20
6.85428368
 30
0.0
 10
12.8669538274
 20
6.8592858823
 30
0.0
 10
12.8685612912
 20
6.8646034855
 30
0.0
 10
12.8689735495
 20
6.8682715077
 30
0.0
 10
12.8690114299
 20
6.8700992367
 30
0.0
  0
SPLINE
  5
2C2
100
AcDbEntity
  8
0
100
AcDbSpline
 62
9
  6
CONTINUOUS
 70
0
 71
3
 72
72
 73
68
 74
0
 42
0.0000001
 43
0.0000001
 44
0.0000000001
 40
0.0
 40
0.0
 40
0.0
 40
0.0
 40
0.0486356917
 40
0.0729208517
 40
0.0971607941
 40
0.1213401955
 40
0.1454452191
 40
0.1933765506
 40
0.2408409451
 40
0.2877236667
 40
0.3109123627
 40
0.3339141786
 40
0.3793032557
 40
0.4016644193
 40
0.4237861054
 40
0.4672606544
 40
0.5096269426
 40
0.5507895332
 40
0.5906566896
 40
0.6291405729
 40
0.6661565624
 40
0.7016227149
 40
0.7354603155
 40
0.7675930397
 40
0.7979484277
 40
0.8264553798
 40
0.8530434475
 40
0.8776435828
 40
0.900187552
 40
0.9206079013
 40
0.9300007003
 40
0.9388374832
 40
0.9471098877
 40
0.9548096641
 40
0.9619290273
 40
0.9684601988
 40
0.9743954347
 40
0.9797277957
 40
0.9844506772
 40
0.9865814842
 40
0.9885574644
 40
0.9903780097
 40
0.9920425573
 40
0.9935505422
 40
0.9949013981
 40
0.9960945567
 40
0.997129455
 40
0.9975874231
 40
0.9980057008
 40
0.9983842631
 40
0.998723085
 40
0.9990221415
 40
0.9992814075
 40
0.9995008581
 40
0.9995956447
 40
0.999680468
 40
0.9997553249
 40
0.9998202123
 40
0.9998751269
 40
0.9999200658
 40
0.9999550256
 40
0.9999687625
 40
0.9999800034
 40
0.999988748
 40
0.9999949959
 40
0.9999987467
 40
1.0
 40
1.0
 40
1.0
 40
1.0
 10
12.7117062294
 20
4.7084410273
 30
0.0
 10
12.7260804659
 20
4.7084408249
 30
0.0
 10
12.7476323759
 20
4.7083091452
 30
0.0
 10
12.7763453786
 20
4.7079045443
 30
0.0
 10
12.7978293512
 20
4.7074965518
 30
0.0
 10
12.8192578686
 20
4.7069858768
 30
0.0
 10
12.8476826595
 20
4.7061671894
 30
0.0
 10
12.8829783491
 20
4.7048835932
 30
0.0
 10
12.9249830219
 20
4.7029079076
 30
0.0
 10
12.9596622565
 20
4.7008815969
 30
0.0
 10
12.9871095631
 20
4.6990580552
 30
0.0
 10
13.0141069586
 20
4.6971273113
 30
0.0
 10
13.0408453579
 20
4.695006794
 30
0.0
 10
13.0673040607
 20
4.6926697393
 30
0.0
 10
13.0931844478
 20
4.6902220291
 30
0.0
 10
13.1249238555
 20
4.686936855
 30
0.0
 10
13.1622164264
 20
4.6826646011
 30
0.0
 10
13.1984002594
 20
4.6781014347
 30
0.0
 10
13.2333903398
 20
4.673263003
 30
0.0
 10
13.2671059087
 20
4.6681736266
 30
0.0
 10
13.2994705603
 20
4.6628670578
 30
0.0
 10
13.3304124375
 20
4.6573860721
 30
0.0
 10
13.359863332
 20
4.6517768926
 30
0.0
 10
13.3877588115
 20
4.6460872307
 30
0.0
 10
13.4140358204
 20
4.6403579137
 30
0.0
 10
13.4386352691
 20
4.6346384805
 30
0.0
 10
13.4615030266
 20
4.6289919945
 30
0.0
 10
13.4825869888
 20
4.6234815951
 30
0.0
 10
13.5018372482
 20
4.6181715677
 30
0.0
 10
13.5166990867
 20
4.6138601386
 30
0.0
 10
13.5276377885
 20
4.6105692208
 30
0.0
 10
13.5351242201
 20
4.6082660976
 30
0.0
 10
13.5421193007
 20
4.6060680042
 30
0.0
 10
13.5486181913
 20
4.6039844356
 30
0.0
 10
13.5546162501
 20
4.6020246874
 30
0.0
 10
13.5601090416
 20
4.600197961
 30
0.0
 10
13.5650924698
 20
4.5985134519
 30
0.0
 10
13.5695625988
 20
4.5969795345
 30
0.0
 10
13.5729642165
 20
4.5957961395
 30
0.0
 10
13.5754264373
 20
4.5949315639
 30
0.0
 10
13.5770783391
 20
4.5943483916
 30
0.0
 10
13.5785994232
 20
4.5938086221
 30
0.0
 10
13.5799893889
 20
4.5933129539
 30
0.0
 10
13.581247948
 20
4.5928620798
 30
0.0
 10
13.5823748138
 20
4.592456696
 30
0.0
 10
13.5833696956
 20
4.5920974826
 30
0.0
 10
13.5841161298
 20
4.5918272279
 30
0.0
 10
13.5846471267
 20
4.591634658
 30
0.0
 10
13.5849957198
 20
4.5915080953
 30
0.0
 10
13.5853111724
 20
4.5913934373
 30
0.0
 10
13.5855934719
 20
4.5912907142
 30
0.0
 10
13.5858426061
 20
4.5911999571
 30
0.0
 10
13.5860585623
 20
4.5911211968
 30
0.0
 10
13.5862177795
 20
4.5910630625
 30
0.0
 10
13.5863285554
 20
4.5910225777
 30
0.0
 10
13.586399188
 20
4.590996748
 30
0.0
 10
13.5864615174
 20
4.590973941
 30
0.0
 10
13.5865155399
 20
4.590954159
 30
0.0
 10
13.5865612602
 20
4.5909374107
 30
0.0
 10
13.586598659
 20
4.5909236864
 30
0.0
 10
13.5866246606
 20
4.5909141689
 30
0.0
 10
13.5866412552
 20
4.5909080353
 30
0.0
 10
13.5866506803
 20
4.5909046507
 30
0.0
 10
13.5866577749
 20
4.5909018343
 30
0.0
 10
13.5866633844
 20
4.5909002345
 30
0.0
 10
13.5866657818
 20
4.5908985293
 30
0.0
 10
13.5866679169
 20
4.5908985877
 30
0.0
 10
13.5866679548
 20
4.5908982192
 30
0.0
  0
SPLINE
  5
2C3
100
AcDbEntity
  8
0
100
AcDbSpline
 62
9
  6
CONTINUOUS
 70
0
 71
3
 72
15
 73
11
 74
0
 42
0.0000001
 43
0.0000001
 44
0.0000000001
 40
0.0
 40
0.0
 40
0.0
 40
0.0
 40
0.1276136808
 40
0.2544337961
 40
0.3803898198
 40
0.5055167248
 40
0.6298863834
 40
0.7536269999
 40
0.8769356368
 40
1.0
 40
1.0
 40
1.0
 40
1.0
 10
12.8070844831
 20
6.7847739259
 30
0.0
 10
12.8063039371
 20
6.7843688948
 30
0.0
 10
12.8047982528
 20
6.783459119
 30
0.0
 10
12.8027464771
 20
6.7818160681
 30
0.0
 10
12.8009430601
 20
6.7799265088
 30
0.0
 10
12.7994208006
 20
6.7778246422
 30
0.0
 10
12.7982072555
 20
6.7755477632
 30
0.0
 10
12.7973241721
 20
6.7731365747
 30
0.0
 10
12.7967879407
 20
6.7706349908
 30
0.0
 10
12.7966679548
 20
6.768934842
 30
0.0
 10
12.7966679548
 20
6.7680868149
 30
0.0
  0
SPLINE
  5
2C4
100
AcDbEntity
  8
0
100
AcDbSpline
 62
9
  6
CONTINUOUS
 70
0
 71
3
 72
15
 73
11
 74
0
 42
0.0000001
 43
0.0000001
 44
0.0000000001
 40
0.0
 40
0.0
 40
0.0
 40
0.0
 40
0.0911994941
 40
0.1948551073
 40
0.3102745245
 40
0.4360508213
 40
0.5702763402
 40
0.7106927308
 40
0.8548084017
 40
1.0
 40
1.0
 40
1.0
 40
1.0
 10
12.7882146776
 20
6.7959021388
 30
0.0
 10
12.7877197842
 20
6.7955187942
 30
0.0
 10
12.7867416018
 20
6.7945964485
 30
0.0
 10
12.7854045377
 20
6.7929329431
 30
0.0
 10
12.7841287532
 20
6.7909343288
 30
0.0
 10
12.7829421776
 20
6.7886435896
 30
0.0
 10
12.7818704679
 20
6.7861099711
 30
0.0
 10
12.7809374505
 20
6.7833889369
 30
0.0
 10
12.7801638855
 20
6.7805405643
 30
0.0
 10
12.7797649095
 20
6.778593643
 30
0.0
 10
12.7795959885
 20
6.7776114617
 30
0.0
  0
LINE
  5
2C5
100
AcDbEntity
  8
0
100
AcDbLine
 62
9
  6
CONTINUOUS
 10
12.582612899
 20
6.8383825393
 11
12.5834210146
 21
6.7984664782
  0
SPLINE
  5
2C6
100
AcDbEntity
  8
0
100
AcDbSpline
 62
9
  6
CONTINUOUS
 70
0
 71
3
 72
15
 73
11
 74
0
 42
0.0000001
 43
0.0000001
 44
0.0000000001
 40
0.0
 40
0.0
 40
0.0
 40
0.0
 40
0.1312311637
 40
0.2609287151
 40
0.3887202008
 40
0.5144076558
 40
0.6380211363
 40
0.7598196111
 40
0.8802657951
 40
1.0
 40
1.0
 40
1.0
 40
1.0
 10
12.582612899
 20
6.8383825393
 30
0.0
 10
12.5806538281
 20
6.8388028736
 30
0.0
 10
12.5768144269
 20
6.8399314783
 30
0.0
 10
12.5714210712
 20
6.8424624657
 30
0.0
 10
12.5665574668
 20
6.8457589572
 30
0.0
 10
12.5623567588
 20
6.8497344333
 30
0.0
 10
12.5589332923
 20
6.8542836966
 30
0.0
 10
12.5563820781
 20
6.8592858943
 30
0.0
 10
12.5547746176
 20
6.8646034918
 30
0.0
 10
12.5543623601
 20
6.8682715098
 30
0.0
 10
12.5543244798
 20
6.8700992367
 30
0.0
  0
SPLINE
  5
2C7
100
AcDbEntity
  8
0
100
AcDbSpline
 62
9
  6
CONTINUOUS
 70
0
 71
3
 72
13
 73
9
 74
0
 42
0.0000001
 43
0.0000001
 44
0.0000000001
 40
0.0
 40
0.0
 40
0.0
 40
0.0
 40
0.3028517707
 40
0.5734351565
 40
0.6951101286
 40
0.8070534675
 40
0.9088347962
 40
1.0
 40
1.0
 40
1.0
 40
1.0
 10
12.5815044854
 20
6.8493237386
 30
0.0
 10
12.5816378666
 20
6.8482211945
 30
0.0
 10
12.5818996609
 20
6.8461347385
 30
0.0
 10
12.5822054142
 20
6.8436040148
 30
0.0
 10
12.5823962286
 20
6.8417648831
 30
0.0
 10
12.5825040304
 20
6.8405396055
 30
0.0
 10
12.582578399
 20
6.8394239333
 30
0.0
 10
12.5826061945
 20
6.8387167822
 30
0.0
 10
12.5826128999
 20
6.8383825391
 30
0.0
  0
SPLINE
  5
2C8
100
AcDbEntity
  8
0
100
AcDbSpline
 62
9
  6
CONTINUOUS
 70
0
 71
3
 72
29
 73
25
 74
0
 42
0.0000001
 43
0.0000001
 44
0.0000000001
 40
0.0
 40
0.0
 40
0.0
 40
0.0
 40
0.2067818539
 40
0.3050404888
 40
0.3989840331
 40
0.4879797186
 40
0.5714160797
 40
0.6487291353
 40
0.7193967185
 40
0.7829374707
 40
0.8389246552
 40
0.8869809168
 40
0.926784491
 40
0.9435096439
 40
0.958079455
 40
0.9704721463
 40
0.9806745127
 40
0.9849517321
 40
0.9886791048
 40
0.9918581995
 40
0.9944933923
 40
0.9965931739
 40
0.9981755
 40
1.0
 40
1.0
 40
1.0
 40
1.0
 10
12.582080367
 20
6.8723660184
 30
0.0
 10
12.5801607941
 20
6.8723391397
 30
0.0
 10
12.5773289826
 20
6.8723057565
 30
0.0
 10
12.5736249301
 20
6.8722765176
 30
0.0
 10
12.5710143215
 20
6.8722631878
 30
0.0
 10
12.5685412935
 20
6.8722581419
 30
0.0
 10
12.5662226591
 20
6.8722614121
 30
0.0
 10
12.5640742101
 20
6.8722729522
 30
0.0
 10
12.5621105372
 20
6.8722926464
 30
0.0
 10
12.5603449698
 20
6.8723203315
 30
0.0
 10
12.5587895032
 20
6.8723557103
 30
0.0
 10
12.5574546947
 20
6.8723984896
 30
0.0
 10
12.5564846481
 20
6.8724418856
 30
0.0
 10
12.5558257536
 20
6.8724816205
 30
0.0
 10
12.5554212277
 20
6.8725112746
 30
0.0
 10
12.5550775804
 20
6.8725424581
 30
0.0
 10
12.5548296921
 20
6.8725709454
 30
0.0
 10
12.5546623848
 20
6.8725952354
 30
0.0
 10
12.5545600536
 20
6.8726126766
 30
0.0
 10
12.5544731511
 20
6.8726305168
 30
0.0
 10
12.5544021618
 20
6.8726483613
 30
0.0
 10
12.5543456233
 20
6.872667121
 30
0.0
 10
12.5543009745
 20
6.8726868293
 30
0.0
 10
12.5542703539
 20
6.8727108093
 30
0.0
 10
12.5542700029
 20
6.8727277443
 30
0.0
  0
SPLINE
  5
2C9
100
AcDbEntity
  8
0
100
AcDbSpline
 62
9
  6
CONTINUOUS
 70
0
 71
3
 72
11
 73
7
 74
0
 42
0.0000001
 43
0.0000001
 44
0.0000000001
 40
0.0
 40
0.0
 40
0.0
 40
0.0
 40
0.2599602243
 40
0.5154857908
 40
0.7631782605
 40
1.0
 40
1.0
 40
1.0
 40
1.0
 10
12.5820803693
 20
6.8723660184
 30
0.0
 10
12.5821096745
 20
6.8709529996
 30
0.0
 10
12.5821150474
 20
6.8681497257
 30
0.0
 10
12.5819789414
 20
6.8640021055
 30
0.0
 10
12.5817295183
 20
6.8599860746
 30
0.0
 10
12.5815181482
 20
6.8573603671
 30
0.0
 10
12.5814119139
 20
6.8560772313
 30
0.0
  0
SPLINE
  5
2CA
100
AcDbEntity
  8
0
100
AcDbSpline
 62
9
  6
CONTINUOUS
 70
0
 71
3
 72
9
 73
5
 74
0
 42
0.0000001
 43
0.0000001
 44
0.0000000001
 40
0.0
 40
0.0
 40
0.0
 40
0.0
 40
0.5127712688
 40
1.0
 40
1.0
 40
1.0
 40
1.0
 10
12.5814119139
 20
6.8560772313
 30
0.0
 10
12.5813165354
 20
6.8549252537
 30
0.0
 10
12.5812309099
 20
6.8526688754
 30
0.0
 10
12.5813725734
 20
6.8504141283
 30
0.0
 10
12.5815044854
 20
6.8493237386
 30
0.0
  0
SPLINE
  5
2CB
100
AcDbEntity
  8
0
100
AcDbSpline
 62
9
  6
CONTINUOUS
 70
0
 71
3
 72
29
 73
25
 74
0
 42
0.0000001
 43
0.0000001
 44
0.0000000001
 40
0.0
 40
0.0
 40
0.0
 40
0.0
 40
0.2067818499
 40
0.3050404828
 40
0.3989840254
 40
0.4879797092
 40
0.5714160687
 40
0.6487291229
 40
0.7193967049
 40
0.7829374562
 40
0.8389246399
 40
0.8869809011
 40
0.9267844754
 40
0.9435096285
 40
0.9580794402
 40
0.9704721322
 40
0.9806744995
 40
0.9849517197
 40
0.9886790931
 40
0.9918581887
 40
0.9944933827
 40
0.9965931656
 40
0.9981754936
 40
1.0
 40
1.0
 40
1.0
 40
1.0
 10
12.5470645438
 20
8.5618794877
 30
0.0
 10
12.5451449709
 20
8.5618526087
 30
0.0
 10
12.5423131594
 20
8.5618192252
 30
0.0
 10
12.5386091069
 20
8.5617899859
 30
0.0
 10
12.5359984983
 20
8.5617766559
 30
0.0
 10
12.5335254704
 20
8.5617716099
 30
0.0
 10
12.5312068359
 20
8.56177488
 30
0.0
 10
12.5290583869
 20
8.5617864201
 30
0.0
 10
12.5270947141
 20
8.5618061144
 30
0.0
 10
12.5253291467
 20
8.5618337996
 30
0.0
 10
12.52377368
 20
8.5618691786
 30
0.0
 10
12.5224388715
 20
8.5619119581
 30
0.0
 10
12.5214688249
 20
8.5619553544
 30
0.0
 10
12.5208099304
 20
8.5619950896
 30
0.0
 10
12.5204054045
 20
8.5620247439
 30
0.0
 10
12.5200617572
 20
8.5620559276
 30
0.0
 10
12.5198138689
 20
8.5620844151
 30
0.0
 10
12.5196465616
 20
8.5621087053
 30
0.0
 10
12.5195442304
 20
8.5621261466
 30
0.0
 10
12.5194573279
 20
8.5621439869
 30
0.0
 10
12.5193863386
 20
8.5621618315
 30
0.0
 10
12.5193298
 20
8.5621805914
 30
0.0
 10
12.5192851512
 20
8.5622002998
 30
0.0
 10
12.5192545307
 20
8.5622242799
 30
0.0
 10
12.5192541797
 20
8.562241215
 30
0.0
  0
SPLINE
  5
2CC
100
AcDbEntity
  8
0
100
AcDbSpline
 62
9
  6
CONTINUOUS
 70
0
 71
3
 72
14
 73
10
 74
0
 42
0.0000001
 43
0.0000001
 44
0.0000000001
 40
0.0
 40
0.0
 40
0.0
 40
0.0
 40
0.0878621829
 40
0.1875355353
 40
0.2984504255
 40
0.4200672746
 40
0.5517918456
 40
0.6928965699
 40
1.0
 40
1.0
 40
1.0
 40
1.0
 10
12.5465024852
 20
8.598257438
 30
0.0
 10
12.546509764
 20
8.5978959377
 30
0.0
 10
12.5465054897
 20
8.5971239276
 30
0.0
 10
12.5464566193
 20
8.595896561
 30
0.0
 10
12.5463673362
 20
8.5945322638
 30
0.0
 10
12.5462428774
 20
8.5930383899
 30
0.0
 10
12.5460888142
 20
8.5914224568
 30
0.0
 10
12.5458492177
 20
8.5890479612
 30
0.0
 10
12.5456634242
 20
8.5872128249
 30
0.0
 10
12.5455467203
 20
8.5859544218
 30
0.0
  0
SPLINE
  5
2CD
100
AcDbEntity
  8
0
100
AcDbSpline
 62
9
  6
CONTINUOUS
 70
0
 71
3
 72
9
 73
5
 74
0
 42
0.0000001
 43
0.0000001
 44
0.0000000001
 40
0.0
 40
0.0
 40
0.0
 40
0.0
 40
0.4875766038
 40
1.0
 40
1.0
 40
1.0
 40
1.0
 10
12.5455467203
 20
8.5859544218
 30
0.0
 10
12.5454349272
 20
8.5847491913
 30
0.0
 10
12.5453560202
 20
8.5822619354
 30
0.0
 10
12.5455402878
 20
8.5797816888
 30
0.0
 10
12.545694596
 20
8.5785189965
 30
0.0
  0
SPLINE
  5
2CE
100
AcDbEntity
  8
0
100
AcDbSpline
 62
9
  6
CONTINUOUS
 70
0
 71
3
 72
11
 73
7
 74
0
 42
0.0000001
 43
0.0000001
 44
0.0000000001
 40
0.0
 40
0.0
 40
0.0
 40
0.0
 40
0.2389317269
 40
0.4874052462
 40
0.742262127
 40
1.0
 40
1.0
 40
1.0
 40
1.0
 10
12.545694596
 20
8.5785189965
 30
0.0
 10
12.545855951
 20
8.5771985096
 30
0.0
 10
12.5461810608
 20
8.5745042745
 30
0.0
 10
12.546605756
 20
8.5703930518
 30
0.0
 10
12.5469210549
 20
8.5661666882
 30
0.0
 10
12.5470348162
 20
8.5633141959
 30
0.0
 10
12.5470645483
 20
8.5618794877
 30
0.0
  0
SPLINE
  5
2CF
100
AcDbEntity
  8
0
100
AcDbSpline
 62
9
  6
CONTINUOUS
 70
0
 71
3
 72
15
 73
11
 74
0
 42
0.0000001
 43
0.0000001
 44
0.0000000001
 40
0.0
 40
0.0
 40
0.0
 40
0.0
 40
0.1307707817
 40
0.2601352716
 40
0.3877381535
 40
0.5133872371
 40
0.6371058092
 40
0.7591328032
 40
0.8798982327
 40
1.0
 40
1.0
 40
1.0
 40
1.0
 10
12.5465024852
 20
8.598257438
 30
0.0
 10
12.5445413744
 20
8.5977666117
 30
0.0
 10
12.5407075057
 20
8.5964924293
 30
0.0
 10
12.535357913
 20
8.5937370561
 30
0.0
 10
12.5305720875
 20
8.5902173249
 30
0.0
 10
12.5264832149
 20
8.5860274
 30
0.0
 10
12.5232043276
 20
8.5812801393
 30
0.0
 10
12.5208278665
 20
8.5761038735
 30
0.0
 10
12.5194213342
 20
8.5706431163
 30
0.0
 10
12.5191575322
 20
8.5669044548
 30
0.0
 10
12.5191960041
 20
8.565048187
 30
0.0
  0
SPLINE
  5
2D0
100
AcDbEntity
  8
0
100
AcDbSpline
 62
9
  6
CONTINUOUS
 70
0
 71
3
 72
15
 73
11
 74
0
 42
0.0000001
 43
0.0000001
 44
0.0000000001
 40
0.0
 40
0.0
 40
0.0
 40
0.0
 40
0.0911952284
 40
0.1948492799
 40
0.3102686934
 40
0.4360458259
 40
0.5702725765
 40
0.7106903207
 40
0.8548072871
 40
1.0
 40
1.0
 40
1.0
 40
1.0
 10
12.6351211064
 20
6.7959020181
 30
0.0
 10
12.6356159508
 20
6.7955186569
 30
0.0
 10
12.6365940537
 20
6.7945962874
 30
0.0
 10
12.6379310566
 20
6.7929327839
 30
0.0
 10
12.6392068354
 20
6.7909341703
 30
0.0
 10
12.6403934439
 20
6.7886434296
 30
0.0
 10
12.6414652109
 20
6.786109807
 30
0.0
 10
12.6423983002
 20
6.7833887662
 30
0.0
 10
12.6431719454
 20
6.7805403852
 30
0.0
 10
12.6435709757
 20
6.7785934559
 30
0.0
 10
12.6437399246
 20
6.7776112705
 30
0.0
  0
SPLINE
  5
2D1
100
AcDbEntity
  8
0
100
AcDbSpline
 62
9
  6
CONTINUOUS
 70
0
 71
3
 72
15
 73
11
 74
0
 42
0.0000001
 43
0.0000001
 44
0.0000000001
 40
0.0
 40
0.0
 40
0.0
 40
0.0
 40
0.1276164293
 40
0.2544387503
 40
0.3803962038
 40
0.5055236281
 40
0.6298928516
 40
0.753632107
 40
0.876938549
 40
1.0
 40
1.0
 40
1.0
 40
1.0
 10
12.6162514266
 20
6.784773894
 30
0.0
 10
12.6170319717
 20
6.784368822
 30
0.0
 10
12.6185376522
 20
6.7834589799
 30
0.0
 10
12.6205894266
 20
6.7818158632
 30
0.0
 10
12.6223928435
 20
6.7799262693
 30
0.0
 10
12.6239151038
 20
6.7778243944
 30
0.0
 10
12.6251286502
 20
6.7755475295
 30
0.0
 10
12.6260117351
 20
6.7731363739
 30
0.0
 10
12.6265479679
 20
6.7706348385
 30
0.0
 10
12.6266679548
 20
6.7689347266
 30
0.0
 10
12.6266679548
 20
6.7680867206
 30
0.0
  0
SPLINE
  5
2D2
100
AcDbEntity
  8
0
100
AcDbSpline
 62
9
  6
CONTINUOUS
 70
0
 71
3
 72
18
 73
14
 74
0
 42
0.0000001
 43
0.0000001
 44
0.0000000001
 40
0.0
 40
0.0
 40
0.0
 40
0.0
 40
0.1733561338
 40
0.3416656686
 40
0.5000643296
 40
0.6439580783
 40
0.7691820038
 40
0.8236361085
 40
0.8721141975
 40
0.9142659103
 40
0.9497875362
 40
0.9784331988
 40
1.0
 40
1.0
 40
1.0
 40
1.0
 10
12.7885545899
 20
6.847838557
 30
0.0
 10
12.790816249
 20
6.8477917154
 30
0.0
 10
12.7952739378
 20
6.8477092191
 30
0.0
 10
12.8017987204
 20
6.847618078
 30
0.0
 10
12.8079394394
 20
6.8475626308
 30
0.0
 10
12.8135181503
 20
6.8475443485
 30
0.0
 10
12.8177405052
 20
6.8475604842
 30
0.0
 10
12.820717553
 20
6.8475951211
 30
0.0
 10
12.8226104839
 20
6.8476290191
 30
0.0
 10
12.8242561111
 20
6.8476716883
 30
0.0
 10
12.8256426045
 20
6.8477225085
 30
0.0
 10
12.8267598425
 20
6.8477810396
 30
0.0
 10
12.8274133625
 20
6.8478308296
 30
0.0
 10
12.8276932793
 20
6.847859952
 30
0.0
  0
SPLINE
  5
2D3
100
AcDbEntity
  8
0
100
AcDbSpline
 62
9
  6
CONTINUOUS
 70
0
 71
3
 72
11
 73
7
 74
0
 42
0.0000001
 43
0.0000001
 44
0.0000000001
 40
0.0
 40
0.0
 40
0.0
 40
0.0
 40
0.2532833497
 40
0.5055329355
 40
0.7550464275
 40
1.0
 40
1.0
 40
1.0
 40
1.0
 10
12.8621825645
 20
8.5618227508
 30
0.0
 10
12.8622262636
 20
8.5639285906
 30
0.0
 10
12.8623669511
 20
8.5681307396
 30
0.0
 10
12.8627255642
 20
8.5743998997
 30
0.0
 10
12.8632013619
 20
8.5805915911
 30
0.0
 10
12.8635678028
 20
8.5846872306
 30
0.0
 10
12.8637512744
 20
8.5867159744
 30
0.0
  0
SPLINE
  5
2D4
100
AcDbEntity
  8
0
100
AcDbSpline
 62
9
  6
CONTINUOUS
 70
0
 71
3
 72
11
 73
7
 74
0
 42
0.0000001
 43
0.0000001
 44
0.0000000001
 40
0.0
 40
0.0
 40
0.0
 40
0.0
 40
0.2434589526
 40
0.4924653222
 40
0.745201965
 40
1.0
 40
1.0
 40
1.0
 40
1.0
 10
12.8276932793
 20
6.847859952
 30
0.0
 10
12.8275942381
 20
6.8498425507
 30
0.0
 10
12.8273999965
 20
6.8538532654
 30
0.0
 10
12.827185433
 20
6.8599258572
 30
0.0
 10
12.8270898113
 20
6.8660941379
 30
0.0
 10
12.8271237412
 20
6.8702327404
 30
0.0
 10
12.8271667525
 20
6.8723098207
 30
0.0
  0
SPLINE
  5
2D5
100
AcDbEntity
  8
0
100
AcDbSpline
 62
9
  6
CONTINUOUS
 70
0
 71
3
 72
18
 73
14
 74
0
 42
0.0000001
 43
0.0000001
 44
0.0000000001
 40
0.0
 40
0.0
 40
0.0
 40
0.0
 40
0.1735703983
 40
0.3420703315
 40
0.5006129224
 40
0.6445837739
 40
0.7698011412
 40
0.8242165026
 40
0.8726306534
 40
0.914692496
 40
0.9500979525
 40
0.9786011936
 40
1.0
 40
1.0
 40
1.0
 40
1.0
 10
12.8245930142
 20
8.5866925287
 30
0.0
 10
12.8268586067
 20
8.5866456056
 30
0.0
 10
12.8313238186
 20
8.5865629869
 30
0.0
 10
12.8378590432
 20
8.5864717784
 30
0.0
 10
12.8440082212
 20
8.5864163924
 30
0.0
 10
12.8495925369
 20
8.5863983026
 30
0.0
 10
12.8538174287
 20
8.5864147094
 30
0.0
 10
12.8567945432
 20
8.5864496511
 30
0.0
 10
12.8586859075
 20
8.5864837862
 30
0.0
 10
12.8603288297
 20
8.5865267147
 30
0.0
 10
12.8617114602
 20
8.5865778024
 30
0.0
 10
12.8628236683
 20
8.5866366119
 30
0.0
 10
12.8634734418
 20
8.586686651
 30
0.0
 10
12.8637512744
 20
8.5867159744
 30
0.0
  0
SPLINE
  5
2D6
100
AcDbEntity
  8
0
100
AcDbSpline
 62
9
  6
CONTINUOUS
 70
0
 71
3
 72
9
 73
5
 74
0
 42
0.0000001
 43
0.0000001
 44
0.0000000001
 40
0.0
 40
0.0
 40
0.0
 40
0.0
 40
0.2592993147
 40
1.0
 40
1.0
 40
1.0
 40
1.0
 10
12.8637512743
 20
8.5867159735
 30
0.0
 10
12.863830975
 20
8.5873536984
 30
0.0
 10
12.8640775808
 20
8.5898198902
 30
0.0
 10
12.8640738146
 20
8.5923144848
 30
0.0
 10
12.8638988432
 20
8.5941419904
 30
0.0
  0
LINE
  5
2D7
100
AcDbEntity
  8
0
100
AcDbLine
 62
9
  6
CONTINUOUS
 10
12.8629923074
 20
8.6103993449
 11
12.8639896293
 21
8.6594356061
  0
SPLINE
  5
2D8
100
AcDbEntity
  8
0
100
AcDbSpline
 62
9
  6
CONTINUOUS
 70
0
 71
3
 72
14
 73
10
 74
0
 42
0.0000001
 43
0.0000001
 44
0.0000000001
 40
0.0
 40
0.0
 40
0.0
 40
0.0
 40
0.3000130273
 40
0.4381214681
 40
0.5679241774
 40
0.6892041095
 40
0.8017696242
 40
0.9054384367
 40
1.0
 40
1.0
 40
1.0
 40
1.0
 10
12.8638988472
 20
8.5941419719
 30
0.0
 10
12.8637805094
 20
8.5957665635
 30
0.0
 10
12.8635926046
 20
8.5981378945
 30
0.0
 10
12.8633586444
 20
8.6012125053
 30
0.0
 10
12.8632115278
 20
8.6033204856
 30
0.0
 10
12.8630958382
 20
8.605291544
 30
0.0
 10
12.8630165183
 20
8.6071224359
 30
0.0
 10
12.8629785032
 20
8.608809581
 30
0.0
 10
12.8629819219
 20
8.6098860358
 30
0.0
 10
12.8629923074
 20
8.6103993449
 30
0.0
  0
SPLINE
  5
2D9
100
AcDbEntity
  8
0
100
AcDbSpline
 62
9
  6
CONTINUOUS
 70
0
 71
3
 72
21
 73
17
 74
0
 42
0.0000001
 43
0.0000001
 44
0.0000000001
 40
0.0
 40
0.0
 40
0.0
 40
0.0
 40
0.0655529817
 40
0.1310396929
 40
0.1963308643
 40
0.2613436291
 40
0.3900733077
 40
0.5167299385
 40
0.5792107469
 40
0.6410569775
 40
0.7022657853
 40
0.7628549162
 40
0.8228592312
 40
0.8823314045
 40
0.9413575642
 40
1.0
 40
1.0
 40
1.0
 40
1.0
 10
12.8245930142
 20
8.623233839
 30
0.0
 10
12.8257461657
 20
8.6232287583
 30
0.0
 10
12.828051905
 20
8.6231303608
 30
0.0
 10
12.8314841915
 20
8.6227183195
 30
0.0
 10
12.8348655233
 20
8.6220442408
 30
0.0
 10
12.8392554772
 20
8.6208087085
 30
0.0
 10
12.8444884407
 20
8.6186485261
 30
0.0
 10
12.849270179
 20
8.6156979515
 30
0.0
 10
12.85271002
 20
8.6129229329
 30
0.0
 10
12.855069364
 20
8.6106616459
 30
0.0
 10
12.8572008325
 20
8.6082285373
 30
0.0
 10
12.859088621
 20
8.6056416407
 30
0.0
 10
12.8607183857
 20
8.6029203332
 30
0.0
 10
12.862077924
 20
8.6000846771
 30
0.0
 10
12.86315652
 20
8.5971564335
 30
0.0
 10
12.8636846706
 20
8.5951511102
 30
0.0
 10
12.8638988432
 20
8.5941419904
 30
0.0
  0
SPLINE
  5
2DA
100
AcDbEntity
  8
0
100
AcDbSpline
 62
9
  6
CONTINUOUS
 70
0
 71
3
 72
9
 73
5
 74
0
 42
0.0000001
 43
0.0000001
 44
0.0000000001
 40
0.0
 40
0.0
 40
0.0
 40
0.0
 40
0.2405752509
 40
1.0
 40
1.0
 40
1.0
 40
1.0
 10
12.8276020887
 20
6.8411145401
 30
0.0
 10
12.8276685821
 20
6.8416519815
 30
0.0
 10
12.8278795179
 20
6.8438939078
 30
0.0
 10
12.8278392925
 20
6.84615672
 30
0.0
 10
12.8276932794
 20
6.847859951
 30
0.0
  0
SPLINE
  5
2DB
100
AcDbEntity
  8
0
100
AcDbSpline
 62
9
  6
CONTINUOUS
 70
0
 71
3
 72
21
 73
17
 74
0
 42
0.0000001
 43
0.0000001
 44
0.0000000001
 40
0.0
 40
0.0
 40
0.0
 40
0.0
 40
0.0659987055
 40
0.1318785603
 40
0.1975069944
 40
0.2627959317
 40
0.3918907993
 40
0.5186484464
 40
0.5810792595
 40
0.6428126859
 40
0.7038489874
 40
0.7642099296
 40
0.8239354522
 40
0.8830842967
 40
0.94174872
 40
1.0
 40
1.0
 40
1.0
 40
1.0
 10
12.78855459
 20
6.8139046211
 30
0.0
 10
12.7896806029
 20
6.8138991324
 30
0.0
 10
12.7919319082
 20
6.8139708439
 30
0.0
 10
12.795285655
 20
6.8143275323
 30
0.0
 10
12.7985919079
 20
6.8149314424
 30
0.0
 10
12.8028871693
 20
6.816054223
 30
0.0
 10
12.8080185324
 20
6.8180395544
 30
0.0
 10
12.812736054
 20
6.8207793121
 30
0.0
 10
12.8161493011
 20
6.8233702954
 30
0.0
 10
12.8185007312
 20
6.8254867977
 30
0.0
 10
12.8206385487
 20
6.8277706795
 30
0.0
 10
12.8225476152
 20
6.8302057987
 30
0.0
 10
12.8242140878
 20
6.8327747622
 30
0.0
 10
12.8256260583
 20
6.8354595097
 30
0.0
 10
12.8267729108
 20
6.838240382
 30
0.0
 10
12.8273573062
 20
6.8401513116
 30
0.0
 10
12.8276020887
 20
6.8411145401
 30
0.0
  0
LINE
  5
2DC
100
AcDbEntity
  8
0
100
AcDbLine
 62
9
  6
CONTINUOUS
 10
12.8255566424
 20
6.7851609751
 11
12.8263922663
 21
6.8264301924
  0
LINE
  5
2DD
100
AcDbEntity
  8
0
100
AcDbLine
 62
9
  6
CONTINUOUS
 10
12.8069413926
 20
6.7624902657
 11
12.8070844832
 21
6.7847739254
  0
SPLINE
  5
2DE
100
AcDbEntity
  8
0
100
AcDbSpline
 62
9
  6
CONTINUOUS
 70
0
 71
3
 72
23
 73
19
 74
0
 42
0.0000001
 43
0.0000001
 44
0.0000000001
 40
0.0
 40
0.0
 40
0.0
 40
0.0
 40
0.0403431277
 40
0.0794349776
 40
0.1181155755
 40
0.1573880232
 40
0.1983767576
 40
0.242214575
 40
0.2899490817
 40
0.3424651159
 40
0.400546368
 40
0.4648416591
 40
0.5358423695
 40
0.6139231682
 40
0.6993567707
 40
0.7922810906
 40
0.8925976574
 40
1.0
 40
1.0
 40
1.0
 40
1.0
 10
12.8070844832
 20
6.7847739254
 30
0.0
 10
12.807086479
 20
6.7850885232
 30
0.0
 10
12.807050649
 20
6.7857092501
 30
0.0
 10
12.8068641788
 20
6.7866146927
 30
0.0
 10
12.8065431095
 20
6.787473182
 30
0.0
 10
12.8060821011
 20
6.788282565
 30
0.0
 10
12.8054750622
 20
6.7890410302
 30
0.0
 10
12.804717882
 20
6.7897492539
 30
0.0
 10
12.8038086774
 20
6.7904132809
 30
0.0
 10
12.8027429578
 20
6.7910399266
 30
0.0
 10
12.8015157142
 20
6.7916373469
 30
0.0
 10
12.8001214043
 20
6.7922135537
 30
0.0
 10
12.7985565709
 20
6.7927803776
 30
0.0
 10
12.7968183556
 20
6.7933494187
 30
0.0
 10
12.7949055933
 20
6.7939331053
 30
0.0
 10
12.7928201004
 20
6.794544169
 30
0.0
 10
12.7905691974
 20
6.7951999089
 30
0.0
 10
12.7890163624
 20
6.7956610373
 30
0.0
 10
12.7882146805
 20
6.7959035021
 30
0.0
  0
SPLINE
  5
2DF
100
AcDbEntity
  8
0
100
AcDbSpline
 62
9
  6
CONTINUOUS
 70
0
 71
3
 72
11
 73
7
 74
0
 42
0.0000001
 43
0.0000001
 44
0.0000000001
 40
0.0
 40
0.0
 40
0.0
 40
0.0
 40
0.2031640981
 40
0.4385498529
 40
0.7047062877
 40
1.0
 40
1.0
 40
1.0
 40
1.0
 10
12.8263922663
 20
6.8264301924
 30
0.0
 10
12.8264126022
 20
6.8274280433
 30
0.0
 10
12.8265127986
 20
6.8295808604
 30
0.0
 10
12.8267857943
 20
6.8330322713
 30
0.0
 10
12.8271681897
 20
6.8369281746
 30
0.0
 10
12.827455309
 20
6.839671341
 30
0.0
 10
12.8276020906
 20
6.8411145473
 30
0.0
  0
SPLINE
  5
2E0
100
AcDbEntity
  8
0
100
AcDbSpline
 62
9
  6
CONTINUOUS
 70
0
 71
3
 72
22
 73
18
 74
0
 42
0.0000001
 43
0.0000001
 44
0.0000000001
 40
0.0
 40
0.0
 40
0.0
 40
0.0
 40
0.1838771982
 40
0.2699188764
 40
0.3514014283
 40
0.4279461583
 40
0.4992412817
 40
0.5650870894
 40
0.6254285719
 40
0.6804380726
 40
0.7305970805
 40
0.7768026225
 40
0.8203889941
 40
0.863002456
 40
0.9063103373
 40
0.9516901547
 40
1.0
 40
1.0
 40
1.0
 40
1.0
 10
12.6437399259
 20
6.777611271
 30
0.0
 10
12.6425225837
 20
6.7771846947
 30
0.0
 10
12.6407161937
 20
6.7766130045
 30
0.0
 10
12.6383425821
 20
6.7759475354
 30
0.0
 10
12.6366875109
 20
6.7755088781
 30
0.0
 10
12.6351305434
 20
6.7751041554
 30
0.0
 10
12.6336829463
 20
6.7747146647
 30
0.0
 10
12.6323541124
 20
6.7743220819
 30
0.0
 10
12.6311518792
 20
6.7739073193
 30
0.0
 10
12.6300823327
 20
6.7734519291
 30
0.0
 10
12.629150852
 20
6.7729368522
 30
0.0
 10
12.6283619717
 20
6.7723458204
 30
0.0
 10
12.6277214856
 20
6.7716658328
 30
0.0
 10
12.6272336762
 20
6.7708925964
 30
0.0
 10
12.6268973868
 20
6.7700295436
 30
0.0
 10
12.6267054406
 20
6.7690839287
 30
0.0
 10
12.6266679636
 20
6.7684256193
 30
0.0
 10
12.6266679548
 20
6.7680867206
 30
0.0
  0
SPLINE
  5
2E1
100
AcDbEntity
  8
0
100
AcDbSpline
 62
9
  6
CONTINUOUS
 70
0
 71
3
 72
9
 73
5
 74
0
 42
0.0000001
 43
0.0000001
 44
0.0000000001
 40
0.0
 40
0.0
 40
0.0
 40
0.0
 40
0.5117718269
 40
1.0
 40
1.0
 40
1.0
 40
1.0
 10
12.6566679548
 20
6.779802161
 30
0.0
 10
12.6544231405
 20
6.7798021098
 30
0.0
 10
12.6500285039
 20
6.779426677
 30
0.0
 10
12.6457602627
 20
6.7783215155
 30
0.0
 10
12.6437399259
 20
6.777611271
 30
0.0
  0
SPLINE
  5
2E2
100
AcDbEntity
  8
0
100
AcDbSpline
 62
9
  6
CONTINUOUS
 70
0
 71
3
 72
9
 73
5
 74
0
 42
0.0000001
 43
0.0000001
 44
0.0000000001
 40
0.0
 40
0.0
 40
0.0
 40
0.0
 40
0.4882293772
 40
1.0
 40
1.0
 40
1.0
 40
1.0
 10
12.7795959885
 20
6.7776114617
 30
0.0
 10
12.7775756862
 20
6.7783218019
 30
0.0
 10
12.7733073472
 20
6.7794266121
 30
0.0
 10
12.7689127574
 20
6.7798020828
 30
0.0
 10
12.7666679548
 20
6.779802161
 30
0.0
  0
SPLINE
  5
2E3
100
AcDbEntity
  8
0
100
AcDbSpline
 62
9
  6
CONTINUOUS
 70
0
 71
3
 72
18
 73
14
 74
0
 42
0.0000001
 43
0.0000001
 44
0.0000000001
 40
0.0
 40
0.0
 40
0.0
 40
0.0
 40
0.1735704679
 40
0.342070463
 40
0.5006131006
 40
0.6445839772
 40
0.7698013424
 40
0.8242166911
 40
0.8726308212
 40
0.9146926346
 40
0.9500980533
 40
0.9786012484
 40
1.0
 40
1.0
 40
1.0
 40
1.0
 10
12.5987428954
 20
8.5866925287
 30
0.0
 10
12.5964773017
 20
8.5866456055
 30
0.0
 10
12.5920120873
 20
8.5865629868
 30
0.0
 10
12.5854768593
 20
8.5864717783
 30
0.0
 10
12.5793276786
 20
8.5864163923
 30
0.0
 10
12.5737433611
 20
8.5863983026
 30
0.0
 10
12.5695184685
 20
8.5864147095
 30
0.0
 10
12.5665413539
 20
8.5864496512
 30
0.0
 10
12.5646499901
 20
8.5864837865
 30
0.0
 10
12.5630070689
 20
8.586526715
 30
0.0
 10
12.5616244397
 20
8.5865778028
 30
0.0
 10
12.5605122332
 20
8.5866366124
 30
0.0
 10
12.5598624609
 20
8.5866866516
 30
0.0
 10
12.5595846289
 20
8.5867159751
 30
0.0
  0
SPLINE
  5
2E4
100
AcDbEntity
  8
0
100
AcDbSpline
 62
9
  6
CONTINUOUS
 70
0
 71
3
 72
11
 73
7
 74
0
 42
0.0000001
 43
0.0000001
 44
0.0000000001
 40
0.0
 40
0.0
 40
0.0
 40
0.0
 40
0.2547964278
 40
0.5075353258
 40
0.7565425695
 40
1.0
 40
1.0
 40
1.0
 40
1.0
 10
12.5961691562
 20
6.8723098696
 30
0.0
 10
12.5962122162
 20
6.8702327993
 30
0.0
 10
12.596245986
 20
6.8660941807
 30
0.0
 10
12.5961504064
 20
6.8599258778
 30
0.0
 10
12.5959360412
 20
6.8538532527
 30
0.0
 10
12.5957417222
 20
6.8498425386
 30
0.0
 10
12.5956426516
 20
6.8478599498
 30
0.0
  0
SPLINE
  5
2E5
100
AcDbEntity
  8
0
100
AcDbSpline
 62
9
  6
CONTINUOUS
 70
0
 71
3
 72
11
 73
7
 74
0
 42
0.0000001
 43
0.0000001
 44
0.0000000001
 40
0.0
 40
0.0
 40
0.0
 40
0.0
 40
0.2449536211
 40
0.4944719174
 40
0.7467161956
 40
1.0
 40
1.0
 40
1.0
 40
1.0
 10
12.5595846289
 20
8.5867159751
 30
0.0
 10
12.5597681928
 20
8.5846872443
 30
0.0
 10
12.5601344127
 20
8.5805915545
 30
0.0
 10
12.5606103367
 20
8.5743998946
 30
0.0
 10
12.5609691274
 20
8.5681307579
 30
0.0
 10
12.5611096396
 20
8.5639286536
 30
0.0
 10
12.5611533438
 20
8.5618228154
 30
0.0
  0
SPLINE
  5
2E6
100
AcDbEntity
  8
0
100
AcDbSpline
 62
9
  6
CONTINUOUS
 70
0
 71
3
 72
18
 73
14
 74
0
 42
0.0000001
 43
0.0000001
 44
0.0000000001
 40
0.0
 40
0.0
 40
0.0
 40
0.0
 40
0.1733559026
 40
0.3416652321
 40
0.500063738
 40
0.6439574035
 40
0.7691813361
 40
0.8236354825
 40
0.8721136404
 40
0.9142654502
 40
0.9497872014
 40
0.9784330175
 40
1.0
 40
1.0
 40
1.0
 40
1.0
 10
12.6347813197
 20
6.847838557
 30
0.0
 10
12.6325196649
 20
6.8477917155
 30
0.0
 10
12.6280619842
 20
6.8477092193
 30
0.0
 10
12.621537213
 20
6.8476180782
 30
0.0
 10
12.6153965031
 20
6.847562631
 30
0.0
 10
12.6098177983
 20
6.8475443485
 30
0.0
 10
12.6055954461
 20
6.847560484
 30
0.0
 10
12.6026183983
 20
6.8475951205
 30
0.0
 10
12.6007254658
 20
6.8476290182
 30
0.0
 10
12.5990798356
 20
6.8476716872
 30
0.0
 10
12.5976933381
 20
6.8477225071
 30
0.0
 10
12.5965760948
 20
6.8477810379
 30
0.0
 10
12.5959225707
 20
6.8478308276
 30
0.0
 10
12.5956426516
 20
6.8478599498
 30
0.0
  0
SPLINE
  5
2E7
100
AcDbEntity
  8
0
100
AcDbSpline
 62
9
  6
CONTINUOUS
 70
0
 71
3
 72
9
 73
5
 74
0
 42
0.0000001
 43
0.0000001
 44
0.0000000001
 40
0.0
 40
0.0
 40
0.0
 40
0.0
 40
0.2595616973
 40
1.0
 40
1.0
 40
1.0
 40
1.0
 10
12.5956426516
 20
6.8478599497
 30
0.0
 10
12.5955927623
 20
6.8472778503
 30
0.0
 10
12.5954528925
 20
6.8450314146
 30
0.0
 10
12.5955291348
 20
6.8427687037
 30
0.0
 10
12.5957337859
 20
6.841114704
 30
0.0
  0
SPLINE
  5
2E8
100
AcDbEntity
  8
0
100
AcDbSpline
 62
9
  6
CONTINUOUS
 70
0
 71
3
 72
11
 73
7
 74
0
 42
0.0000001
 43
0.0000001
 44
0.0000000001
 40
0.0
 40
0.0
 40
0.0
 40
0.0
 40
0.295295081
 40
0.561486841
 40
0.7968473731
 40
1.0
 40
1.0
 40
1.0
 40
1.0
 10
12.5957337858
 20
6.8411147043
 30
0.0
 10
12.595880602
 20
6.8396714727
 30
0.0
 10
12.5961676169
 20
6.8369280734
 30
0.0
 10
12.5965503402
 20
6.833032083
 30
0.0
 10
12.5968230672
 20
6.8295806073
 30
0.0
 10
12.5969233675
 20
6.8274279404
 30
0.0
 10
12.5969435965
 20
6.8264301286
 30
0.0
  0
SPLINE
  5
2E9
100
AcDbEntity
  8
0
100
AcDbSpline
 62
9
  6
CONTINUOUS
 70
0
 71
3
 72
21
 73
17
 74
0
 42
0.0000001
 43
0.0000001
 44
0.0000000001
 40
0.0
 40
0.0
 40
0.0
 40
0.0
 40
0.0659989049
 40
0.1318790302
 40
0.1975074712
 40
0.2627964829
 40
0.3918914775
 40
0.5186491587
 40
0.5810799526
 40
0.6428133383
 40
0.7038495766
 40
0.7642104336
 40
0.8239358518
 40
0.8830845754
 40
0.9417488638
 40
1.0
 40
1.0
 40
1.0
 40
1.0
 10
12.6347813197
 20
6.8139046211
 30
0.0
 10
12.6336553018
 20
6.8138991323
 30
0.0
 10
12.6314039865
 20
6.8139709504
 30
0.0
 10
12.6280502397
 20
6.8143277151
 30
0.0
 10
12.624743967
 20
6.8149315737
 30
0.0
 10
12.6204486984
 20
6.8160543707
 30
0.0
 10
12.6153173237
 20
6.8180397
 30
0.0
 10
12.6105997931
 20
6.8207794633
 30
0.0
 10
12.6071865417
 20
6.8233704498
 30
0.0
 10
12.6048351106
 20
6.8254869545
 30
0.0
 10
12.6026972938
 20
6.8277708384
 30
0.0
 10
12.6007882299
 20
6.8302059595
 30
0.0
 10
12.5991217617
 20
6.8327749246
 30
0.0
 10
12.5977097974
 20
6.8354596732
 30
0.0
 10
12.5965629533
 20
6.8382405461
 30
0.0
 10
12.5959785648
 20
6.8401514757
 30
0.0
 10
12.5957337859
 20
6.841114704
 30
0.0
  0
SPLINE
  5
2EA
100
AcDbEntity
  8
0
100
AcDbSpline
 62
9
  6
CONTINUOUS
 70
0
 71
3
 72
23
 73
19
 74
0
 42
0.0000001
 43
0.0000001
 44
0.0000000001
 40
0.0
 40
0.0
 40
0.0
 40
0.0
 40
0.1073891598
 40
0.2076982818
 40
0.3006278537
 40
0.3860701089
 40
0.4641520136
 40
0.5351421648
 40
0.5994332652
 40
0.6575260399
 40
0.7100484263
 40
0.7577729779
 40
0.8016037901
 40
0.8425954681
 40
0.8818650161
 40
0.9205420619
 40
0.9596465109
 40
1.0
 40
1.0
 40
1.0
 40
1.0
 10
12.6351212375
 20
6.7959031231
 30
0.0
 10
12.6343196428
 20
6.7956606463
 30
0.0
 10
12.6327669862
 20
6.7951993278
 30
0.0
 10
12.6305161909
 20
6.7945434171
 30
0.0
 10
12.6284305407
 20
6.7939325017
 30
0.0
 10
12.6265175324
 20
6.7933490348
 30
0.0
 10
12.6247792298
 20
6.7927801104
 30
0.0
 10
12.6232145556
 20
6.7922130124
 30
0.0
 10
12.6218203137
 20
6.7916366248
 30
0.0
 10
12.6205927113
 20
6.7910396476
 30
0.0
 10
12.6195266221
 20
6.7904134036
 30
0.0
 10
12.6186177353
 20
6.7897489677
 30
0.0
 10
12.6178610694
 20
6.7890403734
 30
0.0
 10
12.6172533075
 20
6.7882826329
 30
0.0
 10
12.6167907573
 20
6.7874741018
 30
0.0
 10
12.6164695306
 20
6.78661547
 30
0.0
 10
12.6162846186
 20
6.7857094919
 30
0.0
 10
12.6162494216
 20
6.7850885896
 30
0.0
 10
12.6162514266
 20
6.7847739025
 30
0.0
  0
LINE
  5
2EB
100
AcDbEntity
  8
0
100
AcDbLine
 62
9
  6
CONTINUOUS
 10
12.6162514266
 20
6.7847739025
 11
12.6163944347
 21
6.7624900031
  0
LINE
  5
2EC
100
AcDbEntity
  8
0
100
AcDbLine
 62
9
  6
CONTINUOUS
 10
12.5969435965
 20
6.8264301286
 11
12.5977792161
 21
6.7851608565
  0
SPLINE
  5
2ED
100
AcDbEntity
  8
0
100
AcDbSpline
 62
9
  6
CONTINUOUS
 70
0
 71
3
 72
23
 73
19
 74
0
 42
0.0000001
 43
0.0000001
 44
0.0000000001
 40
0.0
 40
0.0
 40
0.0
 40
0.0
 40
0.0112505591
 40
0.0228973416
 40
0.0352826753
 40
0.048688471
 40
0.0793338264
 40
0.115993177
 40
0.1591692526
 40
0.2089838828
 40
0.2653540762
 40
0.3280296779
 40
0.3966683934
 40
0.4708286812
 40
0.5500133023
 40
0.6336458442
 40
0.8117987416
 40
1.0
 40
1.0
 40
1.0
 40
1.0
 10
12.4906805793
 20
4.6173302772
 30
0.0
 10
12.4907851464
 20
4.6173361171
 30
0.0
 10
12.4909973169
 20
4.6173690955
 30
0.0
 10
12.4913081921
 20
4.6174801739
 30
0.0
 10
12.4916131409
 20
4.617651928
 30
0.0
 10
12.4920293551
 20
4.6179750583
 30
0.0
 10
12.4925283895
 20
4.6185449838
 30
0.0
 10
12.4930694698
 20
4.6194227966
 30
0.0
 10
12.4935778363
 20
4.620519821
 30
0.0
 10
12.4940504714
 20
4.6218287598
 30
0.0
 10
12.4944834714
 20
4.6233408397
 30
0.0
 10
12.4948736377
 20
4.6250445446
 30
0.0
 10
12.4952173448
 20
4.6269266873
 30
0.0
 10
12.495511992
 20
4.6289724131
 30
0.0
 10
12.4957547972
 20
4.6311653608
 30
0.0
 10
12.4960123894
 20
4.6343293118
 30
0.0
 10
12.4961849598
 20
4.6385164268
 30
0.0
 10
12.4961718297
 20
4.6419279293
 30
0.0
 10
12.4961287852
 20
4.6436793435
 30
0.0
  0
SPLINE
  5
2EE
100
AcDbEntity
  8
0
100
AcDbSpline
 62
9
  6
CONTINUOUS
 70
0
 71
3
 72
22
 73
18
 74
0
 42
0.0000001
 43
0.0000001
 44
0.0000000001
 40
0.0
 40
0.0
 40
0.0
 40
0.0
 40
0.0482482318
 40
0.0936087187
 40
0.1369789517
 40
0.1796157666
 40
0.223184751
 40
0.2693922695
 40
0.3195610812
 40
0.3745697726
 40
0.434908828
 40
0.5007548803
 40
0.5720519712
 40
0.6485971809
 40
0.7300796824
 40
0.8161203464
 40
1.0
 40
1.0
 40
1.0
 40
1.0
 10
12.7966679548
 20
6.7680868149
 30
0.0
 10
12.7966679243
 20
6.7684252814
 30
0.0
 10
12.7966303954
 20
6.769083038
 30
0.0
 10
12.7964380884
 20
6.7700283988
 30
0.0
 10
12.7961025149
 20
6.7708921906
 30
0.0
 10
12.795614805
 20
6.7716661554
 30
0.0
 10
12.7949737836
 20
6.7723457319
 30
0.0
 10
12.7941850494
 20
6.7729367906
 30
0.0
 10
12.7932538564
 20
6.7734525786
 30
0.0
 10
12.7921841612
 20
6.7739077985
 30
0.0
 10
12.7909818787
 20
6.7743223207
 30
0.0
 10
12.7896530786
 20
6.7747150053
 30
0.0
 10
12.7882055299
 20
6.7751047467
 30
0.0
 10
12.7866485987
 20
6.7755096764
 30
0.0
 10
12.7849934749
 20
6.7759481092
 30
0.0
 10
12.7826196224
 20
6.7766127604
 30
0.0
 10
12.780813301
 20
6.7771847493
 30
0.0
 10
12.7795959885
 20
6.7776114617
 30
0.0
  0
SPLINE
  5
2EF
100
AcDbEntity
  8
0
100
AcDbSpline
 62
9
  6
CONTINUOUS
 70
0
 71
3
 72
15
 73
11
 74
0
 42
0.0000001
 43
0.0000001
 44
0.0000000001
 40
0.0
 40
0.0
 40
0.0
 40
0.0
 40
0.1538390866
 40
0.3009298446
 40
0.4398289006
 40
0.5695748405
 40
0.6897291757
 40
0.8005750718
 40
0.9032894737
 40
1.0
 40
1.0
 40
1.0
 40
1.0
 10
12.8777892695
 20
8.5859546916
 30
0.0
 10
12.8769242618
 20
8.5860500699
 30
0.0
 10
12.8752389523
 20
8.5863081473
 30
0.0
 10
12.8728212013
 20
8.5869111476
 30
0.0
 10
12.870605097
 20
8.5877121439
 30
0.0
 10
12.8686320195
 20
8.5886966622
 30
0.0
 10
12.8669386097
 20
8.5898481191
 30
0.0
 10
12.8655568344
 20
8.5911481
 30
0.0
 10
12.8645160491
 20
8.5925751084
 30
0.0
 10
12.8640571905
 20
8.5936183149
 30
0.0
 10
12.8638988467
 20
8.5941419791
 30
0.0
  0
LINE
  5
2F0
100
AcDbEntity
  8
0
100
AcDbLine
 62
9
  6
CONTINUOUS
 10
12.5593463465
 20
8.6594354774
 11
12.5603436451
 21
8.6103992949
  0
SPLINE
  5
2F1
100
AcDbEntity
  8
0
100
AcDbSpline
 62
9
  6
CONTINUOUS
 70
0
 71
3
 72
14
 73
10
 74
0
 42
0.0000001
 43
0.0000001
 44
0.0000000001
 40
0.0
 40
0.0
 40
0.0
 40
0.0
 40
0.0945681863
 40
0.1982467342
 40
0.3108037811
 40
0.4320749188
 40
0.5618870118
 40
0.6999991282
 40
1.0
 40
1.0
 40
1.0
 40
1.0
 10
12.5603436451
 20
8.6103992949
 30
0.0
 10
12.5603540775
 20
8.6098859561
 30
0.0
 10
12.5603574465
 20
8.6088094216
 30
0.0
 10
12.5603193032
 20
8.6071222555
 30
0.0
 10
12.5602400434
 20
8.6052914219
 30
0.0
 10
12.5601244268
 20
8.6033204224
 30
0.0
 10
12.5599772645
 20
8.601212444
 30
0.0
 10
12.5597432429
 20
8.5981378655
 30
0.0
 10
12.5595554397
 20
8.595766598
 30
0.0
 10
12.5594370839
 20
8.594142091
 30
0.0
  0
SPLINE
  5
2F2
100
AcDbEntity
  8
0
100
AcDbSpline
 62
9
  6
CONTINUOUS
 70
0
 71
3
 72
9
 73
5
 74
0
 42
0.0000001
 43
0.0000001
 44
0.0000000001
 40
0.0
 40
0.0
 40
0.0
 40
0.0
 40
0.2408247225
 40
1.0
 40
1.0
 40
1.0
 40
1.0
 10
12.559437113
 20
8.5941422272
 30
0.0
 10
12.5593802199
 20
8.5935479964
 30
0.0
 10
12.5592199519
 20
8.5910734367
 30
0.0
 10
12.5593512346
 20
8.5885832645
 30
0.0
 10
12.5595846287
 20
8.5867159764
 30
0.0
  0
SPLINE
  5
2F3
100
AcDbEntity
  8
0
100
AcDbSpline
 62
9
  6
CONTINUOUS
 70
0
 71
3
 72
21
 73
17
 74
0
 42
0.0000001
 43
0.0000001
 44
0.0000000001
 40
0.0
 40
0.0
 40
0.0
 40
0.0
 40
0.0655528872
 40
0.1310394548
 40
0.196330602
 40
0.2613433119
 40
0.3900729007
 40
0.5167295034
 40
0.5792103218
 40
0.6410565768
 40
0.7022654235
 40
0.7628546081
 40
0.8228589872
 40
0.8823312301
 40
0.941357477
 40
1.0
 40
1.0
 40
1.0
 40
1.0
 10
12.5987428954
 20
8.623233839
 30
0.0
 10
12.5975897497
 20
8.6232287583
 30
0.0
 10
12.5952840212
 20
8.6231304223
 30
0.0
 10
12.5918517432
 20
8.6227184269
 30
0.0
 10
12.5884704324
 20
8.6220443231
 30
0.0
 10
12.5840804941
 20
8.6208088077
 30
0.0
 10
12.5788475497
 20
8.6186486366
 30
0.0
 10
12.574065825
 20
8.6156980819
 30
0.0
 10
12.5706259899
 20
8.6129230802
 30
0.0
 10
12.5682666473
 20
8.6106618063
 30
0.0
 10
12.5661351774
 20
8.6082287112
 30
0.0
 10
12.5642473845
 20
8.6056418281
 30
0.0
 10
12.5626176121
 20
8.6029205343
 30
0.0
 10
12.5612580641
 20
8.6000848906
 30
0.0
 10
12.5601794527
 20
8.5971566598
 30
0.0
 10
12.5596512899
 20
8.5951513439
 30
0.0
 10
12.559437113
 20
8.5941422272
 30
0.0
  0
SPLINE
  5
2F4
100
AcDbEntity
  8
0
100
AcDbSpline
 62
9
  6
CONTINUOUS
 70
0
 71
3
 72
46
 73
42
 74
0
 42
0.0000001
 43
0.0000001
 44
0.0000000001
 40
0.0
 40
0.0
 40
0.0
 40
0.0
 40
0.1029636228
 40
0.1534744245
 40
0.2032070989
 40
0.2999843092
 40
0.3927489711
 40
0.4809003193
 40
0.5638246251
 40
0.6031697039
 40
0.6410259747
 40
0.6773343509
 40
0.7120267799
 40
0.7762965508
 40
0.8057678179
 40
0.8333888806
 40
0.8590994631
 40
0.8828403961
 40
0.9045529354
 40
0.9241806209
 40
0.9416676319
 40
0.9569559332
 40
0.9637570566
 40
0.9699880051
 40
0.9756447296
 40
0.9807232028
 40
0.985219304
 40
0.9891282109
 40
0.992444619
 40
0.9951631949
 40
0.9962966498
 40
0.9972790471
 40
0.9981103614
 40
0.9987905733
 40
0.9993196631
 40
0.9995275309
 40
0.9996976108
 40
0.9998299002
 40
0.9999243965
 40
0.9999810973
 40
1.0
 40
1.0
 40
1.0
 40
1.0
 10
12.9272026002
 20
4.6436795348
 30
0.0
 10
12.9518184411
 20
4.6423476796
 30
0.0
 10
12.9884922554
 20
4.6400081345
 30
0.0
 10
13.0369957413
 20
4.6361968434
 30
0.0
 10
13.0839835709
 20
4.6320328885
 30
0.0
 10
13.1409683399
 20
4.6261065604
 30
0.0
 10
13.2069476175
 20
4.617874415
 30
0.0
 10
13.2694552478
 20
4.608721179
 30
0.0
 10
13.3191344796
 20
4.600322298
 30
0.0
 10
13.3568199923
 20
4.5932767402
 30
0.0
 10
13.3834753415
 20
4.5879752693
 30
0.0
 10
13.4089770459
 20
4.5825928796
 30
0.0
 10
13.4405851833
 20
4.5755311038
 30
0.0
 10
13.4704766788
 20
4.5683009164
 30
0.0
 10
13.4985879215
 20
4.5609462174
 30
0.0
 10
13.517706327
 20
4.555698993
 30
0.0
 10
13.5354422324
 20
4.5506034897
 30
0.0
 10
13.5517624521
 20
4.5457078672
 30
0.0
 10
13.5666356753
 20
4.5410609851
 30
0.0
 10
13.5800329084
 20
4.5367138925
 30
0.0
 10
13.5919265326
 20
4.5327187854
 30
0.0
 10
13.6008796672
 20
4.5296156834
 30
0.0
 10
13.6072713348
 20
4.5273523697
 30
0.0
 10
13.6114831848
 20
4.5258418064
 30
0.0
 10
13.6153015524
 20
4.5244559266
 30
0.0
 10
13.6187250799
 20
4.5231997089
 30
0.0
 10
13.6217523268
 20
4.5220783584
 30
0.0
 10
13.6243812615
 20
4.5210962884
 30
0.0
 10
13.6266093996
 20
4.5202574824
 30
0.0
 10
13.6282143146
 20
4.5196492914
 30
0.0
 10
13.6292961992
 20
4.5192378687
 30
0.0
 10
13.6299555906
 20
4.5189866692
 30
0.0
 10
13.630513442
 20
4.5187737535
 30
0.0
 10
13.6309697923
 20
4.5185992684
 30
0.0
 10
13.6312866387
 20
4.5184778807
 30
0.0
 10
13.6314894044
 20
4.5184001203
 30
0.0
 10
13.6316034319
 20
4.5183562834
 30
0.0
 10
13.6316921691
 20
4.5183223169
 30
0.0
 10
13.6317554194
 20
4.5182976762
 30
0.0
 10
13.6317935971
 20
4.5182835222
 30
0.0
 10
13.6318103105
 20
4.5182765189
 30
0.0
 10
13.6318146062
 20
4.5182750944
 30
0.0
  0
SPLINE
  5
2F5
100
AcDbEntity
  8
0
100
AcDbSpline
 62
9
  6
CONTINUOUS
 70
0
 71
3
 72
23
 73
19
 74
0
 42
0.0000001
 43
0.0000001
 44
0.0000000001
 40
0.0
 40
0.0
 40
0.0
 40
0.0
 40
0.1234781355
 40
0.1857322226
 40
0.2482518875
 40
0.310990109
 40
0.3424260133
 40
0.3738977516
 40
0.4369201955
 40
0.5000000752
 40
0.5630798794
 40
0.6261022477
 40
0.6575740183
 40
0.6890100362
 40
0.7517486543
 40
0.8142686851
 40
0.876522828
 40
1.0
 40
1.0
 40
1.0
 40
1.0
 10
12.4961287901
 20
4.6436793438
 30
0.0
 10
12.5138494138
 20
4.6446380553
 30
0.0
 10
12.540531267
 20
4.6455916147
 30
0.0
 10
12.5762039028
 20
4.6462737807
 30
0.0
 10
12.6031522029
 20
4.6465721776
 30
0.0
 10
12.6256722704
 20
4.6466946399
 30
0.0
 10
12.6437302761
 20
4.6467509511
 30
0.0
 10
12.6618291795
 20
4.646787854
 30
0.0
 10
12.6844760581
 20
4.646804175
 30
0.0
 10
12.7116657128
 20
4.6468021222
 30
0.0
 10
12.7388553566
 20
4.6468038986
 30
0.0
 10
12.761502218
 20
4.6467874463
 30
0.0
 10
12.7796011314
 20
4.6467505075
 30
0.0
 10
12.7976592152
 20
4.6466942188
 30
0.0
 10
12.8201794093
 20
4.6465719278
 30
0.0
 10
12.8471278301
 20
4.6462737978
 30
0.0
 10
12.8828003922
 20
4.6455918335
 30
0.0
 10
12.9094821172
 20
4.6446382823
 30
0.0
 10
12.9272026002
 20
4.6436795348
 30
0.0
  0
SPLINE
  5
2F6
100
AcDbEntity
  8
0
100
AcDbSpline
 62
9
  6
CONTINUOUS
 70
0
 71
3
 72
54
 73
50
 74
0
 42
0.0000001
 43
0.0000001
 44
0.0000000001
 40
0.0
 40
0.0
 40
0.0
 40
0.0
 40
0.0000047331
 40
0.0000189165
 40
0.0000425496
 40
0.0000756321
 40
0.0001181637
 40
0.000170144
 40
0.0003024492
 40
0.0004725447
 40
0.0006804276
 40
0.0009260949
 40
0.0012095437
 40
0.0018897744
 40
0.0027210965
 40
0.0037034869
 40
0.004836917
 40
0.0061210987
 40
0.0075553933
 40
0.0091391385
 40
0.0108716728
 40
0.0147804682
 40
0.019276522
 40
0.0243550257
 40
0.0300118254
 40
0.0362428571
 40
0.0430440349
 40
0.0504096644
 40
0.0583323534
 40
0.0758192593
 40
0.0954468485
 40
0.1171593404
 40
0.1409002726
 40
0.1666108326
 40
0.1942318218
 40
0.2237030186
 40
0.2549674302
 40
0.2879739896
 40
0.3226665043
 40
0.3589747885
 40
0.3968307122
 40
0.4361755344
 40
0.5191003822
 40
0.6072521342
 40
0.70001521
 40
0.79679363
 40
0.846526221
 40
0.8970365023
 40
1.0
 40
1.0
 40
1.0
 40
1.0
 10
11.7915213035
 20
4.5182750944
 30
0.0
 10
11.7915222543
 20
4.518275711
 30
0.0
 10
11.7915267384
 20
4.5182768343
 30
0.0
 10
11.7915359943
 20
4.5182809874
 30
0.0
 10
11.7915519766
 20
4.518286811
 30
0.0
 10
11.7915740885
 20
4.5182954729
 30
0.0
 10
11.791602623
 20
4.5183063979
 30
0.0
 10
11.7916532955
 20
4.5183259182
 30
0.0
 10
11.7917325001
 20
4.518356346
 30
0.0
 10
11.7918465485
 20
4.5184001524
 30
0.0
 10
11.7919859553
 20
4.5184536367
 30
0.0
 10
11.7921507185
 20
4.5185167945
 30
0.0
 10
11.7924211128
 20
4.5186203444
 30
0.0
 10
11.7928225274
 20
4.5187738431
 30
0.0
 10
11.7933803775
 20
4.5189867667
 30
0.0
 10
11.7940397574
 20
4.5192379704
 30
0.0
 10
11.7948006329
 20
4.5195273146
 30
0.0
 10
11.7956628712
 20
4.5198545043
 30
0.0
 10
11.7966262542
 20
4.5202190397
 30
0.0
 10
11.7976904671
 20
4.5206204223
 30
0.0
 10
11.7993097332
 20
4.5212289637
 30
0.0
 10
11.8015833924
 20
4.5220782852
 30
0.0
 10
11.8046106005
 20
4.5231996042
 30
0.0
 10
11.8080341228
 20
4.5244558227
 30
0.0
 10
11.8118525091
 20
4.5258417232
 30
0.0
 10
11.8160643785
 20
4.5273523146
 30
0.0
 10
11.820667974
 20
4.5289824723
 30
0.0
 10
11.8256608798
 20
4.5307264526
 30
0.0
 10
11.8330808179
 20
4.5332802418
 30
0.0
 10
11.8433026222
 20
4.5367138011
 30
0.0
 10
11.856699727
 20
4.541060842
 30
0.0
 10
11.871572845
 20
4.5457076873
 30
0.0
 10
11.8878929674
 20
4.5506032661
 30
0.0
 10
11.9056287629
 20
4.5556987508
 30
0.0
 10
11.9247470087
 20
4.5609459282
 30
0.0
 10
11.9452131094
 20
4.5663005883
 30
0.0
 10
11.9669936098
 20
4.5717193555
 30
0.0
 10
11.9900543965
 20
4.5771629647
 30
0.0
 10
12.0143574729
 20
4.582592532
 30
0.0
 10
12.0398588967
 20
4.5879749332
 30
0.0
 10
12.0665139553
 20
4.5932763824
 30
0.0
 10
12.1041992446
 20
4.6003219627
 30
0.0
 10
12.1538783915
 20
4.6087208297
 30
0.0
 10
12.2163855747
 20
4.6178738073
 30
0.0
 10
12.2823644459
 20
4.6261065447
 30
0.0
 10
12.3393488594
 20
4.6320324326
 30
0.0
 10
12.3863365799
 20
4.6361965258
 30
0.0
 10
12.4348396274
 20
4.6400080055
 30
0.0
 10
12.4715130965
 20
4.6423476432
 30
0.0
 10
12.4961287901
 20
4.6436793438
 30
0.0
  0
LINE
  5
2F7
100
AcDbEntity
  8
0
100
AcDbLine
 62
9
  6
CONTINUOUS
 10
12.5820803643
 20
6.8723661496
 11
12.5961691562
 21
6.8723098696
  0
SPLINE
  5
2F8
100
AcDbEntity
  8
0
100
AcDbSpline
 62
9
  6
CONTINUOUS
 70
0
 71
3
 72
16
 73
12
 74
0
 42
0.0000001
 43
0.0000001
 44
0.0000000001
 40
0.0
 40
0.0
 40
0.0
 40
0.0
 40
0.1571348211
 40
0.308078597
 40
0.4507814572
 40
0.5835721102
 40
0.6458569176
 40
0.7052352633
 40
0.7616478389
 40
0.8150797664
 40
1.0
 40
1.0
 40
1.0
 40
1.0
 10
12.5814119138
 20
6.8560772295
 30
0.0
 10
12.5822839409
 20
6.8559045865
 30
0.0
 10
12.5839830376
 20
6.8555091087
 30
0.0
 10
12.5864212241
 20
6.8547537091
 30
0.0
 10
12.5886646323
 20
6.8538592349
 30
0.0
 10
12.5903723426
 20
6.852994298
 30
0.0
 10
12.5916005817
 20
6.8522421205
 30
0.0
 10
12.5924280446
 20
6.8516667425
 30
0.0
 10
12.5931785409
 20
6.8510700554
 30
0.0
 10
12.5944047799
 20
6.8499445557
 30
0.0
 10
12.5952506872
 20
6.8488298863
 30
0.0
 10
12.5956426516
 20
6.8478599498
 30
0.0
  0
SPLINE
  5
2F9
100
AcDbEntity
  8
0
100
AcDbSpline
 62
9
  6
CONTINUOUS
 70
0
 71
3
 72
15
 73
11
 74
0
 42
0.0000001
 43
0.0000001
 44
0.0000000001
 40
0.0
 40
0.0
 40
0.0
 40
0.0
 40
0.153836727
 40
0.3009254016
 40
0.4398227497
 40
0.5695675341
 40
0.6897215128
 40
0.8005681806
 40
0.9032849731
 40
1.0
 40
1.0
 40
1.0
 40
1.0
 10
12.5455467206
 20
8.5859544275
 30
0.0
 10
12.5464117243
 20
8.5860498341
 30
0.0
 10
12.5480970252
 20
8.5863079618
 30
0.0
 10
12.5505147624
 20
8.5869110205
 30
0.0
 10
12.5527308552
 20
8.5877120657
 30
0.0
 10
12.5547039248
 20
8.58869663
 30
0.0
 10
12.5563973316
 20
8.5898481367
 30
0.0
 10
12.5577791098
 20
8.5911481779
 30
0.0
 10
12.5588199031
 20
8.592575266
 30
0.0
 10
12.5592787642
 20
8.5936185312
 30
0.0
 10
12.5594371132
 20
8.5941422287
 30
0.0
  0
SPLINE
  5
2FA
100
AcDbEntity
  8
0
100
AcDbSpline
 62
9
  6
CONTINUOUS
 70
0
 71
3
 72
16
 73
12
 74
0
 42
0.0000001
 43
0.0000001
 44
0.0000000001
 40
0.0
 40
0.0
 40
0.0
 40
0.0
 40
0.1601323991
 40
0.3134918037
 40
0.4578572424
 40
0.5913940758
 40
0.7126806212
 40
0.8209256286
 40
0.8701850331
 40
0.9163239743
 40
1.0
 40
1.0
 40
1.0
 40
1.0
 10
12.5456945955
 20
8.5785190007
 30
0.0
 10
12.5465594521
 20
8.5787190747
 30
0.0
 10
12.5482412173
 20
8.5791624541
 30
0.0
 10
12.5506492569
 20
8.5799708119
 30
0.0
 10
12.5528561563
 20
8.5808963355
 30
0.0
 10
12.5548208431
 20
8.5819214197
 30
0.0
 10
12.5565069495
 20
8.5830272709
 30
0.0
 10
12.5576904773
 20
8.5840298213
 30
0.0
 10
12.5584581224
 20
8.5848596961
 30
0.0
 10
12.5590641348
 20
8.5856465537
 30
0.0
 10
12.5594177454
 20
8.5862831753
 30
0.0
 10
12.5595846289
 20
8.5867159752
 30
0.0
  0
LINE
  5
2FB
100
AcDbEntity
  8
0
100
AcDbLine
 62
9
  6
CONTINUOUS
 10
12.5470645465
 20
8.5618793571
 11
12.5611533438
 21
8.5618228154
  0
LINE
  5
2FC
100
AcDbEntity
  8
0
100
AcDbLine
 62
9
  6
CONTINUOUS
 10
12.8762713625
 20
8.5618793244
 11
12.8621825645
 21
8.5618227508
  0
SPLINE
  5
2FD
100
AcDbEntity
  8
0
100
AcDbSpline
 62
9
  6
CONTINUOUS
 70
0
 71
3
 72
15
 73
11
 74
0
 42
0.0000001
 43
0.0000001
 44
0.0000000001
 40
0.0
 40
0.0
 40
0.0
 40
0.0
 40
0.1293706411
 40
0.2577898722
 40
0.3849939245
 40
0.5108285835
 40
0.6351999949
 40
0.7581047917
 40
0.8796510774
 40
1.0
 40
1.0
 40
1.0
 40
1.0
 10
12.87683347
 20
8.5982574767
 30
0.0
 10
12.8760313091
 20
8.59845815
 30
0.0
 10
12.8744542596
 20
8.5989501512
 30
0.0
 10
12.8722012288
 20
8.5999529037
 30
0.0
 10
12.8701013849
 20
8.6012034032
 30
0.0
 10
12.8681878846
 20
8.6026820507
 30
0.0
 10
12.8664907283
 20
8.6043662141
 30
0.0
 10
12.8650364504
 20
8.6062298394
 30
0.0
 10
12.8638485049
 20
8.6082435431
 30
0.0
 10
12.8632436102
 20
8.6096723211
 30
0.0
 10
12.8629923071
 20
8.6103993308
 30
0.0
  0
SPLINE
  5
2FE
100
AcDbEntity
  8
0
100
AcDbSpline
 62
9
  6
CONTINUOUS
 70
0
 71
3
 72
13
 73
9
 74
0
 42
0.0000001
 43
0.0000001
 44
0.0000000001
 40
0.0
 40
0.0
 40
0.0
 40
0.0
 40
0.2584450928
 40
0.5115172431
 40
0.6359029694
 40
0.7586755699
 40
0.8799735821
 40
1.0
 40
1.0
 40
1.0
 40
1.0
 10
12.8407229647
 20
6.838382608
 30
0.0
 10
12.8390844486
 20
6.8380308356
 30
0.0
 10
12.8359092952
 20
6.8369557132
 30
0.0
 10
12.832395118
 20
6.8347150141
 30
0.0
 10
12.830034083
 20
6.832479493
 30
0.0
 10
12.8285217328
 20
6.8306205803
 30
0.0
 10
12.8272849651
 20
6.8286015716
 30
0.0
 10
12.8266543073
 20
6.8271630281
 30
0.0
 10
12.8263922653
 20
6.8264301728
 30
0.0
  0
SPLINE
  5
2FF
100
AcDbEntity
  8
0
100
AcDbSpline
 62
9
  6
CONTINUOUS
 70
0
 71
3
 72
13
 73
9
 74
0
 42
0.0000001
 43
0.0000001
 44
0.0000000001
 40
0.0
 40
0.0
 40
0.0
 40
0.0
 40
0.2584460206
 40
0.5115184641
 40
0.6359040708
 40
0.7586763946
 40
0.8799740186
 40
1.0
 40
1.0
 40
1.0
 40
1.0
 10
12.5826128999
 20
6.8383824963
 30
0.0
 10
12.5842514185
 20
6.838030725
 30
0.0
 10
12.5874265743
 20
6.8369556094
 30
0.0
 10
12.5909407576
 20
6.8347149235
 30
0.0
 10
12.5933017935
 20
6.8324794145
 30
0.0
 10
12.5948141412
 20
6.830620513
 30
0.0
 10
12.5960509042
 20
6.8286015158
 30
0.0
 10
12.5966815573
 20
6.8271629796
 30
0.0
 10
12.5969435965
 20
6.8264301283
 30
0.0
  0
SPLINE
  5
300
100
AcDbEntity
  8
0
100
AcDbSpline
 62
9
  6
CONTINUOUS
 70
0
 71
3
 72
15
 73
11
 74
0
 42
0.0000001
 43
0.0000001
 44
0.0000000001
 40
0.0
 40
0.0
 40
0.0
 40
0.0
 40
0.1513238697
 40
0.2964657026
 40
0.4341053223
 40
0.5633807403
 40
0.6839177462
 40
0.7960040217
 40
0.9007284834
 40
1.0
 40
1.0
 40
1.0
 40
1.0
 10
12.5815044853
 20
6.8493237397
 30
0.0
 10
12.5823733077
 20
6.8492458296
 30
0.0
 10
12.5840699332
 20
6.8490181208
 30
0.0
 10
12.58651075
 20
6.8484483468
 30
0.0
 10
12.5887588333
 20
6.847666224
 30
0.0
 10
12.5907722091
 20
6.8466857904
 30
0.0
 10
12.5925134
 20
6.8455235438
 30
0.0
 10
12.5939494288
 20
6.8441983835
 30
0.0
 10
12.5950500525
 20
6.8427327877
 30
0.0
 10
12.5955523899
 20
6.8416574455
 30
0.0
 10
12.5957337858
 20
6.8411147043
 30
0.0
  0
SPLINE
  5
301
100
AcDbEntity
  8
0
100
AcDbSpline
 62
9
  6
CONTINUOUS
 70
0
 71
3
 72
15
 73
11
 74
0
 42
0.0000001
 43
0.0000001
 44
0.0000000001
 40
0.0
 40
0.0
 40
0.0
 40
0.0
 40
0.1293700338
 40
0.2577888777
 40
0.3849928175
 40
0.5108276287
 40
0.6351993926
 40
0.7581046123
 40
0.8796511821
 40
1.0
 40
1.0
 40
1.0
 40
1.0
 10
12.5465024832
 20
8.5982573529
 30
0.0
 10
12.547304643
 20
8.5984580244
 30
0.0
 10
12.5488816913
 20
8.5989500246
 30
0.0
 10
12.5511347189
 20
8.5999527849
 30
0.0
 10
12.55323456
 20
8.6012032985
 30
0.0
 10
12.5551480583
 20
8.602681964
 30
0.0
 10
12.5568452136
 20
8.6043661462
 30
0.0
 10
12.5582994921
 20
8.6062297881
 30
0.0
 10
12.5594874399
 20
8.6082435022
 30
0.0
 10
12.5600923395
 20
8.6096722839
 30
0.0
 10
12.5603436451
 20
8.6103992943
 30
0.0
  0
SPLINE
  5
302
100
AcDbEntity
  8
0
100
AcDbSpline
 62
9
  6
CONTINUOUS
 70
0
 71
3
 72
16
 73
12
 74
0
 42
0.0000001
 43
0.0000001
 44
0.0000000001
 40
0.0
 40
0.0
 40
0.0
 40
0.0
 40
0.160137233
 40
0.3135010266
 40
0.4578701895
 40
0.5914097311
 40
0.712697426
 40
0.8209411918
 40
0.8701986743
 40
0.9163345168
 40
1.0
 40
1.0
 40
1.0
 40
1.0
 10
12.8776413243
 20
8.5785199459
 30
0.0
 10
12.8767764724
 20
8.5787200068
 30
0.0
 10
12.8750947169
 20
8.5791633611
 30
0.0
 10
12.8726866914
 20
8.5799716779
 30
0.0
 10
12.8704798048
 20
8.5808971478
 30
0.0
 10
12.8685151286
 20
8.5819221565
 30
0.0
 10
12.8668290288
 20
8.5830279005
 30
0.0
 10
12.8656454924
 20
8.5840303277
 30
0.0
 10
12.8648778309
 20
8.5848600801
 30
0.0
 10
12.8642718172
 20
8.5856467786
 30
0.0
 10
12.8639181794
 20
8.5862832646
 30
0.0
 10
12.8637512744
 20
8.5867159744
 30
0.0
  0
SPLINE
  5
303
100
AcDbEntity
  8
0
100
AcDbSpline
 62
9
  6
CONTINUOUS
 70
0
 71
3
 72
15
 73
11
 74
0
 42
0.0000001
 43
0.0000001
 44
0.0000000001
 40
0.0
 40
0.0
 40
0.0
 40
0.0
 40
0.1513181147
 40
0.296455284
 40
0.434091685
 40
0.5633656408
 40
0.6839032052
 40
0.7959922258
 40
0.9007216226
 40
1.0
 40
1.0
 40
1.0
 40
1.0
 10
12.8418313967
 20
6.8493245905
 30
0.0
 10
12.8409625794
 20
6.8492466649
 30
0.0
 10
12.8392659606
 20
6.8490189165
 30
0.0
 10
12.8368251561
 20
6.8484490592
 30
0.0
 10
12.8345770802
 20
6.8476668314
 30
0.0
 10
12.8325637066
 20
6.846686273
 30
0.0
 10
12.8308225124
 20
6.8455238834
 30
0.0
 10
12.8293864755
 20
6.8441985643
 30
0.0
 10
12.8282858389
 20
6.8427327965
 30
0.0
 10
12.8277834928
 20
6.8416573407
 30
0.0
 10
12.8276020887
 20
6.8411145401
 30
0.0
  0
LINE
  5
304
100
AcDbEntity
  8
0
100
AcDbLine
 62
9
  6
CONTINUOUS
 10
12.8412555449
 20
6.8723661244
 11
12.8271667525
 21
6.8723098207
  0
SPLINE
  5
305
100
AcDbEntity
  8
0
100
AcDbSpline
 62
9
  6
CONTINUOUS
 70
0
 71
3
 72
16
 73
12
 74
0
 42
0.0000001
 43
0.0000001
 44
0.0000000001
 40
0.0
 40
0.0
 40
0.0
 40
0.0
 40
0.1571290208
 40
0.3080675685
 40
0.4507659864
 40
0.5835534016
 40
0.6458372404
 40
0.7052151952
 40
0.7616280969
 40
0.8150612348
 40
1.0
 40
1.0
 40
1.0
 40
1.0
 10
12.8419240546
 20
6.856078546
 30
0.0
 10
12.84105202
 20
6.8559058721
 30
0.0
 10
12.8393529084
 20
6.8555103349
 30
0.0
 10
12.8369146997
 20
6.854754855
 30
0.0
 10
12.8346712697
 20
6.8538602931
 30
0.0
 10
12.8329635475
 20
6.8529952659
 30
0.0
 10
12.8317353048
 20
6.8522430005
 30
0.0
 10
12.8309078381
 20
6.851667546
 30
0.0
 10
12.8301573408
 20
6.8510707696
 30
0.0
 10
12.8289310463
 20
6.8499450329
 30
0.0
 10
12.8280851795
 20
6.8488300862
 30
0.0
 10
12.8276932793
 20
6.8478599519
 30
0.0
  0
ENDSEC
  0
SECTION
  2
OBJECTS
  0
DICTIONARY
  5
C
100
AcDbDictionary
280
0
281
1
  3
ACAD_GROUP
350
D
  3
ACAD_MLINESTYLE
350
17
  3
ACAD_LAYOUT
350
1A
  3
ACAD_PLOTSETTINGS
350
19
  3
ACAD_PLOTSTYLENAME
350
E
  0
DICTIONARY
  5
D
102
{ACAD_REACTORS
330
C
102
}
100
AcDbDictionary
280
0
281
1
  0
ACDBDICTIONARYWDFLT
  5
E
102
{ACAD_REACTORS
330
C
102
}
100
AcDbDictionary
281
1
  3
Normal
350
F
100
AcDbDictionaryWithDefault
340
F
  0
DICTIONARY
  5
17
102
{ACAD_REACTORS
330
C
102
}
100
AcDbDictionary
280
0
281
1
  3
Standard
350
18
  0
DICTIONARY
  5
19
102
{ACAD_REACTORS
330
C
102
}
100
AcDbDictionary
281
1
  0
DICTIONARY
  5
1A
102
{ACAD_REACTORS
330
C
102
}
100
AcDbDictionary
281
1
  3
Model
350
306
  3
Layout1
350
307
  0
ACDBPLACEHOLDER
  5
F
102
{ACAD_REACTORS
330
E
102
}
  0
MLINESTYLE
  5
18
102
{ACAD_REACTORS
330
17
102
}
100
AcDbMlineStyle
  2
STANDARD
 70
0
  3

 62
256
 51
90.0
 52
90.0
 71
2
 49
0.5
 62
256
  6
BYLAYER
 49
-0.5
 62
256
  6
BYLAYER
  0
LAYOUT
  5
306
102
{ACAD_REACTORS
330
1A
102
}
100
AcDbPlotSettings
  1

  2
none_device
  4
ANSI_C_(22.00_x_17.00_Inches)
  6

 40
0.0
 41
0.0
 42
0.0
 43
0.0
 44
558.8
 45
431.8
 46
0.0
 47
0.0
 48
0.0
 49
0.0
140
0.0
141
0.0
142
1.0
143
1.0
 70
1024
 72
0
 73
0
 74
0
  7

 75
0
147
1.0
148
0.0
149
0.0
100
AcDbLayout
  1
Model
 70
0
 71
0
 10
0.0
 20
0.0
 11
22.0
 21
17.0
 12
0.0
 22
0.0
 32
0.0
 14
0.0
 24
0.0
 34
0.0
 15
0.0
 25
0.0
 35
0.0
146
0.0
 13
0.0
 23
0.0
 33
0.0
 16
1.0
 26
0.0
 36
0.0
 17
0.0
 27
1.0
 37
0.0
 76
0
330
205
345
0
346
0
  0
LAYOUT
  5
307
102
{ACAD_REACTORS
330
1A
102
}
100
AcDbPlotSettings
  1

  2
none_device
  4
ANSI_C_(22.00_x_17.00_Inches)
  6

 40
0.0
 41
0.0
 42
0.0
 43
0.0
 44
558.8
 45
431.8
 46
0.0
 47
0.0
 48
0.0
 49
0.0
140
0.0
141
0.0
142
1.0
143
1.0
 70
0
 72
0
 73
0
 74
0
  7

 75
0
147
1.0
148
0.0
149
0.0
100
AcDbLayout
  1
Layout1
 70
0
 71
1
 10
0.0
 20
0.0
 11
22.0
 21
17.0
 12
0.0
 22
0.0
 32
0.0
 14
0.0
 24
0.0
 34
0.0
 15
0.0
 25
0.0
 35
0.0
146
0.0
 13
0.0
 23
0.0
 33
0.0
 16
1.0
 26
0.0
 36
0.0
 17
0.0
 27
1.0
 37
0.0
 76
0
330
206
345
0
346
0
  0
ENDSEC
  0
EOF
