999
DXF file: 3170-5711_front.dxf
999
Pro/ENGINEER 2018400 by Parametric Technology Corporation
  0
SECTION
  2
HEADER
  9
$ACADVER
  1
AC1027
  9
$DWGCODEPAGE
  3
ANSI_1252
  9
$EXTMAX
 10
11.0
 20
8.5
 30
0.0
  9
$EXTMIN
 10
0.0
 20
0.0
 30
0.0
  9
$LIMMIN
 10
0.0
 20
0.0
  9
$LIMMAX
 10
11.0
 20
8.5
  9
$VIEWCTR
 10
5.5
 20
4.25
  9
$VIEWSIZE
 40
8.5
  9
$CLAYER
  8
0
  9
$LTSCALE
 40
0.605
  9
$CELTYPE
  6
BYLAYER
  9
$DIMSCALE
 40
1.0
  9
$DIMASZ
 40
0.1
  9
$DIMEXO
 40
0.0625
  9
$DIMDLI
 40
0.418
  9
$DIMEXE
 40
0.125
  9
$DIMCEN
 40
0.099
  9
$DIMLFAC
 40
1.0
  9
$DIMBLK
  1
_FILLED
  9
$DIMALT
 70
1
  9
$DIMALTD
 70
1
  9
$DIMALTTD
 70
2
  9
$DIMALTF
 40
25.4
  9
$DIMTXT
 40
0.08
  9
$DIMTOL
 70
1
  9
$DIMLIM
 70
0
  9
$DIMTFAC
 40
1.0
  9
$DIMTP
 40
0.01
  9
$DIMTM
 40
0.01
  9
$DIMGAP
 40
0.09
  9
$DIMDSEP
 70
46
  9
$AUNITS
 70
0
  9
$PDMODE
 70
3
  9
$PDSIZE
 40
0.3125
  9
$HANDSEED
  5
3E9
  9
$TILEMODE
 70
1
  9
$MEASUREMENT
 70
0
  9
$INSUNITS
 70
1
  0
ENDSEC
  0
SECTION
  2
CLASSES
  0
CLASS
  1
ACDBDICTIONARYWDFLT
  2
AcDbDictionaryWithDefault
  3
AutoCAD 2000
 90
0
 91
1
280
0
281
0
  0
CLASS
  1
ACDBPLACEHOLDER
  2
AcDbPlaceHolder
  3
AutoCAD 2000
 90
0
 91
1
280
0
281
0
  0
CLASS
  1
LAYOUT
  2
AcDbLayout
  3
AutoCAD 2000
 90
0
 91
0
280
0
281
0
  0
ENDSEC
  0
SECTION
  2
TABLES
  0
TABLE
  2
VPORT
  5
8
100
AcDbSymbolTable
 70
2
  0
VPORT
  5
1F4
100
AcDbSymbolTableRecord
100
AcDbViewportTableRecord
  2
*ACTIVE
 70
0
 10
0.0
 20
0.0
 11
1.0
 21
1.0
 12
5.5
 22
4.25
 13
0.0
 23
0.0
 14
1.0
 24
1.0
 15
0.0
 25
0.0
 16
0.0
 26
0.0
 36
1.0
 17
0.0
 27
0.0
 37
0.0
 40
8.5
 41
1.2941176471
 42
50.0
 43
0.0
 44
0.0
 50
0.0
 51
0.0
 71
0
 72
100
 73
1
 74
1
 75
0
 76
0
 77
0
 78
0
  0
ENDTAB
  0
TABLE
  2
LTYPE
  5
5
100
AcDbSymbolTable
 70
6
  0
LTYPE
  5
14
100
AcDbSymbolTableRecord
100
AcDbLinetypeTableRecord
  2
BYBLOCK
 70
0
  3

 72
65
 73
0
 40
0.0
  0
LTYPE
  5
15
100
AcDbSymbolTableRecord
100
AcDbLinetypeTableRecord
  2
BYLAYER
 70
0
  3

 72
65
 73
0
 40
0.0
  0
LTYPE
  5
16
100
AcDbSymbolTableRecord
100
AcDbLinetypeTableRecord
  2
CONTINUOUS
 70
64
  3
Solid line
 72
65
 73
0
 40
0.0
  0
LTYPE
  5
1F5
100
AcDbSymbolTableRecord
100
AcDbLinetypeTableRecord
  2
CENTER
 70
64
  3
____ _ ____ _ ____ _ ____ _ ____ _ ____ _ ____
 72
65
 73
4
 40
0.6
 49
0.375
 74
0
 49
-0.075
 74
0
 49
0.075
 74
0
 49
-0.075
 74
0
  0
LTYPE
  5
1F6
100
AcDbSymbolTableRecord
100
AcDbLinetypeTableRecord
  2
HIDDEN
 70
64
  3
- - - - - - - - - - - - - - - - - - - -
 72
65
 73
2
 40
0.2
 49
0.1
 74
0
 49
-0.1
 74
0
  0
LTYPE
  5
1F7
100
AcDbSymbolTableRecord
100
AcDbLinetypeTableRecord
  2
PHANTOM
 70
64
  3
_____ _ _ _____ _ _ _____ _ _ _____
 72
65
 73
6
 40
0.8
 49
0.45
 74
0
 49
-0.05
 74
0
 49
0.1
 74
0
 49
-0.05
 74
0
 49
0.1
 74
0
 49
-0.05
 74
0
  0
LTYPE
  5
1F8
100
AcDbSymbolTableRecord
100
AcDbLinetypeTableRecord
  2
DOT
 70
64
  3
. . . . . . . . . . . . . . . . . . . .
 72
65
 73
2
 40
0.2
 49
0.1
 74
0
 49
-0.1
 74
0
  0
LTYPE
  5
1F9
100
AcDbSymbolTableRecord
100
AcDbLinetypeTableRecord
  2
DASHED
 70
64
  3
- - - - - - - - - - - - - - - - - - - -
 72
65
 73
2
 40
0.2
 49
0.1
 74
0
 49
-0.1
 74
0
  0
ENDTAB
  0
TABLE
  2
LAYER
  5
2
100
AcDbSymbolTable
 70
36
  0
LAYER
  5
10
100
AcDbSymbolTableRecord
100
AcDbLayerTableRecord
  2
0
 70
0
 62
7
  6
CONTINUOUS
370
-3
390
F
  0
LAYER
  5
1FA
100
AcDbSymbolTableRecord
100
AcDbLayerTableRecord
  2
DEFAULT_1
 70
0
 62
7
  6
CENTER
370
-3
390
F
  0
LAYER
  5
1FB
100
AcDbSymbolTableRecord
100
AcDbLayerTableRecord
  2
DEFAULT_2
 70
0
 62
8
  6
HIDDEN
370
-3
390
F
  0
LAYER
  5
1FC
100
AcDbSymbolTableRecord
100
AcDbLayerTableRecord
  2
DEFAULT_3
 70
0
 62
7
  6
PHANTOM
370
-3
390
F
  0
LAYER
  5
1FD
100
AcDbSymbolTableRecord
100
AcDbLayerTableRecord
  2
DEFAULT_COORDINATE_SYSTEM
 70
0
 62
7
  6
CONTINUOUS
370
-3
390
F
  0
LAYER
  5
1FE
100
AcDbSymbolTableRecord
100
AcDbLayerTableRecord
  2
DEFAULT_DATUM_AXES
 70
0
 62
7
  6
CONTINUOUS
370
-3
390
F
  0
LAYER
  5
1FF
100
AcDbSymbolTableRecord
100
AcDbLayerTableRecord
  2
DEFAULT_DATUM_PLANES
 70
0
 62
7
  6
CONTINUOUS
370
-3
390
F
  0
ENDTAB
  0
TABLE
  2
STYLE
  5
3
100
AcDbSymbolTable
 70
1
  0
STYLE
  5
11
100
AcDbSymbolTableRecord
100
AcDbTextStyleTableRecord
  2
STANDARD
 70
0
 40
0.0
 41
0.8
 50
0.0
 71
0
 42
0.2
  3
txt
  4

  0
STYLE
  5
200
100
AcDbSymbolTableRecord
100
AcDbTextStyleTableRecord
  2
TEXTSTYLE_1
 70
0
 40
0.0
 41
0.8
 50
0.0
 71
0
 42
0.2
  3
gdt
  4

  0
ENDTAB
  0
TABLE
  2
VIEW
  5
6
100
AcDbSymbolTable
 70
0
  0
ENDTAB
  0
TABLE
  2
UCS
  5
7
100
AcDbSymbolTable
 70
0
  0
ENDTAB
  0
TABLE
  2
APPID
  5
9
100
AcDbSymbolTable
 70
1
  0
APPID
  5
201
100
AcDbSymbolTableRecord
100
AcDbRegAppTableRecord
  2
ACAD
 70
0
  0
ENDTAB
  0
TABLE
  2
BLOCK_RECORD
  5
1
100
AcDbSymbolTable
 70
0
  0
BLOCK_RECORD
  5
202
100
AcDbSymbolTableRecord
100
AcDbBlockTableRecord
  2
*Model_Space
  0
BLOCK_RECORD
  5
203
100
AcDbSymbolTableRecord
100
AcDbBlockTableRecord
  2
*Paper_Space
  0
BLOCK_RECORD
  5
204
100
AcDbSymbolTableRecord
100
AcDbBlockTableRecord
  2
_FILLED
  0
ENDTAB
  0
TABLE
  2
DIMSTYLE
  5
A
100
AcDbSymbolTable
 70
1
100
AcDbDimStyleTable
 71
0
  0
DIMSTYLE
105
205
100
AcDbSymbolTableRecord
100
AcDbDimStyleTableRecord
  2
STANDARD
 70
0
  3

  4

 40
1.0
 41
0.1
 42
0.0625
 43
0.38
 44
0.125
 45
0.0
 46
0.0
 47
0.01
 48
0.01
140
0.08
141
0.09
142
0.0
143
25.4
144
1.0
145
0.0
146
1.0
147
0.09
 71
1.0
 72
0.0
 73
1
 74
1
 75
0
 76
0
 77
0
 78
4
 79
1
170
1
171
1
172
0
173
0
174
0
175
0
176
0
177
0
178
0
270
2
179
2
271
2
272
2
273
2
274
2
275
0
280
0
281
0
282
0
283
1
284
4
285
0
286
0
287
3
288
0
340
11
278
46
341
204
342
204
343
204
344
204
  0
ENDTAB
  0
ENDSEC
  0
SECTION
  2
BLOCKS
  0
BLOCK
  5
20
100
AcDbEntity
  8
0
100
AcDbBlockBegin
  2
*Model_Space
 70
0
 10
0.0
 20
0.0
 30
0.0
  3
*Model_Space
  1

  0
ENDBLK
  5
21
100
AcDbEntity
  8
0
100
AcDbBlockEnd
  0
BLOCK
  5
1C
100
AcDbEntity
  8
0
100
AcDbBlockBegin
  2
*Paper_Space
 70
0
 10
0.0
 20
0.0
 30
0.0
  3
*Paper_Space
  1

  0
ENDBLK
  5
1D
100
AcDbEntity
  8
0
100
AcDbBlockEnd
  0
BLOCK
  5
206
100
AcDbEntity
  8
0
100
AcDbBlockBegin
  2
_FILLED
 70
64
 10
0.0
 20
0.0
  3
_FILLED
  1

  0
SOLID
  5
207
100
AcDbEntity
  8
0
  6
BYBLOCK
 62
0
100
AcDbTrace
 10
0.0
 20
0.0
 11
-1.0
 21
0.2
 12
-1.0
 22
-0.2
 13
-1.0
 23
-0.2
  0
ENDBLK
  5
208
100
AcDbEntity
  8
0
  6
BYBLOCK
 62
0
100
AcDbBlockEnd
  0
ENDSEC
  0
SECTION
  2
ENTITIES
  0
MTEXT
  5
209
100
AcDbEntity
  8
0
100
AcDbMText
 62
2
  6
CONTINUOUS
  7
STANDARD
 71
3
 72
1
 10
5.2694099379
 20
1.4759006211
 30
0.0
 11
1.0
 21
0.0
 31
0.0
 73
2
 44
0.9
  1
SCALE  .500
 40
0.08
 41
0.704
  0
LINE
  5
20A
100
AcDbEntity
  8
0
100
AcDbLine
 62
7
  6
CONTINUOUS
 10
0.0
 20
0.0
 11
0.0
 21
8.5
  0
LINE
  5
20B
100
AcDbEntity
  8
0
100
AcDbLine
 62
7
  6
CONTINUOUS
 10
0.0
 20
0.0
 11
11.0
 21
0.0
  0
LINE
  5
20C
100
AcDbEntity
  8
0
100
AcDbLine
 62
7
  6
CONTINUOUS
 10
0.0
 20
8.5
 11
11.0
 21
8.5
  0
LINE
  5
20D
100
AcDbEntity
  8
0
100
AcDbLine
 62
7
  6
CONTINUOUS
 10
11.0
 20
0.0
 11
11.0
 21
8.5
  0
LINE
  5
20E
100
AcDbEntity
  8
0
100
AcDbLine
 62
7
  6
CONTINUOUS
 10
5.0042101118
 20
2.4932608696
 11
5.3092101118
 21
2.4932608696
  0
LINE
  5
20F
100
AcDbEntity
  8
0
100
AcDbLine
 62
7
  6
CONTINUOUS
 10
5.0042101118
 20
2.5080108696
 11
5.3092101118
 21
2.5080108696
  0
LINE
  5
210
100
AcDbEntity
  8
0
100
AcDbLine
 62
7
  6
CONTINUOUS
 10
5.0042101118
 20
2.5375108696
 11
5.3092101118
 21
2.5375108696
  0
LINE
  5
211
100
AcDbEntity
  8
0
100
AcDbLine
 62
7
  6
CONTINUOUS
 10
5.0042101118
 20
2.6160108696
 11
5.3092101118
 21
2.6160108696
  0
LINE
  5
212
100
AcDbEntity
  8
0
100
AcDbLine
 62
7
  6
CONTINUOUS
 10
5.0042101118
 20
2.6455108696
 11
5.3092101118
 21
2.6455108696
  0
LINE
  5
213
100
AcDbEntity
  8
0
100
AcDbLine
 62
7
  6
CONTINUOUS
 10
5.0042101118
 20
2.7240108696
 11
5.3092101118
 21
2.7240108696
  0
LINE
  5
214
100
AcDbEntity
  8
0
100
AcDbLine
 62
7
  6
CONTINUOUS
 10
4.6195978036
 20
2.6397167383
 11
4.2326043785
 21
2.8201747361
  0
LINE
  5
215
100
AcDbEntity
  8
0
100
AcDbLine
 62
7
  6
CONTINUOUS
 10
5.0042101118
 20
2.7535108696
 11
5.3092101118
 21
2.7535108696
  0
LINE
  5
216
100
AcDbEntity
  8
0
100
AcDbLine
 62
7
  6
CONTINUOUS
 10
5.0042101118
 20
2.8320108696
 11
5.3092101118
 21
2.8320108696
  0
LINE
  5
217
100
AcDbEntity
  8
0
100
AcDbLine
 62
7
  6
CONTINUOUS
 10
5.0042101118
 20
2.8615108696
 11
5.3092101118
 21
2.8615108696
  0
LINE
  5
218
100
AcDbEntity
  8
0
100
AcDbLine
 62
7
  6
CONTINUOUS
 10
4.2490013922
 20
2.8553382455
 11
4.6359948173
 21
2.6748802477
  0
LINE
  5
219
100
AcDbEntity
  8
0
100
AcDbLine
 62
7
  6
CONTINUOUS
 10
4.677792913
 20
2.7645165533
 11
4.290799488
 21
2.9449745511
  0
LINE
  5
21A
100
AcDbEntity
  8
0
100
AcDbLine
 62
7
  6
CONTINUOUS
 10
5.0042101118
 20
2.9400108696
 11
5.3092101118
 21
2.9400108696
  0
LINE
  5
21B
100
AcDbEntity
  8
0
100
AcDbLine
 62
7
  6
CONTINUOUS
 10
5.0042101118
 20
2.9695108696
 11
5.3092101118
 21
2.9695108696
  0
LINE
  5
21C
100
AcDbEntity
  8
0
100
AcDbLine
 62
7
  6
CONTINUOUS
 10
4.6941048283
 20
2.7994975684
 11
4.3071114032
 21
2.9799555662
  0
LINE
  5
21D
100
AcDbEntity
  8
0
100
AcDbLine
 62
7
  6
CONTINUOUS
 10
4.735902924
 20
2.889133874
 11
4.348909499
 21
3.0695918718
  0
LINE
  5
21E
100
AcDbEntity
  8
0
100
AcDbLine
 62
7
  6
CONTINUOUS
 10
5.0042101118
 20
3.0480108696
 11
5.3092101118
 21
3.0480108696
  0
LINE
  5
21F
100
AcDbEntity
  8
0
100
AcDbLine
 62
7
  6
CONTINUOUS
 10
5.0042101118
 20
3.0775108696
 11
5.3092101118
 21
3.0775108696
  0
LINE
  5
220
100
AcDbEntity
  8
0
100
AcDbLine
 62
7
  6
CONTINUOUS
 10
4.7522148393
 20
2.9241148892
 11
4.3652214142
 21
3.1045728869
  0
LINE
  5
221
100
AcDbEntity
  8
0
100
AcDbLine
 62
7
  6
CONTINUOUS
 10
4.794012935
 20
3.0137511947
 11
4.4070195099
 21
3.1942091925
  0
LINE
  5
222
100
AcDbEntity
  8
0
100
AcDbLine
 62
7
  6
CONTINUOUS
 10
4.8103248503
 20
3.0487322099
 11
4.4233314252
 21
3.2291902076
  0
LINE
  5
223
100
AcDbEntity
  8
0
100
AcDbLine
 62
7
  6
CONTINUOUS
 10
4.9083187663
 20
3.2629368445
 11
5.006619306
 21
3.2629368445
  0
LINE
  5
224
100
AcDbEntity
  8
0
100
AcDbLine
 62
7
  6
CONTINUOUS
 10
4.852122946
 20
3.1383685154
 11
4.4651295209
 21
3.3188265132
  0
LINE
  5
225
100
AcDbEntity
  8
0
100
AcDbLine
 62
7
  6
CONTINUOUS
 10
4.8684348612
 20
3.1733495306
 11
4.4814414362
 21
3.3538075284
  0
LINE
  5
226
100
AcDbEntity
  8
0
100
AcDbLine
 62
7
  6
CONTINUOUS
 10
4.9086794175
 20
3.2637102635
 11
4.5232395319
 21
3.4434438339
  0
LINE
  5
227
100
AcDbEntity
  8
0
100
AcDbLine
 62
7
  6
CONTINUOUS
 10
4.5395514472
 20
3.4784248491
 11
4.9249913327
 21
3.2986912787
  0
LWPOLYLINE
  5
228
100
AcDbEntity
  8
0
100
AcDbPolyline
 62
7
  6
CONTINUOUS
 90
16
 70
0
 10
4.5679721346
 20
5.7615111538
 10
4.567549143
 20
5.7612966635
 10
4.5665920692
 20
5.7607462425
 10
4.5656780698
 20
5.7601269111
 10
4.5648120975
 20
5.7594420232
 10
4.563998845
 20
5.7586952881
 10
4.5632427198
 20
5.7578907505
 10
4.5625478198
 20
5.7570327683
 10
4.5619179112
 20
5.7561259889
 10
4.5613564085
 20
5.7551753242
 10
4.5608663556
 20
5.7541859247
 10
4.5604504098
 20
5.753163151
 10
4.5601108262
 20
5.7521125445
 10
4.5598494465
 20
5.7510397974
 10
4.5596676888
 20
5.7499507227
 10
4.5595665393
 20
5.7488512217
  0
LINE
  5
229
100
AcDbEntity
  8
0
100
AcDbLine
 62
7
  6
CONTINUOUS
 10
5.0831532597
 20
3.7449240683
 11
4.7387172216
 21
3.9055372306
  0
LINE
  5
22A
100
AcDbEntity
  8
0
100
AcDbLine
 62
7
  6
CONTINUOUS
 10
5.3092101118
 20
3.9832608696
 11
5.3085831029
 21
3.9832608696
  0
LINE
  5
22B
100
AcDbEntity
  8
0
100
AcDbLine
 62
7
  6
CONTINUOUS
 10
5.3092101118
 20
3.9965108696
 11
4.7242101118
 21
3.9965108696
  0
LINE
  5
22C
100
AcDbEntity
  8
0
100
AcDbLine
 62
7
  6
CONTINUOUS
 10
4.5042101118
 20
5.6420108696
 11
4.5042101118
 21
5.5870108696
  0
LINE
  5
22D
100
AcDbEntity
  8
0
100
AcDbLine
 62
7
  6
CONTINUOUS
 10
4.5242101118
 20
5.6620108696
 11
4.5242101118
 21
5.5870108696
  0
LINE
  5
22E
100
AcDbEntity
  8
0
100
AcDbLine
 62
7
  6
CONTINUOUS
 10
4.5379469539
 20
5.716919567
 11
4.5379469539
 21
5.6720108696
  0
LINE
  5
22F
100
AcDbEntity
  8
0
100
AcDbLine
 62
7
  6
CONTINUOUS
 10
4.5579469539
 20
5.6628756961
 11
4.5579469539
 21
5.7339554732
  0
LINE
  5
230
100
AcDbEntity
  8
0
100
AcDbLine
 62
7
  6
CONTINUOUS
 10
4.5667101118
 20
5.0620108696
 11
4.5667101118
 21
5.1270108696
  0
LINE
  5
231
100
AcDbEntity
  8
0
100
AcDbLine
 62
7
  6
CONTINUOUS
 10
4.5767101118
 20
5.0370108696
 11
4.5767101118
 21
5.0620108696
  0
LWPOLYLINE
  5
232
100
AcDbEntity
  8
0
100
AcDbPolyline
 62
7
  6
CONTINUOUS
 90
18
 70
0
 10
4.5792101122
 20
5.7794896664
 10
4.5791932922
 20
5.7786695953
 10
4.5790926032
 20
5.7773248218
 10
4.5789015207
 20
5.7759898905
 10
4.5786209135
 20
5.7746708705
 10
4.5782520573
 20
5.7733737588
 10
4.5777966292
 20
5.7721044523
 10
4.5772566996
 20
5.7708687219
 10
4.5766347233
 20
5.7696721857
 10
4.5759335281
 20
5.7685202835
 10
4.5751563019
 20
5.7674182524
 10
4.5743065782
 20
5.7663711026
 10
4.5733882202
 20
5.7653835949
 10
4.5724054032
 20
5.7644602188
 10
4.5713625954
 20
5.7636051723
 10
4.5702645378
 20
5.7628223428
 10
4.5691162226
 20
5.7621152894
 10
4.5679721351
 20
5.7615111527
  0
LWPOLYLINE
  5
233
100
AcDbEntity
  8
0
100
AcDbPolyline
 62
7
  6
CONTINUOUS
 90
18
 70
0
 10
4.5595665393
 20
5.7488512217
 10
4.5595461846
 20
5.7484610996
 10
4.5594464139
 20
5.747411935
 10
4.559273229
 20
5.7463723972
 10
4.5590274917
 20
5.7453476162
 10
4.5587104213
 20
5.7443426482
 10
4.5583235892
 20
5.743362451
 10
4.5578689109
 20
5.7424118596
 10
4.5573486362
 20
5.7414955618
 10
4.5567653375
 20
5.7406180746
 10
4.5561218993
 20
5.7397837251
 10
4.5554215044
 20
5.7389966287
 10
4.5546676093
 20
5.7382606591
 10
4.5538639426
 20
5.7375794464
 10
4.5530144929
 20
5.7369563582
 10
4.552123492
 20
5.7363944777
 10
4.5511953092
 20
5.7358965404
 10
4.5503044493
 20
5.7354936965
  0
LINE
  5
234
100
AcDbEntity
  8
0
100
AcDbLine
 62
7
  6
CONTINUOUS
 10
4.6079601118
 20
5.8615812115
 11
4.5993620889
 21
5.8016407089
  0
LINE
  5
235
100
AcDbEntity
  8
0
100
AcDbLine
 62
7
  6
CONTINUOUS
 10
4.6079601118
 20
6.7795108696
 11
4.6079601118
 21
5.8615812115
  0
LINE
  5
236
100
AcDbEntity
  8
0
100
AcDbLine
 62
7
  6
CONTINUOUS
 10
4.6192101118
 20
4.9970108696
 11
4.6192101118
 21
4.8420108696
  0
LINE
  5
237
100
AcDbEntity
  8
0
100
AcDbLine
 62
7
  6
CONTINUOUS
 10
4.7019601118
 20
5.5725230017
 11
4.7019601118
 21
5.5618487374
  0
LINE
  5
238
100
AcDbEntity
  8
0
100
AcDbLine
 62
7
  6
CONTINUOUS
 10
4.7019601118
 20
5.5380730017
 11
4.7019601118
 21
5.5273987374
  0
LINE
  5
239
100
AcDbEntity
  8
0
100
AcDbLine
 62
7
  6
CONTINUOUS
 10
4.7019601118
 20
5.5036230017
 11
4.7019601118
 21
5.4929487374
  0
LINE
  5
23A
100
AcDbEntity
  8
0
100
AcDbLine
 62
7
  6
CONTINUOUS
 10
4.7019601118
 20
5.4691730017
 11
4.7019601118
 21
5.4584987374
  0
LINE
  5
23B
100
AcDbEntity
  8
0
100
AcDbLine
 62
7
  6
CONTINUOUS
 10
4.7019601118
 20
5.4347230017
 11
4.7019601118
 21
5.4240487374
  0
LINE
  5
23C
100
AcDbEntity
  8
0
100
AcDbLine
 62
7
  6
CONTINUOUS
 10
4.7019601118
 20
5.4002730017
 11
4.7019601118
 21
5.3895987374
  0
LINE
  5
23D
100
AcDbEntity
  8
0
100
AcDbLine
 62
7
  6
CONTINUOUS
 10
4.7019601118
 20
5.3658230017
 11
4.7019601118
 21
5.3551487374
  0
LINE
  5
23E
100
AcDbEntity
  8
0
100
AcDbLine
 62
7
  6
CONTINUOUS
 10
4.7019601118
 20
5.3313730017
 11
4.7019601118
 21
5.3206987374
  0
LINE
  5
23F
100
AcDbEntity
  8
0
100
AcDbLine
 62
7
  6
CONTINUOUS
 10
4.7019601118
 20
5.2969230017
 11
4.7019601118
 21
5.2862487374
  0
LINE
  5
240
100
AcDbEntity
  8
0
100
AcDbLine
 62
7
  6
CONTINUOUS
 10
4.7019601118
 20
5.2624730017
 11
4.7019601118
 21
5.2517987374
  0
LINE
  5
241
100
AcDbEntity
  8
0
100
AcDbLine
 62
7
  6
CONTINUOUS
 10
4.7019601118
 20
5.2280230017
 11
4.7019601118
 21
5.2173487374
  0
LINE
  5
242
100
AcDbEntity
  8
0
100
AcDbLine
 62
7
  6
CONTINUOUS
 10
4.7019601118
 20
5.1935730017
 11
4.7019601118
 21
5.1828987374
  0
LINE
  5
243
100
AcDbEntity
  8
0
100
AcDbLine
 62
7
  6
CONTINUOUS
 10
4.7019601118
 20
5.1591230017
 11
4.7019601118
 21
5.1484487374
  0
LINE
  5
244
100
AcDbEntity
  8
0
100
AcDbLine
 62
7
  6
CONTINUOUS
 10
4.7019601118
 20
4.8146230017
 11
4.7019601118
 21
4.8039487374
  0
LINE
  5
245
100
AcDbEntity
  8
0
100
AcDbLine
 62
7
  6
CONTINUOUS
 10
4.7223101118
 20
5.5870108696
 11
4.7223101118
 21
5.5779828675
  0
LINE
  5
246
100
AcDbEntity
  8
0
100
AcDbLine
 62
7
  6
CONTINUOUS
 10
4.7223101118
 20
5.5565858696
 11
4.7223101118
 21
5.5435328675
  0
LINE
  5
247
100
AcDbEntity
  8
0
100
AcDbLine
 62
7
  6
CONTINUOUS
 10
4.7223101118
 20
5.5221358696
 11
4.7223101118
 21
5.5090828675
  0
LINE
  5
248
100
AcDbEntity
  8
0
100
AcDbLine
 62
7
  6
CONTINUOUS
 10
4.7223101118
 20
5.4876858696
 11
4.7223101118
 21
5.4746328675
  0
LINE
  5
249
100
AcDbEntity
  8
0
100
AcDbLine
 62
7
  6
CONTINUOUS
 10
4.7223101118
 20
5.4532358696
 11
4.7223101118
 21
5.4401828675
  0
LINE
  5
24A
100
AcDbEntity
  8
0
100
AcDbLine
 62
7
  6
CONTINUOUS
 10
4.7223101118
 20
5.4187858696
 11
4.7223101118
 21
5.4057328675
  0
LINE
  5
24B
100
AcDbEntity
  8
0
100
AcDbLine
 62
7
  6
CONTINUOUS
 10
4.7223101118
 20
5.3843358696
 11
4.7223101118
 21
5.3712828675
  0
LINE
  5
24C
100
AcDbEntity
  8
0
100
AcDbLine
 62
7
  6
CONTINUOUS
 10
4.7223101118
 20
5.3498858696
 11
4.7223101118
 21
5.3368328675
  0
LINE
  5
24D
100
AcDbEntity
  8
0
100
AcDbLine
 62
7
  6
CONTINUOUS
 10
4.7223101118
 20
5.3154358696
 11
4.7223101118
 21
5.3023828675
  0
LINE
  5
24E
100
AcDbEntity
  8
0
100
AcDbLine
 62
7
  6
CONTINUOUS
 10
4.7223101118
 20
5.2809858696
 11
4.7223101118
 21
5.2679328675
  0
LINE
  5
24F
100
AcDbEntity
  8
0
100
AcDbLine
 62
7
  6
CONTINUOUS
 10
4.7223101118
 20
5.2465358696
 11
4.7223101118
 21
5.2334828675
  0
LINE
  5
250
100
AcDbEntity
  8
0
100
AcDbLine
 62
7
  6
CONTINUOUS
 10
4.7223101118
 20
5.2120858696
 11
4.7223101118
 21
5.1990328675
  0
LINE
  5
251
100
AcDbEntity
  8
0
100
AcDbLine
 62
7
  6
CONTINUOUS
 10
4.7223101118
 20
5.1776358696
 11
4.7223101118
 21
5.1645828675
  0
LINE
  5
252
100
AcDbEntity
  8
0
100
AcDbLine
 62
7
  6
CONTINUOUS
 10
4.7223101118
 20
5.1431858696
 11
4.7223101118
 21
5.1301328675
  0
LINE
  5
253
100
AcDbEntity
  8
0
100
AcDbLine
 62
7
  6
CONTINUOUS
 10
4.7223101118
 20
4.8220108696
 11
4.7223101118
 21
4.8200828675
  0
LINE
  5
254
100
AcDbEntity
  8
0
100
AcDbLine
 62
7
  6
CONTINUOUS
 10
4.7223101118
 20
4.7986858696
 11
4.7223101118
 21
4.7917608696
  0
LINE
  5
255
100
AcDbEntity
  8
0
100
AcDbLine
 62
7
  6
CONTINUOUS
 10
4.7242101118
 20
4.7917608696
 11
4.7242101118
 21
3.9965108696
  0
LINE
  5
256
100
AcDbEntity
  8
0
100
AcDbLine
 62
7
  6
CONTINUOUS
 10
4.7992666432
 20
4.9970108696
 11
4.7992666432
 21
4.8420108696
  0
LINE
  5
257
100
AcDbEntity
  8
0
100
AcDbLine
 62
7
  6
CONTINUOUS
 10
4.8381756666
 20
4.9970108696
 11
4.8381756666
 21
4.8420108696
  0
LINE
  5
258
100
AcDbEntity
  8
0
100
AcDbLine
 62
7
  6
CONTINUOUS
 10
5.3103497008
 20
4.815516709
 11
5.3307485165
 21
4.8208049807
  0
LINE
  5
259
100
AcDbEntity
  8
0
100
AcDbLine
 62
7
  6
CONTINUOUS
 10
5.0042101118
 20
2.4932608696
 11
5.0042101118
 21
2.5080108696
  0
LINE
  5
25A
100
AcDbEntity
  8
0
100
AcDbLine
 62
7
  6
CONTINUOUS
 10
5.0042101118
 20
2.5375108696
 11
5.0042101118
 21
2.6160108696
  0
LINE
  5
25B
100
AcDbEntity
  8
0
100
AcDbLine
 62
7
  6
CONTINUOUS
 10
5.0042101118
 20
2.6455108696
 11
5.0042101118
 21
2.7240108696
  0
LINE
  5
25C
100
AcDbEntity
  8
0
100
AcDbLine
 62
7
  6
CONTINUOUS
 10
5.0042101118
 20
2.7535108696
 11
5.0042101118
 21
2.8320108696
  0
LINE
  5
25D
100
AcDbEntity
  8
0
100
AcDbLine
 62
7
  6
CONTINUOUS
 10
5.0042101118
 20
2.8615108696
 11
5.0042101118
 21
2.9400108696
  0
LINE
  5
25E
100
AcDbEntity
  8
0
100
AcDbLine
 62
7
  6
CONTINUOUS
 10
5.0042101118
 20
2.9695108696
 11
5.0042101118
 21
3.0480108696
  0
LINE
  5
25F
100
AcDbEntity
  8
0
100
AcDbLine
 62
7
  6
CONTINUOUS
 10
5.0042101118
 20
3.0775108696
 11
5.0042101118
 21
3.2629368445
  0
LINE
  5
260
100
AcDbEntity
  8
0
100
AcDbLine
 62
7
  6
CONTINUOUS
 10
5.006619306
 20
3.2629368445
 11
5.006619306
 21
3.4737430321
  0
LINE
  5
261
100
AcDbEntity
  8
0
100
AcDbLine
 62
7
  6
CONTINUOUS
 10
5.0167101118
 20
5.667132019
 11
5.0167101118
 21
5.7207394655
  0
LINE
  5
262
100
AcDbEntity
  8
0
100
AcDbLine
 62
7
  6
CONTINUOUS
 10
4.7230705227
 20
4.8202800301
 11
4.7026717071
 21
4.8149917584
  0
LINE
  5
263
100
AcDbEntity
  8
0
100
AcDbLine
 62
7
  6
CONTINUOUS
 10
5.3314601118
 20
4.7917608696
 11
4.7223106535
 21
4.7917608696
  0
LINE
  5
264
100
AcDbEntity
  8
0
100
AcDbLine
 62
7
  6
CONTINUOUS
 10
5.3942101118
 20
4.8220108696
 11
4.6392101118
 21
4.8220108696
  0
LINE
  5
265
100
AcDbEntity
  8
0
100
AcDbLine
 62
7
  6
CONTINUOUS
 10
5.2341535804
 20
4.8420108696
 11
5.195244557
 21
4.8420108696
  0
LINE
  5
266
100
AcDbEntity
  8
0
100
AcDbLine
 62
7
  6
CONTINUOUS
 10
4.8381756666
 20
4.8420108696
 11
4.7992666432
 21
4.8420108696
  0
LINE
  5
267
100
AcDbEntity
  8
0
100
AcDbLine
 62
7
  6
CONTINUOUS
 10
4.7026717072
 20
4.8035799807
 11
4.7222622522
 21
4.7985012815
  0
LINE
  5
268
100
AcDbEntity
  8
0
100
AcDbLine
 62
7
  6
CONTINUOUS
 10
5.195244557
 20
4.9970108696
 11
5.195244557
 21
4.8420108696
  0
LINE
  5
269
100
AcDbEntity
  8
0
100
AcDbLine
 62
7
  6
CONTINUOUS
 10
4.7387172216
 20
3.9055372306
 11
4.5395514472
 21
3.4784248491
  0
LINE
  5
26A
100
AcDbEntity
  8
0
100
AcDbLine
 62
7
  6
CONTINUOUS
 10
4.2490013922
 20
2.8553382455
 11
4.290799488
 21
2.9449745511
  0
LINE
  5
26B
100
AcDbEntity
  8
0
100
AcDbLine
 62
7
  6
CONTINUOUS
 10
4.3071114032
 20
2.9799555662
 11
4.348909499
 21
3.0695918718
  0
LINE
  5
26C
100
AcDbEntity
  8
0
100
AcDbLine
 62
7
  6
CONTINUOUS
 10
4.3652214142
 20
3.1045728869
 11
4.4070195099
 21
3.1942091925
  0
LINE
  5
26D
100
AcDbEntity
  8
0
100
AcDbLine
 62
7
  6
CONTINUOUS
 10
4.4233314252
 20
3.2291902076
 11
4.4651295209
 21
3.3188265132
  0
LINE
  5
26E
100
AcDbEntity
  8
0
100
AcDbLine
 62
7
  6
CONTINUOUS
 10
4.4814414362
 20
3.3538075284
 11
4.5232395319
 21
3.4434438339
  0
LINE
  5
26F
100
AcDbEntity
  8
0
100
AcDbLine
 62
7
  6
CONTINUOUS
 10
5.3159197058
 20
5.1270108696
 11
5.3307485165
 21
5.1308549807
  0
LINE
  5
270
100
AcDbEntity
  8
0
100
AcDbLine
 62
7
  6
CONTINUOUS
 10
4.6167111013
 20
4.9970108696
 11
5.4167091223
 21
4.9970108696
  0
LINE
  5
271
100
AcDbEntity
  8
0
100
AcDbLine
 62
7
  6
CONTINUOUS
 10
5.3307485165
 20
4.7977667584
 11
5.3111101118
 21
4.8028578675
  0
LINE
  5
272
100
AcDbEntity
  8
0
100
AcDbLine
 62
7
  6
CONTINUOUS
 10
5.2341535804
 20
4.9970108696
 11
5.2341535804
 21
4.8420108696
  0
LINE
  5
273
100
AcDbEntity
  8
0
100
AcDbLine
 62
7
  6
CONTINUOUS
 10
5.3092101118
 20
4.7917608696
 11
5.3092101118
 21
3.9965108696
  0
LINE
  5
274
100
AcDbEntity
  8
0
100
AcDbLine
 62
7
  6
CONTINUOUS
 10
5.3092101118
 20
2.4932608696
 11
5.3092101118
 21
2.5080108696
  0
LINE
  5
275
100
AcDbEntity
  8
0
100
AcDbLine
 62
7
  6
CONTINUOUS
 10
5.3092101118
 20
2.5375108696
 11
5.3092101118
 21
2.6160108696
  0
LINE
  5
276
100
AcDbEntity
  8
0
100
AcDbLine
 62
7
  6
CONTINUOUS
 10
5.3092101118
 20
2.6455108696
 11
5.3092101118
 21
2.7240108696
  0
LINE
  5
277
100
AcDbEntity
  8
0
100
AcDbLine
 62
7
  6
CONTINUOUS
 10
5.3092101118
 20
2.7535108696
 11
5.3092101118
 21
2.8320108696
  0
LINE
  5
278
100
AcDbEntity
  8
0
100
AcDbLine
 62
7
  6
CONTINUOUS
 10
5.3092101118
 20
2.8615108696
 11
5.3092101118
 21
2.9400108696
  0
LINE
  5
279
100
AcDbEntity
  8
0
100
AcDbLine
 62
7
  6
CONTINUOUS
 10
5.3092101118
 20
2.9695108696
 11
5.3092101118
 21
3.0480108696
  0
LINE
  5
27A
100
AcDbEntity
  8
0
100
AcDbLine
 62
7
  6
CONTINUOUS
 10
5.3092101118
 20
3.0775108696
 11
5.3092101118
 21
3.9832608696
  0
LINE
  5
27B
100
AcDbEntity
  8
0
100
AcDbLine
 62
7
  6
CONTINUOUS
 10
5.3111101118
 20
4.8026608696
 11
5.3111101118
 21
4.8157138726
  0
LINE
  5
27C
100
AcDbEntity
  8
0
100
AcDbLine
 62
7
  6
CONTINUOUS
 10
5.3111101118
 20
5.1471608696
 11
5.3111101118
 21
5.1602138726
  0
LINE
  5
27D
100
AcDbEntity
  8
0
100
AcDbLine
 62
7
  6
CONTINUOUS
 10
5.3111101118
 20
5.1816108696
 11
5.3111101118
 21
5.1946638726
  0
LINE
  5
27E
100
AcDbEntity
  8
0
100
AcDbLine
 62
7
  6
CONTINUOUS
 10
5.3111101118
 20
5.2160608696
 11
5.3111101118
 21
5.2291138726
  0
LINE
  5
27F
100
AcDbEntity
  8
0
100
AcDbLine
 62
7
  6
CONTINUOUS
 10
5.3111101118
 20
5.2505108696
 11
5.3111101118
 21
5.2635638726
  0
LINE
  5
280
100
AcDbEntity
  8
0
100
AcDbLine
 62
7
  6
CONTINUOUS
 10
5.3111101118
 20
5.2849608696
 11
5.3111101118
 21
5.2980138726
  0
LINE
  5
281
100
AcDbEntity
  8
0
100
AcDbLine
 62
7
  6
CONTINUOUS
 10
5.3111101118
 20
5.3194108696
 11
5.3111101118
 21
5.3324638726
  0
LINE
  5
282
100
AcDbEntity
  8
0
100
AcDbLine
 62
7
  6
CONTINUOUS
 10
5.3111101118
 20
5.3538608696
 11
5.3111101118
 21
5.3669138726
  0
LINE
  5
283
100
AcDbEntity
  8
0
100
AcDbLine
 62
7
  6
CONTINUOUS
 10
5.3111101118
 20
5.3883108696
 11
5.3111101118
 21
5.4013638726
  0
LINE
  5
284
100
AcDbEntity
  8
0
100
AcDbLine
 62
7
  6
CONTINUOUS
 10
5.3111101118
 20
5.4227608696
 11
5.3111101118
 21
5.4358138726
  0
LINE
  5
285
100
AcDbEntity
  8
0
100
AcDbLine
 62
7
  6
CONTINUOUS
 10
5.3111101118
 20
5.4572108696
 11
5.3111101118
 21
5.4702638726
  0
LINE
  5
286
100
AcDbEntity
  8
0
100
AcDbLine
 62
7
  6
CONTINUOUS
 10
5.3111101118
 20
5.4916608696
 11
5.3111101118
 21
5.5047138726
  0
LINE
  5
287
100
AcDbEntity
  8
0
100
AcDbLine
 62
7
  6
CONTINUOUS
 10
5.3111101118
 20
5.5261108696
 11
5.3111101118
 21
5.5391638726
  0
LINE
  5
288
100
AcDbEntity
  8
0
100
AcDbLine
 62
7
  6
CONTINUOUS
 10
5.3111101118
 20
5.5605608696
 11
5.3111101118
 21
5.5736138726
  0
LINE
  5
289
100
AcDbEntity
  8
0
100
AcDbLine
 62
7
  6
CONTINUOUS
 10
5.3314601118
 20
5.5552980017
 11
5.3314601118
 21
5.5446237374
  0
LINE
  5
28A
100
AcDbEntity
  8
0
100
AcDbLine
 62
7
  6
CONTINUOUS
 10
5.3314601118
 20
5.5208480017
 11
5.3314601118
 21
5.5101737374
  0
LINE
  5
28B
100
AcDbEntity
  8
0
100
AcDbLine
 62
7
  6
CONTINUOUS
 10
5.3314601118
 20
5.4863980017
 11
5.3314601118
 21
5.4757237374
  0
LINE
  5
28C
100
AcDbEntity
  8
0
100
AcDbLine
 62
7
  6
CONTINUOUS
 10
5.3314601118
 20
5.4519480017
 11
5.3314601118
 21
5.4412737374
  0
LINE
  5
28D
100
AcDbEntity
  8
0
100
AcDbLine
 62
7
  6
CONTINUOUS
 10
5.3314601118
 20
5.4174980017
 11
5.3314601118
 21
5.4068237374
  0
LINE
  5
28E
100
AcDbEntity
  8
0
100
AcDbLine
 62
7
  6
CONTINUOUS
 10
5.3314601118
 20
5.3830480017
 11
5.3314601118
 21
5.3723737374
  0
LINE
  5
28F
100
AcDbEntity
  8
0
100
AcDbLine
 62
7
  6
CONTINUOUS
 10
5.3314601118
 20
5.3485980017
 11
5.3314601118
 21
5.3379237374
  0
LINE
  5
290
100
AcDbEntity
  8
0
100
AcDbLine
 62
7
  6
CONTINUOUS
 10
5.3314601118
 20
5.3141480017
 11
5.3314601118
 21
5.3034737374
  0
LINE
  5
291
100
AcDbEntity
  8
0
100
AcDbLine
 62
7
  6
CONTINUOUS
 10
5.3314601118
 20
5.2796980017
 11
5.3314601118
 21
5.2690237374
  0
LINE
  5
292
100
AcDbEntity
  8
0
100
AcDbLine
 62
7
  6
CONTINUOUS
 10
5.3314601118
 20
5.2452480017
 11
5.3314601118
 21
5.2345737374
  0
LINE
  5
293
100
AcDbEntity
  8
0
100
AcDbLine
 62
7
  6
CONTINUOUS
 10
5.3314601118
 20
5.2107980017
 11
5.3314601118
 21
5.2001237374
  0
LINE
  5
294
100
AcDbEntity
  8
0
100
AcDbLine
 62
7
  6
CONTINUOUS
 10
5.3314601118
 20
5.1763480017
 11
5.3314601118
 21
5.1656737374
  0
LINE
  5
295
100
AcDbEntity
  8
0
100
AcDbLine
 62
7
  6
CONTINUOUS
 10
5.3314601118
 20
5.1418980017
 11
5.3314601118
 21
5.1312237374
  0
LINE
  5
296
100
AcDbEntity
  8
0
100
AcDbLine
 62
7
  6
CONTINUOUS
 10
5.3314601118
 20
4.7973980017
 11
5.3314601118
 21
4.7917608696
  0
LINE
  5
297
100
AcDbEntity
  8
0
100
AcDbLine
 62
7
  6
CONTINUOUS
 10
5.3314601118
 20
4.8211737374
 11
5.3314601118
 21
4.8220108696
  0
LINE
  5
298
100
AcDbEntity
  8
0
100
AcDbLine
 62
7
  6
CONTINUOUS
 10
5.3314601118
 20
5.5790737374
 11
5.3314601118
 21
5.5870108696
  0
LINE
  5
299
100
AcDbEntity
  8
0
100
AcDbLine
 62
7
  6
CONTINUOUS
 10
5.3400931084
 20
6.2395108696
 11
5.3400931084
 21
6.2370108696
  0
LINE
  5
29A
100
AcDbEntity
  8
0
100
AcDbLine
 62
7
  6
CONTINUOUS
 10
5.3103497008
 20
5.160016709
 11
5.3307485165
 21
5.1653049807
  0
LINE
  5
29B
100
AcDbEntity
  8
0
100
AcDbLine
 62
7
  6
CONTINUOUS
 10
5.3103497008
 20
5.194466709
 11
5.3307485165
 21
5.1997549807
  0
LINE
  5
29C
100
AcDbEntity
  8
0
100
AcDbLine
 62
7
  6
CONTINUOUS
 10
5.3103497008
 20
5.228916709
 11
5.3307485165
 21
5.2342049807
  0
LINE
  5
29D
100
AcDbEntity
  8
0
100
AcDbLine
 62
7
  6
CONTINUOUS
 10
5.3103497008
 20
5.263366709
 11
5.3307485165
 21
5.2686549807
  0
LINE
  5
29E
100
AcDbEntity
  8
0
100
AcDbLine
 62
7
  6
CONTINUOUS
 10
4.7230705227
 20
5.1303300301
 11
4.7102680443
 21
5.1270108696
  0
LINE
  5
29F
100
AcDbEntity
  8
0
100
AcDbLine
 62
7
  6
CONTINUOUS
 10
5.3103497008
 20
5.297816709
 11
5.3307485165
 21
5.3031049807
  0
LINE
  5
2A0
100
AcDbEntity
  8
0
100
AcDbLine
 62
7
  6
CONTINUOUS
 10
4.5767101118
 20
5.0370108696
 11
5.4567101118
 21
5.0370108696
  0
LINE
  5
2A1
100
AcDbEntity
  8
0
100
AcDbLine
 62
7
  6
CONTINUOUS
 10
4.5667101118
 20
5.0620108696
 11
5.4667101118
 21
5.0620108696
  0
LINE
  5
2A2
100
AcDbEntity
  8
0
100
AcDbLine
 62
7
  6
CONTINUOUS
 10
4.5667101118
 20
5.1270108696
 11
5.4667101118
 21
5.1270108696
  0
LINE
  5
2A3
100
AcDbEntity
  8
0
100
AcDbLine
 62
7
  6
CONTINUOUS
 10
4.7026717072
 20
5.1480799807
 11
4.7222622522
 21
5.1430012815
  0
LINE
  5
2A4
100
AcDbEntity
  8
0
100
AcDbLine
 62
7
  6
CONTINUOUS
 10
4.7026717072
 20
5.1825299807
 11
4.7222622522
 21
5.1774512815
  0
LINE
  5
2A5
100
AcDbEntity
  8
0
100
AcDbLine
 62
7
  6
CONTINUOUS
 10
4.7026717072
 20
5.2169799807
 11
4.7222622522
 21
5.2119012815
  0
LINE
  5
2A6
100
AcDbEntity
  8
0
100
AcDbLine
 62
7
  6
CONTINUOUS
 10
5.3905520737
 20
6.2370108696
 11
5.3905520737
 21
6.2395108696
  0
LINE
  5
2A7
100
AcDbEntity
  8
0
100
AcDbLine
 62
7
  6
CONTINUOUS
 10
5.3959465981
 20
6.2395108696
 11
5.3959465981
 21
6.2370108696
  0
LINE
  5
2A8
100
AcDbEntity
  8
0
100
AcDbLine
 62
7
  6
CONTINUOUS
 10
5.4050660214
 20
6.1995108696
 11
5.4050660214
 21
6.2805108696
  0
LINE
  5
2A9
100
AcDbEntity
  8
0
100
AcDbLine
 62
7
  6
CONTINUOUS
 10
5.4072469418
 20
6.2701704453
 11
5.4072469418
 21
6.2477661878
  0
LINE
  5
2AA
100
AcDbEntity
  8
0
100
AcDbLine
 62
7
  6
CONTINUOUS
 10
5.4072469418
 20
6.2374257635
 11
5.4072469418
 21
6.1995108696
  0
LINE
  5
2AB
100
AcDbEntity
  8
0
100
AcDbLine
 62
7
  6
CONTINUOUS
 10
5.4100733105
 20
6.2374257635
 11
5.4100733105
 21
6.2477661878
  0
LINE
  5
2AC
100
AcDbEntity
  8
0
100
AcDbLine
 62
7
  6
CONTINUOUS
 10
5.4111011238
 20
6.2701704453
 11
5.4111011238
 21
6.2805108696
  0
LINE
  5
2AD
100
AcDbEntity
  8
0
100
AcDbLine
 62
7
  6
CONTINUOUS
 10
5.4142101118
 20
4.9970108696
 11
5.4142101118
 21
4.8420108696
  0
LINE
  5
2AE
100
AcDbEntity
  8
0
100
AcDbLine
 62
7
  6
CONTINUOUS
 10
5.4152036577
 20
6.2477661878
 11
5.4152036577
 21
6.2374257635
  0
LINE
  5
2AF
100
AcDbEntity
  8
0
100
AcDbLine
 62
7
  6
CONTINUOUS
 10
5.4162182724
 20
6.2805108696
 11
5.4162182724
 21
6.2701704453
  0
LINE
  5
2B0
100
AcDbEntity
  8
0
100
AcDbLine
 62
7
  6
CONTINUOUS
 10
5.4180841804
 20
6.2805108696
 11
5.4180841804
 21
6.1995108696
  0
LINE
  5
2B1
100
AcDbEntity
  8
0
100
AcDbLine
 62
7
  6
CONTINUOUS
 10
5.4188314076
 20
6.1995108696
 11
5.4188314076
 21
6.2098512951
  0
LINE
  5
2B2
100
AcDbEntity
  8
0
100
AcDbLine
 62
7
  6
CONTINUOUS
 10
5.4193421831
 20
6.2805108696
 11
5.4193421831
 21
6.2098512951
  0
LINE
  5
2B3
100
AcDbEntity
  8
0
100
AcDbLine
 62
7
  6
CONTINUOUS
 10
5.4238514098
 20
6.2098512951
 11
5.4238514098
 21
6.1995108696
  0
LINE
  5
2B4
100
AcDbEntity
  8
0
100
AcDbLine
 62
7
  6
CONTINUOUS
 10
5.4254601118
 20
6.7795108696
 11
5.4254601118
 21
5.8615812115
  0
LINE
  5
2B5
100
AcDbEntity
  8
0
100
AcDbLine
 62
7
  6
CONTINUOUS
 10
5.4567101118
 20
5.0370108696
 11
5.4567101118
 21
5.0620108696
  0
LINE
  5
2B6
100
AcDbEntity
  8
0
100
AcDbLine
 62
7
  6
CONTINUOUS
 10
5.4667101118
 20
5.0620108696
 11
5.4667101118
 21
5.1270108696
  0
LINE
  5
2B7
100
AcDbEntity
  8
0
100
AcDbLine
 62
7
  6
CONTINUOUS
 10
5.4754732697
 20
5.6620108696
 11
5.4754732697
 21
5.7339554888
  0
LINE
  5
2B8
100
AcDbEntity
  8
0
100
AcDbLine
 62
7
  6
CONTINUOUS
 10
5.4954732697
 20
5.7169212284
 11
5.4954732697
 21
5.6720108696
  0
LINE
  5
2B9
100
AcDbEntity
  8
0
100
AcDbLine
 62
7
  6
CONTINUOUS
 10
5.5092101118
 20
5.6620108696
 11
5.5092101118
 21
5.5870108696
  0
LINE
  5
2BA
100
AcDbEntity
  8
0
100
AcDbLine
 62
7
  6
CONTINUOUS
 10
4.7230705227
 20
5.1647800301
 11
4.7026717071
 21
5.1594917584
  0
LINE
  5
2BB
100
AcDbEntity
  8
0
100
AcDbLine
 62
7
  6
CONTINUOUS
 10
5.3103497008
 20
5.332266709
 11
5.3307485165
 21
5.3375549807
  0
LINE
  5
2BC
100
AcDbEntity
  8
0
100
AcDbLine
 62
7
  6
CONTINUOUS
 10
4.7230705227
 20
5.1992300301
 11
4.7026717071
 21
5.1939417584
  0
LINE
  5
2BD
100
AcDbEntity
  8
0
100
AcDbLine
 62
7
  6
CONTINUOUS
 10
5.3103497008
 20
5.366716709
 11
5.3307485165
 21
5.3720049807
  0
LINE
  5
2BE
100
AcDbEntity
  8
0
100
AcDbLine
 62
7
  6
CONTINUOUS
 10
4.7230705227
 20
5.2336800301
 11
4.7026717071
 21
5.2283917584
  0
LINE
  5
2BF
100
AcDbEntity
  8
0
100
AcDbLine
 62
7
  6
CONTINUOUS
 10
5.3103497008
 20
5.401166709
 11
5.3307485165
 21
5.4064549807
  0
LINE
  5
2C0
100
AcDbEntity
  8
0
100
AcDbLine
 62
7
  6
CONTINUOUS
 10
4.7230705227
 20
5.2681300301
 11
4.7026717071
 21
5.2628417584
  0
LINE
  5
2C1
100
AcDbEntity
  8
0
100
AcDbLine
 62
7
  6
CONTINUOUS
 10
5.3103497008
 20
5.435616709
 11
5.3307485165
 21
5.4409049807
  0
LINE
  5
2C2
100
AcDbEntity
  8
0
100
AcDbLine
 62
7
  6
CONTINUOUS
 10
4.7230705227
 20
5.3025800301
 11
4.7026717071
 21
5.2972917584
  0
LINE
  5
2C3
100
AcDbEntity
  8
0
100
AcDbLine
 62
7
  6
CONTINUOUS
 10
4.7026717072
 20
5.2514299807
 11
4.7222622522
 21
5.2463512815
  0
LINE
  5
2C4
100
AcDbEntity
  8
0
100
AcDbLine
 62
7
  6
CONTINUOUS
 10
4.7026717072
 20
5.2858799807
 11
4.7222622522
 21
5.2808012815
  0
LINE
  5
2C5
100
AcDbEntity
  8
0
100
AcDbLine
 62
7
  6
CONTINUOUS
 10
5.3307485165
 20
5.1422667584
 11
5.3111101118
 21
5.1473578675
  0
LINE
  5
2C6
100
AcDbEntity
  8
0
100
AcDbLine
 62
7
  6
CONTINUOUS
 10
4.7026717072
 20
5.3203299807
 11
4.7222622522
 21
5.3152512815
  0
LINE
  5
2C7
100
AcDbEntity
  8
0
100
AcDbLine
 62
7
  6
CONTINUOUS
 10
5.3307485165
 20
5.1767167584
 11
5.3111101118
 21
5.1818078675
  0
LINE
  5
2C8
100
AcDbEntity
  8
0
100
AcDbLine
 62
7
  6
CONTINUOUS
 10
4.7026717072
 20
5.3547799807
 11
4.7222622522
 21
5.3497012815
  0
LINE
  5
2C9
100
AcDbEntity
  8
0
100
AcDbLine
 62
7
  6
CONTINUOUS
 10
5.3307485165
 20
5.2111667584
 11
5.3111101118
 21
5.2162578675
  0
LINE
  5
2CA
100
AcDbEntity
  8
0
100
AcDbLine
 62
7
  6
CONTINUOUS
 10
4.7026717072
 20
5.3892299807
 11
4.7222622522
 21
5.3841512815
  0
LWPOLYLINE
  5
2CB
100
AcDbEntity
  8
0
100
AcDbPolyline
 62
7
  6
CONTINUOUS
 90
17
 70
0
 10
5.4738740343
 20
5.7484614487
 10
5.4738536923
 20
5.7488512111
 10
5.4737525497
 20
5.7499506664
 10
5.4735708045
 20
5.7510397009
 10
5.4733094422
 20
5.7521124138
 10
5.4729698795
 20
5.7531629924
 10
5.472553957
 20
5.7541857447
 10
5.4720639288
 20
5.7551751294
 10
5.4715024509
 20
5.7561257857
 10
5.4708725663
 20
5.7570325629
 10
5.4701776883
 20
5.7578905488
 10
5.4694215825
 20
5.758695095
 10
5.4686083461
 20
5.7594418431
 10
5.4677423857
 20
5.7601267477
 10
5.4668283936
 20
5.7607460987
 10
5.4658713217
 20
5.7612965414
 10
5.4654480936
 20
5.7615111561
  0
LINE
  5
2CC
100
AcDbEntity
  8
0
100
AcDbLine
 62
7
  6
CONTINUOUS
 10
5.5292101118
 20
5.6420108696
 11
5.5292101118
 21
5.5870108696
  0
LINE
  5
2CD
100
AcDbEntity
  8
0
100
AcDbLine
 62
7
  6
CONTINUOUS
 10
5.006619306
 20
3.4737430321
 11
4.9249913327
 21
3.2986912787
  0
LINE
  5
2CE
100
AcDbEntity
  8
0
100
AcDbLine
 62
7
  6
CONTINUOUS
 10
4.9086794175
 20
3.2637102635
 11
4.9083187663
 21
3.2629368445
  0
LINE
  5
2CF
100
AcDbEntity
  8
0
100
AcDbLine
 62
7
  6
CONTINUOUS
 10
4.6359948173
 20
2.6748802477
 11
4.677792913
 21
2.7645165533
  0
LINE
  5
2D0
100
AcDbEntity
  8
0
100
AcDbLine
 62
7
  6
CONTINUOUS
 10
4.6941048283
 20
2.7994975684
 11
4.735902924
 21
2.889133874
  0
LINE
  5
2D1
100
AcDbEntity
  8
0
100
AcDbLine
 62
7
  6
CONTINUOUS
 10
4.7522148393
 20
2.9241148892
 11
4.794012935
 21
3.0137511947
  0
LINE
  5
2D2
100
AcDbEntity
  8
0
100
AcDbLine
 62
7
  6
CONTINUOUS
 10
4.8103248503
 20
3.0487322099
 11
4.852122946
 21
3.1383685154
  0
LINE
  5
2D3
100
AcDbEntity
  8
0
100
AcDbLine
 62
7
  6
CONTINUOUS
 10
4.8684348612
 20
3.1733495306
 11
4.9102101118
 21
3.2629368445
  0
LINE
  5
2D4
100
AcDbEntity
  8
0
100
AcDbLine
 62
7
  6
CONTINUOUS
 10
5.3103497008
 20
5.470066709
 11
5.3307485165
 21
5.4753549807
  0
LINE
  5
2D5
100
AcDbEntity
  8
0
100
AcDbLine
 62
7
  6
CONTINUOUS
 10
4.7230705227
 20
5.3370300301
 11
4.7026717071
 21
5.3317417584
  0
LINE
  5
2D6
100
AcDbEntity
  8
0
100
AcDbLine
 62
7
  6
CONTINUOUS
 10
5.3103497008
 20
5.504516709
 11
5.3307485165
 21
5.5098049807
  0
LINE
  5
2D7
100
AcDbEntity
  8
0
100
AcDbLine
 62
7
  6
CONTINUOUS
 10
4.7230705227
 20
5.3714800301
 11
4.7026717071
 21
5.3661917584
  0
LINE
  5
2D8
100
AcDbEntity
  8
0
100
AcDbLine
 62
7
  6
CONTINUOUS
 10
5.3103497008
 20
5.538966709
 11
5.3307485165
 21
5.5442549807
  0
LINE
  5
2D9
100
AcDbEntity
  8
0
100
AcDbLine
 62
7
  6
CONTINUOUS
 10
4.7230705227
 20
5.4059300301
 11
4.7026717071
 21
5.4006417584
  0
LINE
  5
2DA
100
AcDbEntity
  8
0
100
AcDbLine
 62
7
  6
CONTINUOUS
 10
5.3103497008
 20
5.573416709
 11
5.3307485165
 21
5.5787049807
  0
LINE
  5
2DB
100
AcDbEntity
  8
0
100
AcDbLine
 62
7
  6
CONTINUOUS
 10
4.7230705227
 20
5.4403800301
 11
4.7026717071
 21
5.4350917584
  0
LINE
  5
2DC
100
AcDbEntity
  8
0
100
AcDbLine
 62
7
  6
CONTINUOUS
 10
5.3307485165
 20
5.2456167584
 11
5.3111101118
 21
5.2507078675
  0
LINE
  5
2DD
100
AcDbEntity
  8
0
100
AcDbLine
 62
7
  6
CONTINUOUS
 10
4.7026717072
 20
5.4236799807
 11
4.7222622522
 21
5.4186012815
  0
LINE
  5
2DE
100
AcDbEntity
  8
0
100
AcDbLine
 62
7
  6
CONTINUOUS
 10
5.3307485165
 20
5.2800667584
 11
5.3111101118
 21
5.2851578675
  0
LINE
  5
2DF
100
AcDbEntity
  8
0
100
AcDbLine
 62
7
  6
CONTINUOUS
 10
4.7026717072
 20
5.4581299807
 11
4.7222622522
 21
5.4530512815
  0
LINE
  5
2E0
100
AcDbEntity
  8
0
100
AcDbLine
 62
7
  6
CONTINUOUS
 10
5.3307485165
 20
5.3145167584
 11
5.3111101118
 21
5.3196078675
  0
LINE
  5
2E1
100
AcDbEntity
  8
0
100
AcDbLine
 62
7
  6
CONTINUOUS
 10
4.7026717072
 20
5.4925799807
 11
4.7222622522
 21
5.4875012815
  0
LINE
  5
2E2
100
AcDbEntity
  8
0
100
AcDbLine
 62
7
  6
CONTINUOUS
 10
5.3307485165
 20
5.3489667584
 11
5.3111101118
 21
5.3540578675
  0
LINE
  5
2E3
100
AcDbEntity
  8
0
100
AcDbLine
 62
7
  6
CONTINUOUS
 10
4.7026717072
 20
5.5270299807
 11
4.7222622522
 21
5.5219512815
  0
LINE
  5
2E4
100
AcDbEntity
  8
0
100
AcDbLine
 62
7
  6
CONTINUOUS
 10
5.3307485165
 20
5.3834167584
 11
5.3111101118
 21
5.3885078675
  0
LINE
  5
2E5
100
AcDbEntity
  8
0
100
AcDbLine
 62
7
  6
CONTINUOUS
 10
5.4254601118
 20
5.8615812115
 11
5.4340581347
 21
5.8016407089
  0
LINE
  5
2E6
100
AcDbEntity
  8
0
100
AcDbLine
 62
7
  6
CONTINUOUS
 10
4.7230705227
 20
5.4748300301
 11
4.7026717071
 21
5.4695417584
  0
LINE
  5
2E7
100
AcDbEntity
  8
0
100
AcDbLine
 62
7
  6
CONTINUOUS
 10
4.7230705227
 20
5.5092800301
 11
4.7026717071
 21
5.5039917584
  0
LINE
  5
2E8
100
AcDbEntity
  8
0
100
AcDbLine
 62
7
  6
CONTINUOUS
 10
4.7230705227
 20
5.5437300301
 11
4.7026717071
 21
5.5384417584
  0
LINE
  5
2E9
100
AcDbEntity
  8
0
100
AcDbLine
 62
7
  6
CONTINUOUS
 10
4.7230705227
 20
5.5781800301
 11
4.7026717071
 21
5.5728917584
  0
LINE
  5
2EA
100
AcDbEntity
  8
0
100
AcDbLine
 62
7
  6
CONTINUOUS
 10
4.5042101118
 20
5.5870108696
 11
5.5292101118
 21
5.5870108696
  0
LINE
  5
2EB
100
AcDbEntity
  8
0
100
AcDbLine
 62
7
  6
CONTINUOUS
 10
4.7026717072
 20
5.5614799807
 11
4.7222622522
 21
5.5564012815
  0
LINE
  5
2EC
100
AcDbEntity
  8
0
100
AcDbLine
 62
7
  6
CONTINUOUS
 10
5.3307485165
 20
5.4178667584
 11
5.3111101118
 21
5.4229578675
  0
LINE
  5
2ED
100
AcDbEntity
  8
0
100
AcDbLine
 62
7
  6
CONTINUOUS
 10
5.3307485165
 20
5.4523167584
 11
5.3111101118
 21
5.4574078675
  0
LINE
  5
2EE
100
AcDbEntity
  8
0
100
AcDbLine
 62
7
  6
CONTINUOUS
 10
5.3307485165
 20
5.4867667584
 11
5.3111101118
 21
5.4918578675
  0
LINE
  5
2EF
100
AcDbEntity
  8
0
100
AcDbLine
 62
7
  6
CONTINUOUS
 10
5.3307485165
 20
5.5212167584
 11
5.3111101118
 21
5.5263078675
  0
LINE
  5
2F0
100
AcDbEntity
  8
0
100
AcDbLine
 62
7
  6
CONTINUOUS
 10
5.4334443454
 20
5.8015526654
 11
5.4192101118
 21
5.7995108696
  0
LINE
  5
2F1
100
AcDbEntity
  8
0
100
AcDbLine
 62
7
  6
CONTINUOUS
 10
4.5042101118
 20
5.6420108696
 11
5.5292101118
 21
5.6420108696
  0
LINE
  5
2F2
100
AcDbEntity
  8
0
100
AcDbLine
 62
7
  6
CONTINUOUS
 10
4.5242101118
 20
5.6620108696
 11
5.5092101118
 21
5.6620108696
  0
LINE
  5
2F3
100
AcDbEntity
  8
0
100
AcDbLine
 62
7
  6
CONTINUOUS
 10
4.5579469539
 20
5.6628756961
 11
5.4754732697
 21
5.6628756614
  0
LINE
  5
2F4
100
AcDbEntity
  8
0
100
AcDbLine
 62
7
  6
CONTINUOUS
 10
4.5792101118
 20
5.7795108696
 11
5.4542101118
 21
5.7795108696
  0
LINE
  5
2F5
100
AcDbEntity
  8
0
100
AcDbLine
 62
7
  6
CONTINUOUS
 10
4.5999758782
 20
5.8015526654
 11
4.6142101118
 21
5.7995108696
  0
LINE
  5
2F6
100
AcDbEntity
  8
0
100
AcDbLine
 62
7
  6
CONTINUOUS
 10
5.3307485165
 20
5.5556667584
 11
5.3111101118
 21
5.5607578675
  0
LINE
  5
2F7
100
AcDbEntity
  8
0
100
AcDbLine
 62
7
  6
CONTINUOUS
 10
4.5992111441
 20
5.7995108696
 11
5.4342101118
 21
5.7995108696
  0
LINE
  5
2F8
100
AcDbEntity
  8
0
100
AcDbLine
 62
7
  6
CONTINUOUS
 10
4.5993620889
 20
5.8016407089
 11
5.4340581347
 21
5.8016407089
  0
LINE
  5
2F9
100
AcDbEntity
  8
0
100
AcDbLine
 62
7
  6
CONTINUOUS
 10
4.6079601118
 20
5.8615812115
 11
5.4254601118
 21
5.8615812115
  0
LWPOLYLINE
  5
2FA
100
AcDbEntity
  8
0
100
AcDbPolyline
 62
7
  6
CONTINUOUS
 90
17
 70
0
 10
5.4831157872
 20
5.7354936891
 10
5.4822236164
 20
5.7358971787
 10
5.4812954447
 20
5.7363952288
 10
5.4804044815
 20
5.736957212
 10
5.4795551044
 20
5.7375803801
 10
5.4787515305
 20
5.7382616529
 10
5.4779977395
 20
5.7389976649
 10
5.4772974561
 20
5.7397847858
 10
5.4766541352
 20
5.7406191389
 10
5.4760709559
 20
5.7414966089
 10
5.4755507992
 20
5.7424128686
 10
5.4750962347
 20
5.7433634005
 10
5.474709509
 20
5.7443435167
 10
5.4743925344
 20
5.745348383
 10
5.4741468791
 20
5.7463730427
 10
5.4739737596
 20
5.7474124406
 10
5.4738740343
 20
5.7484614487
  0
LWPOLYLINE
  5
2FB
100
AcDbEntity
  8
0
100
AcDbPolyline
 62
7
  6
CONTINUOUS
 90
18
 70
0
 10
5.4654480923
 20
5.7615111534
 10
5.4643040001
 20
5.7621152924
 10
5.4631556849
 20
5.7628223459
 10
5.4620576273
 20
5.7636051754
 10
5.4610148194
 20
5.764460222
 10
5.4600320024
 20
5.7653835982
 10
5.4591136445
 20
5.766371106
 10
5.4582639208
 20
5.7674182558
 10
5.4574866947
 20
5.768520287
 10
5.4567854995
 20
5.7696721891
 10
5.4561635233
 20
5.7708687254
 10
5.4556235938
 20
5.7721044557
 10
5.4551681658
 20
5.7733737621
 10
5.4547993097
 20
5.7746708738
 10
5.4545187025
 20
5.7759898936
 10
5.4543276201
 20
5.7773248248
 10
5.4542269311
 20
5.7786695983
 10
5.4542101111
 20
5.7794896689
  0
LINE
  5
2FC
100
AcDbEntity
  8
0
100
AcDbLine
 62
7
  6
CONTINUOUS
 10
5.2147101118
 20
6.1395108696
 11
4.8227101118
 21
6.1395108696
  0
LINE
  5
2FD
100
AcDbEntity
  8
0
100
AcDbLine
 62
7
  6
CONTINUOUS
 10
5.4238514098
 20
6.1995108696
 11
5.4180841804
 21
6.1995108696
  0
LINE
  5
2FE
100
AcDbEntity
  8
0
100
AcDbLine
 62
7
  6
CONTINUOUS
 10
5.4072469418
 20
6.1995108696
 11
5.4050660214
 21
6.1995108696
  0
LINE
  5
2FF
100
AcDbEntity
  8
0
100
AcDbLine
 62
7
  6
CONTINUOUS
 10
5.4180841804
 20
6.2098512951
 11
5.4238514098
 21
6.2098512951
  0
LINE
  5
300
100
AcDbEntity
  8
0
100
AcDbLine
 62
7
  6
CONTINUOUS
 10
5.3959465981
 20
6.2370108696
 11
5.3400931084
 21
6.2370108696
  0
LINE
  5
301
100
AcDbEntity
  8
0
100
AcDbLine
 62
7
  6
CONTINUOUS
 10
5.2147101118
 20
6.2370108696
 11
4.8227101118
 21
6.2370108696
  0
LINE
  5
302
100
AcDbEntity
  8
0
100
AcDbLine
 62
7
  6
CONTINUOUS
 10
5.4050660214
 20
6.2374257635
 11
5.4152036577
 21
6.2374257635
  0
LINE
  5
303
100
AcDbEntity
  8
0
100
AcDbLine
 62
7
  6
CONTINUOUS
 10
5.3959465981
 20
6.2395108696
 11
5.3400931084
 21
6.2395108696
  0
LINE
  5
304
100
AcDbEntity
  8
0
100
AcDbLine
 62
7
  6
CONTINUOUS
 10
5.4050660214
 20
6.2477661878
 11
5.4152036577
 21
6.2477661878
  0
LINE
  5
305
100
AcDbEntity
  8
0
100
AcDbLine
 62
7
  6
CONTINUOUS
 10
5.4050660214
 20
6.2701704453
 11
5.4162182724
 21
6.2701704453
  0
LINE
  5
306
100
AcDbEntity
  8
0
100
AcDbLine
 62
7
  6
CONTINUOUS
 10
5.4193421831
 20
6.2805108696
 11
5.4180841804
 21
6.2805108696
  0
LINE
  5
307
100
AcDbEntity
  8
0
100
AcDbLine
 62
7
  6
CONTINUOUS
 10
5.4050660214
 20
6.2805108696
 11
5.4162182724
 21
6.2805108696
  0
LINE
  5
308
100
AcDbEntity
  8
0
100
AcDbLine
 62
7
  6
CONTINUOUS
 10
5.2147101118
 20
6.3365108696
 11
4.8227101118
 21
6.3365108696
  0
LINE
  5
309
100
AcDbEntity
  8
0
100
AcDbLine
 62
7
  6
CONTINUOUS
 10
5.2147101118
 20
6.4340108696
 11
4.8227101118
 21
6.4340108696
  0
LINE
  5
30A
100
AcDbEntity
  8
0
100
AcDbLine
 62
7
  6
CONTINUOUS
 10
4.6079601118
 20
6.7795108696
 11
5.4254601118
 21
6.7795108696
  0
LINE
  5
30B
100
AcDbEntity
  8
0
100
AcDbLine
 62
7
  6
CONTINUOUS
 10
5.310459163
 20
6.8945108696
 11
4.7229601118
 21
6.8945108696
  0
ARC
  5
30C
100
AcDbEntity
  8
0
100
AcDbCircle
 62
7
  6
CONTINUOUS
 10
4.6230807438
 20
2.659608486
 40
0.02
100
AcDbArc
 50
260.0684881595
 51
49.7815448422
  0
ARC
  5
30D
100
AcDbEntity
  8
0
100
AcDbCircle
 62
7
  6
CONTINUOUS
 10
4.2456035505
 20
2.835628992
 40
0.02
100
AcDbArc
 50
80.2184551578
 51
229.9315118405
  0
ARC
  5
30E
100
AcDbEntity
  8
0
100
AcDbCircle
 62
7
  6
CONTINUOUS
 10
4.3037135615
 20
2.9602463128
 40
0.02
100
AcDbArc
 50
80.2184551578
 51
229.7815448422
  0
ARC
  5
30F
100
AcDbEntity
  8
0
100
AcDbCircle
 62
7
  6
CONTINUOUS
 10
4.6811907548
 20
2.7842258067
 40
0.02
100
AcDbArc
 50
260.2184551578
 51
49.7815448422
  0
ARC
  5
310
100
AcDbEntity
  8
0
100
AcDbCircle
 62
7
  6
CONTINUOUS
 10
4.3618235725
 20
3.0848636335
 40
0.02
100
AcDbArc
 50
80.2184551578
 51
229.7815448422
  0
ARC
  5
311
100
AcDbEntity
  8
0
100
AcDbCircle
 62
7
  6
CONTINUOUS
 10
4.7393007658
 20
2.9088431275
 40
0.02
100
AcDbArc
 50
260.2184551578
 51
49.7815448422
  0
ARC
  5
312
100
AcDbEntity
  8
0
100
AcDbCircle
 62
7
  6
CONTINUOUS
 10
4.4199335834
 20
3.2094809542
 40
0.02
100
AcDbArc
 50
80.2184551578
 51
229.7815448422
  0
ARC
  5
313
100
AcDbEntity
  8
0
100
AcDbCircle
 62
7
  6
CONTINUOUS
 10
4.7974107767
 20
3.0334604482
 40
0.02
100
AcDbArc
 50
260.2184551578
 51
49.7815448422
  0
ARC
  5
314
100
AcDbEntity
  8
0
100
AcDbCircle
 62
7
  6
CONTINUOUS
 10
4.4780435944
 20
3.3340982749
 40
0.02
100
AcDbArc
 50
80.2184551578
 51
229.7815448422
  0
ARC
  5
315
100
AcDbEntity
  8
0
100
AcDbCircle
 62
7
  6
CONTINUOUS
 10
4.8555207877
 20
3.1580777689
 40
0.02
100
AcDbArc
 50
260.2184551578
 51
49.7815448422
  0
ARC
  5
316
100
AcDbEntity
  8
0
100
AcDbCircle
 62
7
  6
CONTINUOUS
 10
4.5361536054
 20
3.4587155956
 40
0.02
100
AcDbArc
 50
80.2184551578
 51
229.7815448422
  0
ARC
  5
317
100
AcDbEntity
  8
0
100
AcDbCircle
 62
7
  6
CONTINUOUS
 10
4.7229601118
 20
6.7795108696
 40
0.115
100
AcDbArc
 50
90.0
 51
180.0
  0
ARC
  5
318
100
AcDbEntity
  8
0
100
AcDbCircle
 62
7
  6
CONTINUOUS
 10
4.8227101118
 20
6.3852608696
 40
0.04875
100
AcDbArc
 50
90.0
 51
270.0
  0
ARC
  5
319
100
AcDbEntity
  8
0
100
AcDbCircle
 62
7
  6
CONTINUOUS
 10
4.8227101118
 20
6.1882608696
 40
0.04875
100
AcDbArc
 50
90.0
 51
270.0
  0
ARC
  5
31A
100
AcDbEntity
  8
0
100
AcDbCircle
 62
7
  6
CONTINUOUS
 10
4.5579637351
 20
5.7104130005
 40
0.0475372837
100
AcDbArc
 50
267.2931470686
 51
269.9797739949
  0
ARC
  5
31B
100
AcDbEntity
  8
0
100
AcDbCircle
 62
7
  6
CONTINUOUS
 10
4.6167101118
 20
5.0370108696
 40
0.04
100
AcDbArc
 50
180.0
 51
270.0
  0
ARC
  5
31C
100
AcDbEntity
  8
0
100
AcDbCircle
 62
7
  6
CONTINUOUS
 10
4.5992101118
 20
5.7795108696
 40
0.02
100
AcDbArc
 50
90.0
 51
180.0
  0
ARC
  5
31D
100
AcDbEntity
  8
0
100
AcDbCircle
 62
7
  6
CONTINUOUS
 10
4.5579469539
 20
5.7170108801
 40
0.02
100
AcDbArc
 50
112.4647273761
 51
180.0
  0
ARC
  5
31E
100
AcDbEntity
  8
0
100
AcDbCircle
 62
7
  6
CONTINUOUS
 10
4.6392101118
 20
4.8420108696
 40
0.02
100
AcDbArc
 50
180.0
 51
270.0
  0
ARC
  5
31F
100
AcDbEntity
  8
0
100
AcDbCircle
 62
7
  6
CONTINUOUS
 10
4.5242101118
 20
5.6420108696
 40
0.02
100
AcDbArc
 50
90.0
 51
180.0
  0
ARC
  5
320
100
AcDbEntity
  8
0
100
AcDbCircle
 62
7
  6
CONTINUOUS
 10
4.5279469539
 20
5.6720108696
 40
0.01
100
AcDbArc
 50
270.0
 51
360.0
  0
ARC
  5
321
100
AcDbEntity
  8
0
100
AcDbCircle
 62
7
  6
CONTINUOUS
 10
5.0167101118
 20
3.9965108696
 40
0.2925
100
AcDbArc
 50
180.0
 51
198.1207707255
  0
ARC
  5
322
100
AcDbEntity
  8
0
100
AcDbCircle
 62
7
  6
CONTINUOUS
 10
5.0167101118
 20
3.9965108696
 40
0.2925
100
AcDbArc
 50
357.4036616889
 51
360.0
  0
ARC
  5
323
100
AcDbEntity
  8
0
100
AcDbCircle
 62
7
  6
CONTINUOUS
 10
5.3058271331
 20
2.5227608696
 40
0.0151329787
100
AcDbArc
 50
282.9176327574
 51
77.0823672426
  0
ARC
  5
324
100
AcDbEntity
  8
0
100
AcDbCircle
 62
7
  6
CONTINUOUS
 10
5.0075930905
 20
2.5227608696
 40
0.0151329787
100
AcDbArc
 50
102.9176327574
 51
257.0823672426
  0
ARC
  5
325
100
AcDbEntity
  8
0
100
AcDbCircle
 62
7
  6
CONTINUOUS
 10
5.3058271331
 20
2.6307608696
 40
0.0151329787
100
AcDbArc
 50
282.9176327574
 51
77.0823672426
  0
ARC
  5
326
100
AcDbEntity
  8
0
100
AcDbCircle
 62
7
  6
CONTINUOUS
 10
5.0075930905
 20
2.6307608696
 40
0.0151329787
100
AcDbArc
 50
102.9176327574
 51
257.0823672426
  0
ARC
  5
327
100
AcDbEntity
  8
0
100
AcDbCircle
 62
7
  6
CONTINUOUS
 10
5.3058271331
 20
2.7387608696
 40
0.0151329787
100
AcDbArc
 50
282.9176327574
 51
77.0823672426
  0
ARC
  5
328
100
AcDbEntity
  8
0
100
AcDbCircle
 62
7
  6
CONTINUOUS
 10
5.0075930905
 20
2.7387608696
 40
0.0151329787
100
AcDbArc
 50
102.9176327574
 51
257.0823672426
  0
ARC
  5
329
100
AcDbEntity
  8
0
100
AcDbCircle
 62
7
  6
CONTINUOUS
 10
5.3058271331
 20
2.8467608696
 40
0.0151329787
100
AcDbArc
 50
282.9176327574
 51
77.0823672426
  0
ARC
  5
32A
100
AcDbEntity
  8
0
100
AcDbCircle
 62
7
  6
CONTINUOUS
 10
5.0075930905
 20
2.8467608696
 40
0.0151329787
100
AcDbArc
 50
102.9176327574
 51
257.0823672426
  0
ARC
  5
32B
100
AcDbEntity
  8
0
100
AcDbCircle
 62
7
  6
CONTINUOUS
 10
5.3058271331
 20
2.9547608696
 40
0.0151329787
100
AcDbArc
 50
282.9176327574
 51
77.0823672426
  0
ARC
  5
32C
100
AcDbEntity
  8
0
100
AcDbCircle
 62
7
  6
CONTINUOUS
 10
5.0075930905
 20
2.9547608696
 40
0.0151329787
100
AcDbArc
 50
102.9176327574
 51
257.0823672426
  0
ARC
  5
32D
100
AcDbEntity
  8
0
100
AcDbCircle
 62
7
  6
CONTINUOUS
 10
5.3058271331
 20
3.0627608696
 40
0.0151329787
100
AcDbArc
 50
282.9176327574
 51
77.0823672426
  0
ARC
  5
32E
100
AcDbEntity
  8
0
100
AcDbCircle
 62
7
  6
CONTINUOUS
 10
5.0075930905
 20
3.0627608696
 40
0.0151329787
100
AcDbArc
 50
102.9176327574
 51
257.0823672426
  0
ARC
  5
32F
100
AcDbEntity
  8
0
100
AcDbCircle
 62
7
  6
CONTINUOUS
 10
5.3104601118
 20
6.7795108696
 40
0.115
100
AcDbArc
 50
0.0
 51
90.0
  0
ARC
  5
330
100
AcDbEntity
  8
0
100
AcDbCircle
 62
7
  6
CONTINUOUS
 10
5.2147101118
 20
6.1882608696
 40
0.04875
100
AcDbArc
 50
270.0
 51
90.0
  0
ARC
  5
331
100
AcDbEntity
  8
0
100
AcDbCircle
 62
7
  6
CONTINUOUS
 10
5.2147101118
 20
6.3852608696
 40
0.04875
100
AcDbArc
 50
270.0
 51
90.0
  0
ARC
  5
332
100
AcDbEntity
  8
0
100
AcDbCircle
 62
7
  6
CONTINUOUS
 10
5.4754180548
 20
5.711504083
 40
0.0486288153
100
AcDbArc
 50
271.372574575
 51
272.7311311562
  0
ARC
  5
333
100
AcDbEntity
  8
0
100
AcDbCircle
 62
7
  6
CONTINUOUS
 10
5.4754670473
 20
5.7088583565
 40
0.0459826767
100
AcDbArc
 50
270.0077532717
 51
271.3905128592
  0
ARC
  5
334
100
AcDbEntity
  8
0
100
AcDbCircle
 62
7
  6
CONTINUOUS
 10
5.4167101118
 20
5.0370108696
 40
0.04
100
AcDbArc
 50
270.0
 51
360.0
  0
ARC
  5
335
100
AcDbEntity
  8
0
100
AcDbCircle
 62
7
  6
CONTINUOUS
 10
5.4342101118
 20
5.7795108696
 40
0.02
100
AcDbArc
 50
0.0
 51
90.0
  0
ARC
  5
336
100
AcDbEntity
  8
0
100
AcDbCircle
 62
7
  6
CONTINUOUS
 10
5.4754732697
 20
5.7170108695
 40
0.02
100
AcDbArc
 50
0.0
 51
67.5352437206
  0
ARC
  5
337
100
AcDbEntity
  8
0
100
AcDbCircle
 62
7
  6
CONTINUOUS
 10
5.3942101118
 20
4.8420108696
 40
0.02
100
AcDbArc
 50
270.0
 51
360.0
  0
ARC
  5
338
100
AcDbEntity
  8
0
100
AcDbCircle
 62
7
  6
CONTINUOUS
 10
5.5092101118
 20
5.6420108696
 40
0.02
100
AcDbArc
 50
0.0
 51
90.0
  0
ARC
  5
339
100
AcDbEntity
  8
0
100
AcDbCircle
 62
7
  6
CONTINUOUS
 10
5.5054732697
 20
5.6720108696
 40
0.01
100
AcDbArc
 50
180.0
 51
270.0
  0
ARC
  5
33A
100
AcDbEntity
  8
0
100
AcDbCircle
 62
7
  6
CONTINUOUS
 10
5.3084710706
 20
5.3395240352
 40
0.0074965319
100
AcDbArc
 50
282.8635582878
 51
284.5129219713
  0
ARC
  5
33B
100
AcDbEntity
  8
0
100
AcDbCircle
 62
7
  6
CONTINUOUS
 10
5.3085171278
 20
5.3048936255
 40
0.007310322
100
AcDbArc
 50
283.1541381865
 51
284.5173450994
  0
ARC
  5
33C
100
AcDbEntity
  8
0
100
AcDbCircle
 62
7
  6
CONTINUOUS
 10
5.3085638091
 20
5.2702584688
 40
0.007119366
100
AcDbArc
 50
283.4455647874
 51
284.526900891
  0
ARC
  5
33D
100
AcDbEntity
  8
0
100
AcDbCircle
 62
7
  6
CONTINUOUS
 10
5.3086128287
 20
5.2356175297
 40
0.0069222622
100
AcDbArc
 50
283.7483728488
 51
284.5314085516
  0
ARC
  5
33E
100
AcDbEntity
  8
0
100
AcDbCircle
 62
7
  6
CONTINUOUS
 10
5.3290925045
 20
5.2405958481
 40
0.0066018749
100
AcDbArc
 50
283.5491184399
 51
284.5250174942
  0
ARC
  5
33F
100
AcDbEntity
  8
0
100
AcDbCircle
 62
7
  6
CONTINUOUS
 10
5.3290925045
 20
5.2750458481
 40
0.0066018749
100
AcDbArc
 50
283.549118441
 51
284.525017494
  0
ARC
  5
340
100
AcDbEntity
  8
0
100
AcDbCircle
 62
7
  6
CONTINUOUS
 10
5.3290925045
 20
5.1372458481
 40
0.0066018749
100
AcDbArc
 50
283.5491184406
 51
284.5250174945
  0
ARC
  5
341
100
AcDbEntity
  8
0
100
AcDbCircle
 62
7
  6
CONTINUOUS
 10
5.3290925045
 20
5.1716958481
 40
0.0066018749
100
AcDbArc
 50
283.5491184404
 51
284.5250174945
  0
ARC
  5
342
100
AcDbEntity
  8
0
100
AcDbCircle
 62
7
  6
CONTINUOUS
 10
5.3290925045
 20
5.4817458481
 40
0.0066018749
100
AcDbArc
 50
283.5491184404
 51
284.5250174931
  0
ARC
  5
343
100
AcDbEntity
  8
0
100
AcDbCircle
 62
7
  6
CONTINUOUS
 10
5.3290925045
 20
5.5161958481
 40
0.0066018749
100
AcDbArc
 50
283.5491184404
 51
284.5250174931
  0
ARC
  5
344
100
AcDbEntity
  8
0
100
AcDbCircle
 62
7
  6
CONTINUOUS
 10
5.3290925045
 20
5.3439458481
 40
0.0066018749
100
AcDbArc
 50
283.549118439
 51
284.5250174954
  0
ARC
  5
345
100
AcDbEntity
  8
0
100
AcDbCircle
 62
7
  6
CONTINUOUS
 10
5.3290925045
 20
5.4128458481
 40
0.0066018749
100
AcDbArc
 50
283.5491184397
 51
284.5250174957
  0
ARC
  5
346
100
AcDbEntity
  8
0
100
AcDbCircle
 62
7
  6
CONTINUOUS
 10
5.3290925045
 20
5.3783958481
 40
0.0066018748
100
AcDbArc
 50
283.5491184383
 51
284.5250174959
  0
ARC
  5
347
100
AcDbEntity
  8
0
100
AcDbCircle
 62
7
  6
CONTINUOUS
 10
5.3290925046
 20
5.5506458481
 40
0.0066018748
100
AcDbArc
 50
283.5491184372
 51
284.5250174982
  0
ARC
  5
348
100
AcDbEntity
  8
0
100
AcDbCircle
 62
7
  6
CONTINUOUS
 10
5.3290925163
 20
5.4472958022
 40
0.0066018274
100
AcDbArc
 50
283.5491997087
 51
284.5250189154
  0
ARC
  5
349
100
AcDbEntity
  8
0
100
AcDbCircle
 62
7
  6
CONTINUOUS
 10
5.3290925219
 20
5.3094957803
 40
0.0066018048
100
AcDbArc
 50
283.5492381713
 51
284.5250196
  0
LINE
  5
34A
100
AcDbEntity
  8
0
100
AcDbLine
 62
7
  6
CONTINUOUS
 10
5.331460008
 20
5.5790737374
 11
5.3307485152
 21
5.5787049807
  0
LINE
  5
34B
100
AcDbEntity
  8
0
100
AcDbLine
 62
7
  6
CONTINUOUS
 10
5.3307482727
 20
4.7977667582
 11
5.3314601118
 21
4.7973980017
  0
LINE
  5
34C
100
AcDbEntity
  8
0
100
AcDbLine
 62
7
  6
CONTINUOUS
 10
4.7026719509
 20
4.8149917582
 11
4.7019601118
 21
4.8146230017
  0
LINE
  5
34D
100
AcDbEntity
  8
0
100
AcDbLine
 62
7
  6
CONTINUOUS
 10
4.7026719189
 20
4.8035799809
 11
4.7019601118
 21
4.8039487374
  0
LINE
  5
34E
100
AcDbEntity
  8
0
100
AcDbLine
 62
7
  6
CONTINUOUS
 10
5.3307482727
 20
5.1422667582
 11
5.3314601118
 21
5.1418980017
  0
LINE
  5
34F
100
AcDbEntity
  8
0
100
AcDbLine
 62
7
  6
CONTINUOUS
 10
4.7026717091
 20
5.1594917584
 11
4.7019601118
 21
5.1591230017
  0
LINE
  5
350
100
AcDbEntity
  8
0
100
AcDbLine
 62
7
  6
CONTINUOUS
 10
5.3307482727
 20
5.1767167582
 11
5.3314601118
 21
5.1763480017
  0
LINE
  5
351
100
AcDbEntity
  8
0
100
AcDbLine
 62
7
  6
CONTINUOUS
 10
5.3307482727
 20
5.2111667582
 11
5.3314601118
 21
5.2107980017
  0
LINE
  5
352
100
AcDbEntity
  8
0
100
AcDbLine
 62
7
  6
CONTINUOUS
 10
5.3307482727
 20
5.2456167582
 11
5.3314601118
 21
5.2452480017
  0
LINE
  5
353
100
AcDbEntity
  8
0
100
AcDbLine
 62
7
  6
CONTINUOUS
 10
5.3307482669
 20
5.2800667582
 11
5.3314601118
 21
5.2796980017
  0
LINE
  5
354
100
AcDbEntity
  8
0
100
AcDbLine
 62
7
  6
CONTINUOUS
 10
4.7026719509
 20
5.1939417582
 11
4.7019601118
 21
5.1935730017
  0
LINE
  5
355
100
AcDbEntity
  8
0
100
AcDbLine
 62
7
  6
CONTINUOUS
 10
4.7026719509
 20
5.2283917582
 11
4.7019601118
 21
5.2280230017
  0
LINE
  5
356
100
AcDbEntity
  8
0
100
AcDbLine
 62
7
  6
CONTINUOUS
 10
4.7026719509
 20
5.2628417582
 11
4.7019601118
 21
5.2624730017
  0
LINE
  5
357
100
AcDbEntity
  8
0
100
AcDbLine
 62
7
  6
CONTINUOUS
 10
5.3307482727
 20
5.3145167582
 11
5.3314601118
 21
5.3141480017
  0
LINE
  5
358
100
AcDbEntity
  8
0
100
AcDbLine
 62
7
  6
CONTINUOUS
 10
5.3307482727
 20
5.3489667582
 11
5.3314601118
 21
5.3485980017
  0
LINE
  5
359
100
AcDbEntity
  8
0
100
AcDbLine
 62
7
  6
CONTINUOUS
 10
5.3307482727
 20
5.3834167582
 11
5.3314601118
 21
5.3830480017
  0
LINE
  5
35A
100
AcDbEntity
  8
0
100
AcDbLine
 62
7
  6
CONTINUOUS
 10
5.33074852
 20
5.4178667584
 11
5.3314601118
 21
5.4174980017
  0
LINE
  5
35B
100
AcDbEntity
  8
0
100
AcDbLine
 62
7
  6
CONTINUOUS
 10
4.7019601118
 20
5.1484487374
 11
4.702671951
 21
5.1480799809
  0
LINE
  5
35C
100
AcDbEntity
  8
0
100
AcDbLine
 62
7
  6
CONTINUOUS
 10
4.7026719509
 20
5.2972917582
 11
4.7019601118
 21
5.2969230017
  0
LINE
  5
35D
100
AcDbEntity
  8
0
100
AcDbLine
 62
7
  6
CONTINUOUS
 10
4.7019601118
 20
5.1828987374
 11
4.702671951
 21
5.1825299809
  0
LINE
  5
35E
100
AcDbEntity
  8
0
100
AcDbLine
 62
7
  6
CONTINUOUS
 10
4.7019601118
 20
5.2173487374
 11
4.702671951
 21
5.2169799809
  0
LINE
  5
35F
100
AcDbEntity
  8
0
100
AcDbLine
 62
7
  6
CONTINUOUS
 10
4.7026719509
 20
5.3317417582
 11
4.7019601118
 21
5.3313730017
  0
LINE
  5
360
100
AcDbEntity
  8
0
100
AcDbLine
 62
7
  6
CONTINUOUS
 10
4.7019601118
 20
5.2517987374
 11
4.702671951
 21
5.2514299809
  0
LINE
  5
361
100
AcDbEntity
  8
0
100
AcDbLine
 62
7
  6
CONTINUOUS
 10
4.7019601118
 20
5.2862487374
 11
4.702671951
 21
5.2858799809
  0
LINE
  5
362
100
AcDbEntity
  8
0
100
AcDbLine
 62
7
  6
CONTINUOUS
 10
4.7026719509
 20
5.3661917582
 11
4.7019601118
 21
5.3658230017
  0
LINE
  5
363
100
AcDbEntity
  8
0
100
AcDbLine
 62
7
  6
CONTINUOUS
 10
4.7019601118
 20
5.3206987374
 11
4.702671944
 21
5.3203299809
  0
LINE
  5
364
100
AcDbEntity
  8
0
100
AcDbLine
 62
7
  6
CONTINUOUS
 10
4.7026719509
 20
5.4006417582
 11
4.7019601118
 21
5.4002730017
  0
LINE
  5
365
100
AcDbEntity
  8
0
100
AcDbLine
 62
7
  6
CONTINUOUS
 10
4.7019601118
 20
5.3551487374
 11
4.702671951
 21
5.3547799809
  0
LINE
  5
366
100
AcDbEntity
  8
0
100
AcDbLine
 62
7
  6
CONTINUOUS
 10
4.7019601118
 20
5.3895987374
 11
4.702671951
 21
5.3892299809
  0
LINE
  5
367
100
AcDbEntity
  8
0
100
AcDbLine
 62
7
  6
CONTINUOUS
 10
4.7019601118
 20
5.4240487374
 11
4.702671951
 21
5.4236799809
  0
LINE
  5
368
100
AcDbEntity
  8
0
100
AcDbLine
 62
7
  6
CONTINUOUS
 10
4.7019601118
 20
5.4584987374
 11
4.7026719401
 21
5.4581299809
  0
LINE
  5
369
100
AcDbEntity
  8
0
100
AcDbLine
 62
7
  6
CONTINUOUS
 10
4.7019601118
 20
5.4929487374
 11
4.702671951
 21
5.4925799809
  0
LINE
  5
36A
100
AcDbEntity
  8
0
100
AcDbLine
 62
7
  6
CONTINUOUS
 10
4.7019601118
 20
5.5273987374
 11
4.702671951
 21
5.5270299809
  0
LINE
  5
36B
100
AcDbEntity
  8
0
100
AcDbLine
 62
7
  6
CONTINUOUS
 10
4.7019601118
 20
5.5618487374
 11
4.702671951
 21
5.5614799809
  0
LINE
  5
36C
100
AcDbEntity
  8
0
100
AcDbLine
 62
7
  6
CONTINUOUS
 10
5.3314601118
 20
5.1312237374
 11
5.3307482726
 21
5.1308549809
  0
LINE
  5
36D
100
AcDbEntity
  8
0
100
AcDbLine
 62
7
  6
CONTINUOUS
 10
5.3314601118
 20
5.1656737374
 11
5.3307482726
 21
5.1653049809
  0
LINE
  5
36E
100
AcDbEntity
  8
0
100
AcDbLine
 62
7
  6
CONTINUOUS
 10
5.3314601118
 20
5.2001237374
 11
5.330748268
 21
5.1997549809
  0
LINE
  5
36F
100
AcDbEntity
  8
0
100
AcDbLine
 62
7
  6
CONTINUOUS
 10
5.3314601118
 20
5.2345737374
 11
5.3307482726
 21
5.2342049809
  0
LINE
  5
370
100
AcDbEntity
  8
0
100
AcDbLine
 62
7
  6
CONTINUOUS
 10
5.3314601118
 20
5.2690237374
 11
5.3307482726
 21
5.2686549809
  0
LINE
  5
371
100
AcDbEntity
  8
0
100
AcDbLine
 62
7
  6
CONTINUOUS
 10
5.3314601118
 20
5.3034737374
 11
5.3307482726
 21
5.3031049809
  0
LINE
  5
372
100
AcDbEntity
  8
0
100
AcDbLine
 62
7
  6
CONTINUOUS
 10
5.3314601118
 20
5.3379237374
 11
5.3307482726
 21
5.3375549809
  0
LINE
  5
373
100
AcDbEntity
  8
0
100
AcDbLine
 62
7
  6
CONTINUOUS
 10
5.3314601118
 20
5.3723737374
 11
5.3307482726
 21
5.3720049809
  0
LINE
  5
374
100
AcDbEntity
  8
0
100
AcDbLine
 62
7
  6
CONTINUOUS
 10
5.3314601118
 20
5.4068237374
 11
5.3307482726
 21
5.4064549809
  0
LINE
  5
375
100
AcDbEntity
  8
0
100
AcDbLine
 62
7
  6
CONTINUOUS
 10
5.3314601118
 20
5.4412737374
 11
5.3307482726
 21
5.4409049809
  0
LINE
  5
376
100
AcDbEntity
  8
0
100
AcDbLine
 62
7
  6
CONTINUOUS
 10
5.3314601118
 20
5.4757237374
 11
5.3307482726
 21
5.4753549809
  0
LINE
  5
377
100
AcDbEntity
  8
0
100
AcDbLine
 62
7
  6
CONTINUOUS
 10
5.3314601118
 20
5.5101737374
 11
5.3307482726
 21
5.5098049809
  0
LINE
  5
378
100
AcDbEntity
  8
0
100
AcDbLine
 62
7
  6
CONTINUOUS
 10
5.3314601118
 20
5.5446237374
 11
5.3307482726
 21
5.5442549809
  0
LINE
  5
379
100
AcDbEntity
  8
0
100
AcDbLine
 62
7
  6
CONTINUOUS
 10
5.3307482727
 20
5.4523167582
 11
5.3314601118
 21
5.4519480017
  0
LINE
  5
37A
100
AcDbEntity
  8
0
100
AcDbLine
 62
7
  6
CONTINUOUS
 10
5.3307482727
 20
5.4867667582
 11
5.3314601118
 21
5.4863980017
  0
LINE
  5
37B
100
AcDbEntity
  8
0
100
AcDbLine
 62
7
  6
CONTINUOUS
 10
5.3307482727
 20
5.5212167582
 11
5.3314601118
 21
5.5208480017
  0
LINE
  5
37C
100
AcDbEntity
  8
0
100
AcDbLine
 62
7
  6
CONTINUOUS
 10
5.3314601173
 20
4.8211737372
 11
5.3307484942
 21
4.8208049807
  0
LINE
  5
37D
100
AcDbEntity
  8
0
100
AcDbLine
 62
7
  6
CONTINUOUS
 10
4.7026719509
 20
5.4350917582
 11
4.7019601118
 21
5.4347230017
  0
LINE
  5
37E
100
AcDbEntity
  8
0
100
AcDbLine
 62
7
  6
CONTINUOUS
 10
4.7026719509
 20
5.4695417582
 11
4.7019601118
 21
5.4691730017
  0
LINE
  5
37F
100
AcDbEntity
  8
0
100
AcDbLine
 62
7
  6
CONTINUOUS
 10
4.7026719509
 20
5.5039917582
 11
4.7019601118
 21
5.5036230017
  0
LINE
  5
380
100
AcDbEntity
  8
0
100
AcDbLine
 62
7
  6
CONTINUOUS
 10
4.7026719121
 20
5.5384417582
 11
4.7019601118
 21
5.5380730017
  0
LINE
  5
381
100
AcDbEntity
  8
0
100
AcDbLine
 62
7
  6
CONTINUOUS
 10
5.3307482727
 20
5.5556667582
 11
5.3314601118
 21
5.5552980017
  0
LINE
  5
382
100
AcDbEntity
  8
0
100
AcDbLine
 62
7
  6
CONTINUOUS
 10
4.7026719233
 20
5.5728917582
 11
4.7019601118
 21
5.5725230017
  0
SPLINE
  5
383
100
AcDbEntity
  8
0
100
AcDbSpline
 62
7
  6
CONTINUOUS
 70
0
 71
3
 72
45
 73
41
 74
0
 42
0.0000001
 43
0.0000001
 44
0.0000000001
 40
0.0
 40
0.0
 40
0.0
 40
0.0
 40
0.0009100685
 40
0.0020684834
 40
0.0034764674
 40
0.0051340865
 40
0.0070409768
 40
0.0091965777
 40
0.014250883
 40
0.0202879834
 40
0.0272963841
 40
0.0352628942
 40
0.0441712594
 40
0.054004385
 40
0.0647422777
 40
0.0888452442
 40
0.1162872942
 40
0.1468484974
 40
0.1802837361
 40
0.2163247758
 40
0.2546822265
 40
0.2950480365
 40
0.3370981173
 40
0.3804948155
 40
0.4699260434
 40
0.5604744612
 40
0.6492371653
 40
0.7333683874
 40
0.772846122
 40
0.8101711232
 40
0.8450437405
 40
0.8771840009
 40
0.9063339761
 40
0.9322598344
 40
0.9547541434
 40
0.973636748
 40
0.9816757794
 40
0.9887586514
 40
0.9948709871
 40
1.0
 40
1.0
 40
1.0
 40
1.0
 10
5.330748268
 20
5.1997549809
 30
0.0
 10
5.3305654844
 20
5.1997075964
 30
0.0
 10
5.3301454826
 20
5.1996177408
 30
0.0
 10
5.3294342028
 20
5.1994973772
 30
0.0
 10
5.3285660689
 20
5.1993763581
 30
0.0
 10
5.327541491
 20
5.1992548176
 30
0.0
 10
5.3263608879
 20
5.1991329564
 30
0.0
 10
5.324477095
 20
5.198960922
 30
0.0
 10
5.321736487
 20
5.1987503857
 30
0.0
 10
5.3179888363
 20
5.1985078363
 30
0.0
 10
5.3136359026
 20
5.1982645615
 30
0.0
 10
5.3086864544
 20
5.1980207196
 30
0.0
 10
5.3031503056
 20
5.1977764852
 30
0.0
 10
5.2970386463
 20
5.1975319744
 30
0.0
 10
5.2877756637
 20
5.1971924554
 30
0.0
 10
5.2748596087
 20
5.1967739364
 30
0.0
 10
5.2578307053
 20
5.196287543
 30
0.0
 10
5.2388648133
 20
5.1958002445
 30
0.0
 10
5.218114246
 20
5.1953122262
 30
0.0
 10
5.1957456723
 20
5.1948237261
 30
0.0
 10
5.1719387963
 20
5.1943348653
 30
0.0
 10
5.1468848905
 20
5.1938457442
 30
0.0
 10
5.1207852295
 20
5.1933564235
 30
0.0
 10
5.0845066245
 20
5.1926972309
 30
0.0
 10
5.0381664914
 20
5.1918833501
 30
0.0
 10
4.9824148368
 20
5.1909157844
 30
0.0
 10
4.9277630118
 20
5.1899487759
 30
0.0
 10
4.8837066712
 20
5.1891280537
 30
0.0
 10
4.8503219036
 20
5.1884618536
 30
0.0
 10
4.8271560729
 20
5.1879731304
 30
0.0
 10
4.8055130089
 20
5.1874848365
 30
0.0
 10
4.7855665896
 20
5.1869971214
 30
0.0
 10
4.7674770746
 20
5.1865101923
 30
0.0
 10
4.7513897057
 20
5.1860245558
 30
0.0
 10
4.7374337237
 20
5.185540495
 30
0.0
 10
4.7271891195
 20
5.185120491
 30
0.0
 10
4.7201420405
 20
5.1847765795
 30
0.0
 10
4.7157429329
 20
5.1845332045
 30
0.0
 10
4.7119486304
 20
5.1842906011
 30
0.0
 10
4.7096227774
 20
5.1841143923
 30
0.0
 10
4.7085624516
 20
5.1840237374
 30
0.0
  0
SPLINE
  5
384
100
AcDbEntity
  8
0
100
AcDbSpline
 62
7
  6
CONTINUOUS
 70
0
 71
3
 72
44
 73
40
 74
0
 42
0.0000001
 43
0.0000001
 44
0.0000000001
 40
0.0
 40
0.0
 40
0.0
 40
0.0
 40
0.0009625489
 40
0.0021722568
 40
0.0036302655
 40
0.005336967
 40
0.0094947466
 40
0.0146395255
 40
0.0207630438
 40
0.0278533985
 40
0.035896964
 40
0.0448783138
 40
0.0547791529
 40
0.065580455
 40
0.0897954556
 40
0.1173303801
 40
0.1479653693
 40
0.1814553269
 40
0.2175323638
 40
0.2559079014
 40
0.2962749004
 40
0.3383102882
 40
0.3816775521
 40
0.4710112172
 40
0.561421389
 40
0.6500188435
 40
0.733972575
 40
0.7733614312
 40
0.8105998226
 40
0.8453898157
 40
0.8774530996
 40
0.9065332454
 40
0.9323976644
 40
0.9548401957
 40
0.9736818109
 40
0.9817048503
 40
0.9887747929
 40
0.994877398
 40
1.0
 40
1.0
 40
1.0
 40
1.0
 10
5.3103496118
 20
5.1944667089
 30
0.0
 10
5.3101688069
 20
5.1944198346
 30
0.0
 10
5.3097565794
 20
5.1943304168
 30
0.0
 10
5.3090624051
 20
5.194210059
 30
0.0
 10
5.3082221179
 20
5.1940890627
 30
0.0
 10
5.3068117635
 20
5.1939155361
 30
0.0
 10
5.3046855485
 20
5.1937051782
 30
0.0
 10
5.3017017795
 20
5.1934640552
 30
0.0
 10
5.2981474464
 20
5.1932219578
 30
0.0
 10
5.2940295747
 20
5.1929789588
 30
0.0
 10
5.289356325
 20
5.1927354585
 30
0.0
 10
5.2841370667
 20
5.1924916005
 30
0.0
 10
5.2783821586
 20
5.1922474395
 30
0.0
 10
5.2696725778
 20
5.1919086056
 30
0.0
 10
5.2575416711
 20
5.1914908027
 30
0.0
 10
5.24156226
 20
5.1910051328
 30
0.0
 10
5.2237823296
 20
5.1905185739
 30
0.0
 10
5.2043442646
 20
5.1900313098
 30
0.0
 10
5.183403726
 20
5.1895435712
 30
0.0
 10
5.1611283707
 20
5.1890554782
 30
0.0
 10
5.137696543
 20
5.1885671305
 30
0.0
 10
5.1132958759
 20
5.1880785872
 30
0.0
 10
5.0793947412
 20
5.1874205357
 30
0.0
 10
5.0361077352
 20
5.1866080188
 30
0.0
 10
4.9840451669
 20
5.1856419663
 30
0.0
 10
4.9330267434
 20
5.1846764742
 30
0.0
 10
4.8919080027
 20
5.1838570109
 30
0.0
 10
4.860754416
 20
5.1831918466
 30
0.0
 10
4.8391394405
 20
5.1827039061
 30
0.0
 10
4.8189463636
 20
5.1822163943
 30
0.0
 10
4.8003368701
 20
5.1817294591
 30
0.0
 10
4.7834600056
 20
5.1812433097
 30
0.0
 10
4.7684508507
 20
5.180758446
 30
0.0
 10
4.7554296107
 20
5.1802751515
 30
0.0
 10
4.7458706186
 20
5.1798558208
 30
0.0
 10
4.739294542
 20
5.1795124793
 30
0.0
 10
4.7351886824
 20
5.179269483
 30
0.0
 10
4.7316467384
 20
5.1790272589
 30
0.0
 10
4.7294754929
 20
5.1788513546
 30
0.0
 10
4.7284855807
 20
5.1787608696
 30
0.0
  0
SPLINE
  5
385
100
AcDbEntity
  8
0
100
AcDbSpline
 62
7
  6
CONTINUOUS
 70
0
 71
3
 72
63
 73
59
 74
0
 42
0.0000001
 43
0.0000001
 44
0.0000000001
 40
0.0
 40
0.0
 40
0.0
 40
0.0
 40
0.0010305488
 40
0.0023428763
 40
0.0039379092
 40
0.0058154627
 40
0.0079749741
 40
0.0104156864
 40
0.0161361879
 40
0.0229645197
 40
0.0308862536
 40
0.0398832882
 40
0.0499354205
 40
0.0610198261
 40
0.0731109087
 40
0.1002008843
 40
0.1309571577
 40
0.1650974078
 40
0.2023081681
 40
0.2422476303
 40
0.284548844
 40
0.3288231691
 40
0.3746637636
 40
0.4216493439
 40
0.4693481802
 40
0.5173217944
 40
0.5651293801
 40
0.6123315063
 40
0.6584944184
 40
0.7031939143
 40
0.7460192019
 40
0.7865768078
 40
0.8244940777
 40
0.8594226492
 40
0.8756647097
 40
0.8910418262
 40
0.9055184197
 40
0.9190613758
 40
0.9316397528
 40
0.9432244591
 40
0.9537894533
 40
0.9633100455
 40
0.9717652419
 40
0.979135424
 40
0.9854046854
 40
0.9905593093
 40
0.9927153186
 40
0.9945893618
 40
0.996180879
 40
0.9974896931
 40
0.9980383526
 40
0.9985168556
 40
0.9989256789
 40
0.9992656229
 40
0.9995381323
 40
0.9996499814
 40
0.9997463072
 40
1.0
 40
1.0
 40
1.0
 40
1.0
 10
5.3306391843
 20
5.2341777072
 30
0.0
 10
5.330429109
 20
5.2341269895
 30
0.0
 10
5.329946958
 20
5.2340308694
 30
0.0
 10
5.3291311793
 20
5.2339021338
 30
0.0
 10
5.3281360379
 20
5.2337726816
 30
0.0
 10
5.3269620956
 20
5.2336426645
 30
0.0
 10
5.3256099074
 20
5.2335123017
 30
0.0
 10
5.323453407
 20
5.233328295
 30
0.0
 10
5.3203179803
 20
5.2331031049
 30
0.0
 10
5.3160330057
 20
5.2328436234
 30
0.0
 10
5.3110598848
 20
5.2325834087
 30
0.0
 10
5.3054099536
 20
5.232322545
 30
0.0
 10
5.2990961851
 20
5.2320612937
 30
0.0
 10
5.2921330944
 20
5.2317997279
 30
0.0
 10
5.2815984273
 20
5.2314367773
 30
0.0
 10
5.2669390127
 20
5.2309893851
 30
0.0
 10
5.2476560022
 20
5.2304691735
 30
0.0
 10
5.2262499485
 20
5.2299479991
 30
0.0
 10
5.202917639
 20
5.2294260641
 30
0.0
 10
5.1778735524
 20
5.2289036226
 30
0.0
 10
5.151347909
 20
5.2283808085
 30
0.0
 10
5.1235845476
 20
5.2278577296
 30
0.0
 10
5.0948386886
 20
5.2273344632
 30
0.0
 10
5.0653745805
 20
5.2268110715
 30
0.0
 10
5.0354631004
 20
5.2262876063
 30
0.0
 10
5.0053792163
 20
5.2257641135
 30
0.0
 10
4.97539951
 20
5.2252406372
 30
0.0
 10
4.9457995736
 20
5.2247172227
 30
0.0
 10
4.9168515198
 20
5.22419392
 30
0.0
 10
4.8888214602
 20
5.2236707888
 30
0.0
 10
4.8619670671
 20
5.2231478994
 30
0.0
 10
4.8365352133
 20
5.2226253595
 30
0.0
 10
4.8127596995
 20
5.2221032658
 30
0.0
 10
4.7940828217
 20
5.2216586747
 30
0.0
 10
4.7801320469
 20
5.2213001974
 30
0.0
 10
4.7704691004
 20
5.2210379748
 30
0.0
 10
4.7613723862
 20
5.2207758481
 30
0.0
 10
4.7528628364
 20
5.220513835
 30
0.0
 10
4.744960031
 20
5.2202519776
 30
0.0
 10
4.737682081
 20
5.2199902976
 30
0.0
 10
4.7310458025
 20
5.2197288925
 30
0.0
 10
4.7250663395
 20
5.2194678161
 30
0.0
 10
4.7197575313
 20
5.219207237
 30
0.0
 10
4.7151314132
 20
5.218947417
 30
0.0
 10
4.7111986602
 20
5.2186885484
 30
0.0
 10
4.7083596454
 20
5.2184632114
 30
0.0
 10
4.7064424366
 20
5.2182782006
 30
0.0
 10
4.7052706966
 20
5.2181481993
 30
0.0
 10
4.7042778411
 20
5.2180186672
 30
0.0
 10
4.7035632473
 20
5.2179058502
 30
0.0
 10
4.7030821529
 20
5.2178133452
 30
0.0
 10
4.702788081
 20
5.2177482227
 30
0.0
 10
4.7025389791
 20
5.2176833847
 30
0.0
 10
4.7023345722
 20
5.2176186283
 30
0.0
 10
4.7021936191
 20
5.2175622946
 30
0.0
 10
4.7021036391
 20
5.2175152152
 30
0.0
 10
4.7020235943
 20
5.2174649169
 30
0.0
 10
4.7019601118
 20
5.217401938
 30
0.0
 10
4.7019601118
 20
5.2173487374
 30
0.0
  0
SPLINE
  5
386
100
AcDbEntity
  8
0
100
AcDbSpline
 62
7
  6
CONTINUOUS
 70
0
 71
3
 72
63
 73
59
 74
0
 42
0.0000001
 43
0.0000001
 44
0.0000000001
 40
0.0
 40
0.0
 40
0.0
 40
0.0
 40
0.0010774659
 40
0.0024355598
 40
0.0040750795
 40
0.0059960702
 40
0.0081982057
 40
0.0106806765
 40
0.0164810537
 40
0.023385373
 40
0.0313789136
 40
0.0404433386
 40
0.0505588847
 40
0.0617019356
 40
0.07384763
 40
0.1010330026
 40
0.1318666774
 40
0.1660664642
 40
0.2033192144
 40
0.2432835104
 40
0.2855932038
 40
0.3298605359
 40
0.3756797588
 40
0.4226309939
 40
0.4702837443
 40
0.5182012673
 40
0.5659442372
 40
0.6130750447
 40
0.6591617031
 40
0.7037817454
 40
0.7465262068
 40
0.7870032932
 40
0.8248420443
 40
0.859695876
 40
0.8912455832
 40
0.9056900338
 40
0.919202442
 40
0.9317523554
 40
0.9433108893
 40
0.9538516426
 40
0.9633510057
 40
0.9717869444
 40
0.9791412306
 40
0.9853969907
 40
0.9905415048
 40
0.9926938632
 40
0.9945648662
 40
0.99615424
 40
0.9974622691
 40
0.998011128
 40
0.9984902209
 40
0.9989000472
 40
0.9992414731
 40
0.9995161304
 40
0.9997272831
 40
0.9998112416
 40
0.999882802
 40
1.0
 40
1.0
 40
1.0
 40
1.0
 10
5.3102579618
 20
5.2288935985
 30
0.0
 10
5.3100526989
 20
5.2288433188
 30
0.0
 10
5.3095843807
 20
5.2287475781
 30
0.0
 10
5.3087954615
 20
5.2286188383
 30
0.0
 10
5.307839357
 20
5.2284894191
 30
0.0
 10
5.3067165362
 20
5.2283594856
 30
0.0
 10
5.3054274586
 20
5.2282292351
 30
0.0
 10
5.3033791429
 20
5.2280456216
 30
0.0
 10
5.3004087484
 20
5.2278207165
 30
0.0
 10
5.2963572841
 20
5.227561491
 30
0.0
 10
5.2916645333
 20
5.2273015426
 30
0.0
 10
5.286341141
 20
5.2270409561
 30
0.0
 10
5.2803993713
 20
5.2267800178
 30
0.0
 10
5.2738527403
 20
5.2265187461
 30
0.0
 10
5.263959502
 20
5.2261563698
 30
0.0
 10
5.2502047765
 20
5.2257095779
 30
0.0
 10
5.2321246596
 20
5.2251899698
 30
0.0
 10
5.2120692493
 20
5.2246694119
 30
0.0
 10
5.1902224564
 20
5.2241481073
 30
0.0
 10
5.166784601
 20
5.2236263027
 30
0.0
 10
5.141970613
 20
5.2231041312
 30
0.0
 10
5.1160080194
 20
5.2225816983
 30
0.0
 10
5.089134873
 20
5.2220590808
 30
0.0
 10
5.0615976004
 20
5.2215363401
 30
0.0
 10
5.0336487015
 20
5.2210135273
 30
0.0
 10
5.0055444875
 20
5.2204906879
 30
0.0
 10
4.9775426634
 20
5.2199678658
 30
0.0
 10
4.949900002
 20
5.2194451061
 30
0.0
 10
4.9228699723
 20
5.2189224588
 30
0.0
 10
4.8967004305
 20
5.2183999822
 30
0.0
 10
4.871631357
 20
5.2178777513
 30
0.0
 10
4.8478926428
 20
5.2173558569
 30
0.0
 10
4.8257019593
 20
5.2168344498
 30
0.0
 10
4.8052627732
 20
5.2163136656
 30
0.0
 10
4.7894116879
 20
5.2158684062
 30
0.0
 10
4.7777457669
 20
5.2155086733
 30
0.0
 10
4.7698051809
 20
5.2152469781
 30
0.0
 10
4.7624309537
 20
5.2149854489
 30
0.0
 10
4.7556399663
 20
5.2147241093
 30
0.0
 10
4.7494477769
 20
5.2144630121
 30
0.0
 10
4.743868623
 20
5.2142022898
 30
0.0
 10
4.7389151923
 20
5.2139420043
 30
0.0
 10
4.7345988806
 20
5.2136825402
 30
0.0
 10
4.730929446
 20
5.2134239762
 30
0.0
 10
4.7282806267
 20
5.2131989033
 30
0.0
 10
4.7264919325
 20
5.2130141468
 30
0.0
 10
4.7253986864
 20
5.2128842949
 30
0.0
 10
4.7244723519
 20
5.2127548998
 30
0.0
 10
4.7238056807
 20
5.2126422363
 30
0.0
 10
4.7233568639
 20
5.2125498803
 30
0.0
 10
4.7230823996
 20
5.2124848613
 30
0.0
 10
4.7228498838
 20
5.2124200344
 30
0.0
 10
4.7226591057
 20
5.2123554938
 30
0.0
 10
4.722509977
 20
5.2122911965
 30
0.0
 10
4.722412995
 20
5.2122343415
 30
0.0
 10
4.722358508
 20
5.2121869054
 30
0.0
 10
4.722324161
 20
5.212145913
 30
0.0
 10
4.7223102279
 20
5.2121088565
 30
0.0
 10
4.7223102285
 20
5.2120858696
 30
0.0
  0
SPLINE
  5
387
100
AcDbEntity
  8
0
100
AcDbSpline
 62
7
  6
CONTINUOUS
 70
0
 71
3
 72
27
 73
23
 74
0
 42
0.0000001
 43
0.0000001
 44
0.0000000001
 40
0.0
 40
0.0
 40
0.0
 40
0.0
 40
0.0239570544
 40
0.0547300319
 40
0.0726456801
 40
0.0922066734
 40
0.1133338542
 40
0.1359708851
 40
0.1600953942
 40
0.1856798518
 40
0.2410248512
 40
0.2706715736
 40
0.3015539725
 40
0.3668141324
 40
0.4363733458
 40
0.5097278937
 40
0.5863693121
 40
0.6657715463
 40
0.747390312
 40
0.8306726317
 40
0.9150593558
 40
1.0
 40
1.0
 40
1.0
 40
1.0
 10
4.5579469539
 20
5.7339554732
 30
0.0
 10
4.5615615793
 20
5.7331182624
 30
0.0
 10
4.569822059
 20
5.7312179694
 30
0.0
 10
4.5807882781
 20
5.7287030117
 30
0.0
 10
4.5910981449
 20
5.7263721071
 30
0.0
 10
4.5999548732
 20
5.7243882813
 30
0.0
 10
4.6095282557
 20
5.7222585987
 30
0.0
 10
4.6197950597
 20
5.7199913018
 30
0.0
 10
4.6307413745
 20
5.7175998648
 30
0.0
 10
4.646645932
 20
5.7141704025
 30
0.0
 10
4.6634031522
 20
5.7106380446
 30
0.0
 10
4.6809822748
 20
5.7070284746
 30
0.0
 10
4.7000804153
 20
5.7031828329
 30
0.0
 10
4.7252719397
 20
5.6982848017
 30
0.0
 10
4.7569872725
 20
5.6924841337
 30
0.0
 10
4.7905159999
 20
5.6868155002
 30
0.0
 10
4.8256413363
 20
5.6814706055
 30
0.0
 10
4.8621360179
 20
5.6766588432
 30
0.0
 10
4.8997579891
 20
5.6726004482
 30
0.0
 10
4.9382479207
 20
5.6695124308
 30
0.0
 10
4.9773285993
 20
5.6675716109
 30
0.0
 10
5.003555045
 20
5.66713209
 30
0.0
 10
5.0167101081
 20
5.667132019
 30
0.0
  0
SPLINE
  5
388
100
AcDbEntity
  8
0
100
AcDbSpline
 62
7
  6
CONTINUOUS
 70
0
 71
3
 72
27
 73
23
 74
0
 42
0.0000001
 43
0.0000001
 44
0.0000000001
 40
0.0
 40
0.0
 40
0.0
 40
0.0
 40
0.0849405606
 40
0.1693272053
 40
0.2526094583
 40
0.3342281599
 40
0.4136302375
 40
0.4902717617
 40
0.5636264919
 40
0.6331859384
 40
0.6984459234
 40
0.7293283523
 40
0.758975167
 40
0.8143203738
 40
0.8399048468
 40
0.8640292741
 40
0.8866662836
 40
0.9077934775
 40
0.9273543
 40
0.9452696252
 40
0.9760422444
 40
1.0
 40
1.0
 40
1.0
 40
1.0
 10
5.0167101081
 20
5.667132019
 30
0.0
 10
5.0298651585
 20
5.6671320873
 30
0.0
 10
5.0560915787
 20
5.6675716311
 30
0.0
 10
5.0951722255
 20
5.6695124006
 30
0.0
 10
5.1336621208
 20
5.6726004609
 30
0.0
 10
5.1712840645
 20
5.6766587145
 30
0.0
 10
5.2077787014
 20
5.6814706897
 30
0.0
 10
5.2429040689
 20
5.6868155117
 30
0.0
 10
5.2764328777
 20
5.6924841535
 30
0.0
 10
5.3081482652
 20
5.698284735
 30
0.0
 10
5.3333397861
 20
5.7031828602
 30
0.0
 10
5.352437921
 20
5.7070284896
 30
0.0
 10
5.3700170976
 20
5.7106380526
 30
0.0
 10
5.386774371
 20
5.7141703966
 30
0.0
 10
5.4026789508
 20
5.7175998608
 30
0.0
 10
5.4136252492
 20
5.7199913105
 30
0.0
 10
5.4238920375
 20
5.7222586147
 30
0.0
 10
5.4334653948
 20
5.7243882838
 30
0.0
 10
5.4423220455
 20
5.7263721167
 30
0.0
 10
5.4526317713
 20
5.7287030474
 30
0.0
 10
5.4635979913
 20
5.7312180164
 30
0.0
 10
5.4718585073
 20
5.7331183878
 30
0.0
 10
5.4754732697
 20
5.7339554888
 30
0.0
  0
SPLINE
  5
389
100
AcDbEntity
  8
0
100
AcDbSpline
 62
7
  6
CONTINUOUS
 70
0
 71
3
 72
63
 73
59
 74
0
 42
0.0000001
 43
0.0000001
 44
0.0000000001
 40
0.0
 40
0.0
 40
0.0
 40
0.0
 40
0.0010305488
 40
0.0023428763
 40
0.0039379092
 40
0.0058154627
 40
0.0079749741
 40
0.0104156864
 40
0.0161361879
 40
0.0229645197
 40
0.0308862536
 40
0.0398832882
 40
0.0499354205
 40
0.0610198261
 40
0.0731109087
 40
0.1002008843
 40
0.1309571577
 40
0.1650974078
 40
0.2023081681
 40
0.2422476303
 40
0.284548844
 40
0.3288231691
 40
0.3746637636
 40
0.4216493439
 40
0.4693481802
 40
0.5173217944
 40
0.5651293801
 40
0.6123315063
 40
0.6584944184
 40
0.7031939143
 40
0.7460192019
 40
0.7865768078
 40
0.8244940777
 40
0.8594226492
 40
0.8756647097
 40
0.8910418262
 40
0.9055184197
 40
0.9190613758
 40
0.9316397528
 40
0.9432244591
 40
0.9537894533
 40
0.9633100455
 40
0.9717652419
 40
0.979135424
 40
0.9854046854
 40
0.9905593093
 40
0.9927153186
 40
0.9945893618
 40
0.996180879
 40
0.9974896931
 40
0.9980383526
 40
0.9985168556
 40
0.9989256789
 40
0.9992656229
 40
0.9995381323
 40
0.9996499814
 40
0.9997463072
 40
1.0
 40
1.0
 40
1.0
 40
1.0
 10
5.3306391843
 20
5.2686277072
 30
0.0
 10
5.330429109
 20
5.2685769895
 30
0.0
 10
5.329946958
 20
5.2684808694
 30
0.0
 10
5.3291311793
 20
5.2683521338
 30
0.0
 10
5.3281360379
 20
5.2682226816
 30
0.0
 10
5.3269620956
 20
5.2680926645
 30
0.0
 10
5.3256099074
 20
5.2679623017
 30
0.0
 10
5.323453407
 20
5.267778295
 30
0.0
 10
5.3203179803
 20
5.2675531048
 30
0.0
 10
5.3160330057
 20
5.2672936234
 30
0.0
 10
5.3110598848
 20
5.2670334087
 30
0.0
 10
5.3054099536
 20
5.266772545
 30
0.0
 10
5.2990961851
 20
5.2665112937
 30
0.0
 10
5.2921330944
 20
5.2662497279
 30
0.0
 10
5.2815984273
 20
5.2658867773
 30
0.0
 10
5.2669390127
 20
5.2654393851
 30
0.0
 10
5.2476560022
 20
5.2649191735
 30
0.0
 10
5.2262499485
 20
5.2643979991
 30
0.0
 10
5.202917639
 20
5.2638760641
 30
0.0
 10
5.1778735524
 20
5.2633536226
 30
0.0
 10
5.151347909
 20
5.2628308085
 30
0.0
 10
5.1235845476
 20
5.2623077296
 30
0.0
 10
5.0948386886
 20
5.2617844632
 30
0.0
 10
5.0653745805
 20
5.2612610715
 30
0.0
 10
5.0354631004
 20
5.2607376063
 30
0.0
 10
5.0053792163
 20
5.2602141135
 30
0.0
 10
4.97539951
 20
5.2596906372
 30
0.0
 10
4.9457995736
 20
5.2591672227
 30
0.0
 10
4.9168515198
 20
5.25864392
 30
0.0
 10
4.8888214602
 20
5.2581207888
 30
0.0
 10
4.8619670671
 20
5.2575978994
 30
0.0
 10
4.8365352133
 20
5.2570753595
 30
0.0
 10
4.8127596995
 20
5.2565532658
 30
0.0
 10
4.7940828217
 20
5.2561086747
 30
0.0
 10
4.7801320469
 20
5.2557501974
 30
0.0
 10
4.7704691004
 20
5.2554879748
 30
0.0
 10
4.7613723862
 20
5.2552258481
 30
0.0
 10
4.7528628364
 20
5.254963835
 30
0.0
 10
4.744960031
 20
5.2547019776
 30
0.0
 10
4.737682081
 20
5.2544402976
 30
0.0
 10
4.7310458025
 20
5.2541788925
 30
0.0
 10
4.7250663395
 20
5.2539178161
 30
0.0
 10
4.7197575313
 20
5.253657237
 30
0.0
 10
4.7151314132
 20
5.253397417
 30
0.0
 10
4.7111986602
 20
5.2531385483
 30
0.0
 10
4.7083596454
 20
5.2529132114
 30
0.0
 10
4.7064424366
 20
5.2527282006
 30
0.0
 10
4.7052706966
 20
5.2525981993
 30
0.0
 10
4.7042778411
 20
5.2524686672
 30
0.0
 10
4.7035632473
 20
5.2523558502
 30
0.0
 10
4.7030821529
 20
5.2522633452
 30
0.0
 10
4.702788081
 20
5.2521982227
 30
0.0
 10
4.7025389791
 20
5.2521333847
 30
0.0
 10
4.7023345722
 20
5.2520686283
 30
0.0
 10
4.7021936191
 20
5.2520122946
 30
0.0
 10
4.7021036391
 20
5.2519652152
 30
0.0
 10
4.7020235943
 20
5.2519149169
 30
0.0
 10
4.7019601118
 20
5.251851938
 30
0.0
 10
4.7019601118
 20
5.2517987374
 30
0.0
  0
SPLINE
  5
38A
100
AcDbEntity
  8
0
100
AcDbSpline
 62
7
  6
CONTINUOUS
 70
0
 71
3
 72
62
 73
58
 74
0
 42
0.0000001
 43
0.0000001
 44
0.0000000001
 40
0.0
 40
0.0
 40
0.0
 40
0.0
 40
0.0010965866
 40
0.0024737159
 40
0.0041322567
 40
0.0060719814
 40
0.010792313
 40
0.0166274279
 40
0.0235646922
 40
0.0315894004
 40
0.0406835806
 40
0.050826569
 40
0.0619958286
 40
0.0741653438
 40
0.1013932681
 40
0.1322617984
 40
0.1664886916
 40
0.2037608584
 40
0.2437372605
 40
0.2860519985
 40
0.3303177299
 40
0.3761292108
 40
0.4230668885
 40
0.4707010515
 40
0.5185955006
 40
0.5663117122
 40
0.6134128343
 40
0.6594674731
 40
0.7040540408
 40
0.7467642129
 40
0.7872070963
 40
0.8250125045
 40
0.8598344494
 40
0.8913544145
 40
0.9057846547
 40
0.9192841245
 40
0.9318214074
 40
0.9433685236
 40
0.9538986866
 40
0.96338827
 40
0.9718158545
 40
0.979162273
 40
0.9854119139
 40
0.9905508626
 40
0.9927009249
 40
0.994570198
 40
0.9961580697
 40
0.9974646179
 40
0.998012813
 40
0.9984913373
 40
0.9989007222
 40
0.9992418612
 40
0.9995163631
 40
0.999727429
 40
0.9998113511
 40
0.999882873
 40
1.0
 40
1.0
 40
1.0
 40
1.0
 10
5.3102192143
 20
5.2633342355
 30
0.0
 10
5.3100100675
 20
5.263284121
 30
0.0
 10
5.3095341387
 20
5.2631885098
 30
0.0
 10
5.3087339131
 20
5.2630597808
 30
0.0
 10
5.3077666381
 20
5.2629303789
 30
0.0
 10
5.3061456833
 20
5.2627448398
 30
0.0
 10
5.3037051802
 20
5.262519845
 30
0.0
 10
5.3002840717
 20
5.2622619915
 30
0.0
 10
5.2962134148
 20
5.2620030176
 30
0.0
 10
5.2915025513
 20
5.26174313
 30
0.0
 10
5.2861621583
 20
5.261482706
 30
0.0
 10
5.2802044144
 20
5.2612218732
 30
0.0
 10
5.2736430145
 20
5.2609607608
 30
0.0
 10
5.2637322692
 20
5.2605986101
 30
0.0
 10
5.2499586031
 20
5.2601521017
 30
0.0
 10
5.2318591975
 20
5.2596327559
 30
0.0
 10
5.2117891728
 20
5.2591124718
 30
0.0
 10
5.1899323509
 20
5.2585914445
 30
0.0
 10
5.1664889029
 20
5.2580699215
 30
0.0
 10
5.1416735387
 20
5.2575480336
 30
0.0
 10
5.1157135404
 20
5.2570258865
 30
0.0
 10
5.0888467
 20
5.2565035559
 30
0.0
 10
5.0613191104
 20
5.2559811026
 30
0.0
 10
5.03338293
 20
5.2554585776
 30
0.0
 10
5.0052940344
 20
5.2549360266
 30
0.0
 10
4.9773096987
 20
5.2544134934
 30
0.0
 10
4.9496862562
 20
5.2538910231
 30
0.0
 10
4.9226767215
 20
5.2533686653
 30
0.0
 10
4.8965285195
 20
5.2528464781
 30
0.0
 10
4.8714811399
 20
5.2523245362
 30
0.0
 10
4.8477640039
 20
5.2518029304
 30
0.0
 10
4.8255943228
 20
5.2512818137
 30
0.0
 10
4.8051751459
 20
5.2507613154
 30
0.0
 10
4.7893400068
 20
5.2503163111
 30
0.0
 10
4.7776860336
 20
5.2499567602
 30
0.0
 10
4.7697537861
 20
5.249695226
 30
0.0
 10
4.7623873125
 20
5.2494338298
 30
0.0
 10
4.755603578
 20
5.2491726415
 30
0.0
 10
4.749418042
 20
5.2489116933
 30
0.0
 10
4.7438449002
 20
5.2486511002
 30
0.0
 10
4.738896903
 20
5.2483909875
 30
0.0
 10
4.7345852676
 20
5.2481316318
 30
0.0
 10
4.7309199141
 20
5.2478732482
 30
0.0
 10
4.7282740176
 20
5.2476482844
 30
0.0
 10
4.7264873276
 20
5.2474636185
 30
0.0
 10
4.7253952387
 20
5.2473338497
 30
0.0
 10
4.7244698893
 20
5.2472045402
 30
0.0
 10
4.7238039804
 20
5.2470919308
 30
0.0
 10
4.7233557289
 20
5.2469996212
 30
0.0
 10
4.7230816136
 20
5.2469346359
 30
0.0
 10
4.7228493702
 20
5.2468698408
 30
0.0
 10
4.7226587783
 20
5.2468053346
 30
0.0
 10
4.7225097584
 20
5.2467410765
 30
0.0
 10
4.7224128272
 20
5.2466842592
 30
0.0
 10
4.7223583647
 20
5.2466368509
 30
0.0
 10
4.722324039
 20
5.2465958819
 30
0.0
 10
4.7223101284
 20
5.2465588409
 30
0.0
 10
4.7223101411
 20
5.2465358695
 30
0.0
  0
SPLINE
  5
38B
100
AcDbEntity
  8
0
100
AcDbSpline
 62
7
  6
CONTINUOUS
 70
0
 71
3
 72
63
 73
59
 74
0
 42
0.0000001
 43
0.0000001
 44
0.0000000001
 40
0.0
 40
0.0
 40
0.0
 40
0.0
 40
0.0010305416
 40
0.0023428619
 40
0.0039378877
 40
0.0058154343
 40
0.0079749388
 40
0.0104156446
 40
0.0161361336
 40
0.0229644536
 40
0.0308861761
 40
0.0398832001
 40
0.0499353226
 40
0.0610197192
 40
0.0731107932
 40
0.1002007531
 40
0.1309570125
 40
0.1650972518
 40
0.2023080047
 40
0.2422474627
 40
0.2845486779
 40
0.3288230064
 40
0.3746636042
 40
0.4216491935
 40
0.4693480336
 40
0.5173216559
 40
0.5651292498
 40
0.6123313846
 40
0.6584943065
 40
0.7031938133
 40
0.7460191116
 40
0.7865767278
 40
0.8244940104
 40
0.8594225918
 40
0.8756646579
 40
0.8910417806
 40
0.9055183797
 40
0.9190613411
 40
0.9316397229
 40
0.9432244345
 40
0.9537894337
 40
0.96331003
 40
0.9717652302
 40
0.9791354155
 40
0.9854046798
 40
0.990559306
 40
0.9927153161
 40
0.9945893599
 40
0.9961808777
 40
0.9974896922
 40
0.9980383519
 40
0.998516855
 40
0.9989256785
 40
0.9992656227
 40
0.9995381321
 40
0.9996499813
 40
0.9997463071
 40
1.0
 40
1.0
 40
1.0
 40
1.0
 10
5.3306391987
 20
5.3030777106
 30
0.0
 10
5.3304291249
 20
5.3030269929
 30
0.0
 10
5.3299469769
 20
5.3029308728
 30
0.0
 10
5.3291312028
 20
5.3028021372
 30
0.0
 10
5.3281360658
 20
5.3026726849
 30
0.0
 10
5.3269621279
 20
5.3025426678
 30
0.0
 10
5.325609944
 20
5.302412305
 30
0.0
 10
5.323453449
 20
5.3022282982
 30
0.0
 10
5.3203180288
 20
5.302003108
 30
0.0
 10
5.3160330615
 20
5.3017436265
 30
0.0
 10
5.3110599476
 20
5.3014834118
 30
0.0
 10
5.305410023
 20
5.301222548
 30
0.0
 10
5.2990962605
 20
5.3009612967
 30
0.0
 10
5.2921331754
 20
5.3006997308
 30
0.0
 10
5.281598515
 20
5.3003367801
 30
0.0
 10
5.2669391081
 20
5.2998893879
 30
0.0
 10
5.2476561056
 20
5.2993691761
 30
0.0
 10
5.2262500582
 20
5.2988480017
 30
0.0
 10
5.2029177528
 20
5.2983260666
 30
0.0
 10
5.1778736677
 20
5.2978036249
 30
0.0
 10
5.1513480236
 20
5.2972808107
 30
0.0
 10
5.1235846598
 20
5.2967577316
 30
0.0
 10
5.0948387969
 20
5.2962344652
 30
0.0
 10
5.0653746848
 20
5.2957110733
 30
0.0
 10
5.0354631995
 20
5.2951876081
 30
0.0
 10
5.0053793105
 20
5.2946641151
 30
0.0
 10
4.9753995983
 20
5.2941406387
 30
0.0
 10
4.9457996556
 20
5.2936172242
 30
0.0
 10
4.916851595
 20
5.2930939214
 30
0.0
 10
4.8888215282
 20
5.2925707901
 30
0.0
 10
4.8619671278
 20
5.2920479006
 30
0.0
 10
4.8365352662
 20
5.2915253607
 30
0.0
 10
4.812759745
 20
5.2910032668
 30
0.0
 10
4.7940828609
 20
5.2905586757
 30
0.0
 10
4.7801320811
 20
5.2902001983
 30
0.0
 10
4.7704691308
 20
5.2899379757
 30
0.0
 10
4.7613724129
 20
5.2896758489
 30
0.0
 10
4.7528628595
 20
5.2894138358
 30
0.0
 10
4.7449600508
 20
5.2891519783
 30
0.0
 10
4.7376820974
 20
5.2888902982
 30
0.0
 10
4.7310458157
 20
5.288628893
 30
0.0
 10
4.7250663499
 20
5.2883678166
 30
0.0
 10
4.7197575392
 20
5.2881072374
 30
0.0
 10
4.715131419
 20
5.2878474174
 30
0.0
 10
4.7111986641
 20
5.2875885486
 30
0.0
 10
4.7083596479
 20
5.2873632116
 30
0.0
 10
4.7064424384
 20
5.2871782008
 30
0.0
 10
4.7052706979
 20
5.2870481995
 30
0.0
 10
4.704277842
 20
5.2869186673
 30
0.0
 10
4.7035632479
 20
5.2868058503
 30
0.0
 10
4.7030821533
 20
5.2867133453
 30
0.0
 10
4.7027880813
 20
5.2866482228
 30
0.0
 10
4.7025389794
 20
5.2865833848
 30
0.0
 10
4.7023345723
 20
5.2865186283
 30
0.0
 10
4.7021936192
 20
5.2864622947
 30
0.0
 10
4.7021036392
 20
5.2864152152
 30
0.0
 10
4.7020235943
 20
5.2863649169
 30
0.0
 10
4.7019601118
 20
5.286301938
 30
0.0
 10
4.7019601118
 20
5.2862487374
 30
0.0
  0
SPLINE
  5
38C
100
AcDbEntity
  8
0
100
AcDbSpline
 62
7
  6
CONTINUOUS
 70
0
 71
3
 72
62
 73
58
 74
0
 42
0.0000001
 43
0.0000001
 44
0.0000000001
 40
0.0
 40
0.0
 40
0.0
 40
0.0
 40
0.0011155702
 40
0.0025112614
 40
0.0041879528
 40
0.0061457641
 40
0.01090149
 40
0.0167698863
 40
0.0237394825
 40
0.0317944185
 40
0.0409174141
 40
0.0510874682
 40
0.0622817361
 40
0.0744748853
 40
0.1017440382
 40
0.1326462569
 40
0.1668993948
 40
0.2041905477
 40
0.2441787799
 40
0.2864985507
 40
0.3307627118
 40
0.3765665082
 40
0.4234910152
 40
0.471107031
 40
0.5189791153
 40
0.5666693083
 40
0.6137414361
 40
0.6597649419
 40
0.704318897
 40
0.7469958809
 40
0.7874056214
 40
0.8251785882
 40
0.8599694746
 40
0.8914602599
 40
0.905877047
 40
0.919363477
 40
0.9318890031
 40
0.9434246087
 40
0.9539446946
 40
0.9634247696
 40
0.9718439963
 40
0.9791832122
 40
0.9854263274
 40
0.9905604351
 40
0.9927081905
 40
0.9945754032
 40
0.9961617188
 40
0.9974671962
 40
0.9980149008
 40
0.9984929248
 40
0.9989018301
 40
0.9992425437
 40
0.9995167073
 40
0.9997275515
 40
0.9998114117
 40
0.9998829017
 40
1.0
 40
1.0
 40
1.0
 40
1.0
 10
5.3101807488
 20
5.2977751163
 30
0.0
 10
5.3099677541
 20
5.2977251566
 30
0.0
 10
5.3094843371
 20
5.2976296974
 30
0.0
 10
5.3086731074
 20
5.2975009667
 30
0.0
 10
5.3076950596
 20
5.2973715774
 30
0.0
 10
5.3060600552
 20
5.2971862378
 30
0.0
 10
5.3036026251
 20
5.2969613863
 30
0.0
 10
5.3001618808
 20
5.2967035764
 30
0.0
 10
5.2960726583
 20
5.2964447403
 30
0.0
 10
5.2913441612
 20
5.2961849467
 30
0.0
 10
5.2859872152
 20
5.2959246572
 30
0.0
 10
5.280013989
 20
5.2956639563
 30
0.0
 10
5.2734381675
 20
5.2954029664
 30
0.0
 10
5.2635104443
 20
5.2950410702
 30
0.0
 10
5.2497183611
 20
5.294594814
 30
0.0
 10
5.2316003196
 20
5.2940757299
 30
0.0
 10
5.2115161571
 20
5.2935557107
 30
0.0
 10
5.1896496066
 20
5.2930349547
 30
0.0
 10
5.1662006981
 20
5.2925137063
 30
0.0
 10
5.1413839985
 20
5.2919920954
 30
0.0
 10
5.1154265698
 20
5.2914702261
 30
0.0
 10
5.0885659308
 20
5.2909481744
 30
0.0
 10
5.0610478385
 20
5.2904260009
 30
0.0
 10
5.0331240624
 20
5.2899037565
 30
0.0
 10
5.0050501014
 20
5.2893814868
 30
0.0
 10
4.9770828209
 20
5.2888592352
 30
0.0
 10
4.9494781291
 20
5.2883370464
 30
0.0
 10
4.9224885972
 20
5.2878149701
 30
0.0
 10
4.8963611629
 20
5.2872930646
 30
0.0
 10
4.8713348712
 20
5.2867714046
 30
0.0
 10
4.8476387002
 20
5.2862500814
 30
0.0
 10
4.8254894626
 20
5.285729246
 30
0.0
 10
4.8050898344
 20
5.2852090318
 30
0.0
 10
4.7892702122
 20
5.2847642581
 30
0.0
 10
4.7776279406
 20
5.2844049101
 30
0.0
 10
4.7697037284
 20
5.2841435038
 30
0.0
 10
4.7623448699
 20
5.2838822679
 30
0.0
 10
4.7555681319
 20
5.2836212016
 30
0.0
 10
4.7493891097
 20
5.2833604121
 30
0.0
 10
4.7438218234
 20
5.2830999511
 30
0.0
 10
4.738879076
 20
5.2828399753
 30
0.0
 10
4.7345720609
 20
5.2825807808
 30
0.0
 10
4.7309105988
 20
5.2823224998
 30
0.0
 10
4.7282675591
 20
5.2820976973
 30
0.0
 10
4.726482797
 20
5.2819131177
 30
0.0
 10
4.7253919451
 20
5.2817834096
 30
0.0
 10
4.7244675787
 20
5.2816541641
 30
0.0
 10
4.7238023229
 20
5.2815416324
 30
0.0
 10
4.7233545048
 20
5.2814493744
 30
0.0
 10
4.7230806972
 20
5.2813844235
 30
0.0
 10
4.722848747
 20
5.2813196621
 30
0.0
 10
4.722658416
 20
5.281255188
 30
0.0
 10
4.7225096046
 20
5.2811909605
 30
0.0
 10
4.7224128094
 20
5.28113417
 30
0.0
 10
4.7223584104
 20
5.2810867914
 30
0.0
 10
4.7223241049
 20
5.2810458428
 30
0.0
 10
4.7223101747
 20
5.2810088339
 30
0.0
 10
4.7223101612
 20
5.2809858696
 30
0.0
  0
SPLINE
  5
38D
100
AcDbEntity
  8
0
100
AcDbSpline
 62
7
  6
CONTINUOUS
 70
0
 71
3
 72
15
 73
11
 74
0
 42
0.0000001
 43
0.0000001
 44
0.0000000001
 40
0.0
 40
0.0
 40
0.0
 40
0.0
 40
0.1231171712
 40
0.2467448797
 40
0.3709596946
 40
0.4958351683
 40
0.6213231675
 40
0.7472977658
 40
0.8736116679
 40
1.0
 40
1.0
 40
1.0
 40
1.0
 10
4.5579469539
 20
5.733955489
 30
0.0
 10
4.5588206358
 20
5.7339671271
 30
0.0
 10
4.5605736381
 20
5.7341530224
 30
0.0
 10
4.5631105428
 20
5.7349072669
 30
0.0
 10
4.5654811502
 20
5.736113329
 30
0.0
 10
4.5676083614
 20
5.737731156
 30
0.0
 10
4.5694240488
 20
5.7397088946
 30
0.0
 10
4.5708707409
 20
5.7419827155
 30
0.0
 10
4.5719014324
 20
5.7444788057
 30
0.0
 10
4.5722901926
 20
5.7462406029
 30
0.0
 10
4.5724064257
 20
5.7471300148
 30
0.0
  0
LINE
  5
38E
100
AcDbEntity
  8
0
100
AcDbLine
 62
7
  6
CONTINUOUS
 10
4.9469919258
 20
4.8220108662
 11
4.8794128178
 21
4.8207606175
  0
LINE
  5
38F
100
AcDbEntity
  8
0
100
AcDbLine
 62
7
  6
CONTINUOUS
 10
4.8794128178
 20
4.8207606175
 11
4.8780001144
 21
4.8207332363
  0
SPLINE
  5
390
100
AcDbEntity
  8
0
100
AcDbSpline
 62
7
  6
CONTINUOUS
 70
0
 71
3
 72
26
 73
22
 74
0
 42
0.0000001
 43
0.0000001
 44
0.0000000001
 40
0.0
 40
0.0
 40
0.0
 40
0.0
 40
0.203443939
 40
0.3898865041
 40
0.475723202
 40
0.5561402683
 40
0.630794326
 40
0.6993648155
 40
0.7615607224
 40
0.817115448
 40
0.8657929618
 40
0.9073877572
 40
0.925472516
 40
0.9417237392
 40
0.9561254664
 40
0.9686623426
 40
0.9793231502
 40
0.9881008627
 40
0.9949912622
 40
0.9977297972
 40
1.0
 40
1.0
 40
1.0
 40
1.0
 10
4.8780001144
 20
4.8207332363
 30
0.0
 10
4.8661031316
 20
4.8205023655
 30
0.0
 10
4.8433036294
 20
4.8200464318
 30
0.0
 10
4.8154856434
 20
4.819440853
 30
0.0
 10
4.7948626221
 20
4.8189506941
 30
0.0
 10
4.780776698
 20
4.8185934641
 30
0.0
 10
4.7677009959
 20
4.8182365122
 30
0.0
 10
4.7556914482
 20
4.8178798907
 30
0.0
 10
4.7447995229
 20
4.8175237392
 30
0.0
 10
4.7350717737
 20
4.8171682829
 30
0.0
 10
4.7265498381
 20
4.8168136884
 30
0.0
 10
4.7202194844
 20
4.8165069858
 30
0.0
 10
4.7157853758
 20
4.8162572691
 30
0.0
 10
4.7129403126
 20
4.8160790484
 30
0.0
 10
4.7104204169
 20
4.8159011981
 30
0.0
 10
4.7082283938
 20
4.8157237798
 30
0.0
 10
4.7063664348
 20
4.8155471903
 30
0.0
 10
4.7048364666
 20
4.8153715085
 30
0.0
 10
4.7037705368
 20
4.8152177392
 30
0.0
 10
4.7030863522
 20
4.8150897469
 30
0.0
 10
4.7028004839
 20
4.815025079
 30
0.0
 10
4.7026719509
 20
4.8149917582
 30
0.0
  0
SPLINE
  5
391
100
AcDbEntity
  8
0
100
AcDbSpline
 62
7
  6
CONTINUOUS
 70
0
 71
3
 72
15
 73
11
 74
0
 42
0.0000001
 43
0.0000001
 44
0.0000000001
 40
0.0
 40
0.0
 40
0.0
 40
0.0
 40
0.1231169977
 40
0.2467445654
 40
0.370959291
 40
0.4958347379
 40
0.6213227751
 40
0.7472974688
 40
0.873611509
 40
1.0
 40
1.0
 40
1.0
 40
1.0
 10
5.4754732664
 20
5.7339554945
 30
0.0
 10
5.4745995873
 20
5.7339671337
 30
0.0
 10
5.4728465905
 20
5.7341530311
 30
0.0
 10
5.4703096944
 20
5.7349072782
 30
0.0
 10
5.4679390952
 20
5.7361133423
 30
0.0
 10
5.4658118916
 20
5.7377311707
 30
0.0
 10
5.4639962107
 20
5.7397089099
 30
0.0
 10
5.4625495237
 20
5.7419827306
 30
0.0
 10
5.4615188354
 20
5.74447882
 30
0.0
 10
5.4611300761
 20
5.7462406162
 30
0.0
 10
5.4610138431
 20
5.7471300277
 30
0.0
  0
SPLINE
  5
392
100
AcDbEntity
  8
0
100
AcDbSpline
 62
7
  6
CONTINUOUS
 70
0
 71
3
 72
53
 73
49
 74
0
 42
0.0000001
 43
0.0000001
 44
0.0000000001
 40
0.0
 40
0.0
 40
0.0
 40
0.0
 40
0.0000048579
 40
0.0000109138
 40
0.0000193866
 40
0.0000435808
 40
0.0000774354
 40
0.0001209453
 40
0.0001741053
 40
0.0003093554
 40
0.0004831448
 40
0.0006954334
 40
0.0009461807
 40
0.0012353471
 40
0.0015628928
 40
0.0019287784
 40
0.0027754133
 40
0.0037749421
 40
0.0049270595
 40
0.0062314786
 40
0.0076879572
 40
0.009296258
 40
0.0110561412
 40
0.015029687
 40
0.0196066535
 40
0.0247845403
 40
0.0305590267
 40
0.036925421
 40
0.0438790344
 40
0.051414992
 40
0.0595278407
 40
0.0774619473
 40
0.0976334485
 40
0.1199828102
 40
0.1444469168
 40
0.1709586582
 40
0.1994485512
 40
0.2298415274
 40
0.2620598269
 40
0.296020039
 40
0.3688224113
 40
0.4475390081
 40
0.5314229071
 40
0.6196967729
 40
0.7115526305
 40
0.8061486739
 40
0.9026031327
 40
1.0
 40
1.0
 40
1.0
 40
1.0
 10
4.5792101118
 20
5.7795108696
 30
0.0
 10
4.5792107518
 20
5.7795111908
 30
0.0
 10
4.5792124065
 20
5.779510052
 30
0.0
 10
4.5792151391
 20
5.7795097801
 30
0.0
 10
4.5792207165
 20
5.7795082243
 30
0.0
 10
4.5792302332
 20
5.7795061073
 30
0.0
 10
4.579244804
 20
5.7795025479
 30
0.0
 10
4.5792635175
 20
5.7794981196
 30
0.0
 10
4.5792967817
 20
5.7794902035
 30
0.0
 10
4.5793487419
 20
5.7794779317
 30
0.0
 10
4.5794235574
 20
5.7794603564
 30
0.0
 10
4.5795149781
 20
5.7794390268
 30
0.0
 10
4.5796229991
 20
5.7794139889
 30
0.0
 10
4.5797476143
 20
5.7793852995
 30
0.0
 10
4.5798888178
 20
5.7793530116
 30
0.0
 10
4.5801102071
 20
5.7793027359
 30
0.0
 10
4.5804283651
 20
5.7792312691
 30
0.0
 10
4.5808598934
 20
5.7791356876
 30
0.0
 10
4.5813576395
 20
5.7790270181
 30
0.0
 10
4.5819215543
 20
5.7789056351
 30
0.0
 10
4.5825514798
 20
5.7787713586
 30
0.0
 10
4.5832472792
 20
5.7786240626
 30
0.0
 10
4.5843062947
 20
5.7784009244
 30
0.0
 10
4.5857938096
 20
5.7780888962
 30
0.0
 10
4.5877745074
 20
5.7776736967
 30
0.0
 10
4.5900148609
 20
5.777203175
 30
0.0
 10
4.5925134559
 20
5.7766788555
 30
0.0
 10
4.595268515
 20
5.7761021034
 30
0.0
 10
4.598278204
 20
5.7754744193
 30
0.0
 10
4.6015405352
 20
5.7747971256
 30
0.0
 10
4.6063883644
 20
5.7737938042
 30
0.0
 10
4.613061011
 20
5.7724169793
 30
0.0
 10
4.6217895388
 20
5.7706186162
 30
0.0
 10
4.6314642088
 20
5.7686422329
 30
0.0
 10
4.642060035
 20
5.7665055278
 30
0.0
 10
4.6535492036
 20
5.7642198807
 30
0.0
 10
4.6659022375
 20
5.761797452
 30
0.0
 10
4.6790881982
 20
5.7592513031
 30
0.0
 10
4.6930741546
 20
5.7565951505
 30
0.0
 10
4.7132167088
 20
5.7528505396
 30
0.0
 10
4.7401331625
 20
5.7480422189
 30
0.0
 10
4.7743592408
 20
5.7423124825
 30
0.0
 10
4.8109185947
 20
5.7367256199
 30
0.0
 10
4.8494927704
 20
5.7315362159
 30
0.0
 10
4.8897434968
 20
5.7270294365
 30
0.0
 10
4.9313048935
 20
5.7235088443
 30
0.0
 10
4.9737736924
 20
5.7212566532
 30
0.0
 10
5.0023525251
 20
5.7207395664
 30
0.0
 10
5.0167101118
 20
5.7207394655
 30
0.0
  0
SPLINE
  5
393
100
AcDbEntity
  8
0
100
AcDbSpline
 62
7
  6
CONTINUOUS
 70
0
 71
3
 72
23
 73
19
 74
0
 42
0.0000001
 43
0.0000001
 44
0.0000000001
 40
0.0
 40
0.0
 40
0.0
 40
0.0
 40
0.0496976446
 40
0.1004643389
 40
0.1527974848
 40
0.2071173601
 40
0.2637226708
 40
0.3227952917
 40
0.3843946707
 40
0.4484584397
 40
0.5148023244
 40
0.5831177602
 40
0.6529676483
 40
0.7237798296
 40
0.7948380225
 40
0.8652743993
 40
0.9340579285
 40
1.0
 40
1.0
 40
1.0
 40
1.0
 10
5.3085831029
 20
3.9832608696
 30
0.0
 10
5.3080527177
 20
3.9776568001
 30
0.0
 10
5.3063013743
 20
3.9663820141
 30
0.0
 10
5.3017018082
 20
3.9496625988
 30
0.0
 10
5.2951501782
 20
3.9330451605
 30
0.0
 10
5.2867039236
 20
3.9165651003
 30
0.0
 10
5.276431472
 20
3.90025252
 30
0.0
 10
5.264417961
 20
3.8841402757
 30
0.0
 10
5.2507651962
 20
3.8682639723
 30
0.0
 10
5.2355948456
 20
3.8526640608
 30
0.0
 10
5.2190516923
 20
3.8373867353
 30
0.0
 10
5.201307181
 20
3.8224851029
 30
0.0
 10
5.182563406
 20
3.8080202515
 30
0.0
 10
5.1630573488
 20
3.7940624877
 30
0.0
 10
5.1430651245
 20
3.7806925194
 30
0.0
 10
5.1229062593
 20
3.7680029528
 30
0.0
 10
5.1029465482
 20
3.7560988646
 30
0.0
 10
5.0896798741
 20
3.7485559202
 30
0.0
 10
5.0831532597
 20
3.7449240683
 30
0.0
  0
SPLINE
  5
394
100
AcDbEntity
  8
0
100
AcDbSpline
 62
7
  6
CONTINUOUS
 70
0
 71
3
 72
63
 73
59
 74
0
 42
0.0000001
 43
0.0000001
 44
0.0000000001
 40
0.0
 40
0.0
 40
0.0
 40
0.0
 40
0.0001173783
 40
0.0001890885
 40
0.0002732401
 40
0.0004849024
 40
0.0007602143
 40
0.0011024166
 40
0.0015131585
 40
0.0019933734
 40
0.0025436046
 40
0.0038550637
 40
0.0054486325
 40
0.0073244141
 40
0.0094820986
 40
0.0146399095
 40
0.0209116426
 40
0.0282845028
 40
0.036741936
 40
0.0462649209
 40
0.0568321705
 40
0.0684190745
 40
0.0809997861
 40
0.0945448905
 40
0.1090238206
 40
0.1406474196
 40
0.1755803732
 40
0.2135019165
 40
0.2540636232
 40
0.2968927052
 40
0.3415955965
 40
0.3877614228
 40
0.4349658686
 40
0.4827751139
 40
0.530749583
 40
0.5784483947
 40
0.6254329941
 40
0.6712716009
 40
0.7155429092
 40
0.7578399937
 40
0.7977742174
 40
0.834978494
 40
0.8691111218
 40
0.8998586719
 40
0.9269390573
 40
0.9390253131
 40
0.95010421
 40
0.9601509926
 40
0.9691425037
 40
0.9770584715
 40
0.9838814873
 40
0.989596193
 40
0.9920344563
 40
0.9941916812
 40
0.9960668433
 40
0.9976595954
 40
0.9989702528
 40
1.0
 40
1.0
 40
1.0
 40
1.0
 10
5.3111100354
 20
5.3194108695
 30
0.0
 10
5.3111100223
 20
5.3193878435
 30
0.0
 10
5.3110960147
 20
5.3193507293
 30
0.0
 10
5.3110615515
 20
5.3193096917
 30
0.0
 10
5.3110068835
 20
5.3192621901
 30
0.0
 10
5.3109096158
 20
5.3192052618
 30
0.0
 10
5.3107600818
 20
5.3191408778
 30
0.0
 10
5.3105688147
 20
5.3190762459
 30
0.0
 10
5.3103357118
 20
5.3190113246
 30
0.0
 10
5.3100605349
 20
5.318946215
 30
0.0
 10
5.3096104825
 20
5.3188537314
 30
0.0
 10
5.3089419362
 20
5.3187409191
 30
0.0
 10
5.3080130173
 20
5.3186113525
 30
0.0
 10
5.3069167896
 20
5.3184813218
 30
0.0
 10
5.3051232184
 20
5.3182962893
 30
0.0
 10
5.3024671833
 20
5.3180709328
 30
0.0
 10
5.2987877735
 20
5.317812005
 30
0.0
 10
5.2944597742
 20
5.3175521778
 30
0.0
 10
5.2894930523
 20
5.3172915507
 30
0.0
 10
5.2838989543
 20
5.3170304514
 30
0.0
 10
5.2776903722
 20
5.316769013
 30
0.0
 10
5.2708814894
 20
5.3165073005
 30
0.0
 10
5.2634880563
 20
5.31624542
 30
0.0
 10
5.2555269753
 20
5.3159833637
 30
0.0
 10
5.2438315075
 20
5.3156231414
 30
0.0
 10
5.2279410959
 20
5.3151772789
 30
0.0
 10
5.2074523696
 20
5.3146557815
 30
0.0
 10
5.1852097604
 20
5.3141336613
 30
0.0
 10
5.1614177936
 20
5.3136110529
 30
0.0
 10
5.1362952432
 20
5.3130881072
 30
0.0
 10
5.1100731177
 20
5.3125649161
 30
0.0
 10
5.0829925212
 20
5.3120415546
 30
0.0
 10
5.0553024464
 20
5.3115180813
 30
0.0
 10
5.0272575111
 20
5.3109945463
 30
0.0
 10
4.9991155803
 20
5.3104709948
 30
0.0
 10
4.9711354467
 20
5.3099474708
 30
0.0
 10
4.9435743754
 20
5.3094240205
 30
0.0
 10
4.9166857945
 20
5.3089006957
 30
0.0
 10
4.8907169331
 20
5.3083775587
 30
0.0
 10
4.8659065662
 20
5.3078546867
 30
0.0
 10
4.8424828452
 20
5.3073321881
 30
0.0
 10
4.8206611479
 20
5.3068101965
 30
0.0
 10
4.8006421225
 20
5.3062889644
 30
0.0
 10
4.7826098028
 20
5.3057687004
 30
0.0
 10
4.768902062
 20
5.3053212423
 30
0.0
 10
4.7590521246
 20
5.3049582601
 30
0.0
 10
4.7525422178
 20
5.3046966534
 30
0.0
 10
4.7466399228
 20
5.3044353785
 30
0.0
 10
4.7413587492
 20
5.3041744928
 30
0.0
 10
4.7367107981
 20
5.3039142312
 30
0.0
 10
4.7327067662
 20
5.303654764
 30
0.0
 10
4.729777459
 20
5.3034295059
 30
0.0
 10
4.7277632759
 20
5.3032454749
 30
0.0
 10
4.7265006085
 20
5.3031151029
 30
0.0
 10
4.7254047737
 20
5.3029850666
 30
0.0
 10
4.7244762369
 20
5.3028555822
 30
0.0
 10
4.7237154103
 20
5.30272683
 30
0.0
 10
4.7232661099
 20
5.3026307236
 30
0.0
 10
4.7230705698
 20
5.3025800302
 30
0.0
  0
SPLINE
  5
395
100
AcDbEntity
  8
0
100
AcDbSpline
 62
7
  6
CONTINUOUS
 70
0
 71
3
 72
63
 73
59
 74
0
 42
0.0000001
 43
0.0000001
 44
0.0000000001
 40
0.0
 40
0.0
 40
0.0
 40
0.0
 40
0.0001173577
 40
0.0001890682
 40
0.0002732342
 40
0.0004849629
 40
0.0007603693
 40
0.0011026616
 40
0.0015134548
 40
0.0019936488
 40
0.0025437811
 40
0.0038550303
 40
0.0054486605
 40
0.0073246408
 40
0.0094823972
 40
0.0146398611
 40
0.0209118993
 40
0.0282845072
 40
0.0367420937
 40
0.0462650901
 40
0.0568321987
 40
0.0684193221
 40
0.0809997446
 40
0.0945451385
 40
0.1090238526
 40
0.1406475403
 40
0.1755806036
 40
0.2135021167
 40
0.2540637426
 40
0.2968927922
 40
0.3415956332
 40
0.3877615155
 40
0.4349659928
 40
0.4827752191
 40
0.5307496967
 40
0.5784484569
 40
0.6254331059
 40
0.6712717572
 40
0.7155430653
 40
0.7578401412
 40
0.7977742286
 40
0.834978486
 40
0.8691111439
 40
0.8998587842
 40
0.9269392979
 40
0.9390252624
 40
0.9501044603
 40
0.96015099
 40
0.9691426719
 40
0.9770586054
 40
0.9838814978
 40
0.9895964339
 40
0.9920345086
 40
0.9941916118
 40
0.9960669312
 40
0.9976598772
 40
0.9989704465
 40
1.0
 40
1.0
 40
1.0
 40
1.0
 10
5.3111101023
 20
5.3538608696
 30
0.0
 10
5.3111101109
 20
5.3538378477
 30
0.0
 10
5.3110961218
 20
5.3538007235
 30
0.0
 10
5.3110616556
 20
5.3537596895
 30
0.0
 10
5.3110069674
 20
5.3537121864
 30
0.0
 10
5.3109096572
 20
5.3536552622
 30
0.0
 10
5.310760069
 20
5.3535908809
 30
0.0
 10
5.3105687525
 20
5.353526251
 30
0.0
 10
5.3103356251
 20
5.3534613308
 30
0.0
 10
5.3100604624
 20
5.3533962201
 30
0.0
 10
5.3096104774
 20
5.3533037297
 30
0.0
 10
5.3089419821
 20
5.3531909048
 30
0.0
 10
5.3080130514
 20
5.3530613498
 30
0.0
 10
5.3069167573
 20
5.3529313273
 30
0.0
 10
5.3051232006
 20
5.3527463009
 30
0.0
 10
5.3024671625
 20
5.3525209094
 30
0.0
 10
5.2987878073
 20
5.3522620248
 30
0.0
 10
5.2944597694
 20
5.3520021656
 30
0.0
 10
5.2894930635
 20
5.3517415561
 30
0.0
 10
5.2838989611
 20
5.3514804531
 30
0.0
 10
5.2776903614
 20
5.351219007
 30
0.0
 10
5.2708815193
 20
5.3509573096
 30
0.0
 10
5.2634880436
 20
5.3506954115
 30
0.0
 10
5.2555270042
 20
5.3504333713
 30
0.0
 10
5.2438315047
 20
5.3500731339
 30
0.0
 10
5.227941096
 20
5.3496272818
 30
0.0
 10
5.2074523364
 20
5.3491057819
 30
0.0
 10
5.185209727
 20
5.348583662
 30
0.0
 10
5.1614177878
 20
5.3480610529
 30
0.0
 10
5.136295269
 20
5.3475381071
 30
0.0
 10
5.1100731482
 20
5.347014916
 30
0.0
 10
5.0829925438
 20
5.3464915548
 30
0.0
 10
5.055302455
 20
5.3459680816
 30
0.0
 10
5.0272575151
 20
5.3454445466
 30
0.0
 10
4.9991155959
 20
5.3449209949
 30
0.0
 10
4.9711354605
 20
5.3443974708
 30
0.0
 10
4.9435743802
 20
5.3438740206
 30
0.0
 10
4.9166857803
 20
5.343350696
 30
0.0
 10
4.8907169114
 20
5.3428275593
 30
0.0
 10
4.8659065725
 20
5.3423046873
 30
0.0
 10
4.8424828832
 20
5.3417821882
 30
0.0
 10
4.8206612101
 20
5.3412601956
 30
0.0
 10
4.8006421644
 20
5.3407389653
 30
0.0
 10
4.7826097957
 20
5.3402186967
 30
0.0
 10
4.7689020684
 20
5.3397712534
 30
0.0
 10
4.7590521045
 20
5.3394082501
 30
0.0
 10
4.7525422444
 20
5.3391466646
 30
0.0
 10
4.7466399073
 20
5.3388853703
 30
0.0
 10
4.7413587559
 20
5.3386244959
 30
0.0
 10
4.7367108019
 20
5.3383642361
 30
0.0
 10
4.732706757
 20
5.3381047499
 30
0.0
 10
4.7297774634
 20
5.3378795215
 30
0.0
 10
4.7277632974
 20
5.3376954745
 30
0.0
 10
4.7265006612
 20
5.3375650932
 30
0.0
 10
4.7254047806
 20
5.3374350622
 30
0.0
 10
4.7244761891
 20
5.3373055954
 30
0.0
 10
4.7237153802
 20
5.3371768391
 30
0.0
 10
4.7232661383
 20
5.3370807229
 30
0.0
 10
4.7230706374
 20
5.3370300301
 30
0.0
  0
SPLINE
  5
396
100
AcDbEntity
  8
0
100
AcDbSpline
 62
7
  6
CONTINUOUS
 70
0
 71
3
 72
63
 73
59
 74
0
 42
0.0000001
 43
0.0000001
 44
0.0000000001
 40
0.0
 40
0.0
 40
0.0
 40
0.0
 40
0.0001173492
 40
0.0001890304
 40
0.0002731518
 40
0.0004847725
 40
0.0007601007
 40
0.0011023933
 40
0.0015132508
 40
0.0019935417
 40
0.0025437712
 40
0.0038550833
 40
0.0054485028
 40
0.0073243562
 40
0.0094822561
 40
0.014639868
 40
0.020911656
 40
0.028284569
 40
0.0367418211
 40
0.0462650729
 40
0.0568320452
 40
0.0684192018
 40
0.0809997322
 40
0.094544904
 40
0.1090238709
 40
0.1406475251
 40
0.1755804636
 40
0.2135019206
 40
0.2540635501
 40
0.2968926255
 40
0.3415955725
 40
0.3877614131
 40
0.4349658872
 40
0.4827750871
 40
0.5307495497
 40
0.578448382
 40
0.6254329964
 40
0.6712716308
 40
0.7155428717
 40
0.7578399154
 40
0.7977740796
 40
0.8349783965
 40
0.8691111359
 40
0.8998587552
 40
0.9269391237
 40
0.9390251865
 40
0.9501041795
 40
0.9601510029
 40
0.9691423618
 40
0.9770585757
 40
0.9838812829
 40
0.9895962725
 40
0.9920345308
 40
0.9941915343
 40
0.9960666548
 40
0.9976595665
 40
0.9989703572
 40
1.0
 40
1.0
 40
1.0
 40
1.0
 10
5.3111099959
 20
5.3883108696
 30
0.0
 10
5.3111100013
 20
5.3882878493
 30
0.0
 10
5.31109603
 20
5.3882507327
 30
0.0
 10
5.3110615968
 20
5.3882096909
 30
0.0
 10
5.311006958
 20
5.3881621854
 30
0.0
 10
5.310909703
 20
5.3881052537
 30
0.0
 10
5.3107601543
 20
5.3880408714
 30
0.0
 10
5.3105688386
 20
5.3879762463
 30
0.0
 10
5.3103356774
 20
5.3879113293
 30
0.0
 10
5.310060462
 20
5.3878462208
 30
0.0
 10
5.3096104243
 20
5.3877537371
 30
0.0
 10
5.3089419385
 20
5.3876409174
 30
0.0
 10
5.3080130649
 20
5.3875113434
 30
0.0
 10
5.3069168091
 20
5.3873813182
 30
0.0
 10
5.3051232181
 20
5.3871963086
 30
0.0
 10
5.3024671719
 20
5.386970919
 30
0.0
 10
5.2987877782
 20
5.3867120086
 30
0.0
 10
5.294459793
 20
5.3864521825
 30
0.0
 10
5.2894930442
 20
5.3861915415
 30
0.0
 10
5.2838989825
 20
5.3859304628
 30
0.0
 10
5.2776903533
 20
5.3856690027
 30
0.0
 10
5.2708815097
 20
5.3854073088
 30
0.0
 10
5.2634880493
 20
5.3851454157
 30
0.0
 10
5.2555269826
 20
5.3848833651
 30
0.0
 10
5.2438314827
 20
5.3845231409
 30
0.0
 10
5.2279410548
 20
5.38407728
 30
0.0
 10
5.2074523361
 20
5.3835557821
 30
0.0
 10
5.1852097604
 20
5.3830336614
 30
0.0
 10
5.1614178252
 20
5.3825110525
 30
0.0
 10
5.1362952784
 20
5.3819881071
 30
0.0
 10
5.1100731385
 20
5.3814649163
 30
0.0
 10
5.0829925207
 20
5.3809415549
 30
0.0
 10
5.0553024444
 20
5.3804180815
 30
0.0
 10
5.0272575118
 20
5.3798945463
 30
0.0
 10
4.999115585
 20
5.3793709946
 30
0.0
 10
4.9711354437
 20
5.3788474708
 30
0.0
 10
4.9435743579
 20
5.3783240207
 30
0.0
 10
4.9166857799
 20
5.377800696
 30
0.0
 10
4.8907169324
 20
5.3772775588
 30
0.0
 10
4.8659065966
 20
5.3767546866
 30
0.0
 10
4.8424828857
 20
5.3762321876
 30
0.0
 10
4.8206611686
 20
5.3757101956
 30
0.0
 10
4.8006420984
 20
5.375188965
 30
0.0
 10
4.7826097452
 20
5.3746686998
 30
0.0
 10
4.7689020308
 20
5.3742212473
 30
0.0
 10
4.7590521154
 20
5.3738582562
 30
0.0
 10
4.7525422189
 20
5.3735966532
 30
0.0
 10
4.7466399262
 20
5.373335384
 30
0.0
 10
4.7413587267
 20
5.3730744814
 30
0.0
 10
4.7367108158
 20
5.3728142475
 30
0.0
 10
4.7327067423
 20
5.3725547464
 30
0.0
 10
4.7297774392
 20
5.3723295096
 30
0.0
 10
4.7277632441
 20
5.3721454832
 30
0.0
 10
4.7265006309
 20
5.3720150972
 30
0.0
 10
4.7254048169
 20
5.371885058
 30
0.0
 10
4.7244762294
 20
5.3717555807
 30
0.0
 10
4.723715363
 20
5.3716268422
 30
0.0
 10
4.7232660569
 20
5.3715307314
 30
0.0
 10
4.72307054
 20
5.3714800301
 30
0.0
  0
SPLINE
  5
397
100
AcDbEntity
  8
0
100
AcDbSpline
 62
7
  6
CONTINUOUS
 70
0
 71
3
 72
63
 73
59
 74
0
 42
0.0000001
 43
0.0000001
 44
0.0000000001
 40
0.0
 40
0.0
 40
0.0
 40
0.0
 40
0.0001173722
 40
0.000189081
 40
0.0002732352
 40
0.0004849145
 40
0.0007602539
 40
0.0011024851
 40
0.0015132474
 40
0.0019934642
 40
0.0025436892
 40
0.0038551512
 40
0.0054487234
 40
0.0073244857
 40
0.0094821047
 40
0.0146398198
 40
0.0209115499
 40
0.0282843327
 40
0.0367417856
 40
0.0462646857
 40
0.0568319085
 40
0.0684187715
 40
0.0809994506
 40
0.094544577
 40
0.1090234314
 40
0.1406469652
 40
0.1755799366
 40
0.2135014422
 40
0.2540631426
 40
0.2968922122
 40
0.3415950847
 40
0.3877609317
 40
0.4349653936
 40
0.4827746513
 40
0.5307491737
 40
0.5784479754
 40
0.6254326373
 40
0.6712712778
 40
0.7155426184
 40
0.7578397869
 40
0.7977739948
 40
0.8349783363
 40
0.869110966
 40
0.8998585665
 40
0.9269390088
 40
0.9390252445
 40
0.9501041878
 40
0.9601509493
 40
0.9691425303
 40
0.9770584596
 40
0.9838815077
 40
0.9895962067
 40
0.9920344487
 40
0.9941916847
 40
0.9960668922
 40
0.9976596413
 40
0.9989702708
 40
1.0
 40
1.0
 40
1.0
 40
1.0
 10
5.3111101444
 20
5.4227608694
 30
0.0
 10
5.3111101412
 20
5.4227378446
 30
0.0
 10
5.3110961414
 20
5.4227007259
 30
0.0
 10
5.3110616789
 20
5.4226596888
 30
0.0
 10
5.3110070062
 20
5.422612187
 30
0.0
 10
5.310909726
 20
5.4225552615
 30
0.0
 10
5.3107601749
 20
5.422490881
 30
0.0
 10
5.3105688905
 20
5.4224262531
 30
0.0
 10
5.3103357763
 20
5.4223613355
 30
0.0
 10
5.3100605957
 20
5.4222962276
 30
0.0
 10
5.3096105431
 20
5.4222037456
 30
0.0
 10
5.3089419963
 20
5.4220909356
 30
0.0
 10
5.3080130799
 20
5.4219613687
 30
0.0
 10
5.3069168683
 20
5.4218313368
 30
0.0
 10
5.3051233331
 20
5.4216462979
 30
0.0
 10
5.3024673299
 20
5.4214209404
 30
0.0
 10
5.2987879537
 20
5.4211620187
 30
0.0
 10
5.2944599658
 20
5.4209021868
 30
0.0
 10
5.2894932708
 20
5.4206415639
 30
0.0
 10
5.2838991902
 20
5.4203804601
 30
0.0
 10
5.2776906369
 20
5.4201190239
 30
0.0
 10
5.2708817727
 20
5.4198573111
 30
0.0
 10
5.2634883486
 20
5.4195954296
 30
0.0
 10
5.2555272831
 20
5.4193333744
 30
0.0
 10
5.2438318368
 20
5.4189731496
 30
0.0
 10
5.2279414466
 20
5.4185272883
 30
0.0
 10
5.2074527337
 20
5.4180057904
 30
0.0
 10
5.185210126
 20
5.4174836698
 30
0.0
 10
5.1614181663
 20
5.416961061
 30
0.0
 10
5.136295619
 20
5.4164381148
 30
0.0
 10
5.1100734912
 20
5.4159149234
 30
0.0
 10
5.0829928867
 20
5.4153915615
 30
0.0
 10
5.0553027976
 20
5.4148680878
 30
0.0
 10
5.0272578417
 20
5.4143445525
 30
0.0
 10
4.9991158952
 20
5.4138210006
 30
0.0
 10
4.9711357363
 20
5.4132974763
 30
0.0
 10
4.9435746435
 20
5.4127740256
 30
0.0
 10
4.9166860328
 20
5.4122507004
 30
0.0
 10
4.8907171377
 20
5.411727563
 30
0.0
 10
4.865906747
 20
5.4112046909
 30
0.0
 10
4.842482996
 20
5.4106821918
 30
0.0
 10
4.820661285
 20
5.4101601996
 30
0.0
 10
4.8006422334
 20
5.4096389674
 30
0.0
 10
4.7826098892
 20
5.4091187022
 30
0.0
 10
4.7689021289
 20
5.4086712456
 30
0.0
 10
4.7590521737
 20
5.408308261
 30
0.0
 10
4.7525422647
 20
5.4080466568
 30
0.0
 10
4.7466399503
 20
5.4077853776
 30
0.0
 10
4.7413587735
 20
5.4075244964
 30
0.0
 10
4.7367108094
 20
5.4072642303
 30
0.0
 10
4.7327067791
 20
5.4070047658
 30
0.0
 10
4.7297774706
 20
5.4067795078
 30
0.0
 10
4.7277632907
 20
5.4065954747
 30
0.0
 10
4.7265006163
 20
5.4064651015
 30
0.0
 10
4.7254047703
 20
5.4063350688
 30
0.0
 10
4.7244762306
 20
5.4062055836
 30
0.0
 10
4.7237154137
 20
5.4060768301
 30
0.0
 10
4.7232661227
 20
5.4059807228
 30
0.0
 10
4.723070586
 20
5.4059300302
 30
0.0
  0
SPLINE
  5
398
100
AcDbEntity
  8
0
100
AcDbSpline
 62
7
  6
CONTINUOUS
 70
0
 71
3
 72
63
 73
59
 74
0
 42
0.0000001
 43
0.0000001
 44
0.0000000001
 40
0.0
 40
0.0
 40
0.0
 40
0.0
 40
0.0010305488
 40
0.0023428763
 40
0.0039379092
 40
0.0058154627
 40
0.0079749741
 40
0.0104156864
 40
0.0161361879
 40
0.0229645197
 40
0.0308862536
 40
0.0398832882
 40
0.0499354205
 40
0.0610198261
 40
0.0731109087
 40
0.1002008843
 40
0.1309571577
 40
0.1650974078
 40
0.2023081681
 40
0.2422476303
 40
0.284548844
 40
0.3288231691
 40
0.3746637636
 40
0.4216493439
 40
0.4693481802
 40
0.5173217944
 40
0.5651293801
 40
0.6123315063
 40
0.6584944184
 40
0.7031939143
 40
0.7460192019
 40
0.7865768078
 40
0.8244940777
 40
0.8594226492
 40
0.8756647097
 40
0.8910418262
 40
0.9055184197
 40
0.9190613758
 40
0.9316397528
 40
0.9432244591
 40
0.9537894533
 40
0.9633100455
 40
0.9717652419
 40
0.979135424
 40
0.9854046854
 40
0.9905593093
 40
0.9927153186
 40
0.9945893618
 40
0.996180879
 40
0.9974896931
 40
0.9980383526
 40
0.9985168556
 40
0.9989256789
 40
0.9992656229
 40
0.9995381323
 40
0.9996499814
 40
0.9997463072
 40
1.0
 40
1.0
 40
1.0
 40
1.0
 10
5.3306391843
 20
5.3375277072
 30
0.0
 10
5.330429109
 20
5.3374769895
 30
0.0
 10
5.329946958
 20
5.3373808694
 30
0.0
 10
5.3291311793
 20
5.3372521338
 30
0.0
 10
5.3281360379
 20
5.3371226816
 30
0.0
 10
5.3269620956
 20
5.3369926645
 30
0.0
 10
5.3256099074
 20
5.3368623017
 30
0.0
 10
5.323453407
 20
5.336678295
 30
0.0
 10
5.3203179803
 20
5.3364531048
 30
0.0
 10
5.3160330057
 20
5.3361936234
 30
0.0
 10
5.3110598848
 20
5.3359334087
 30
0.0
 10
5.3054099536
 20
5.335672545
 30
0.0
 10
5.2990961851
 20
5.3354112937
 30
0.0
 10
5.2921330944
 20
5.3351497279
 30
0.0
 10
5.2815984273
 20
5.3347867773
 30
0.0
 10
5.2669390127
 20
5.3343393851
 30
0.0
 10
5.2476560022
 20
5.3338191735
 30
0.0
 10
5.2262499485
 20
5.3332979991
 30
0.0
 10
5.202917639
 20
5.3327760641
 30
0.0
 10
5.1778735524
 20
5.3322536226
 30
0.0
 10
5.151347909
 20
5.3317308085
 30
0.0
 10
5.1235845476
 20
5.3312077296
 30
0.0
 10
5.0948386886
 20
5.3306844632
 30
0.0
 10
5.0653745805
 20
5.3301610715
 30
0.0
 10
5.0354631004
 20
5.3296376063
 30
0.0
 10
5.0053792163
 20
5.3291141135
 30
0.0
 10
4.97539951
 20
5.3285906372
 30
0.0
 10
4.9457995736
 20
5.3280672227
 30
0.0
 10
4.9168515198
 20
5.32754392
 30
0.0
 10
4.8888214602
 20
5.3270207888
 30
0.0
 10
4.8619670671
 20
5.3264978994
 30
0.0
 10
4.8365352133
 20
5.3259753595
 30
0.0
 10
4.8127596995
 20
5.3254532658
 30
0.0
 10
4.7940828217
 20
5.3250086747
 30
0.0
 10
4.7801320469
 20
5.3246501974
 30
0.0
 10
4.7704691004
 20
5.3243879748
 30
0.0
 10
4.7613723862
 20
5.3241258481
 30
0.0
 10
4.7528628364
 20
5.323863835
 30
0.0
 10
4.744960031
 20
5.3236019776
 30
0.0
 10
4.737682081
 20
5.3233402976
 30
0.0
 10
4.7310458025
 20
5.3230788925
 30
0.0
 10
4.7250663395
 20
5.3228178161
 30
0.0
 10
4.7197575313
 20
5.322557237
 30
0.0
 10
4.7151314132
 20
5.322297417
 30
0.0
 10
4.7111986602
 20
5.3220385483
 30
0.0
 10
4.7083596454
 20
5.3218132114
 30
0.0
 10
4.7064424366
 20
5.3216282006
 30
0.0
 10
4.7052706966
 20
5.3214981993
 30
0.0
 10
4.7042778411
 20
5.3213686672
 30
0.0
 10
4.7035632473
 20
5.3212558502
 30
0.0
 10
4.7030821529
 20
5.3211633452
 30
0.0
 10
4.702788081
 20
5.3210982227
 30
0.0
 10
4.7025389791
 20
5.3210333847
 30
0.0
 10
4.7023345722
 20
5.3209686283
 30
0.0
 10
4.7021936191
 20
5.3209122946
 30
0.0
 10
4.7021036391
 20
5.3208652152
 30
0.0
 10
4.7020235943
 20
5.3208149169
 30
0.0
 10
4.7019601118
 20
5.320751938
 30
0.0
 10
4.7019601118
 20
5.3206987374
 30
0.0
  0
SPLINE
  5
399
100
AcDbEntity
  8
0
100
AcDbSpline
 62
7
  6
CONTINUOUS
 70
0
 71
3
 72
62
 73
58
 74
0
 42
0.0000001
 43
0.0000001
 44
0.0000000001
 40
0.0
 40
0.0
 40
0.0
 40
0.0
 40
0.0011351644
 40
0.002550389
 40
0.0042462241
 40
0.0062225838
 40
0.0110147108
 40
0.016918164
 40
0.0239207463
 40
0.0320075346
 40
0.0411600121
 40
0.0513582742
 40
0.0625785898
 40
0.0747959825
 40
0.102107807
 40
0.1330450796
 40
0.1673256176
 40
0.2046364906
 40
0.2446369851
 40
0.2869617418
 40
0.3312241979
 40
0.3770200379
 40
0.4239308556
 40
0.4715281512
 40
0.5193769208
 40
0.5670401014
 40
0.6140821853
 40
0.6600734141
 40
0.7045936869
 40
0.7472361757
 40
0.7876114285
 40
0.8253506019
 40
0.8601091841
 40
0.8915699243
 40
0.9059727756
 40
0.9194458392
 40
0.9319587508
 40
0.9434829544
 40
0.9539920674
 40
0.9634627501
 40
0.9718730197
 40
0.9792047849
 40
0.985441369
 40
0.9905700001
 40
0.9927157451
 40
0.9945810184
 40
0.9961654904
 40
0.9974694821
 40
0.9980166583
 40
0.998494299
 40
0.998902908
 40
0.9992433524
 40
0.9995172414
 40
0.9997278337
 40
0.9998115892
 40
0.9998829953
 40
1.0
 40
1.0
 40
1.0
 40
1.0
 10
5.3101400242
 20
5.3322156438
 30
0.0
 10
5.3099230673
 20
5.3321658296
 30
0.0
 10
5.3094318534
 20
5.3320705189
 30
0.0
 10
5.3086091133
 20
5.3319418091
 30
0.0
 10
5.3076198173
 20
5.3318124556
 30
0.0
 10
5.3059702915
 20
5.331627286
 30
0.0
 10
5.3034953079
 20
5.3314025753
 30
0.0
 10
5.3000342647
 20
5.3311448672
 30
0.0
 10
5.2959257023
 20
5.3308861099
 30
0.0
 10
5.2911790105
 20
5.3306264697
 30
0.0
 10
5.2858048621
 20
5.3303662824
 30
0.0
 10
5.2798156182
 20
5.3301057363
 30
0.0
 10
5.2732248544
 20
5.3298448745
 30
0.0
 10
5.2632795866
 20
5.3294832311
 30
0.0
 10
5.2494684701
 20
5.3290372438
 30
0.0
 10
5.2313310864
 20
5.3285184307
 30
0.0
 10
5.2112322256
 20
5.3279986884
 30
0.0
 10
5.1893555751
 20
5.3274782147
 30
0.0
 10
5.1659010764
 20
5.326957251
 30
0.0
 10
5.1410830864
 20
5.3264359267
 30
0.0
 10
5.1151284143
 20
5.3259143462
 30
0.0
 10
5.0882742589
 20
5.3253925844
 30
0.0
 10
5.0607660344
 20
5.3248707018
 30
0.0
 10
5.032855167
 20
5.3243487492
 30
0.0
 10
5.0047967386
 20
5.3238267713
 30
0.0
 10
4.9768472039
 20
5.3233048117
 30
0.0
 10
4.94926199
 20
5.3227829154
 30
0.0
 10
4.9222932006
 20
5.3222611318
 30
0.0
 10
4.8961873205
 20
5.3217395195
 30
0.0
 10
4.8711829385
 20
5.3212181526
 30
0.0
 10
4.8475086047
 20
5.3206971221
 30
0.0
 10
4.825380665
 20
5.3201765784
 30
0.0
 10
4.8050013393
 20
5.3196566565
 30
0.0
 10
4.7891978004
 20
5.3192121281
 30
0.0
 10
4.7775676016
 20
5.3188529841
 30
0.0
 10
4.76965178
 20
5.3185917258
 30
0.0
 10
4.7623007755
 20
5.3183306288
 30
0.0
 10
4.7555313798
 20
5.318069726
 30
0.0
 10
4.7493590273
 20
5.3178090602
 30
0.0
 10
4.7437978857
 20
5.3175487725
 30
0.0
 10
4.7388605503
 20
5.3172889203
 30
0.0
 10
4.7345583393
 20
5.3170298844
 30
0.0
 10
4.7309009529
 20
5.3167717548
 30
0.0
 10
4.7282608532
 20
5.3165470504
 30
0.0
 10
4.7264780641
 20
5.3163626015
 30
0.0
 10
4.7253884259
 20
5.3162329683
 30
0.0
 10
4.7244651605
 20
5.3161037873
 30
0.0
 10
4.7238007116
 20
5.3159913099
 30
0.0
 10
4.7233533954
 20
5.3158991076
 30
0.0
 10
4.7230798424
 20
5.3158341962
 30
0.0
 10
4.722848092
 20
5.3157694756
 30
0.0
 10
4.7226579355
 20
5.3157050432
 30
0.0
 10
4.7225092908
 20
5.3156408517
 30
0.0
 10
4.7224126307
 20
5.3155840882
 30
0.0
 10
4.7223583323
 20
5.3155367337
 30
0.0
 10
4.7223240987
 20
5.3154957998
 30
0.0
 10
4.7223102258
 20
5.3154588138
 30
0.0
 10
4.7223102296
 20
5.3154358695
 30
0.0
  0
SPLINE
  5
39A
100
AcDbEntity
  8
0
100
AcDbSpline
 62
7
  6
CONTINUOUS
 70
0
 71
3
 72
63
 73
59
 74
0
 42
0.0000001
 43
0.0000001
 44
0.0000000001
 40
0.0
 40
0.0
 40
0.0
 40
0.0
 40
0.0010305488
 40
0.0023428763
 40
0.0039379092
 40
0.0058154627
 40
0.0079749741
 40
0.0104156864
 40
0.0161361879
 40
0.0229645197
 40
0.0308862536
 40
0.0398832882
 40
0.0499354205
 40
0.0610198261
 40
0.0731109087
 40
0.1002008843
 40
0.1309571577
 40
0.1650974078
 40
0.2023081681
 40
0.2422476303
 40
0.284548844
 40
0.3288231691
 40
0.3746637636
 40
0.4216493439
 40
0.4693481802
 40
0.5173217944
 40
0.5651293801
 40
0.6123315063
 40
0.6584944184
 40
0.7031939143
 40
0.7460192019
 40
0.7865768078
 40
0.8244940777
 40
0.8594226492
 40
0.8756647097
 40
0.8910418262
 40
0.9055184197
 40
0.9190613758
 40
0.9316397528
 40
0.9432244591
 40
0.9537894533
 40
0.9633100455
 40
0.9717652419
 40
0.979135424
 40
0.9854046854
 40
0.9905593093
 40
0.9927153186
 40
0.9945893618
 40
0.996180879
 40
0.9974896931
 40
0.9980383526
 40
0.9985168556
 40
0.9989256789
 40
0.9992656229
 40
0.9995381323
 40
0.9996499814
 40
0.9997463072
 40
1.0
 40
1.0
 40
1.0
 40
1.0
 10
5.3306391843
 20
5.3719777072
 30
0.0
 10
5.330429109
 20
5.3719269895
 30
0.0
 10
5.329946958
 20
5.3718308694
 30
0.0
 10
5.3291311793
 20
5.3717021338
 30
0.0
 10
5.3281360379
 20
5.3715726816
 30
0.0
 10
5.3269620956
 20
5.3714426645
 30
0.0
 10
5.3256099074
 20
5.3713123017
 30
0.0
 10
5.323453407
 20
5.371128295
 30
0.0
 10
5.3203179803
 20
5.3709031048
 30
0.0
 10
5.3160330057
 20
5.3706436234
 30
0.0
 10
5.3110598848
 20
5.3703834087
 30
0.0
 10
5.3054099536
 20
5.370122545
 30
0.0
 10
5.2990961851
 20
5.3698612937
 30
0.0
 10
5.2921330944
 20
5.3695997279
 30
0.0
 10
5.2815984273
 20
5.3692367773
 30
0.0
 10
5.2669390127
 20
5.3687893851
 30
0.0
 10
5.2476560022
 20
5.3682691735
 30
0.0
 10
5.2262499485
 20
5.3677479991
 30
0.0
 10
5.202917639
 20
5.3672260641
 30
0.0
 10
5.1778735524
 20
5.3667036226
 30
0.0
 10
5.151347909
 20
5.3661808085
 30
0.0
 10
5.1235845476
 20
5.3656577296
 30
0.0
 10
5.0948386886
 20
5.3651344632
 30
0.0
 10
5.0653745805
 20
5.3646110715
 30
0.0
 10
5.0354631004
 20
5.3640876063
 30
0.0
 10
5.0053792163
 20
5.3635641135
 30
0.0
 10
4.97539951
 20
5.3630406372
 30
0.0
 10
4.9457995736
 20
5.3625172227
 30
0.0
 10
4.9168515198
 20
5.36199392
 30
0.0
 10
4.8888214602
 20
5.3614707888
 30
0.0
 10
4.8619670671
 20
5.3609478994
 30
0.0
 10
4.8365352133
 20
5.3604253595
 30
0.0
 10
4.8127596995
 20
5.3599032658
 30
0.0
 10
4.7940828217
 20
5.3594586747
 30
0.0
 10
4.7801320469
 20
5.3591001974
 30
0.0
 10
4.7704691004
 20
5.3588379748
 30
0.0
 10
4.7613723862
 20
5.3585758481
 30
0.0
 10
4.7528628364
 20
5.358313835
 30
0.0
 10
4.744960031
 20
5.3580519776
 30
0.0
 10
4.737682081
 20
5.3577902976
 30
0.0
 10
4.7310458025
 20
5.3575288925
 30
0.0
 10
4.7250663395
 20
5.3572678161
 30
0.0
 10
4.7197575313
 20
5.357007237
 30
0.0
 10
4.7151314132
 20
5.356747417
 30
0.0
 10
4.7111986602
 20
5.3564885483
 30
0.0
 10
4.7083596454
 20
5.3562632114
 30
0.0
 10
4.7064424366
 20
5.3560782006
 30
0.0
 10
4.7052706966
 20
5.3559481993
 30
0.0
 10
4.7042778411
 20
5.3558186672
 30
0.0
 10
4.7035632473
 20
5.3557058502
 30
0.0
 10
4.7030821529
 20
5.3556133452
 30
0.0
 10
4.702788081
 20
5.3555482227
 30
0.0
 10
4.7025389791
 20
5.3554833847
 30
0.0
 10
4.7023345722
 20
5.3554186283
 30
0.0
 10
4.7021936191
 20
5.3553622946
 30
0.0
 10
4.7021036391
 20
5.3553152152
 30
0.0
 10
4.7020235943
 20
5.3552649169
 30
0.0
 10
4.7019601118
 20
5.355201938
 30
0.0
 10
4.7019601118
 20
5.3551487374
 30
0.0
  0
LINE
  5
39B
100
AcDbEntity
  8
0
100
AcDbLine
 62
7
  6
CONTINUOUS
 10
5.310349587
 20
5.366716709
 11
5.3101004473
 21
5.3666566686
  0
SPLINE
  5
39C
100
AcDbEntity
  8
0
100
AcDbSpline
 62
7
  6
CONTINUOUS
 70
0
 71
3
 72
62
 73
58
 74
0
 42
0.0000001
 43
0.0000001
 44
0.0000000001
 40
0.0
 40
0.0
 40
0.0
 40
0.0
 40
0.0011534709
 40
0.0025869035
 40
0.0043009338
 40
0.0062952089
 40
0.0111215281
 40
0.0170581493
 40
0.0240921893
 40
0.0322087338
 40
0.0413896471
 40
0.0516140822
 40
0.0628593976
 40
0.0750995005
 40
0.1024519547
 40
0.1334224343
 40
0.1677287871
 40
0.2050581716
 40
0.2450701242
 40
0.2873996929
 40
0.3316605732
 40
0.3774489584
 40
0.4243468558
 40
0.4719263052
 40
0.5197530859
 40
0.5673906931
 40
0.614404408
 40
0.6603651262
 40
0.7048533608
 40
0.7474631905
 40
0.7878057952
 40
0.8255131672
 40
0.8602413792
 40
0.8916736998
 40
0.906062996
 40
0.9195237288
 40
0.932024636
 40
0.9435378705
 40
0.9540369466
 40
0.9634982408
 40
0.9719006144
 40
0.9792248637
 40
0.9854555842
 40
0.990578951
 40
0.992722456
 40
0.9945860459
 40
0.9961691434
 40
0.9974717617
 40
0.9980183031
 40
0.9984953871
 40
0.9989035501
 40
0.9992436897
 40
0.9995174185
 40
0.999727939
 40
0.9998116711
 40
0.9998830529
 40
1.0
 40
1.0
 40
1.0
 40
1.0
 10
5.3101004473
 20
5.3666566686
 30
0.0
 10
5.3098797919
 20
5.3666069992
 30
0.0
 10
5.3093813122
 20
5.36651181
 30
0.0
 10
5.3085477727
 20
5.3663831119
 30
0.0
 10
5.3075478036
 20
5.3662538004
 30
0.0
 10
5.3058845006
 20
5.3660688332
 30
0.0
 10
5.3033928986
 20
5.3658442043
 30
0.0
 10
5.2999126568
 20
5.3655866113
 30
0.0
 10
5.2957858311
 20
5.3653279464
 30
0.0
 10
5.2910218564
 20
5.3650684152
 30
0.0
 10
5.2856315106
 20
5.3648083687
 30
0.0
 10
5.2796270508
 20
5.3645479282
 30
0.0
 10
5.273022237
 20
5.3642872186
 30
0.0
 10
5.2630603139
 20
5.3639257912
 30
0.0
 10
5.2492311999
 20
5.3634800756
 30
0.0
 10
5.2310755109
 20
5.3629615141
 30
0.0
 10
5.21096282
 20
5.3624420347
 30
0.0
 10
5.1890767288
 20
5.361921827
 30
0.0
 10
5.165617018
 20
5.3614011332
 30
0.0
 10
5.1407978498
 20
5.3608800811
 30
0.0
 10
5.1148457872
 20
5.3603587744
 30
0.0
 10
5.0879977811
 20
5.3598372878
 30
0.0
 10
5.0604989418
 20
5.3593156807
 30
0.0
 10
5.0326003379
 20
5.358794004
 30
0.0
 10
5.0045566645
 20
5.3582723026
 30
0.0
 10
4.976623941
 20
5.3577506201
 30
0.0
 10
4.9490571845
 20
5.3572290011
 30
0.0
 10
4.922108078
 20
5.3567074953
 30
0.0
 10
4.8960226628
 20
5.3561861601
 30
0.0
 10
4.8710390893
 20
5.3556650703
 30
0.0
 10
4.8473854261
 20
5.3551443168
 30
0.0
 10
4.8252776018
 20
5.3546240513
 30
0.0
 10
4.8049174423
 20
5.354104404
 30
0.0
 10
4.7891291767
 20
5.3536601199
 30
0.0
 10
4.7775104275
 20
5.3533011505
 30
0.0
 10
4.7696025802
 20
5.353040045
 30
0.0
 10
4.7622590047
 20
5.3527790786
 30
0.0
 10
4.7554965479
 20
5.3525183165
 30
0.0
 10
4.74933058
 20
5.3522577992
 30
0.0
 10
4.7437751798
 20
5.3519976296
 30
0.0
 10
4.7388430459
 20
5.3517379468
 30
0.0
 10
4.7345453053
 20
5.3514790143
 30
0.0
 10
4.730891825
 20
5.3512210536
 30
0.0
 10
4.7282545293
 20
5.3509964613
 30
0.0
 10
4.7264736669
 20
5.3508120956
 30
0.0
 10
4.7253851421
 20
5.3506825375
 30
0.0
 10
4.7244628067
 20
5.3505534428
 30
0.0
 10
4.7237990682
 20
5.3504410187
 30
0.0
 10
4.7233522886
 20
5.3503488597
 30
0.0
 10
4.7230790779
 20
5.3502839806
 30
0.0
 10
4.7228476023
 20
5.350219291
 30
0.0
 10
4.7226576392
 20
5.3501548888
 30
0.0
 10
4.7225091065
 20
5.3500907334
 30
0.0
 10
4.7224124932
 20
5.3500340067
 30
0.0
 10
4.7223582083
 20
5.3499866804
 30
0.0
 10
4.7223239819
 20
5.3499457723
 30
0.0
 10
4.7223101169
 20
5.3499088009
 30
0.0
 10
4.7223101272
 20
5.3498858695
 30
0.0
  0
SPLINE
  5
39D
100
AcDbEntity
  8
0
100
AcDbSpline
 62
7
  6
CONTINUOUS
 70
0
 71
3
 72
33
 73
29
 74
0
 42
0.0000001
 43
0.0000001
 44
0.0000000001
 40
0.0
 40
0.0
 40
0.0
 40
0.0
 40
0.000059063
 40
0.0002379064
 40
0.0005365446
 40
0.0009549353
 40
0.0021507906
 40
0.0038251262
 40
0.0059776393
 40
0.0086080762
 40
0.0117162327
 40
0.0153019552
 40
0.0239057011
 40
0.0344191238
 40
0.0468428191
 40
0.0611781953
 40
0.0774274734
 40
0.0955936857
 40
0.1376923576
 40
0.1875152232
 40
0.2451155235
 40
0.310558858
 40
0.3839193996
 40
0.4653026297
 40
0.5548667725
 40
0.6528257922
 40
0.7594499004
 40
1.0
 40
1.0
 40
1.0
 40
1.0
 10
4.5503046616
 20
5.7354931857
 30
0.0
 10
4.5503046355
 20
5.7354930335
 30
0.0
 10
4.5503057002
 20
5.7354934193
 30
0.0
 10
4.5503066709
 20
5.7354931627
 30
0.0
 10
4.5503092536
 20
5.7354935143
 30
0.0
 10
4.5503140978
 20
5.7354937292
 30
0.0
 10
4.5503227935
 20
5.7354943766
 30
0.0
 10
4.5503358556
 20
5.735495131
 30
0.0
 10
4.5503527427
 20
5.7354960906
 30
0.0
 10
4.5503733523
 20
5.7354971284
 30
0.0
 10
4.5503977231
 20
5.7354982309
 30
0.0
 10
4.5504377102
 20
5.7354998116
 30
0.0
 10
4.5504970764
 20
5.7355016262
 30
0.0
 10
4.5505795752
 20
5.735503201
 30
0.0
 10
4.5506770813
 20
5.7355039308
 30
0.0
 10
4.5507895947
 20
5.7355034585
 30
0.0
 10
4.550917116
 20
5.7355014275
 30
0.0
 10
4.5511172079
 20
5.7354958836
 30
0.0
 10
4.5514049248
 20
5.7354825864
 30
0.0
 10
4.5517951692
 20
5.7354553849
 30
0.0
 10
4.5522454749
 20
5.7354133072
 30
0.0
 10
4.5527558679
 20
5.7353538021
 30
0.0
 10
4.5533261654
 20
5.7352722484
 30
0.0
 10
4.5539557934
 20
5.7351618023
 30
0.0
 10
4.5546441765
 20
5.7350161591
 30
0.0
 10
4.5553907368
 20
5.7348288233
 30
0.0
 10
4.5565085111
 20
5.7345015269
 30
0.0
 10
4.5573637424
 20
5.734191872
 30
0.0
 10
4.5579469539
 20
5.733955503
 30
0.0
  0
SPLINE
  5
39E
100
AcDbEntity
  8
0
100
AcDbSpline
 62
7
  6
CONTINUOUS
 70
0
 71
3
 72
25
 73
21
 74
0
 42
0.0000001
 43
0.0000001
 44
0.0000000001
 40
0.0
 40
0.0
 40
0.0
 40
0.0
 40
0.0624805428
 40
0.1249946975
 40
0.187480018
 40
0.2499756719
 40
0.2812488296
 40
0.3125214672
 40
0.3750140907
 40
0.4375071068
 40
0.4999999958
 40
0.5624928804
 40
0.6249859003
 40
0.6874785198
 40
0.7187511519
 40
0.7500243215
 40
0.8125200153
 40
0.8750050782
 40
0.9375192237
 40
1.0
 40
1.0
 40
1.0
 40
1.0
 10
4.9249913327
 20
3.2986912787
 30
0.0
 10
4.925824744
 20
3.2979894347
 30
0.0
 10
4.9273812708
 20
3.2964475852
 30
0.0
 10
4.9293115012
 20
3.29379179
 30
0.0
 10
4.9307867798
 20
3.2908578777
 30
0.0
 10
4.9316038428
 20
3.2882446479
 30
0.0
 10
4.9319948952
 20
3.2860973086
 30
0.0
 10
4.9322095095
 20
3.2839252987
 30
0.0
 10
4.9321418935
 20
3.2811878767
 30
0.0
 10
4.9315243759
 20
3.2779626449
 30
0.0
 10
4.9303862623
 20
3.274881889
 30
0.0
 10
4.9287578319
 20
3.2720297715
 30
0.0
 10
4.9266840933
 20
3.2694835869
 30
0.0
 10
4.9246305697
 20
3.2676722087
 30
0.0
 10
4.9228287625
 20
3.2664404713
 30
0.0
 10
4.9209324405
 20
3.2653597517
 30
0.0
 10
4.918405395
 20
3.2643059106
 30
0.0
 10
4.9152096026
 20
3.2635501495
 30
0.0
 10
4.9119344172
 20
3.263321688
 30
0.0
 10
4.9097527717
 20
3.2635229694
 30
0.0
 10
4.9086794175
 20
3.2637102635
 30
0.0
  0
SPLINE
  5
39F
100
AcDbEntity
  8
0
100
AcDbSpline
 62
7
  6
CONTINUOUS
 70
0
 71
3
 72
63
 73
59
 74
0
 42
0.0000001
 43
0.0000001
 44
0.0000000001
 40
0.0
 40
0.0
 40
0.0
 40
0.0
 40
0.0010305488
 40
0.0023428763
 40
0.0039379092
 40
0.0058154627
 40
0.0079749741
 40
0.0104156864
 40
0.0161361879
 40
0.0229645197
 40
0.0308862536
 40
0.0398832882
 40
0.0499354205
 40
0.0610198261
 40
0.0731109087
 40
0.1002008843
 40
0.1309571577
 40
0.1650974078
 40
0.2023081681
 40
0.2422476303
 40
0.284548844
 40
0.3288231691
 40
0.3746637636
 40
0.4216493439
 40
0.4693481802
 40
0.5173217944
 40
0.5651293801
 40
0.6123315063
 40
0.6584944184
 40
0.7031939143
 40
0.7460192019
 40
0.7865768078
 40
0.8244940777
 40
0.8594226492
 40
0.8756647097
 40
0.8910418262
 40
0.9055184197
 40
0.9190613758
 40
0.9316397528
 40
0.9432244591
 40
0.9537894533
 40
0.9633100455
 40
0.9717652419
 40
0.979135424
 40
0.9854046854
 40
0.9905593093
 40
0.9927153186
 40
0.9945893618
 40
0.996180879
 40
0.9974896931
 40
0.9980383526
 40
0.9985168556
 40
0.9989256789
 40
0.9992656229
 40
0.9995381323
 40
0.9996499814
 40
0.9997463072
 40
1.0
 40
1.0
 40
1.0
 40
1.0
 10
5.3306391843
 20
5.4064277072
 30
0.0
 10
5.330429109
 20
5.4063769895
 30
0.0
 10
5.329946958
 20
5.4062808694
 30
0.0
 10
5.3291311793
 20
5.4061521338
 30
0.0
 10
5.3281360379
 20
5.4060226816
 30
0.0
 10
5.3269620956
 20
5.4058926645
 30
0.0
 10
5.3256099074
 20
5.4057623017
 30
0.0
 10
5.323453407
 20
5.405578295
 30
0.0
 10
5.3203179803
 20
5.4053531048
 30
0.0
 10
5.3160330057
 20
5.4050936234
 30
0.0
 10
5.3110598848
 20
5.4048334087
 30
0.0
 10
5.3054099536
 20
5.404572545
 30
0.0
 10
5.2990961851
 20
5.4043112937
 30
0.0
 10
5.2921330944
 20
5.4040497279
 30
0.0
 10
5.2815984273
 20
5.4036867773
 30
0.0
 10
5.2669390127
 20
5.4032393851
 30
0.0
 10
5.2476560022
 20
5.4027191735
 30
0.0
 10
5.2262499485
 20
5.4021979991
 30
0.0
 10
5.202917639
 20
5.4016760641
 30
0.0
 10
5.1778735524
 20
5.4011536226
 30
0.0
 10
5.151347909
 20
5.4006308085
 30
0.0
 10
5.1235845476
 20
5.4001077296
 30
0.0
 10
5.0948386886
 20
5.3995844632
 30
0.0
 10
5.0653745805
 20
5.3990610715
 30
0.0
 10
5.0354631004
 20
5.3985376063
 30
0.0
 10
5.0053792163
 20
5.3980141135
 30
0.0
 10
4.97539951
 20
5.3974906372
 30
0.0
 10
4.9457995736
 20
5.3969672227
 30
0.0
 10
4.9168515198
 20
5.39644392
 30
0.0
 10
4.8888214602
 20
5.3959207888
 30
0.0
 10
4.8619670671
 20
5.3953978994
 30
0.0
 10
4.8365352133
 20
5.3948753595
 30
0.0
 10
4.8127596995
 20
5.3943532658
 30
0.0
 10
4.7940828217
 20
5.3939086747
 30
0.0
 10
4.7801320469
 20
5.3935501974
 30
0.0
 10
4.7704691004
 20
5.3932879748
 30
0.0
 10
4.7613723862
 20
5.3930258481
 30
0.0
 10
4.7528628364
 20
5.392763835
 30
0.0
 10
4.744960031
 20
5.3925019776
 30
0.0
 10
4.737682081
 20
5.3922402976
 30
0.0
 10
4.7310458025
 20
5.3919788925
 30
0.0
 10
4.7250663395
 20
5.3917178161
 30
0.0
 10
4.7197575313
 20
5.391457237
 30
0.0
 10
4.7151314132
 20
5.391197417
 30
0.0
 10
4.7111986602
 20
5.3909385483
 30
0.0
 10
4.7083596454
 20
5.3907132114
 30
0.0
 10
4.7064424366
 20
5.3905282006
 30
0.0
 10
4.7052706966
 20
5.3903981993
 30
0.0
 10
4.7042778411
 20
5.3902686672
 30
0.0
 10
4.7035632473
 20
5.3901558502
 30
0.0
 10
4.7030821529
 20
5.3900633452
 30
0.0
 10
4.702788081
 20
5.3899982227
 30
0.0
 10
4.7025389791
 20
5.3899333847
 30
0.0
 10
4.7023345722
 20
5.3898686283
 30
0.0
 10
4.7021936191
 20
5.3898122946
 30
0.0
 10
4.7021036391
 20
5.3897652152
 30
0.0
 10
4.7020235943
 20
5.3897149169
 30
0.0
 10
4.7019601118
 20
5.389651938
 30
0.0
 10
4.7019601118
 20
5.3895987374
 30
0.0
  0
LINE
  5
3A0
100
AcDbEntity
  8
0
100
AcDbLine
 62
7
  6
CONTINUOUS
 10
5.3103496464
 20
5.4011667089
 11
5.3100581807
 21
5.4010972523
  0
SPLINE
  5
3A1
100
AcDbEntity
  8
0
100
AcDbSpline
 62
7
  6
CONTINUOUS
 70
0
 71
3
 72
62
 73
58
 74
0
 42
0.0000001
 43
0.0000001
 44
0.0000000001
 40
0.0
 40
0.0
 40
0.0
 40
0.0
 40
0.0011730443
 40
0.0026256006
 40
0.004358324
 40
0.0063712126
 40
0.0112339497
 40
0.0172048327
 40
0.0242721248
 40
0.032419758
 40
0.041630272
 40
0.0518825396
 40
0.0631535783
 40
0.0754179805
 40
0.1028127416
 40
0.1338178525
 40
0.1681511376
 40
0.2054999653
 40
0.2455240964
 40
0.2878587113
 40
0.3321179796
 40
0.3778984017
 40
0.4247827054
 40
0.4723435315
 40
0.520147238
 40
0.5677581317
 40
0.6147420224
 40
0.6606707146
 40
0.7051254982
 40
0.7477011782
 40
0.7880097572
 40
0.8256837891
 40
0.8603800326
 40
0.8917824248
 40
0.9061579369
 40
0.9196052202
 40
0.9320940524
 40
0.9435955163
 40
0.9540841948
 40
0.9635357859
 40
0.9719294763
 40
0.9792463978
 40
0.985470397
 40
0.9905888061
 40
0.9927299844
 40
0.9945914471
 40
0.996172879
 40
0.9974743785
 40
0.9980204448
 40
0.9984970459
 40
0.9989047357
 40
0.9992444459
 40
0.9995178219
 40
0.9997280972
 40
0.9998117537
 40
0.9998830906
 40
1.0
 40
1.0
 40
1.0
 40
1.0
 10
5.3100581807
 20
5.4010972523
 30
0.0
 10
5.3098335781
 20
5.4010477289
 30
0.0
 10
5.3093273992
 20
5.4009526921
 30
0.0
 10
5.3084825395
 20
5.4008239995
 30
0.0
 10
5.307471491
 20
5.4006947065
 30
0.0
 10
5.3057937479
 20
5.4005099402
 30
0.0
 10
5.3032847461
 20
5.4002854615
 30
0.0
 10
5.2997843261
 20
5.4000279183
 30
0.0
 10
5.2956384277
 20
5.3997693953
 30
0.0
 10
5.2908563542
 20
5.399509964
 30
0.0
 10
5.2854490238
 20
5.3992500559
 30
0.0
 10
5.2794286821
 20
5.398989753
 30
0.0
 10
5.2728090743
 20
5.3987291698
 30
0.0
 10
5.2628297624
 20
5.3983680042
 30
0.0
 10
5.2489818013
 20
5.3979225489
 30
0.0
 10
5.2308070702
 20
5.3974042586
 30
0.0
 10
5.210679968
 20
5.3968850526
 30
0.0
 10
5.1887840007
 20
5.3963651255
 30
0.0
 10
5.1653188227
 20
5.3958447155
 30
0.0
 10
5.1404984172
 20
5.3953239494
 30
0.0
 10
5.114549151
 20
5.3948029299
 30
0.0
 10
5.0877076628
 20
5.394281731
 30
0.0
 10
5.0602187256
 20
5.393760413
 30
0.0
 10
5.0323330164
 20
5.3932390261
 30
0.0
 10
5.0043048213
 20
5.3927176151
 30
0.0
 10
4.9763897645
 20
5.3921962234
 30
0.0
 10
4.9488424032
 20
5.391674895
 30
0.0
 10
4.9219139676
 20
5.3911536798
 30
0.0
 10
4.895850008
 20
5.3906326357
 30
0.0
 10
4.8708882011
 20
5.390111837
 30
0.0
 10
4.847256185
 20
5.389591375
 30
0.0
 10
4.8251694663
 20
5.3890714003
 30
0.0
 10
4.8048294804
 20
5.3885520461
 30
0.0
 10
4.7890572175
 20
5.3881079989
 30
0.0
 10
4.7774505322
 20
5.3877492413
 30
0.0
 10
4.7695509755
 20
5.3874882669
 30
0.0
 10
4.7622152533
 20
5.3872274654
 30
0.0
 10
4.7554600098
 20
5.3869668316
 30
0.0
 10
4.7493007451
 20
5.3867064731
 30
0.0
 10
4.7437513984
 20
5.3864464472
 30
0.0
 10
4.7388246709
 20
5.3861868983
 30
0.0
 10
4.7345317029
 20
5.3859281384
 30
0.0
 10
4.7308822222
 20
5.3856702806
 30
0.0
 10
4.7282478642
 20
5.385445852
 30
0.0
 10
4.7264689799
 20
5.3852615802
 30
0.0
 10
4.7253817372
 20
5.3851320862
 30
0.0
 10
4.724460435
 20
5.3850030539
 30
0.0
 10
4.7237973821
 20
5.3848907072
 30
0.0
 10
4.7233510408
 20
5.3847986053
 30
0.0
 10
4.7230781311
 20
5.3847337625
 30
0.0
 10
4.7228469459
 20
5.3846691079
 30
0.0
 10
4.7226572469
 20
5.3846047392
 30
0.0
 10
4.722508932
 20
5.3845406161
 30
0.0
 10
4.7224124665
 20
5.3844839165
 30
0.0
 10
4.7223582586
 20
5.3844366199
 30
0.0
 10
4.7223240663
 20
5.3843957293
 30
0.0
 10
4.7223101938
 20
5.3843587919
 30
0.0
 10
4.7223101802
 20
5.3843358696
 30
0.0
  0
SPLINE
  5
3A2
100
AcDbEntity
  8
0
100
AcDbSpline
 62
7
  6
CONTINUOUS
 70
0
 71
3
 72
22
 73
18
 74
0
 42
0.0000001
 43
0.0000001
 44
0.0000000001
 40
0.0
 40
0.0
 40
0.0
 40
0.0
 40
0.0009820106
 40
0.0039315438
 40
0.0088488016
 40
0.0157339863
 40
0.0354089451
 40
0.0629550662
 40
0.0983455616
 40
0.1415436843
 40
0.192518277
 40
0.2512446978
 40
0.3177051837
 40
0.3918890457
 40
0.5634224615
 40
0.7659944049
 40
1.0
 40
1.0
 40
1.0
 40
1.0
 10
4.5595554966
 20
5.7486949885
 30
0.0
 10
4.559551252
 20
5.7486949087
 30
0.0
 10
4.5595889308
 20
5.748694534
 30
0.0
 10
4.5596071886
 20
5.7486937608
 30
0.0
 10
4.5596822733
 20
5.7486924256
 30
0.0
 10
4.5598114333
 20
5.7486896115
 30
0.0
 10
4.5600504209
 20
5.7486847403
 30
0.0
 10
4.5604050139
 20
5.7486774449
 30
0.0
 10
4.5608646559
 20
5.7486652063
 30
0.0
 10
4.5614240586
 20
5.7486445272
 30
0.0
 10
4.5620843997
 20
5.7486119698
 30
0.0
 10
4.5628444466
 20
5.7485640313
 30
0.0
 10
4.5637038045
 20
5.7484971707
 30
0.0
 10
4.5650476237
 20
5.7483721149
 30
0.0
 10
4.566972527
 20
5.7481430535
 30
0.0
 10
4.5695694927
 20
5.7477296876
 30
0.0
 10
4.5714196491
 20
5.7473529078
 30
0.0
 10
4.5724064282
 20
5.7471300142
 30
0.0
  0
SPLINE
  5
3A3
100
AcDbEntity
  8
0
100
AcDbSpline
 62
7
  6
CONTINUOUS
 70
0
 71
3
 72
57
 73
53
 74
0
 42
0.0000001
 43
0.0000001
 44
0.0000000001
 40
0.0
 40
0.0
 40
0.0
 40
0.0
 40
0.0000012011
 40
0.0000048197
 40
0.000010855
 40
0.0000193062
 40
0.0000434537
 40
0.0000772561
 40
0.0001207076
 40
0.0001738023
 40
0.000236534
 40
0.000308897
 40
0.0004824929
 40
0.0006945423
 40
0.0009449976
 40
0.0012338114
 40
0.001560936
 40
0.001926324
 40
0.0027716998
 40
0.0037695586
 40
0.0049195202
 40
0.0062212468
 40
0.0076745375
 40
0.0092792191
 40
0.0110351182
 40
0.014999876
 40
0.0195674246
 40
0.0247355555
 40
0.0304991303
 40
0.0368523586
 40
0.0437894518
 40
0.0513051156
 40
0.0593956906
 40
0.0680578549
 40
0.0772882871
 40
0.0974312796
 40
0.1197534532
 40
0.1441785427
 40
0.1706420305
 40
0.1990808993
 40
0.229427072
 40
0.2616075613
 40
0.2955331027
 40
0.3311119877
 40
0.3682616264
 40
0.4469357984
 40
0.5308134074
 40
0.6191231183
 40
0.7110622826
 40
0.8057905761
 40
0.9024134029
 40
1.0
 40
1.0
 40
1.0
 40
1.0
 10
4.5679721346
 20
5.7615111538
 30
0.0
 10
4.5679720657
 20
5.7615113218
 30
0.0
 10
4.5679733819
 20
5.7615106764
 30
0.0
 10
4.567974403
 20
5.761510814
 30
0.0
 10
4.5679774104
 20
5.7615099697
 30
0.0
 10
4.5679829195
 20
5.7615089112
 30
0.0
 10
4.5679928836
 20
5.761506681
 30
0.0
 10
4.5680077981
 20
5.7615035207
 30
0.0
 10
4.5680270913
 20
5.7614993578
 30
0.0
 10
4.5680506217
 20
5.7614943078
 30
0.0
 10
4.568078439
 20
5.7614883292
 30
0.0
 10
4.5681240615
 20
5.7614785304
 30
0.0
 10
4.5681917566
 20
5.7614639955
 30
0.0
 10
4.5682857755
 20
5.7614438236
 30
0.0
 10
4.5683968286
 20
5.7614200149
 30
0.0
 10
4.5685248955
 20
5.7613925809
 30
0.0
 10
4.5686699566
 20
5.7613615324
 30
0.0
 10
4.568897298
 20
5.7613129147
 30
0.0
 10
4.5692238116
 20
5.7612431844
 30
0.0
 10
4.5696663477
 20
5.7611488446
 30
0.0
 10
4.5701763944
 20
5.761040311
 30
0.0
 10
4.570753826
 20
5.7609176609
 30
0.0
 10
4.5713985384
 20
5.760780922
 30
0.0
 10
4.5721104526
 20
5.7606301212
 30
0.0
 10
4.5731938341
 20
5.7604008876
 30
0.0
 10
4.5747155076
 20
5.7600794019
 30
0.0
 10
4.5767420013
 20
5.759651932
 30
0.0
 10
4.5790347041
 20
5.7591689906
 30
0.0
 10
4.5815917825
 20
5.7586315111
 30
0.0
 10
4.5844108664
 20
5.758040505
 30
0.0
 10
4.5874895656
 20
5.7573970077
 30
0.0
 10
4.5908257986
 20
5.75670196
 30
0.0
 10
4.5944177829
 20
5.7559559109
 30
0.0
 10
4.5982640346
 20
5.7551593809
 30
0.0
 10
4.6038950273
 20
5.7539964663
 30
0.0
 10
4.6115496761
 20
5.7524224683
 30
0.0
 10
4.6214580587
 20
5.7504045581
 30
0.0
 10
4.6323080342
 20
5.748222368
 30
0.0
 10
4.64407049
 20
5.7458877576
 30
0.0
 10
4.6567175614
 20
5.7434126282
 30
0.0
 10
4.6702210982
 20
5.740814335
 30
0.0
 10
4.6845489443
 20
5.7381108683
 30
0.0
 10
4.6996656341
 20
5.7353225004
 30
0.0
 10
4.7155341585
 20
5.7324697431
 30
0.0
 10
4.738081225
 20
5.7285365686
 30
0.0
 10
4.7678663929
 20
5.7236112137
 30
0.0
 10
4.8053686488
 20
5.7179694023
 30
0.0
 10
4.8449562373
 20
5.712747106
 30
0.0
 10
4.886282184
 20
5.708228074
 30
0.0
 10
4.9289687051
 20
5.7047141811
 30
0.0
 10
4.9725969218
 20
5.7024701706
 30
0.0
 10
5.0019579935
 20
5.7019572524
 30
0.0
 10
5.0167101118
 20
5.7019572022
 30
0.0
  0
SPLINE
  5
3A4
100
AcDbEntity
  8
0
100
AcDbSpline
 62
7
  6
CONTINUOUS
 70
0
 71
3
 72
43
 73
39
 74
0
 42
0.0000001
 43
0.0000001
 44
0.0000000001
 40
0.0
 40
0.0
 40
0.0
 40
0.0
 40
0.0001050661
 40
0.0002263949
 40
0.0003749753
 40
0.0005569162
 40
0.001032387
 40
0.0016666138
 40
0.0024647015
 40
0.0034291083
 40
0.0045610751
 40
0.0058611124
 40
0.0073294085
 40
0.0089659735
 40
0.0127433862
 40
0.0171917943
 40
0.0223077976
 40
0.0280866129
 40
0.0345232306
 40
0.0493465043
 40
0.0667210862
 40
0.0865818586
 40
0.1088521512
 40
0.1334469367
 40
0.1602715102
 40
0.1892224921
 40
0.2201888481
 40
0.2530506427
 40
0.2876818847
 40
0.3239484485
 40
0.4008238083
 40
0.4824920069
 40
0.5676945479
 40
0.6551182868
 40
0.7434155872
 40
0.8312264245
 40
0.9171948616
 40
1.0
 40
1.0
 40
1.0
 40
1.0
 10
5.311110061
 20
4.8026608695
 30
0.0
 10
5.3111100522
 20
4.8026463699
 30
0.0
 10
5.3111029014
 20
4.8026149312
 30
0.0
 10
5.3110737058
 20
4.8025713332
 30
0.0
 10
5.311027581
 20
4.802528834
 30
0.0
 10
5.3109347222
 20
4.8024670635
 30
0.0
 10
5.3107713315
 20
4.8023936621
 30
0.0
 10
5.3105213677
 20
4.8023106869
 30
0.0
 10
5.3102010972
 20
4.8022271901
 30
0.0
 10
5.3098105166
 20
4.8021432023
 30
0.0
 10
5.3093493668
 20
4.8020589455
 30
0.0
 10
5.3088177421
 20
4.8019744815
 30
0.0
 10
5.3082157363
 20
4.8018898692
 30
0.0
 10
5.3072733727
 20
4.8017711654
 30
0.0
 10
5.3059200549
 20
4.8016253149
 30
0.0
 10
5.3040864941
 20
4.8014569012
 30
0.0
 10
5.3019757577
 20
4.8012880949
 30
0.0
 10
5.2995899049
 20
4.8011189296
 30
0.0
 10
5.2958659565
 20
4.8008817866
 30
0.0
 10
5.2905420836
 20
4.8005905751
 30
0.0
 10
5.2833655999
 20
4.8002539675
 30
0.0
 10
5.2751604439
 20
4.7999165598
 30
0.0
 10
5.2659581563
 20
4.7995784604
 30
0.0
 10
5.2557942648
 20
4.7992399322
 30
0.0
 10
5.2447079538
 20
4.7989010707
 30
0.0
 10
5.2327419662
 20
4.7985619594
 30
0.0
 10
5.2199425086
 20
4.7982226672
 30
0.0
 10
5.2063588949
 20
4.7978832186
 30
0.0
 10
5.1920436151
 20
4.7975436574
 30
0.0
 10
5.1716554652
 20
4.7970817702
 30
0.0
 10
5.1447768555
 20
4.7965092368
 30
0.0
 10
5.111145542
 20
4.7958340583
 30
0.0
 10
5.0760582334
 20
4.7951584251
 30
0.0
 10
5.0400559203
 20
4.7944825079
 30
0.0
 10
5.0036935899
 20
4.7938064889
 30
0.0
 10
4.9675321312
 20
4.79313053
 30
0.0
 10
4.9321287464
 20
4.7924547895
 30
0.0
 10
4.9088417769
 20
4.7919936142
 30
0.0
 10
4.8974166565
 20
4.7917608696
 30
0.0
  0
SPLINE
  5
3A5
100
AcDbEntity
  8
0
100
AcDbSpline
 62
7
  6
CONTINUOUS
 70
0
 71
3
 72
51
 73
47
 74
0
 42
0.0000001
 43
0.0000001
 44
0.0000000001
 40
0.0
 40
0.0
 40
0.0
 40
0.0
 40
0.0001010003
 40
0.0002319079
 40
0.0004079587
 40
0.0006354676
 40
0.0009172906
 40
0.0012548905
 40
0.0016490943
 40
0.0021004051
 40
0.0031754745
 40
0.0044816066
 40
0.0060190707
 40
0.0077876387
 40
0.0097868792
 40
0.0120162429
 40
0.0171622685
 40
0.0232170046
 40
0.0301703162
 40
0.0380103312
 40
0.0467227231
 40
0.0562925732
 40
0.0667024453
 40
0.0779337139
 40
0.0899666054
 40
0.1163484808
 40
0.1456588388
 40
0.1776872156
 40
0.2122033622
 40
0.2489590277
 40
0.2876899297
 40
0.3281176411
 40
0.3699514441
 40
0.4128903091
 40
0.4566254352
 40
0.5008422923
 40
0.5894476878
 40
0.6761617105
 40
0.7584940534
 40
0.8340802337
 40
0.8686561171
 40
0.9007502731
 40
0.9301319995
 40
0.9565903238
 40
0.9799354305
 40
1.0
 40
1.0
 40
1.0
 40
1.0
 10
5.3314601118
 20
5.1418980017
 30
0.0
 10
5.3314601118
 20
5.1418777453
 30
0.0
 10
5.331443517
 20
5.1418313395
 30
0.0
 10
5.3313840642
 20
5.1417733417
 30
0.0
 10
5.3312928922
 20
5.1417162726
 30
0.0
 10
5.3311674595
 20
5.1416593602
 30
0.0
 10
5.3310074264
 20
5.1416021121
 30
0.0
 10
5.33081233
 20
5.141544677
 30
0.0
 10
5.3305821008
 20
5.1414870607
 30
0.0
 10
5.3302056528
 20
5.1414052475
 30
0.0
 10
5.3296462384
 20
5.1413054232
 30
0.0
 10
5.3288686597
 20
5.1411908023
 30
0.0
 10
5.3279507721
 20
5.1410758002
 30
0.0
 10
5.3268929949
 20
5.1409604782
 30
0.0
 10
5.3256957524
 20
5.1408449459
 30
0.0
 10
5.3238225756
 20
5.1406828491
 30
0.0
 10
5.3211363348
 20
5.14048377
 30
0.0
 10
5.3175026238
 20
5.1402538029
 30
0.0
 10
5.3133277076
 20
5.1400232811
 30
0.0
 10
5.3086190946
 20
5.1397923173
 30
0.0
 10
5.3033851665
 20
5.1395610341
 30
0.0
 10
5.2976353892
 20
5.1393295407
 30
0.0
 10
5.2913800651
 20
5.139097871
 30
0.0
 10
5.2846304523
 20
5.1388660578
 30
0.0
 10
5.274678666
 20
5.1385469769
 30
0.0
 10
5.2611015872
 20
5.1381520007
 30
0.0
 10
5.2435145831
 20
5.1376905273
 30
0.0
 10
5.2242956917
 20
5.1372284942
 30
0.0
 10
5.2035832011
 20
5.1367660133
 30
0.0
 10
5.1815261621
 20
5.1363032155
 30
0.0
 10
5.1582832725
 20
5.1358401783
 30
0.0
 10
5.1340217344
 20
5.1353769644
 30
0.0
 10
5.1089161117
 20
5.1349136197
 30
0.0
 10
5.0831470539
 20
5.1344501799
 30
0.0
 10
5.0568999819
 20
5.1339866761
 30
0.0
 10
5.0214954459
 20
5.1333682233
 30
0.0
 10
4.9774724042
 20
5.1326034381
 30
0.0
 10
4.9258064921
 20
5.1316868702
 30
0.0
 10
4.876752087
 20
5.1307716202
 30
0.0
 10
4.8381537379
 20
5.129989887
 30
0.0
 10
4.8096302335
 20
5.1293542128
 30
0.0
 10
4.7903718453
 20
5.1288921372
 30
0.0
 10
4.772741987
 20
5.1284306767
 30
0.0
 10
4.7568674456
 20
5.12797009
 30
0.0
 10
4.7428623799
 20
5.1275106981
 30
0.0
 10
4.734162437
 20
5.1271802144
 30
0.0
 10
4.7301418983
 20
5.1270108736
 30
0.0
  0
SPLINE
  5
3A6
100
AcDbEntity
  8
0
100
AcDbSpline
 62
7
  6
CONTINUOUS
 70
0
 71
3
 72
55
 73
51
 74
0
 42
0.0000001
 43
0.0000001
 44
0.0000000001
 40
0.0
 40
0.0
 40
0.0
 40
0.0
 40
0.0001061984
 40
0.0001715451
 40
0.000248531
 40
0.0004428988
 40
0.0006963623
 40
0.0010117927
 40
0.0013906332
 40
0.001833689
 40
0.0023414439
 40
0.0035521139
 40
0.0050238927
 40
0.0067567628
 40
0.0087502949
 40
0.0135166605
 40
0.0193152431
 40
0.0261342288
 40
0.0339604884
 40
0.0427774145
 40
0.0525670275
 40
0.0633089032
 40
0.0749803118
 40
0.0875572738
 40
0.1010128682
 40
0.1304463453
 40
0.163033442
 40
0.1985002845
 40
0.2365487352
 40
0.2768588626
 40
0.3190916921
 40
0.3628920531
 40
0.4078914065
 40
0.4537112937
 40
0.4999662734
 40
0.5462672472
 40
0.6374522536
 40
0.7242045282
 40
0.7649996938
 40
0.8036116202
 40
0.8397156082
 40
0.8730080013
 40
0.9032090214
 40
0.930064949
 40
0.9533506229
 40
0.9728707019
 40
0.9811666577
 40
0.9884635711
 40
0.994745928
 40
1.0
 40
1.0
 40
1.0
 40
1.0
 10
5.3314601118
 20
5.1763480017
 30
0.0
 10
5.3314601118
 20
5.1763259377
 30
0.0
 10
5.3314462892
 20
5.1762903151
 30
0.0
 10
5.3314126262
 20
5.1762511987
 30
0.0
 10
5.331359052
 20
5.176205722
 30
0.0
 10
5.3312638346
 20
5.1761513095
 30
0.0
 10
5.3311175469
 20
5.1760897474
 30
0.0
 10
5.3309304168
 20
5.1760279368
 30
0.0
 10
5.3307023652
 20
5.1759658334
 30
0.0
 10
5.3304331709
 20
5.1759035438
 30
0.0
 10
5.3299928569
 20
5.175815045
 30
0.0
 10
5.3293387249
 20
5.1757071069
 30
0.0
 10
5.3284297348
 20
5.1755831735
 30
0.0
 10
5.3273568727
 20
5.1754587974
 30
0.0
 10
5.3256012483
 20
5.1752817929
 30
0.0
 10
5.3230008125
 20
5.1750661866
 30
0.0
 10
5.3193975218
 20
5.1748185324
 30
0.0
 10
5.3151572801
 20
5.1745699469
 30
0.0
 10
5.3102890666
 20
5.174320645
 30
0.0
 10
5.3048029784
 20
5.1740708725
 30
0.0
 10
5.2987105903
 20
5.1738207711
 30
0.0
 10
5.2920247053
 20
5.1735704285
 30
0.0
 10
5.2847593497
 20
5.1733198926
 30
0.0
 10
5.2769298801
 20
5.1730692218
 30
0.0
 10
5.2654112641
 20
5.1727244312
 30
0.0
 10
5.2497359174
 20
5.1722976826
 30
0.0
 10
5.2294878076
 20
5.1717987416
 30
0.0
 10
5.2074493461
 20
5.171299203
 30
0.0
 10
5.1838059581
 20
5.1707991887
 30
0.0
 10
5.1587565631
 20
5.170298844
 30
0.0
 10
5.1325119151
 20
5.1697982542
 30
0.0
 10
5.1052928548
 20
5.1692974891
 30
0.0
 10
5.0773284181
 20
5.1687966011
 30
0.0
 10
5.0488539249
 20
5.1682956338
 30
0.0
 10
5.0201089631
 20
5.1677946297
 30
0.0
 10
4.9819402453
 20
5.1671300157
 30
0.0
 10
4.9353591328
 20
5.1663100738
 30
0.0
 10
4.8899224363
 20
5.1654711154
 30
0.0
 10
4.8554074473
 20
5.164789893
 30
0.0
 10
4.8314137676
 20
5.1642897795
 30
0.0
 10
4.8089792326
 20
5.1637901088
 30
0.0
 10
4.7882926188
 20
5.1632910382
 30
0.0
 10
4.7695279947
 20
5.1627927846
 30
0.0
 10
4.7528431542
 20
5.162295884
 30
0.0
 10
4.7383784886
 20
5.1618006305
 30
0.0
 10
4.7277700279
 20
5.1613708201
 30
0.0
 10
4.7204833366
 20
5.1610186985
 30
0.0
 10
4.7159452611
 20
5.1607696988
 30
0.0
 10
4.7120402267
 20
5.1605215176
 30
0.0
 10
4.7096500835
 20
5.1603409912
 30
0.0
 10
4.7085624516
 20
5.1602480017
 30
0.0
  0
SPLINE
  5
3A7
100
AcDbEntity
  8
0
100
AcDbSpline
 62
7
  6
CONTINUOUS
 70
0
 71
3
 72
17
 73
13
 74
0
 42
0.0000001
 43
0.0000001
 44
0.0000000001
 40
0.0
 40
0.0
 40
0.0
 40
0.0
 40
0.1976699969
 40
0.3750008801
 40
0.5317377639
 40
0.6676504541
 40
0.7825340468
 40
0.8762583921
 40
0.9151578956
 40
0.9487396844
 40
0.9770111457
 40
1.0
 40
1.0
 40
1.0
 40
1.0
 10
4.7441456601
 20
4.8220108652
 30
0.0
 10
4.74275305
 20
4.8219422416
 30
0.0
 10
4.7401114045
 20
4.8218061698
 30
0.0
 10
4.7363668269
 20
4.8215913881
 30
0.0
 10
4.7330586407
 20
4.8213770202
 30
0.0
 10
4.730191915
 20
4.8211633679
 30
0.0
 10
4.7277710514
 20
4.820950497
 30
0.0
 10
4.7260348842
 20
4.8207649816
 30
0.0
 10
4.724872437
 20
4.8206124263
 30
0.0
 10
4.7241697647
 20
4.8205055485
 30
0.0
 10
4.7235807837
 20
4.8203991177
 30
0.0
 10
4.7232276013
 20
4.8203207313
 30
0.0
 10
4.7230706365
 20
4.8202800301
 30
0.0
  0
LINE
  5
3A8
100
AcDbEntity
  8
0
100
AcDbLine
 62
7
  6
CONTINUOUS
 10
4.7085624516
 20
5.1602480017
 11
4.7026717091
 21
5.1594917584
  0
SPLINE
  5
3A9
100
AcDbEntity
  8
0
100
AcDbSpline
 62
7
  6
CONTINUOUS
 70
0
 71
3
 72
19
 73
15
 74
0
 42
0.0000001
 43
0.0000001
 44
0.0000000001
 40
0.0
 40
0.0
 40
0.0
 40
0.0
 40
0.0257927194
 40
0.0358395049
 40
0.0475630635
 40
0.0762581866
 40
0.1121765775
 40
0.1554557062
 40
0.2061684896
 40
0.2643552256
 40
0.4032294039
 40
0.5721682417
 40
0.771128639
 40
1.0
 40
1.0
 40
1.0
 40
1.0
 10
4.7019601118
 20
5.1828987374
 30
0.0
 10
4.7019601118
 20
5.1829569443
 30
0.0
 10
4.7020343755
 20
5.183023952
 30
0.0
 10
4.7021243434
 20
5.1830769006
 30
0.0
 10
4.7022275005
 20
5.1831273479
 30
0.0
 10
4.7023886873
 20
5.1831875516
 30
0.0
 10
4.7026224379
 20
5.183256784
 30
0.0
 10
4.7029073199
 20
5.1833260937
 30
0.0
 10
4.7032436828
 20
5.1833957221
 30
0.0
 10
4.703794058
 20
5.1834946492
 30
0.0
 10
4.7046113362
 20
5.183615297
 30
0.0
 10
4.7057466204
 20
5.1837538353
 30
0.0
 10
4.7070862286
 20
5.1838928574
 30
0.0
 10
4.7080478307
 20
5.1839797387
 30
0.0
 10
4.7085624516
 20
5.1840237374
 30
0.0
  0
SPLINE
  5
3AA
100
AcDbEntity
  8
0
100
AcDbSpline
 62
7
  6
CONTINUOUS
 70
0
 71
3
 72
63
 73
59
 74
0
 42
0.0000001
 43
0.0000001
 44
0.0000000001
 40
0.0
 40
0.0
 40
0.0
 40
0.0
 40
0.000254191
 40
0.000350766
 40
0.0004629182
 40
0.0007361972
 40
0.00107713
 40
0.0014871617
 40
0.0019670922
 40
0.0025173986
 40
0.0038301623
 40
0.0054264967
 40
0.0073062185
 40
0.0094687628
 40
0.0146389989
 40
0.0209271831
 40
0.0283195226
 40
0.0367999916
 40
0.0463488591
 40
0.056944994
 40
0.0685635475
 40
0.0811783317
 40
0.0947600521
 40
0.1092776066
 40
0.1246976462
 40
0.1409844073
 40
0.1760067513
 40
0.2140220418
 40
0.2546798836
 40
0.2976054897
 40
0.3424031847
 40
0.3886599358
 40
0.4359493043
 40
0.48383532
 40
0.5318764107
 40
0.5796297192
 40
0.6266548428
 40
0.6725182891
 40
0.7167971926
 40
0.7590833547
 40
0.7989870157
 40
0.8361403686
 40
0.8702010374
 40
0.9008552806
 40
0.9278208134
 40
0.9398413361
 40
0.9508497895
 40
0.9608205506
 40
0.9697310665
 40
0.9775611234
 40
0.9842929401
 40
0.9899121841
 40
0.9923005827
 40
0.9944067564
 40
0.9962299756
 40
0.9977697303
 40
0.9990259738
 40
1.0
 40
1.0
 40
1.0
 40
1.0
 10
5.3314601118
 20
5.2107980017
 30
0.0
 10
5.3314601118
 20
5.2107446871
 30
0.0
 10
5.3313963876
 20
5.2106816126
 30
0.0
 10
5.3313161169
 20
5.2106312527
 30
0.0
 10
5.33122584
 20
5.2105840949
 30
0.0
 10
5.3310844307
 20
5.2105276712
 30
0.0
 10
5.3308793627
 20
5.2104628105
 30
0.0
 10
5.3306294553
 20
5.2103978681
 30
0.0
 10
5.3303344315
 20
5.2103326404
 30
0.0
 10
5.3298517766
 20
5.2102399852
 30
0.0
 10
5.3291348696
 20
5.2101269858
 30
0.0
 10
5.3281388055
 20
5.2099972442
 30
0.0
 10
5.3269632829
 20
5.2098670324
 30
0.0
 10
5.3250398941
 20
5.2096817222
 30
0.0
 10
5.3221917566
 20
5.2094560213
 30
0.0
 10
5.3182464091
 20
5.209196733
 30
0.0
 10
5.3136055467
 20
5.208936493
 30
0.0
 10
5.3082799108
 20
5.2086754918
 30
0.0
 10
5.3022816163
 20
5.2084139928
 30
0.0
 10
5.2956245906
 20
5.2081521646
 30
0.0
 10
5.2883240734
 20
5.2078900606
 30
0.0
 10
5.2803969904
 20
5.2076277797
 30
0.0
 10
5.2718615625
 20
5.207365342
 30
0.0
 10
5.2627374989
 20
5.2071027914
 30
0.0
 10
5.2530458568
 20
5.2068401439
 30
0.0
 10
5.2390545437
 20
5.206481095
 30
0.0
 10
5.2203247274
 20
5.2060357951
 30
0.0
 10
5.1964837171
 20
5.2055128592
 30
0.0
 10
5.1709846983
 20
5.2049894766
 30
0.0
 10
5.1440628491
 20
5.2044657443
 30
0.0
 10
5.1159664657
 20
5.2039417702
 30
0.0
 10
5.0869546674
 20
5.2034176249
 30
0.0
 10
5.0572950172
 20
5.2028933684
 30
0.0
 10
5.0272610595
 20
5.2023690507
 30
0.0
 10
4.9971297796
 20
5.2018447175
 30
0.0
 10
4.9671790919
 20
5.2013204135
 30
0.0
 10
4.9376852173
 20
5.2007961848
 30
0.0
 10
4.9089201869
 20
5.200272084
 30
0.0
 10
4.8811492825
 20
5.1997481742
 30
0.0
 10
4.8546286222
 20
5.1992245338
 30
0.0
 10
4.8296027881
 20
5.198701273
 30
0.0
 10
4.8063025765
 20
5.1981785281
 30
0.0
 10
4.7849428624
 20
5.1976565602
 30
0.0
 10
4.7657206408
 20
5.1971355748
 30
0.0
 10
4.7511209567
 20
5.1966873999
 30
0.0
 10
4.7406412945
 20
5.1963237275
 30
0.0
 10
4.7337248032
 20
5.1960617677
 30
0.0
 10
4.7274611083
 20
5.1958001279
 30
0.0
 10
4.7218646825
 20
5.1955388972
 30
0.0
 10
4.7169483847
 20
5.1952783376
 30
0.0
 10
4.7127234811
 20
5.1950185515
 30
0.0
 10
4.7096401028
 20
5.1947929615
 30
0.0
 10
4.7075268135
 20
5.194608462
 30
0.0
 10
4.7062081074
 20
5.1944779509
 30
0.0
 10
4.7050683571
 20
5.1943478128
 30
0.0
 10
4.7041080817
 20
5.1942183065
 30
0.0
 10
4.7033278207
 20
5.1940895792
 30
0.0
 10
4.7028697082
 20
5.1939930246
 30
0.0
 10
4.7026719509
 20
5.1939417582
 30
0.0
  0
SPLINE
  5
3AB
100
AcDbEntity
  8
0
100
AcDbSpline
 62
7
  6
CONTINUOUS
 70
0
 71
3
 72
30
 73
26
 74
0
 42
0.0000001
 43
0.0000001
 44
0.0000000001
 40
0.0
 40
0.0
 40
0.0
 40
0.0
 40
0.1811743759
 40
0.2709938936
 40
0.3590893096
 40
0.4445669197
 40
0.5265625006
 40
0.6042460506
 40
0.6768316526
 40
0.743585021
 40
0.8038310801
 40
0.8569609622
 40
0.8806864479
 40
0.9024383699
 40
0.9221608443
 40
0.9398054835
 40
0.9553273952
 40
0.9686889147
 40
0.9798574848
 40
0.9846110666
 40
0.9888077301
 40
0.9924455172
 40
0.9955229608
 40
0.9980402509
 40
1.0
 40
1.0
 40
1.0
 40
1.0
 10
5.0495295299
 20
5.5870108696
 30
0.0
 10
5.0298071115
 20
5.5866412566
 30
0.0
 10
5.0003069355
 20
5.5860946131
 30
0.0
 10
4.9612169476
 20
5.5853604108
 30
0.0
 10
4.9325445804
 20
5.5848114369
 30
0.0
 10
4.9047242231
 20
5.5842626407
 30
0.0
 10
4.8780377101
 20
5.5837141123
 30
0.0
 10
4.8527551532
 20
5.5831659671
 30
0.0
 10
4.8291325373
 20
5.5826183506
 30
0.0
 10
4.8074090036
 20
5.5820715354
 30
0.0
 10
4.7878044769
 20
5.5815257385
 30
0.0
 10
4.7728844873
 20
5.5810564369
 30
0.0
 10
4.7621550761
 20
5.5806756302
 30
0.0
 10
4.7550615447
 20
5.5804011618
 30
0.0
 10
4.7486306095
 20
5.5801270103
 30
0.0
 10
4.7428786454
 20
5.5798533044
 30
0.0
 10
4.7378200811
 20
5.5795802665
 30
0.0
 10
4.7334677532
 20
5.5793080678
 30
0.0
 10
4.7302880414
 20
5.5790717168
 30
0.0
 10
4.7281060525
 20
5.578878469
 30
0.0
 10
4.7267422923
 20
5.5787417008
 30
0.0
 10
4.7255620338
 20
5.5786053246
 30
0.0
 10
4.724565896
 20
5.5784695777
 30
0.0
 10
4.7237544426
 20
5.5783346373
 30
0.0
 10
4.723277174
 20
5.5782335808
 30
0.0
 10
4.7230706298
 20
5.5781800301
 30
0.0
  0
SPLINE
  5
3AC
100
AcDbEntity
  8
0
100
AcDbSpline
 62
7
  6
CONTINUOUS
 70
0
 71
3
 72
63
 73
59
 74
0
 42
0.0000001
 43
0.0000001
 44
0.0000000001
 40
0.0
 40
0.0
 40
0.0
 40
0.0
 40
0.000254191
 40
0.000350766
 40
0.0004629182
 40
0.0007361972
 40
0.00107713
 40
0.0014871617
 40
0.0019670922
 40
0.0025173986
 40
0.0038301623
 40
0.0054264967
 40
0.0073062185
 40
0.0094687628
 40
0.0146389989
 40
0.0209271831
 40
0.0283195226
 40
0.0367999916
 40
0.0463488591
 40
0.056944994
 40
0.0685635475
 40
0.0811783317
 40
0.0947600521
 40
0.1092776066
 40
0.1246976462
 40
0.1409844073
 40
0.1760067513
 40
0.2140220418
 40
0.2546798836
 40
0.2976054897
 40
0.3424031847
 40
0.3886599358
 40
0.4359493043
 40
0.48383532
 40
0.5318764107
 40
0.5796297192
 40
0.6266548428
 40
0.6725182891
 40
0.7167971926
 40
0.7590833547
 40
0.7989870158
 40
0.8361403686
 40
0.8702010374
 40
0.9008552806
 40
0.9278208134
 40
0.9398413361
 40
0.9508497895
 40
0.9608205506
 40
0.9697310665
 40
0.9775611234
 40
0.9842929401
 40
0.9899121841
 40
0.9923005827
 40
0.9944067564
 40
0.9962299756
 40
0.9977697303
 40
0.9990259738
 40
1.0
 40
1.0
 40
1.0
 40
1.0
 10
5.3314601118
 20
5.2452480017
 30
0.0
 10
5.3314601118
 20
5.2451946871
 30
0.0
 10
5.3313963876
 20
5.2451316126
 30
0.0
 10
5.3313161169
 20
5.2450812527
 30
0.0
 10
5.33122584
 20
5.2450340949
 30
0.0
 10
5.3310844307
 20
5.2449776712
 30
0.0
 10
5.3308793627
 20
5.2449128105
 30
0.0
 10
5.3306294553
 20
5.2448478681
 30
0.0
 10
5.3303344315
 20
5.2447826404
 30
0.0
 10
5.3298517766
 20
5.2446899852
 30
0.0
 10
5.3291348696
 20
5.2445769858
 30
0.0
 10
5.3281388055
 20
5.2444472442
 30
0.0
 10
5.3269632829
 20
5.2443170324
 30
0.0
 10
5.3250398941
 20
5.2441317222
 30
0.0
 10
5.3221917566
 20
5.2439060213
 30
0.0
 10
5.3182464091
 20
5.243646733
 30
0.0
 10
5.3136055467
 20
5.243386493
 30
0.0
 10
5.3082799108
 20
5.2431254918
 30
0.0
 10
5.3022816163
 20
5.2428639928
 30
0.0
 10
5.2956245906
 20
5.2426021646
 30
0.0
 10
5.2883240734
 20
5.2423400606
 30
0.0
 10
5.2803969904
 20
5.2420777797
 30
0.0
 10
5.2718615625
 20
5.241815342
 30
0.0
 10
5.2627374989
 20
5.2415527914
 30
0.0
 10
5.2530458568
 20
5.2412901439
 30
0.0
 10
5.2390545437
 20
5.240931095
 30
0.0
 10
5.2203247274
 20
5.2404857951
 30
0.0
 10
5.1964837171
 20
5.2399628592
 30
0.0
 10
5.1709846983
 20
5.2394394766
 30
0.0
 10
5.1440628491
 20
5.2389157443
 30
0.0
 10
5.1159664657
 20
5.2383917702
 30
0.0
 10
5.0869546674
 20
5.2378676249
 30
0.0
 10
5.0572950172
 20
5.2373433684
 30
0.0
 10
5.0272610595
 20
5.2368190507
 30
0.0
 10
4.9971297796
 20
5.2362947175
 30
0.0
 10
4.9671790919
 20
5.2357704135
 30
0.0
 10
4.9376852173
 20
5.2352461848
 30
0.0
 10
4.9089201869
 20
5.234722084
 30
0.0
 10
4.8811492825
 20
5.2341981742
 30
0.0
 10
4.8546286222
 20
5.2336745338
 30
0.0
 10
4.8296027881
 20
5.233151273
 30
0.0
 10
4.8063025764
 20
5.2326285281
 30
0.0
 10
4.7849428624
 20
5.2321065602
 30
0.0
 10
4.7657206408
 20
5.2315855748
 30
0.0
 10
4.7511209567
 20
5.2311373999
 30
0.0
 10
4.7406412945
 20
5.2307737275
 30
0.0
 10
4.7337248032
 20
5.2305117677
 30
0.0
 10
4.7274611083
 20
5.2302501279
 30
0.0
 10
4.7218646825
 20
5.2299888972
 30
0.0
 10
4.7169483847
 20
5.2297283376
 30
0.0
 10
4.7127234811
 20
5.2294685515
 30
0.0
 10
4.7096401028
 20
5.2292429615
 30
0.0
 10
4.7075268135
 20
5.229058462
 30
0.0
 10
4.7062081074
 20
5.2289279509
 30
0.0
 10
4.7050683571
 20
5.2287978128
 30
0.0
 10
4.7041080817
 20
5.2286683065
 30
0.0
 10
4.7033278207
 20
5.2285395792
 30
0.0
 10
4.7028697082
 20
5.2284430246
 30
0.0
 10
4.7026719509
 20
5.2283917582
 30
0.0
  0
SPLINE
  5
3AD
100
AcDbEntity
  8
0
100
AcDbSpline
 62
7
  6
CONTINUOUS
 70
0
 71
3
 72
63
 73
59
 74
0
 42
0.0000001
 43
0.0000001
 44
0.0000000001
 40
0.0
 40
0.0
 40
0.0
 40
0.0
 40
0.000254191
 40
0.000350766
 40
0.0004629182
 40
0.0007361972
 40
0.00107713
 40
0.0014871617
 40
0.0019670922
 40
0.0025173986
 40
0.0038301623
 40
0.0054264967
 40
0.0073062185
 40
0.0094687628
 40
0.0146389989
 40
0.0209271831
 40
0.0283195226
 40
0.0367999916
 40
0.0463488591
 40
0.056944994
 40
0.0685635475
 40
0.0811783317
 40
0.0947600521
 40
0.1092776066
 40
0.1246976462
 40
0.1409844073
 40
0.1760067513
 40
0.2140220418
 40
0.2546798836
 40
0.2976054897
 40
0.3424031847
 40
0.3886599358
 40
0.4359493043
 40
0.48383532
 40
0.5318764107
 40
0.5796297192
 40
0.6266548428
 40
0.6725182891
 40
0.7167971926
 40
0.7590833547
 40
0.7989870157
 40
0.8361403686
 40
0.8702010374
 40
0.9008552806
 40
0.9278208134
 40
0.9398413361
 40
0.9508497895
 40
0.9608205506
 40
0.9697310665
 40
0.9775611234
 40
0.9842929401
 40
0.9899121841
 40
0.9923005827
 40
0.9944067564
 40
0.9962299756
 40
0.9977697303
 40
0.9990259738
 40
1.0
 40
1.0
 40
1.0
 40
1.0
 10
5.3314601118
 20
5.2796980017
 30
0.0
 10
5.3314601118
 20
5.2796446871
 30
0.0
 10
5.3313963876
 20
5.2795816126
 30
0.0
 10
5.3313161169
 20
5.2795312527
 30
0.0
 10
5.33122584
 20
5.2794840949
 30
0.0
 10
5.3310844307
 20
5.2794276712
 30
0.0
 10
5.3308793627
 20
5.2793628105
 30
0.0
 10
5.3306294553
 20
5.2792978681
 30
0.0
 10
5.3303344315
 20
5.2792326404
 30
0.0
 10
5.3298517766
 20
5.2791399852
 30
0.0
 10
5.3291348696
 20
5.2790269858
 30
0.0
 10
5.3281388055
 20
5.2788972442
 30
0.0
 10
5.3269632829
 20
5.2787670324
 30
0.0
 10
5.3250398941
 20
5.2785817222
 30
0.0
 10
5.3221917566
 20
5.2783560213
 30
0.0
 10
5.3182464091
 20
5.278096733
 30
0.0
 10
5.3136055467
 20
5.277836493
 30
0.0
 10
5.3082799108
 20
5.2775754918
 30
0.0
 10
5.3022816163
 20
5.2773139928
 30
0.0
 10
5.2956245906
 20
5.2770521646
 30
0.0
 10
5.2883240734
 20
5.2767900606
 30
0.0
 10
5.2803969904
 20
5.2765277797
 30
0.0
 10
5.2718615625
 20
5.276265342
 30
0.0
 10
5.2627374989
 20
5.2760027914
 30
0.0
 10
5.2530458568
 20
5.2757401439
 30
0.0
 10
5.2390545437
 20
5.275381095
 30
0.0
 10
5.2203247274
 20
5.2749357951
 30
0.0
 10
5.1964837171
 20
5.2744128592
 30
0.0
 10
5.1709846983
 20
5.2738894766
 30
0.0
 10
5.1440628491
 20
5.2733657443
 30
0.0
 10
5.1159664657
 20
5.2728417702
 30
0.0
 10
5.0869546674
 20
5.2723176249
 30
0.0
 10
5.0572950172
 20
5.2717933684
 30
0.0
 10
5.0272610595
 20
5.2712690507
 30
0.0
 10
4.9971297796
 20
5.2707447175
 30
0.0
 10
4.9671790919
 20
5.2702204135
 30
0.0
 10
4.9376852173
 20
5.2696961848
 30
0.0
 10
4.9089201869
 20
5.269172084
 30
0.0
 10
4.8811492825
 20
5.2686481742
 30
0.0
 10
4.8546286222
 20
5.2681245338
 30
0.0
 10
4.8296027881
 20
5.267601273
 30
0.0
 10
4.8063025765
 20
5.2670785281
 30
0.0
 10
4.7849428624
 20
5.2665565602
 30
0.0
 10
4.7657206408
 20
5.2660355748
 30
0.0
 10
4.7511209567
 20
5.2655873999
 30
0.0
 10
4.7406412945
 20
5.2652237275
 30
0.0
 10
4.7337248032
 20
5.2649617677
 30
0.0
 10
4.7274611083
 20
5.2647001279
 30
0.0
 10
4.7218646825
 20
5.2644388972
 30
0.0
 10
4.7169483847
 20
5.2641783376
 30
0.0
 10
4.7127234811
 20
5.2639185515
 30
0.0
 10
4.7096401028
 20
5.2636929615
 30
0.0
 10
4.7075268135
 20
5.263508462
 30
0.0
 10
4.7062081074
 20
5.2633779509
 30
0.0
 10
4.7050683571
 20
5.2632478128
 30
0.0
 10
4.7041080817
 20
5.2631183065
 30
0.0
 10
4.7033278207
 20
5.2629895792
 30
0.0
 10
4.7028697082
 20
5.2628930246
 30
0.0
 10
4.7026719509
 20
5.2628417582
 30
0.0
  0
SPLINE
  5
3AE
100
AcDbEntity
  8
0
100
AcDbSpline
 62
7
  6
CONTINUOUS
 70
0
 71
3
 72
63
 73
59
 74
0
 42
0.0000001
 43
0.0000001
 44
0.0000000001
 40
0.0
 40
0.0
 40
0.0
 40
0.0
 40
0.000254191
 40
0.000350766
 40
0.0004629182
 40
0.0007361972
 40
0.00107713
 40
0.0014871617
 40
0.0019670922
 40
0.0025173986
 40
0.0038301623
 40
0.0054264967
 40
0.0073062185
 40
0.0094687628
 40
0.0146389989
 40
0.0209271831
 40
0.0283195226
 40
0.0367999916
 40
0.0463488591
 40
0.056944994
 40
0.0685635475
 40
0.0811783317
 40
0.0947600521
 40
0.1092776066
 40
0.1246976462
 40
0.1409844073
 40
0.1760067513
 40
0.2140220418
 40
0.2546798836
 40
0.2976054897
 40
0.3424031847
 40
0.3886599358
 40
0.4359493043
 40
0.48383532
 40
0.5318764107
 40
0.5796297192
 40
0.6266548428
 40
0.6725182891
 40
0.7167971926
 40
0.7590833547
 40
0.7989870158
 40
0.8361403686
 40
0.8702010374
 40
0.9008552806
 40
0.9278208134
 40
0.9398413361
 40
0.9508497895
 40
0.9608205506
 40
0.9697310665
 40
0.9775611234
 40
0.9842929401
 40
0.9899121841
 40
0.9923005827
 40
0.9944067564
 40
0.9962299756
 40
0.9977697303
 40
0.9990259738
 40
1.0
 40
1.0
 40
1.0
 40
1.0
 10
5.3314601118
 20
5.3141480017
 30
0.0
 10
5.3314601118
 20
5.3140946871
 30
0.0
 10
5.3313963876
 20
5.3140316126
 30
0.0
 10
5.3313161169
 20
5.3139812527
 30
0.0
 10
5.33122584
 20
5.3139340949
 30
0.0
 10
5.3310844307
 20
5.3138776712
 30
0.0
 10
5.3308793627
 20
5.3138128105
 30
0.0
 10
5.3306294553
 20
5.3137478681
 30
0.0
 10
5.3303344315
 20
5.3136826404
 30
0.0
 10
5.3298517766
 20
5.3135899852
 30
0.0
 10
5.3291348696
 20
5.3134769858
 30
0.0
 10
5.3281388055
 20
5.3133472442
 30
0.0
 10
5.3269632829
 20
5.3132170324
 30
0.0
 10
5.3250398941
 20
5.3130317222
 30
0.0
 10
5.3221917566
 20
5.3128060213
 30
0.0
 10
5.3182464091
 20
5.312546733
 30
0.0
 10
5.3136055467
 20
5.312286493
 30
0.0
 10
5.3082799108
 20
5.3120254918
 30
0.0
 10
5.3022816163
 20
5.3117639928
 30
0.0
 10
5.2956245906
 20
5.3115021646
 30
0.0
 10
5.2883240734
 20
5.3112400606
 30
0.0
 10
5.2803969904
 20
5.3109777797
 30
0.0
 10
5.2718615625
 20
5.310715342
 30
0.0
 10
5.2627374989
 20
5.3104527914
 30
0.0
 10
5.2530458568
 20
5.3101901439
 30
0.0
 10
5.2390545437
 20
5.309831095
 30
0.0
 10
5.2203247274
 20
5.3093857951
 30
0.0
 10
5.1964837171
 20
5.3088628592
 30
0.0
 10
5.1709846983
 20
5.3083394766
 30
0.0
 10
5.1440628491
 20
5.3078157443
 30
0.0
 10
5.1159664657
 20
5.3072917702
 30
0.0
 10
5.0869546674
 20
5.3067676249
 30
0.0
 10
5.0572950172
 20
5.3062433684
 30
0.0
 10
5.0272610595
 20
5.3057190507
 30
0.0
 10
4.9971297796
 20
5.3051947175
 30
0.0
 10
4.9671790919
 20
5.3046704135
 30
0.0
 10
4.9376852173
 20
5.3041461848
 30
0.0
 10
4.9089201869
 20
5.303622084
 30
0.0
 10
4.8811492825
 20
5.3030981742
 30
0.0
 10
4.8546286222
 20
5.3025745338
 30
0.0
 10
4.8296027881
 20
5.302051273
 30
0.0
 10
4.8063025764
 20
5.3015285281
 30
0.0
 10
4.7849428624
 20
5.3010065602
 30
0.0
 10
4.7657206408
 20
5.3004855748
 30
0.0
 10
4.7511209567
 20
5.3000373999
 30
0.0
 10
4.7406412945
 20
5.2996737275
 30
0.0
 10
4.7337248032
 20
5.2994117677
 30
0.0
 10
4.7274611083
 20
5.2991501279
 30
0.0
 10
4.7218646825
 20
5.2988888972
 30
0.0
 10
4.7169483847
 20
5.2986283376
 30
0.0
 10
4.7127234811
 20
5.2983685515
 30
0.0
 10
4.7096401028
 20
5.2981429615
 30
0.0
 10
4.7075268135
 20
5.297958462
 30
0.0
 10
4.7062081074
 20
5.2978279509
 30
0.0
 10
4.7050683571
 20
5.2976978128
 30
0.0
 10
4.7041080817
 20
5.2975683065
 30
0.0
 10
4.7033278207
 20
5.2974395792
 30
0.0
 10
4.7028697082
 20
5.2973430246
 30
0.0
 10
4.7026719509
 20
5.2972917582
 30
0.0
  0
SPLINE
  5
3AF
100
AcDbEntity
  8
0
100
AcDbSpline
 62
7
  6
CONTINUOUS
 70
0
 71
3
 72
63
 73
59
 74
0
 42
0.0000001
 43
0.0000001
 44
0.0000000001
 40
0.0
 40
0.0
 40
0.0
 40
0.0
 40
0.000254191
 40
0.000350766
 40
0.0004629182
 40
0.0007361972
 40
0.00107713
 40
0.0014871617
 40
0.0019670922
 40
0.0025173986
 40
0.0038301623
 40
0.0054264967
 40
0.0073062185
 40
0.0094687628
 40
0.0146389989
 40
0.0209271831
 40
0.0283195226
 40
0.0367999916
 40
0.0463488591
 40
0.056944994
 40
0.0685635475
 40
0.0811783317
 40
0.0947600521
 40
0.1092776066
 40
0.1246976462
 40
0.1409844073
 40
0.1760067513
 40
0.2140220418
 40
0.2546798836
 40
0.2976054897
 40
0.3424031847
 40
0.3886599358
 40
0.4359493043
 40
0.48383532
 40
0.5318764107
 40
0.5796297192
 40
0.6266548428
 40
0.6725182891
 40
0.7167971926
 40
0.7590833547
 40
0.7989870157
 40
0.8361403686
 40
0.8702010374
 40
0.9008552806
 40
0.9278208134
 40
0.9398413361
 40
0.9508497895
 40
0.9608205506
 40
0.9697310665
 40
0.9775611234
 40
0.9842929401
 40
0.9899121841
 40
0.9923005827
 40
0.9944067564
 40
0.9962299756
 40
0.9977697303
 40
0.9990259738
 40
1.0
 40
1.0
 40
1.0
 40
1.0
 10
5.3314601118
 20
5.3485980017
 30
0.0
 10
5.3314601118
 20
5.3485446871
 30
0.0
 10
5.3313963876
 20
5.3484816126
 30
0.0
 10
5.3313161169
 20
5.3484312527
 30
0.0
 10
5.33122584
 20
5.3483840949
 30
0.0
 10
5.3310844307
 20
5.3483276712
 30
0.0
 10
5.3308793627
 20
5.3482628105
 30
0.0
 10
5.3306294553
 20
5.3481978681
 30
0.0
 10
5.3303344315
 20
5.3481326404
 30
0.0
 10
5.3298517766
 20
5.3480399852
 30
0.0
 10
5.3291348696
 20
5.3479269858
 30
0.0
 10
5.3281388055
 20
5.3477972442
 30
0.0
 10
5.3269632829
 20
5.3476670324
 30
0.0
 10
5.3250398941
 20
5.3474817222
 30
0.0
 10
5.3221917566
 20
5.3472560213
 30
0.0
 10
5.3182464091
 20
5.346996733
 30
0.0
 10
5.3136055467
 20
5.346736493
 30
0.0
 10
5.3082799108
 20
5.3464754918
 30
0.0
 10
5.3022816163
 20
5.3462139928
 30
0.0
 10
5.2956245906
 20
5.3459521646
 30
0.0
 10
5.2883240734
 20
5.3456900606
 30
0.0
 10
5.2803969904
 20
5.3454277797
 30
0.0
 10
5.2718615625
 20
5.345165342
 30
0.0
 10
5.2627374989
 20
5.3449027914
 30
0.0
 10
5.2530458568
 20
5.3446401439
 30
0.0
 10
5.2390545437
 20
5.344281095
 30
0.0
 10
5.2203247274
 20
5.3438357951
 30
0.0
 10
5.1964837171
 20
5.3433128592
 30
0.0
 10
5.1709846983
 20
5.3427894766
 30
0.0
 10
5.1440628491
 20
5.3422657443
 30
0.0
 10
5.1159664657
 20
5.3417417702
 30
0.0
 10
5.0869546674
 20
5.3412176249
 30
0.0
 10
5.0572950172
 20
5.3406933684
 30
0.0
 10
5.0272610595
 20
5.3401690507
 30
0.0
 10
4.9971297796
 20
5.3396447175
 30
0.0
 10
4.9671790919
 20
5.3391204135
 30
0.0
 10
4.9376852173
 20
5.3385961848
 30
0.0
 10
4.9089201869
 20
5.338072084
 30
0.0
 10
4.8811492825
 20
5.3375481742
 30
0.0
 10
4.8546286222
 20
5.3370245338
 30
0.0
 10
4.8296027881
 20
5.336501273
 30
0.0
 10
4.8063025765
 20
5.3359785281
 30
0.0
 10
4.7849428624
 20
5.3354565602
 30
0.0
 10
4.7657206408
 20
5.3349355748
 30
0.0
 10
4.7511209567
 20
5.3344873999
 30
0.0
 10
4.7406412945
 20
5.3341237275
 30
0.0
 10
4.7337248032
 20
5.3338617677
 30
0.0
 10
4.7274611083
 20
5.3336001279
 30
0.0
 10
4.7218646825
 20
5.3333388972
 30
0.0
 10
4.7169483847
 20
5.3330783376
 30
0.0
 10
4.7127234811
 20
5.3328185515
 30
0.0
 10
4.7096401028
 20
5.3325929615
 30
0.0
 10
4.7075268135
 20
5.332408462
 30
0.0
 10
4.7062081074
 20
5.3322779509
 30
0.0
 10
4.7050683571
 20
5.3321478128
 30
0.0
 10
4.7041080817
 20
5.3320183065
 30
0.0
 10
4.7033278207
 20
5.3318895792
 30
0.0
 10
4.7028697082
 20
5.3317930246
 30
0.0
 10
4.7026719509
 20
5.3317417582
 30
0.0
  0
SPLINE
  5
3B0
100
AcDbEntity
  8
0
100
AcDbSpline
 62
7
  6
CONTINUOUS
 70
0
 71
3
 72
39
 73
35
 74
0
 42
0.0000001
 43
0.0000001
 44
0.0000000001
 40
0.0
 40
0.0
 40
0.0
 40
0.0
 40
0.0946363783
 40
0.1892554026
 40
0.2828187957
 40
0.3743076388
 40
0.4627211429
 40
0.5470939832
 40
0.626504513
 40
0.7000855403
 40
0.7344364359
 40
0.7670337145
 40
0.7977893848
 40
0.8266184875
 40
0.853443336
 40
0.8781900899
 40
0.9007920407
 40
0.9211873491
 40
0.9393210184
 40
0.9551443605
 40
0.9686150587
 40
0.9796988483
 40
0.9843365848
 40
0.9883685254
 40
0.9917931104
 40
0.9946095439
 40
0.995790065
 40
0.9968194504
 40
0.9976986742
 40
0.9984293842
 40
0.9990145749
 40
0.9992544403
 40
0.9994607175
 40
1.0
 40
1.0
 40
1.0
 40
1.0
 10
5.04686022
 20
5.5657608696
 30
0.0
 10
5.0366145377
 20
5.565569046
 30
0.0
 10
5.0161250135
 20
5.5651874931
 30
0.0
 10
4.9855059556
 20
5.5646171882
 30
0.0
 10
4.9552277792
 20
5.5640469514
 30
0.0
 10
4.925621671
 20
5.5634768631
 30
0.0
 10
4.8970109251
 20
5.5629070037
 30
0.0
 10
4.8697083125
 20
5.562337498
 30
0.0
 10
4.8440121581
 20
5.5617684605
 30
0.0
 10
4.82373198
 20
5.5612844427
 30
0.0
 10
4.808520108
 20
5.5608941465
 30
0.0
 10
4.7979443368
 20
5.5606082389
 30
0.0
 10
4.787966707
 20
5.5603224536
 30
0.0
 10
4.7786143996
 20
5.560036778
 30
0.0
 10
4.7699130719
 20
5.5597512779
 30
0.0
 10
4.7618864198
 20
5.5594659743
 30
0.0
 10
4.7545564414
 20
5.5591809557
 30
0.0
 10
4.7479431204
 20
5.5588963179
 30
0.0
 10
4.7420645377
 20
5.5586121917
 30
0.0
 10
4.7369366949
 20
5.5583289343
 30
0.0
 10
4.7325735339
 20
5.5580466761
 30
0.0
 10
4.7294218944
 20
5.5578010253
 30
0.0
 10
4.7272924207
 20
5.5575993151
 30
0.0
 10
4.7259904516
 20
5.5574575643
 30
0.0
 10
4.7248870052
 20
5.5573163332
 30
0.0
 10
4.7240926583
 20
5.5571933477
 30
0.0
 10
4.7235577727
 20
5.5570924998
 30
0.0
 10
4.7232308228
 20
5.5570215072
 30
0.0
 10
4.7229538713
 20
5.5569508286
 30
0.0
 10
4.7227266042
 20
5.5568802348
 30
0.0
 10
4.7225698767
 20
5.5568188278
 30
0.0
 10
4.7224697489
 20
5.5567674635
 30
0.0
 10
4.7223811785
 20
5.55671287
 30
0.0
 10
4.7223101096
 20
5.5566442645
 30
0.0
 10
4.7223101119
 20
5.5565858696
 30
0.0
  0
SPLINE
  5
3B1
100
AcDbEntity
  8
0
100
AcDbSpline
 62
7
  6
CONTINUOUS
 70
0
 71
3
 72
63
 73
59
 74
0
 42
0.0000001
 43
0.0000001
 44
0.0000000001
 40
0.0
 40
0.0
 40
0.0
 40
0.0
 40
0.000254191
 40
0.000350766
 40
0.0004629182
 40
0.0007361972
 40
0.00107713
 40
0.0014871617
 40
0.0019670922
 40
0.0025173986
 40
0.0038301623
 40
0.0054264967
 40
0.0073062185
 40
0.0094687628
 40
0.0146389989
 40
0.0209271831
 40
0.0283195226
 40
0.0367999916
 40
0.0463488591
 40
0.056944994
 40
0.0685635475
 40
0.0811783317
 40
0.0947600521
 40
0.1092776066
 40
0.1246976462
 40
0.1409844073
 40
0.1760067513
 40
0.2140220418
 40
0.2546798836
 40
0.2976054897
 40
0.3424031847
 40
0.3886599358
 40
0.4359493043
 40
0.48383532
 40
0.5318764107
 40
0.5796297192
 40
0.6266548428
 40
0.6725182891
 40
0.7167971926
 40
0.7590833547
 40
0.7989870157
 40
0.8361403686
 40
0.8702010374
 40
0.9008552806
 40
0.9278208134
 40
0.9398413361
 40
0.9508497895
 40
0.9608205506
 40
0.9697310665
 40
0.9775611234
 40
0.9842929401
 40
0.9899121841
 40
0.9923005827
 40
0.9944067564
 40
0.9962299756
 40
0.9977697303
 40
0.9990259738
 40
1.0
 40
1.0
 40
1.0
 40
1.0
 10
5.3314601118
 20
5.3830480017
 30
0.0
 10
5.3314601118
 20
5.3829946871
 30
0.0
 10
5.3313963876
 20
5.3829316126
 30
0.0
 10
5.3313161169
 20
5.3828812527
 30
0.0
 10
5.33122584
 20
5.3828340949
 30
0.0
 10
5.3310844307
 20
5.3827776712
 30
0.0
 10
5.3308793627
 20
5.3827128105
 30
0.0
 10
5.3306294553
 20
5.3826478681
 30
0.0
 10
5.3303344315
 20
5.3825826404
 30
0.0
 10
5.3298517766
 20
5.3824899852
 30
0.0
 10
5.3291348696
 20
5.3823769858
 30
0.0
 10
5.3281388055
 20
5.3822472442
 30
0.0
 10
5.3269632829
 20
5.3821170324
 30
0.0
 10
5.3250398941
 20
5.3819317222
 30
0.0
 10
5.3221917566
 20
5.3817060213
 30
0.0
 10
5.3182464091
 20
5.381446733
 30
0.0
 10
5.3136055467
 20
5.381186493
 30
0.0
 10
5.3082799108
 20
5.3809254918
 30
0.0
 10
5.3022816163
 20
5.3806639928
 30
0.0
 10
5.2956245906
 20
5.3804021646
 30
0.0
 10
5.2883240734
 20
5.3801400606
 30
0.0
 10
5.2803969904
 20
5.3798777797
 30
0.0
 10
5.2718615625
 20
5.379615342
 30
0.0
 10
5.2627374989
 20
5.3793527914
 30
0.0
 10
5.2530458568
 20
5.3790901439
 30
0.0
 10
5.2390545437
 20
5.378731095
 30
0.0
 10
5.2203247274
 20
5.3782857951
 30
0.0
 10
5.1964837171
 20
5.3777628592
 30
0.0
 10
5.1709846983
 20
5.3772394766
 30
0.0
 10
5.1440628491
 20
5.3767157443
 30
0.0
 10
5.1159664657
 20
5.3761917702
 30
0.0
 10
5.0869546674
 20
5.3756676249
 30
0.0
 10
5.0572950172
 20
5.3751433684
 30
0.0
 10
5.0272610595
 20
5.3746190507
 30
0.0
 10
4.9971297796
 20
5.3740947175
 30
0.0
 10
4.9671790919
 20
5.3735704135
 30
0.0
 10
4.9376852173
 20
5.3730461848
 30
0.0
 10
4.9089201869
 20
5.372522084
 30
0.0
 10
4.8811492825
 20
5.3719981742
 30
0.0
 10
4.8546286222
 20
5.3714745338
 30
0.0
 10
4.8296027881
 20
5.370951273
 30
0.0
 10
4.8063025765
 20
5.3704285281
 30
0.0
 10
4.7849428624
 20
5.3699065602
 30
0.0
 10
4.7657206408
 20
5.3693855748
 30
0.0
 10
4.7511209567
 20
5.3689373999
 30
0.0
 10
4.7406412945
 20
5.3685737275
 30
0.0
 10
4.7337248032
 20
5.3683117677
 30
0.0
 10
4.7274611083
 20
5.3680501279
 30
0.0
 10
4.7218646825
 20
5.3677888972
 30
0.0
 10
4.7169483847
 20
5.3675283376
 30
0.0
 10
4.7127234811
 20
5.3672685515
 30
0.0
 10
4.7096401028
 20
5.3670429615
 30
0.0
 10
4.7075268135
 20
5.366858462
 30
0.0
 10
4.7062081074
 20
5.3667279509
 30
0.0
 10
4.7050683571
 20
5.3665978128
 30
0.0
 10
4.7041080817
 20
5.3664683065
 30
0.0
 10
4.7033278207
 20
5.3663395792
 30
0.0
 10
4.7028697082
 20
5.3662430246
 30
0.0
 10
4.7026719509
 20
5.3661917582
 30
0.0
  0
SPLINE
  5
3B2
100
AcDbEntity
  8
0
100
AcDbSpline
 62
7
  6
CONTINUOUS
 70
0
 71
3
 72
30
 73
26
 74
0
 42
0.0000001
 43
0.0000001
 44
0.0000000001
 40
0.0
 40
0.0
 40
0.0
 40
0.0
 40
0.1816472936
 40
0.2715942382
 40
0.3597566461
 40
0.4452498587
 40
0.5272193651
 40
0.6048447268
 40
0.6773495845
 40
0.7440085596
 40
0.8041553173
 40
0.8571886641
 40
0.8808693863
 40
0.9025795643
 40
0.9222647812
 40
0.9398762316
 40
0.9553709192
 40
0.9687103019
 40
0.9798636607
 40
0.9846119014
 40
0.9888046936
 40
0.992440443
 40
0.9955179902
 40
0.9980370621
 40
1.0
 40
1.0
 40
1.0
 40
1.0
 10
5.04686022
 20
5.5525108696
 30
0.0
 10
5.0272479374
 20
5.5521436809
 30
0.0
 10
4.9979240649
 20
5.551600305
 30
0.0
 10
4.9590815463
 20
5.5508699362
 30
0.0
 10
4.9306208782
 20
5.5503240479
 30
0.0
 10
4.903021836
 20
5.549778338
 30
0.0
 10
4.8765608924
 20
5.5492328964
 30
0.0
 10
4.851502838
 20
5.5486878365
 30
0.0
 10
4.828098539
 20
5.5481433034
 30
0.0
 10
4.806582245
 20
5.5475995662
 30
0.0
 10
4.7871693496
 20
5.5470568426
 30
0.0
 10
4.7723973425
 20
5.5465901653
 30
0.0
 10
4.7617754422
 20
5.5462115063
 30
0.0
 10
4.7547532928
 20
5.5459385791
 30
0.0
 10
4.7483870766
 20
5.5456659888
 30
0.0
 10
4.7426927197
 20
5.5453938092
 30
0.0
 10
4.7376844655
 20
5.5451223305
 30
0.0
 10
4.7333747431
 20
5.5448516391
 30
0.0
 10
4.7302256864
 20
5.5446166409
 30
0.0
 10
4.7280642217
 20
5.5444245012
 30
0.0
 10
4.7267128648
 20
5.5442884973
 30
0.0
 10
4.7255429258
 20
5.5441528762
 30
0.0
 10
4.7245549945
 20
5.5440178929
 30
0.0
 10
4.7237496748
 20
5.5438837087
 30
0.0
 10
4.723275812
 20
5.543783238
 30
0.0
 10
4.7230706249
 20
5.5437300301
 30
0.0
  0
SPLINE
  5
3B3
100
AcDbEntity
  8
0
100
AcDbSpline
 62
7
  6
CONTINUOUS
 70
0
 71
3
 72
63
 73
59
 74
0
 42
0.0000001
 43
0.0000001
 44
0.0000000001
 40
0.0
 40
0.0
 40
0.0
 40
0.0
 40
0.0009741777
 40
0.0022304303
 40
0.0037699166
 40
0.0055928935
 40
0.0076991164
 40
0.0100876372
 40
0.0157064776
 40
0.022438367
 40
0.0302682003
 40
0.0391786079
 40
0.0491493546
 40
0.0601575204
 40
0.0721781886
 40
0.0991435643
 40
0.1297975934
 40
0.1638580892
 40
0.201011307
 40
0.2409148898
 40
0.2832010545
 40
0.3274799978
 40
0.3733434956
 40
0.4203686957
 40
0.4681220288
 40
0.5161632101
 40
0.5640493011
 40
0.6113387959
 40
0.6575956935
 40
0.7023935214
 40
0.7453192712
 40
0.7859772148
 40
0.823992579
 40
0.8590150312
 40
0.8753019419
 40
0.8907219331
 40
0.9052396314
 40
0.9188213386
 40
0.9314362232
 40
0.9430547903
 40
0.9536509439
 40
0.9631998829
 40
0.9716803425
 40
0.9790727664
 40
0.9853609243
 40
0.9905312168
 40
0.9926937641
 40
0.9945734771
 40
0.9961698111
 40
0.9974825962
 40
0.9980329098
 40
0.9985128437
 40
0.9989228757
 40
0.9992638069
 40
0.9995370834
 40
0.9996492344
 40
0.9997458083
 40
1.0
 40
1.0
 40
1.0
 40
1.0
 10
5.3307484942
 20
4.8208049807
 30
0.0
 10
5.3305507023
 20
4.8207537211
 30
0.0
 10
5.3300925481
 20
4.8206572007
 30
0.0
 10
5.3293123078
 20
4.8205284908
 30
0.0
 10
5.3283521398
 20
4.8203989725
 30
0.0
 10
5.3272124876
 20
4.8202688243
 30
0.0
 10
5.3258937956
 20
4.8201383163
 30
0.0
 10
5.3237805539
 20
4.8199538243
 30
0.0
 10
5.3206972211
 20
4.8197281975
 30
0.0
 10
5.3164724303
 20
4.8194684454
 30
0.0
 10
5.3115561862
 20
4.819207871
 30
0.0
 10
5.3059598309
 20
4.8189466423
 30
0.0
 10
5.2996962198
 20
4.8186850067
 30
0.0
 10
5.2927797594
 20
4.8184230354
 30
0.0
 10
5.2823001559
 20
4.8180593768
 30
0.0
 10
5.2677005145
 20
4.817611191
 30
0.0
 10
5.2484784003
 20
4.8170902072
 30
0.0
 10
5.2271187884
 20
4.8165682372
 30
0.0
 10
5.2038186498
 20
4.8160454915
 30
0.0
 10
5.1787928512
 20
4.8155222295
 30
0.0
 10
5.1522721892
 20
4.8149985881
 30
0.0
 10
5.1245012555
 20
4.8144746774
 30
0.0
 10
5.0957361799
 20
4.8139505756
 30
0.0
 10
5.0662422631
 20
4.8134263459
 30
0.0
 10
5.0362915248
 20
4.8129020405
 30
0.0
 10
5.0061601945
 20
4.8123777062
 30
0.0
 10
4.9761261651
 20
4.8118533874
 30
0.0
 10
4.9464664316
 20
4.8113291299
 30
0.0
 10
4.9174545381
 20
4.8108049835
 30
0.0
 10
4.8893580563
 20
4.8102810084
 30
0.0
 10
4.8624361184
 20
4.8097572751
 30
0.0
 10
4.8369370238
 20
4.8092338912
 30
0.0
 10
4.8130959456
 20
4.8087109547
 30
0.0
 10
4.7943660535
 20
4.8082656507
 30
0.0
 10
4.7803746914
 20
4.807906606
 30
0.0
 10
4.7706829947
 20
4.8076439531
 30
0.0
 10
4.7615589106
 20
4.8073814069
 30
0.0
 10
4.7530234314
 20
4.8071189642
 30
0.0
 10
4.7450963244
 20
4.8068566858
 30
0.0
 10
4.7377957768
 20
4.8065945803
 30
0.0
 10
4.7311387271
 20
4.8063327502
 30
0.0
 10
4.7251404135
 20
4.8060712538
 30
0.0
 10
4.7198147453
 20
4.8058102472
 30
0.0
 10
4.7151738706
 20
4.8055500134
 30
0.0
 10
4.7112284982
 20
4.805290718
 30
0.0
 10
4.7083803525
 20
4.8050650193
 30
0.0
 10
4.7064569525
 20
4.8048797079
 30
0.0
 10
4.7052814308
 20
4.8047494959
 30
0.0
 10
4.7042853639
 20
4.8046197536
 30
0.0
 10
4.7035684501
 20
4.8045067572
 30
0.0
 10
4.7030857882
 20
4.8044141027
 30
0.0
 10
4.7027907619
 20
4.8043488751
 30
0.0
 10
4.7025408539
 20
4.8042839326
 30
0.0
 10
4.7023357868
 20
4.8042190716
 30
0.0
 10
4.7021943787
 20
4.8041626475
 30
0.0
 10
4.7021041033
 20
4.8041154891
 30
0.0
 10
4.7020238333
 20
4.8040651282
 30
0.0
 10
4.7019601118
 20
4.8040020522
 30
0.0
 10
4.7019601118
 20
4.8039487374
 30
0.0
  0
SPLINE
  5
3B4
100
AcDbEntity
  8
0
100
AcDbSpline
 62
7
  6
CONTINUOUS
 70
0
 71
3
 72
63
 73
59
 74
0
 42
0.0000001
 43
0.0000001
 44
0.0000000001
 40
0.0
 40
0.0
 40
0.0
 40
0.0
 40
0.000254191
 40
0.000350766
 40
0.0004629182
 40
0.0007361972
 40
0.00107713
 40
0.0014871617
 40
0.0019670922
 40
0.0025173986
 40
0.0038301623
 40
0.0054264967
 40
0.0073062185
 40
0.0094687628
 40
0.0146389989
 40
0.0209271831
 40
0.0283195226
 40
0.0367999916
 40
0.0463488591
 40
0.056944994
 40
0.0685635475
 40
0.0811783317
 40
0.0947600521
 40
0.1092776066
 40
0.1246976462
 40
0.1409844073
 40
0.1760067513
 40
0.2140220418
 40
0.2546798836
 40
0.2976054897
 40
0.3424031847
 40
0.3886599358
 40
0.4359493043
 40
0.48383532
 40
0.5318764107
 40
0.5796297192
 40
0.6266548428
 40
0.6725182891
 40
0.7167971926
 40
0.7590833547
 40
0.7989870157
 40
0.8361403686
 40
0.8702010374
 40
0.9008552806
 40
0.9278208134
 40
0.9398413361
 40
0.9508497895
 40
0.9608205506
 40
0.9697310665
 40
0.9775611234
 40
0.9842929401
 40
0.9899121841
 40
0.9923005827
 40
0.9944067564
 40
0.9962299756
 40
0.9977697303
 40
0.9990259738
 40
1.0
 40
1.0
 40
1.0
 40
1.0
 10
5.3314601118
 20
5.4174980017
 30
0.0
 10
5.3314601118
 20
5.4174446871
 30
0.0
 10
5.3313963876
 20
5.4173816126
 30
0.0
 10
5.3313161169
 20
5.4173312527
 30
0.0
 10
5.33122584
 20
5.4172840949
 30
0.0
 10
5.3310844307
 20
5.4172276712
 30
0.0
 10
5.3308793627
 20
5.4171628105
 30
0.0
 10
5.3306294553
 20
5.4170978681
 30
0.0
 10
5.3303344315
 20
5.4170326404
 30
0.0
 10
5.3298517766
 20
5.4169399852
 30
0.0
 10
5.3291348696
 20
5.4168269858
 30
0.0
 10
5.3281388055
 20
5.4166972442
 30
0.0
 10
5.3269632829
 20
5.4165670324
 30
0.0
 10
5.3250398941
 20
5.4163817222
 30
0.0
 10
5.3221917566
 20
5.4161560213
 30
0.0
 10
5.3182464091
 20
5.415896733
 30
0.0
 10
5.3136055467
 20
5.415636493
 30
0.0
 10
5.3082799108
 20
5.4153754918
 30
0.0
 10
5.3022816163
 20
5.4151139928
 30
0.0
 10
5.2956245906
 20
5.4148521646
 30
0.0
 10
5.2883240734
 20
5.4145900606
 30
0.0
 10
5.2803969904
 20
5.4143277797
 30
0.0
 10
5.2718615625
 20
5.414065342
 30
0.0
 10
5.2627374989
 20
5.4138027914
 30
0.0
 10
5.2530458568
 20
5.4135401439
 30
0.0
 10
5.2390545437
 20
5.413181095
 30
0.0
 10
5.2203247274
 20
5.4127357951
 30
0.0
 10
5.1964837171
 20
5.4122128592
 30
0.0
 10
5.1709846983
 20
5.4116894766
 30
0.0
 10
5.1440628491
 20
5.4111657443
 30
0.0
 10
5.1159664657
 20
5.4106417702
 30
0.0
 10
5.0869546674
 20
5.4101176249
 30
0.0
 10
5.0572950172
 20
5.4095933684
 30
0.0
 10
5.0272610595
 20
5.4090690507
 30
0.0
 10
4.9971297796
 20
5.4085447175
 30
0.0
 10
4.9671790919
 20
5.4080204135
 30
0.0
 10
4.9376852173
 20
5.4074961848
 30
0.0
 10
4.9089201869
 20
5.406972084
 30
0.0
 10
4.8811492825
 20
5.4064481742
 30
0.0
 10
4.8546286222
 20
5.4059245338
 30
0.0
 10
4.8296027881
 20
5.405401273
 30
0.0
 10
4.8063025765
 20
5.4048785281
 30
0.0
 10
4.7849428624
 20
5.4043565602
 30
0.0
 10
4.7657206408
 20
5.4038355748
 30
0.0
 10
4.7511209567
 20
5.4033873999
 30
0.0
 10
4.7406412945
 20
5.4030237275
 30
0.0
 10
4.7337248032
 20
5.4027617677
 30
0.0
 10
4.7274611083
 20
5.4025001279
 30
0.0
 10
4.7218646825
 20
5.4022388972
 30
0.0
 10
4.7169483847
 20
5.4019783376
 30
0.0
 10
4.7127234811
 20
5.4017185515
 30
0.0
 10
4.7096401028
 20
5.4014929615
 30
0.0
 10
4.7075268135
 20
5.401308462
 30
0.0
 10
4.7062081074
 20
5.4011779509
 30
0.0
 10
4.7050683571
 20
5.4010478128
 30
0.0
 10
4.7041080817
 20
5.4009183065
 30
0.0
 10
4.7033278207
 20
5.4007895792
 30
0.0
 10
4.7028697082
 20
5.4006930246
 30
0.0
 10
4.7026719509
 20
5.4006417582
 30
0.0
  0
SPLINE
  5
3B5
100
AcDbEntity
  8
0
100
AcDbSpline
 62
7
  6
CONTINUOUS
 70
0
 71
3
 72
63
 73
59
 74
0
 42
0.0000001
 43
0.0000001
 44
0.0000000001
 40
0.0
 40
0.0
 40
0.0
 40
0.0
 40
0.000254191
 40
0.000350766
 40
0.0004629182
 40
0.0007361972
 40
0.00107713
 40
0.0014871617
 40
0.0019670922
 40
0.0025173986
 40
0.0038301623
 40
0.0054264967
 40
0.0073062185
 40
0.0094687628
 40
0.0146389989
 40
0.0209271831
 40
0.0283195226
 40
0.0367999916
 40
0.0463488591
 40
0.056944994
 40
0.0685635475
 40
0.0811783317
 40
0.0947600521
 40
0.1092776066
 40
0.1246976462
 40
0.1409844073
 40
0.1760067513
 40
0.2140220418
 40
0.2546798836
 40
0.2976054897
 40
0.3424031847
 40
0.3886599358
 40
0.4359493043
 40
0.48383532
 40
0.5318764107
 40
0.5796297192
 40
0.6266548428
 40
0.6725182891
 40
0.7167971926
 40
0.7590833547
 40
0.7989870157
 40
0.8361403686
 40
0.8702010374
 40
0.9008552806
 40
0.9278208134
 40
0.9398413361
 40
0.9508497895
 40
0.9608205506
 40
0.9697310665
 40
0.9775611234
 40
0.9842929401
 40
0.9899121841
 40
0.9923005827
 40
0.9944067564
 40
0.9962299756
 40
0.9977697303
 40
0.9990259738
 40
1.0
 40
1.0
 40
1.0
 40
1.0
 10
5.3314601118
 20
5.4519480017
 30
0.0
 10
5.3314601118
 20
5.4518946871
 30
0.0
 10
5.3313963876
 20
5.4518316126
 30
0.0
 10
5.3313161169
 20
5.4517812527
 30
0.0
 10
5.33122584
 20
5.4517340949
 30
0.0
 10
5.3310844307
 20
5.4516776712
 30
0.0
 10
5.3308793627
 20
5.4516128105
 30
0.0
 10
5.3306294553
 20
5.4515478681
 30
0.0
 10
5.3303344315
 20
5.4514826404
 30
0.0
 10
5.3298517766
 20
5.4513899852
 30
0.0
 10
5.3291348696
 20
5.4512769858
 30
0.0
 10
5.3281388055
 20
5.4511472442
 30
0.0
 10
5.3269632829
 20
5.4510170324
 30
0.0
 10
5.3250398941
 20
5.4508317222
 30
0.0
 10
5.3221917566
 20
5.4506060213
 30
0.0
 10
5.3182464091
 20
5.450346733
 30
0.0
 10
5.3136055467
 20
5.450086493
 30
0.0
 10
5.3082799108
 20
5.4498254918
 30
0.0
 10
5.3022816163
 20
5.4495639928
 30
0.0
 10
5.2956245906
 20
5.4493021646
 30
0.0
 10
5.2883240734
 20
5.4490400606
 30
0.0
 10
5.2803969904
 20
5.4487777797
 30
0.0
 10
5.2718615625
 20
5.448515342
 30
0.0
 10
5.2627374989
 20
5.4482527914
 30
0.0
 10
5.2530458568
 20
5.4479901439
 30
0.0
 10
5.2390545437
 20
5.447631095
 30
0.0
 10
5.2203247274
 20
5.4471857951
 30
0.0
 10
5.1964837171
 20
5.4466628592
 30
0.0
 10
5.1709846983
 20
5.4461394766
 30
0.0
 10
5.1440628491
 20
5.4456157443
 30
0.0
 10
5.1159664657
 20
5.4450917702
 30
0.0
 10
5.0869546674
 20
5.4445676249
 30
0.0
 10
5.0572950172
 20
5.4440433684
 30
0.0
 10
5.0272610595
 20
5.4435190507
 30
0.0
 10
4.9971297796
 20
5.4429947175
 30
0.0
 10
4.9671790919
 20
5.4424704135
 30
0.0
 10
4.9376852173
 20
5.4419461848
 30
0.0
 10
4.9089201869
 20
5.441422084
 30
0.0
 10
4.8811492825
 20
5.4408981742
 30
0.0
 10
4.8546286222
 20
5.4403745338
 30
0.0
 10
4.8296027881
 20
5.439851273
 30
0.0
 10
4.8063025765
 20
5.4393285281
 30
0.0
 10
4.7849428624
 20
5.4388065602
 30
0.0
 10
4.7657206408
 20
5.4382855748
 30
0.0
 10
4.7511209567
 20
5.4378373999
 30
0.0
 10
4.7406412945
 20
5.4374737275
 30
0.0
 10
4.7337248032
 20
5.4372117677
 30
0.0
 10
4.7274611083
 20
5.4369501279
 30
0.0
 10
4.7218646825
 20
5.4366888972
 30
0.0
 10
4.7169483847
 20
5.4364283376
 30
0.0
 10
4.7127234811
 20
5.4361685515
 30
0.0
 10
4.7096401028
 20
5.4359429615
 30
0.0
 10
4.7075268135
 20
5.435758462
 30
0.0
 10
4.7062081074
 20
5.4356279509
 30
0.0
 10
4.7050683571
 20
5.4354978128
 30
0.0
 10
4.7041080817
 20
5.4353683065
 30
0.0
 10
4.7033278207
 20
5.4352395792
 30
0.0
 10
4.7028697082
 20
5.4351430246
 30
0.0
 10
4.7026719509
 20
5.4350917582
 30
0.0
  0
SPLINE
  5
3B6
100
AcDbEntity
  8
0
100
AcDbSpline
 62
7
  6
CONTINUOUS
 70
0
 71
3
 72
63
 73
59
 74
0
 42
0.0000001
 43
0.0000001
 44
0.0000000001
 40
0.0
 40
0.0
 40
0.0
 40
0.0
 40
0.001029764
 40
0.0023404593
 40
0.0039332285
 40
0.0058083471
 40
0.0079655462
 40
0.0104038324
 40
0.0161185691
 40
0.0229415377
 40
0.0308575705
 40
0.0398490228
 40
0.0498958491
 40
0.0609747165
 40
0.0730609772
 40
0.1001413577
 40
0.1308889019
 40
0.1650215353
 40
0.2022258647
 40
0.2421600496
 40
0.2844571631
 40
0.3287284375
 40
0.3745670338
 40
0.4215516702
 40
0.4692504266
 40
0.5172249642
 40
0.5650341441
 40
0.6122386192
 40
0.6584044445
 40
0.7031073226
 40
0.7459364479
 40
0.7864981192
 40
0.8244196577
 40
0.8593525896
 40
0.8909761778
 40
0.9054551545
 40
0.9190002343
 40
0.931580947
 40
0.9431678649
 40
0.9537350607
 40
0.9632581038
 40
0.9717154869
 40
0.9790884066
 40
0.9853600968
 40
0.9905179006
 40
0.9926756215
 40
0.9945513847
 40
0.9961449201
 40
0.9974563715
 40
0.9980066209
 40
0.9984868682
 40
0.9988976268
 40
0.9992398295
 40
0.9995151309
 40
0.9997267779
 40
0.9998109222
 40
0.9998826265
 40
1.0
 40
1.0
 40
1.0
 40
1.0
 10
5.3103496711
 20
4.8155167089
 30
0.0
 10
5.3101541279
 20
4.8154660142
 30
0.0
 10
5.3097048163
 20
4.8153699086
 30
0.0
 10
5.3089439752
 20
4.8152411578
 30
0.0
 10
5.3080154359
 20
4.8151116745
 30
0.0
 10
5.3069196119
 20
4.8149816344
 30
0.0
 10
5.3056569536
 20
4.8148512622
 30
0.0
 10
5.3036427647
 20
4.8146672337
 30
0.0
 10
5.3007134561
 20
4.814441977
 30
0.0
 10
5.2967094148
 20
4.8141825048
 30
0.0
 10
5.2920614713
 20
4.813922249
 30
0.0
 10
5.2867802881
 20
4.8136613576
 30
0.0
 10
5.2808780015
 20
4.8134000869
 30
0.0
 10
5.2743680909
 20
4.813138478
 30
0.0
 10
5.2645181591
 20
4.8127754972
 30
0.0
 10
5.2508104191
 20
4.812328038
 30
0.0
 10
5.2327781
 20
4.8118077743
 30
0.0
 10
5.2127590639
 20
4.8112865422
 30
0.0
 10
5.1909373622
 20
4.8107645509
 30
0.0
 10
5.1675136322
 20
4.8102420521
 30
0.0
 10
5.1427032733
 20
4.8097191802
 30
0.0
 10
5.1167344144
 20
4.8091960431
 30
0.0
 10
5.0898458343
 20
4.8086727183
 30
0.0
 10
5.062284768
 20
4.808149268
 30
0.0
 10
5.0343046239
 20
4.807625744
 30
0.0
 10
5.0061627027
 20
4.8071021927
 30
0.0
 10
4.9781177604
 20
4.8065786575
 30
0.0
 10
4.9504276923
 20
4.8060551842
 30
0.0
 10
4.9233470921
 20
4.8055318227
 30
0.0
 10
4.8971249604
 20
4.8050086316
 30
0.0
 10
4.8720024104
 20
4.8044856861
 30
0.0
 10
4.8482104424
 20
4.8039630776
 30
0.0
 10
4.8259678449
 20
4.8034409572
 30
0.0
 10
4.8054791255
 20
4.8029194601
 30
0.0
 10
4.7895887108
 20
4.8024735964
 30
0.0
 10
4.7778932404
 20
4.8021133761
 30
0.0
 10
4.7699321547
 20
4.8018513183
 30
0.0
 10
4.7625387234
 20
4.8015894377
 30
0.0
 10
4.7557298479
 20
4.8013277274
 30
0.0
 10
4.7495212622
 20
4.8010662853
 30
0.0
 10
4.7439271729
 20
4.800805191
 30
0.0
 10
4.7389604379
 20
4.800544558
 30
0.0
 10
4.7346324448
 20
4.800284736
 30
0.0
 10
4.7309530331
 20
4.8000258061
 30
0.0
 10
4.7282970009
 20
4.799800447
 30
0.0
 10
4.726503427
 20
4.7996154193
 30
0.0
 10
4.7254072025
 20
4.7994853872
 30
0.0
 10
4.7244782956
 20
4.7993558188
 30
0.0
 10
4.7238097541
 20
4.7992430052
 30
0.0
 10
4.723359693
 20
4.7991505221
 30
0.0
 10
4.723084502
 20
4.7990854148
 30
0.0
 10
4.7228513889
 20
4.7990204939
 30
0.0
 10
4.7226601203
 20
4.7989558621
 30
0.0
 10
4.7225105917
 20
4.7988914781
 30
0.0
 10
4.7224133316
 20
4.7988345492
 30
0.0
 10
4.7223586713
 20
4.7987870472
 30
0.0
 10
4.7223242144
 20
4.7987460087
 30
0.0
 10
4.722310213
 20
4.7987088947
 30
0.0
 10
4.7223102022
 20
4.7986858696
 30
0.0
  0
SPLINE
  5
3B7
100
AcDbEntity
  8
0
100
AcDbSpline
 62
7
  6
CONTINUOUS
 70
0
 71
3
 72
63
 73
59
 74
0
 42
0.0000001
 43
0.0000001
 44
0.0000000001
 40
0.0
 40
0.0
 40
0.0
 40
0.0
 40
0.0001173728
 40
0.000189092
 40
0.000273263
 40
0.0004849876
 40
0.0007603742
 40
0.0011026384
 40
0.0015134036
 40
0.0019935781
 40
0.0025437082
 40
0.0038550309
 40
0.005448692
 40
0.0073246263
 40
0.0094823283
 40
0.0146398838
 40
0.0209118708
 40
0.028284481
 40
0.0367420937
 40
0.0462650101
 40
0.0568322233
 40
0.0684192727
 40
0.0809997732
 40
0.0945450954
 40
0.1090238067
 40
0.1406475049
 40
0.1755805311
 40
0.2135020998
 40
0.2540637399
 40
0.2968927795
 40
0.34159566
 40
0.387761469
 40
0.4349659962
 40
0.4827751967
 40
0.5307496937
 40
0.5784484632
 40
0.625433084
 40
0.6712717415
 40
0.7155430595
 40
0.7578401508
 40
0.7977742752
 40
0.8349785055
 40
0.8691111421
 40
0.8998587671
 40
0.9269392382
 40
0.9390253002
 40
0.9501044561
 40
0.9601510012
 40
0.9691427004
 40
0.9770585632
 40
0.9838815603
 40
0.9895963975
 40
0.9920345042
 40
0.9941916606
 40
0.9960669877
 40
0.9976598482
 40
0.9989703964
 40
1.0
 40
1.0
 40
1.0
 40
1.0
 10
5.3111101115
 20
5.1471608696
 30
0.0
 10
5.3111101097
 20
5.1471378447
 30
0.0
 10
5.3110961017
 20
5.1471007243
 30
0.0
 10
5.3110616278
 20
5.1470596905
 30
0.0
 10
5.3110069361
 20
5.1470121885
 30
0.0
 10
5.3109096314
 20
5.1469552635
 30
0.0
 10
5.3107600545
 20
5.1468908811
 30
0.0
 10
5.3105687541
 20
5.1468262504
 30
0.0
 10
5.3103356421
 20
5.1467613298
 30
0.0
 10
5.3100604894
 20
5.1466962189
 30
0.0
 10
5.3096104946
 20
5.1466037262
 30
0.0
 10
5.3089419776
 20
5.1464909086
 30
0.0
 10
5.3080130357
 20
5.1463613524
 30
0.0
 10
5.3069167556
 20
5.1462313274
 30
0.0
 10
5.3051232013
 20
5.1460462954
 30
0.0
 10
5.302467165
 20
5.1458209155
 30
0.0
 10
5.2987878021
 20
5.145562022
 30
0.0
 10
5.2944597687
 20
5.1453021654
 30
0.0
 10
5.2894930729
 20
5.1450415582
 30
0.0
 10
5.2838989609
 20
5.1447804498
 30
0.0
 10
5.2776903708
 20
5.1445190107
 30
0.0
 10
5.2708815079
 20
5.1442573066
 30
0.0
 10
5.2634880454
 20
5.1439954136
 30
0.0
 10
5.2555270057
 20
5.1437333702
 30
0.0
 10
5.2438315191
 20
5.1433731349
 30
0.0
 10
5.2279411166
 20
5.1429272814
 30
0.0
 10
5.2074523519
 20
5.1424057818
 30
0.0
 10
5.1852097367
 20
5.1418836622
 30
0.0
 10
5.1614177865
 20
5.141361053
 30
0.0
 10
5.1362952597
 20
5.1408381073
 30
0.0
 10
5.1100731483
 20
5.1403149161
 30
0.0
 10
5.0829925415
 20
5.1397915547
 30
0.0
 10
5.0553024632
 20
5.1392680817
 30
0.0
 10
5.0272575155
 20
5.1387445466
 30
0.0
 10
4.9991155965
 20
5.138220995
 30
0.0
 10
4.9711354618
 20
5.1376974709
 30
0.0
 10
4.9435743848
 20
5.1371740205
 30
0.0
 10
4.916685788
 20
5.1366506959
 30
0.0
 10
4.8907169137
 20
5.1361275591
 30
0.0
 10
4.8659065632
 20
5.1356046874
 30
0.0
 10
4.8424828697
 20
5.1350821883
 30
0.0
 10
4.8206611993
 20
5.134560196
 30
0.0
 10
4.8006421668
 20
5.134038965
 30
0.0
 10
4.7826098141
 20
5.1335186976
 30
0.0
 10
4.7689020795
 20
5.1330712508
 30
0.0
 10
4.7590521132
 20
5.132708252
 30
0.0
 10
4.7525422395
 20
5.1324466632
 30
0.0
 10
4.7466399043
 20
5.1321853697
 30
0.0
 10
4.7413587603
 20
5.1319244994
 30
0.0
 10
4.7367107969
 20
5.1316642309
 30
0.0
 10
4.7327067641
 20
5.1314047565
 30
0.0
 10
4.729777464
 20
5.1311795172
 30
0.0
 10
4.7277633004
 20
5.1309954736
 30
0.0
 10
4.7265006458
 20
5.1308650941
 30
0.0
 10
4.7254047695
 20
5.1307350674
 30
0.0
 10
4.7244761986
 20
5.1306055933
 30
0.0
 10
4.7237154014
 20
5.1304768349
 30
0.0
 10
4.7232661532
 20
5.130380722
 30
0.0
 10
4.7230706418
 20
5.1303300301
 30
0.0
  0
SPLINE
  5
3B8
100
AcDbEntity
  8
0
100
AcDbSpline
 62
7
  6
CONTINUOUS
 70
0
 71
3
 72
63
 73
59
 74
0
 42
0.0000001
 43
0.0000001
 44
0.0000000001
 40
0.0
 40
0.0
 40
0.0
 40
0.0
 40
0.000254191
 40
0.000350766
 40
0.0004629182
 40
0.0007361972
 40
0.00107713
 40
0.0014871617
 40
0.0019670922
 40
0.0025173986
 40
0.0038301623
 40
0.0054264967
 40
0.0073062185
 40
0.0094687628
 40
0.0146389989
 40
0.0209271831
 40
0.0283195226
 40
0.0367999916
 40
0.0463488591
 40
0.056944994
 40
0.0685635475
 40
0.0811783317
 40
0.0947600521
 40
0.1092776066
 40
0.1246976462
 40
0.1409844073
 40
0.1760067513
 40
0.2140220418
 40
0.2546798836
 40
0.2976054897
 40
0.3424031847
 40
0.3886599358
 40
0.4359493043
 40
0.48383532
 40
0.5318764107
 40
0.5796297192
 40
0.6266548428
 40
0.6725182891
 40
0.7167971926
 40
0.7590833547
 40
0.7989870157
 40
0.8361403686
 40
0.8702010374
 40
0.9008552806
 40
0.9278208134
 40
0.9398413361
 40
0.9508497895
 40
0.9608205506
 40
0.9697310665
 40
0.9775611234
 40
0.9842929401
 40
0.9899121841
 40
0.9923005827
 40
0.9944067564
 40
0.9962299756
 40
0.9977697303
 40
0.9990259738
 40
1.0
 40
1.0
 40
1.0
 40
1.0
 10
5.3314601118
 20
5.4863980017
 30
0.0
 10
5.3314601118
 20
5.4863446871
 30
0.0
 10
5.3313963876
 20
5.4862816126
 30
0.0
 10
5.3313161169
 20
5.4862312527
 30
0.0
 10
5.33122584
 20
5.4861840949
 30
0.0
 10
5.3310844307
 20
5.4861276712
 30
0.0
 10
5.3308793627
 20
5.4860628105
 30
0.0
 10
5.3306294553
 20
5.4859978681
 30
0.0
 10
5.3303344315
 20
5.4859326404
 30
0.0
 10
5.3298517766
 20
5.4858399852
 30
0.0
 10
5.3291348696
 20
5.4857269858
 30
0.0
 10
5.3281388055
 20
5.4855972442
 30
0.0
 10
5.3269632829
 20
5.4854670324
 30
0.0
 10
5.3250398941
 20
5.4852817222
 30
0.0
 10
5.3221917566
 20
5.4850560213
 30
0.0
 10
5.3182464091
 20
5.484796733
 30
0.0
 10
5.3136055467
 20
5.484536493
 30
0.0
 10
5.3082799108
 20
5.4842754918
 30
0.0
 10
5.3022816163
 20
5.4840139928
 30
0.0
 10
5.2956245906
 20
5.4837521646
 30
0.0
 10
5.2883240734
 20
5.4834900606
 30
0.0
 10
5.2803969904
 20
5.4832277797
 30
0.0
 10
5.2718615625
 20
5.482965342
 30
0.0
 10
5.2627374989
 20
5.4827027914
 30
0.0
 10
5.2530458568
 20
5.4824401439
 30
0.0
 10
5.2390545437
 20
5.482081095
 30
0.0
 10
5.2203247274
 20
5.4816357951
 30
0.0
 10
5.1964837171
 20
5.4811128592
 30
0.0
 10
5.1709846983
 20
5.4805894766
 30
0.0
 10
5.1440628491
 20
5.4800657443
 30
0.0
 10
5.1159664657
 20
5.4795417702
 30
0.0
 10
5.0869546674
 20
5.4790176249
 30
0.0
 10
5.0572950172
 20
5.4784933684
 30
0.0
 10
5.0272610595
 20
5.4779690507
 30
0.0
 10
4.9971297796
 20
5.4774447175
 30
0.0
 10
4.9671790919
 20
5.4769204135
 30
0.0
 10
4.9376852173
 20
5.4763961848
 30
0.0
 10
4.9089201869
 20
5.475872084
 30
0.0
 10
4.8811492825
 20
5.4753481742
 30
0.0
 10
4.8546286222
 20
5.4748245338
 30
0.0
 10
4.8296027881
 20
5.474301273
 30
0.0
 10
4.8063025764
 20
5.4737785281
 30
0.0
 10
4.7849428624
 20
5.4732565602
 30
0.0
 10
4.7657206408
 20
5.4727355748
 30
0.0
 10
4.7511209567
 20
5.4722873999
 30
0.0
 10
4.7406412945
 20
5.4719237275
 30
0.0
 10
4.7337248032
 20
5.4716617677
 30
0.0
 10
4.7274611083
 20
5.4714001279
 30
0.0
 10
4.7218646825
 20
5.4711388972
 30
0.0
 10
4.7169483847
 20
5.4708783376
 30
0.0
 10
4.7127234811
 20
5.4706185515
 30
0.0
 10
4.7096401028
 20
5.4703929615
 30
0.0
 10
4.7075268135
 20
5.470208462
 30
0.0
 10
4.7062081074
 20
5.4700779509
 30
0.0
 10
4.7050683571
 20
5.4699478128
 30
0.0
 10
4.7041080817
 20
5.4698183065
 30
0.0
 10
4.7033278207
 20
5.4696895792
 30
0.0
 10
4.7028697082
 20
5.4695930246
 30
0.0
 10
4.7026719509
 20
5.4695417582
 30
0.0
  0
SPLINE
  5
3B9
100
AcDbEntity
  8
0
100
AcDbSpline
 62
7
  6
CONTINUOUS
 70
0
 71
3
 72
58
 73
54
 74
0
 42
0.0000001
 43
0.0000001
 44
0.0000000001
 40
0.0
 40
0.0
 40
0.0
 40
0.0
 40
0.0973973698
 40
0.1938522757
 40
0.2884487198
 40
0.380304945
 40
0.4685791308
 40
0.5524632849
 40
0.6311800626
 40
0.6683658133
 40
0.7039827743
 40
0.7379430042
 40
0.770161296
 40
0.8005542403
 40
0.8290440801
 40
0.8555557494
 40
0.8800197577
 40
0.9023689863
 40
0.9225403118
 40
0.9317901386
 40
0.9404741986
 40
0.9485869321
 40
0.9561227816
 40
0.9630762986
 40
0.9694425996
 40
0.9752169836
 40
0.9803947466
 40
0.9849715572
 40
0.9870337905
 40
0.9889449208
 40
0.9907047074
 40
0.9923129106
 40
0.9937692922
 40
0.9950736167
 40
0.9962256438
 40
0.9972250862
 40
0.9980716376
 40
0.9984374822
 40
0.9987649872
 40
0.9990541129
 40
0.9993048197
 40
0.9995170674
 40
0.9996908158
 40
0.99976324
 40
0.9998260242
 40
0.9998791632
 40
0.9999226518
 40
0.999956485
 40
0.9999806575
 40
0.9999891195
 40
0.9999951643
 40
0.9999987913
 40
1.0
 40
1.0
 40
1.0
 40
1.0
 10
5.0167101118
 20
5.7207394655
 30
0.0
 10
5.031067776
 20
5.7207394856
 30
0.0
 10
5.0596467726
 20
5.7212561462
 30
0.0
 10
5.1021157296
 20
5.7235093319
 30
0.0
 10
5.1436773423
 20
5.7270294984
 30
0.0
 10
5.1839282518
 20
5.7315362119
 30
0.0
 10
5.2225025607
 20
5.736725777
 30
0.0
 10
5.2590620167
 20
5.7423126224
 30
0.0
 10
5.2881097927
 20
5.7471754923
 30
0.0
 10
5.3101077674
 20
5.751046965
 30
0.0
 10
5.3255939973
 20
5.7538526833
 30
0.0
 10
5.3403472724
 20
5.7565953761
 30
0.0
 10
5.3543332276
 20
5.759251525
 30
0.0
 10
5.3675191796
 20
5.7617976659
 30
0.0
 10
5.3798721927
 20
5.7642200956
 30
0.0
 10
5.3913613246
 20
5.7665057725
 30
0.0
 10
5.4019571045
 20
5.7686424941
 30
0.0
 10
5.4116317112
 20
5.7706188989
 30
0.0
 10
5.4191063742
 20
5.7721588244
 30
0.0
 10
5.4246077561
 20
5.7732936753
 30
0.0
 10
5.4283680213
 20
5.7740702494
 30
0.0
 10
5.4318805381
 20
5.7747972071
 30
0.0
 10
5.4351428251
 20
5.7754744858
 30
0.0
 10
5.4381524615
 20
5.7761022108
 30
0.0
 10
5.4409074633
 20
5.7766790295
 30
0.0
 10
5.443405998
 20
5.7772034102
 30
0.0
 10
5.4456462874
 20
5.7776739659
 30
0.0
 10
5.4473511918
 20
5.7780313244
 30
0.0
 10
5.4485847667
 20
5.7782900211
 30
0.0
 10
5.449411861
 20
5.778463747
 30
0.0
 10
5.4501733608
 20
5.7786241609
 30
0.0
 10
5.4508691263
 20
5.7787714103
 30
0.0
 10
5.4514990173
 20
5.7789056453
 30
0.0
 10
5.452062897
 20
5.7790269944
 30
0.0
 10
5.4525606069
 20
5.779135643
 30
0.0
 10
5.4529920979
 20
5.779231216
 30
0.0
 10
5.4533102239
 20
5.7793026837
 30
0.0
 10
5.4535315872
 20
5.7793529642
 30
0.0
 10
5.4536727712
 20
5.7793852566
 30
0.0
 10
5.4537973667
 20
5.7794139516
 30
0.0
 10
5.4539053679
 20
5.7794389951
 30
0.0
 10
5.4539967686
 20
5.7794603322
 30
0.0
 10
5.4540625543
 20
5.7794757928
 30
0.0
 10
5.4541068776
 20
5.7794862624
 30
0.0
 10
5.4541338964
 20
5.7794926685
 30
0.0
 10
5.454156752
 20
5.7794980953
 30
0.0
 10
5.4541754768
 20
5.7795025819
 30
0.0
 10
5.4541899819
 20
5.7795059995
 30
0.0
 10
5.4541996049
 20
5.7795084166
 30
0.0
 10
5.454205021
 20
5.7795095725
 30
0.0
 10
5.4542078302
 20
5.7795104879
 30
0.0
 10
5.4542090186
 20
5.7795103502
 30
0.0
 10
5.4542100961
 20
5.7795110472
 30
0.0
 10
5.4542101118
 20
5.7795108697
 30
0.0
  0
SPLINE
  5
3BA
100
AcDbEntity
  8
0
100
AcDbSpline
 62
7
  6
CONTINUOUS
 70
0
 71
3
 72
63
 73
59
 74
0
 42
0.0000001
 43
0.0000001
 44
0.0000000001
 40
0.0
 40
0.0
 40
0.0
 40
0.0
 40
0.000254191
 40
0.000350766
 40
0.0004629182
 40
0.0007361972
 40
0.00107713
 40
0.0014871617
 40
0.0019670922
 40
0.0025173986
 40
0.0038301623
 40
0.0054264967
 40
0.0073062185
 40
0.0094687628
 40
0.0146389989
 40
0.0209271831
 40
0.0283195226
 40
0.0367999916
 40
0.0463488591
 40
0.056944994
 40
0.0685635475
 40
0.0811783317
 40
0.0947600521
 40
0.1092776066
 40
0.1246976462
 40
0.1409844073
 40
0.1760067513
 40
0.2140220418
 40
0.2546798836
 40
0.2976054897
 40
0.3424031847
 40
0.3886599358
 40
0.4359493043
 40
0.48383532
 40
0.5318764107
 40
0.5796297192
 40
0.6266548428
 40
0.6725182891
 40
0.7167971926
 40
0.7590833547
 40
0.7989870157
 40
0.8361403686
 40
0.8702010374
 40
0.9008552806
 40
0.9278208134
 40
0.9398413361
 40
0.9508497895
 40
0.9608205506
 40
0.9697310665
 40
0.9775611234
 40
0.9842929401
 40
0.9899121841
 40
0.9923005827
 40
0.9944067564
 40
0.9962299756
 40
0.9977697303
 40
0.9990259738
 40
1.0
 40
1.0
 40
1.0
 40
1.0
 10
5.3314601118
 20
5.5208480017
 30
0.0
 10
5.3314601118
 20
5.5207946871
 30
0.0
 10
5.3313963876
 20
5.5207316126
 30
0.0
 10
5.3313161169
 20
5.5206812527
 30
0.0
 10
5.33122584
 20
5.5206340949
 30
0.0
 10
5.3310844307
 20
5.5205776712
 30
0.0
 10
5.3308793627
 20
5.5205128105
 30
0.0
 10
5.3306294553
 20
5.5204478681
 30
0.0
 10
5.3303344315
 20
5.5203826404
 30
0.0
 10
5.3298517766
 20
5.5202899852
 30
0.0
 10
5.3291348696
 20
5.5201769858
 30
0.0
 10
5.3281388055
 20
5.5200472442
 30
0.0
 10
5.3269632829
 20
5.5199170324
 30
0.0
 10
5.3250398941
 20
5.5197317222
 30
0.0
 10
5.3221917566
 20
5.5195060213
 30
0.0
 10
5.3182464091
 20
5.519246733
 30
0.0
 10
5.3136055467
 20
5.518986493
 30
0.0
 10
5.3082799108
 20
5.5187254918
 30
0.0
 10
5.3022816163
 20
5.5184639928
 30
0.0
 10
5.2956245906
 20
5.5182021646
 30
0.0
 10
5.2883240734
 20
5.5179400606
 30
0.0
 10
5.2803969904
 20
5.5176777797
 30
0.0
 10
5.2718615625
 20
5.517415342
 30
0.0
 10
5.2627374989
 20
5.5171527914
 30
0.0
 10
5.2530458568
 20
5.5168901439
 30
0.0
 10
5.2390545437
 20
5.516531095
 30
0.0
 10
5.2203247274
 20
5.5160857951
 30
0.0
 10
5.1964837171
 20
5.5155628592
 30
0.0
 10
5.1709846983
 20
5.5150394766
 30
0.0
 10
5.1440628491
 20
5.5145157443
 30
0.0
 10
5.1159664657
 20
5.5139917702
 30
0.0
 10
5.0869546674
 20
5.5134676249
 30
0.0
 10
5.0572950172
 20
5.5129433684
 30
0.0
 10
5.0272610595
 20
5.5124190507
 30
0.0
 10
4.9971297796
 20
5.5118947175
 30
0.0
 10
4.9671790919
 20
5.5113704135
 30
0.0
 10
4.9376852173
 20
5.5108461848
 30
0.0
 10
4.9089201869
 20
5.510322084
 30
0.0
 10
4.8811492825
 20
5.5097981742
 30
0.0
 10
4.8546286222
 20
5.5092745338
 30
0.0
 10
4.8296027881
 20
5.508751273
 30
0.0
 10
4.8063025765
 20
5.5082285281
 30
0.0
 10
4.7849428624
 20
5.5077065602
 30
0.0
 10
4.7657206408
 20
5.5071855748
 30
0.0
 10
4.7511209567
 20
5.5067373999
 30
0.0
 10
4.7406412945
 20
5.5063737275
 30
0.0
 10
4.7337248032
 20
5.5061117677
 30
0.0
 10
4.7274611083
 20
5.5058501279
 30
0.0
 10
4.7218646825
 20
5.5055888972
 30
0.0
 10
4.7169483847
 20
5.5053283376
 30
0.0
 10
4.7127234811
 20
5.5050685515
 30
0.0
 10
4.7096401028
 20
5.5048429615
 30
0.0
 10
4.7075268135
 20
5.504658462
 30
0.0
 10
4.7062081074
 20
5.5045279509
 30
0.0
 10
4.7050683571
 20
5.5043978128
 30
0.0
 10
4.7041080817
 20
5.5042683065
 30
0.0
 10
4.7033278207
 20
5.5041395792
 30
0.0
 10
4.7028697082
 20
5.5040430246
 30
0.0
 10
4.7026719509
 20
5.5039917582
 30
0.0
  0
SPLINE
  5
3BB
100
AcDbEntity
  8
0
100
AcDbSpline
 62
7
  6
CONTINUOUS
 70
0
 71
3
 72
30
 73
26
 74
0
 42
0.0000001
 43
0.0000001
 44
0.0000000001
 40
0.0
 40
0.0
 40
0.0
 40
0.0
 40
0.1821232371
 40
0.2722980121
 40
0.3606691971
 40
0.4463467162
 40
0.528468465
 40
0.6062079723
 40
0.6787830004
 40
0.7454633743
 40
0.8055785106
 40
0.8585240987
 40
0.8821394451
 40
0.9037686042
 40
0.9233583831
 40
0.9408588565
 40
0.9562276184
 40
0.9694258685
 40
0.9804228556
 40
0.9850874311
 40
0.9891926357
 40
0.992736964
 40
0.9957193502
 40
0.9981395886
 40
1.0
 40
1.0
 40
1.0
 40
1.0
 10
5.0489443053
 20
5.5472480017
 30
0.0
 10
5.0279160263
 20
5.5468797567
 30
0.0
 10
4.9964759054
 20
5.5463348498
 30
0.0
 10
4.9548324425
 20
5.5456023688
 30
0.0
 10
4.9243249538
 20
5.5450549199
 30
0.0
 10
4.8947475745
 20
5.5445076551
 30
0.0
 10
4.8663981485
 20
5.5439606618
 30
0.0
 10
4.8395620783
 20
5.5434140577
 30
0.0
 10
4.8145095515
 20
5.5428679899
 30
0.0
 10
4.7914927765
 20
5.5423227338
 30
0.0
 10
4.7707434725
 20
5.5417785161
 30
0.0
 10
4.7549670747
 20
5.5413104323
 30
0.0
 10
4.7436344809
 20
5.5409305711
 30
0.0
 10
4.7361524397
 20
5.5406568694
 30
0.0
 10
4.7293770412
 20
5.5403835409
 30
0.0
 10
4.7233252238
 20
5.5401106214
 30
0.0
 10
4.7180122912
 20
5.5398384433
 30
0.0
 10
4.7134514725
 20
5.5395670856
 30
0.0
 10
4.7101269627
 20
5.5393313675
 30
0.0
 10
4.7078524336
 20
5.5391384946
 30
0.0
 10
4.7064369116
 20
5.5390021704
 30
0.0
 10
4.7052166426
 20
5.5388662572
 30
0.0
 10
4.7041921993
 20
5.538731056
 30
0.0
 10
4.7033642209
 20
5.5385967277
 30
0.0
 10
4.7028798768
 20
5.5384956716
 30
0.0
 10
4.7026719121
 20
5.5384417582
 30
0.0
  0
SPLINE
  5
3BC
100
AcDbEntity
  8
0
100
AcDbSpline
 62
7
  6
CONTINUOUS
 70
0
 71
3
 72
39
 73
35
 74
0
 42
0.0000001
 43
0.0000001
 44
0.0000000001
 40
0.0
 40
0.0
 40
0.0
 40
0.0
 40
0.0002340713
 40
0.0003780974
 40
0.0005477747
 40
0.0009761593
 40
0.0015347912
 40
0.0022300025
 40
0.0030649776
 40
0.0040414951
 40
0.0051606246
 40
0.0078290617
 40
0.0110729169
 40
0.0148921736
 40
0.0192859621
 40
0.0297914139
 40
0.0425715924
 40
0.0576010323
 40
0.0748504559
 40
0.0942832217
 40
0.1158602193
 40
0.1395354911
 40
0.1652601273
 40
0.192980062
 40
0.2226369228
 40
0.2875094194
 40
0.3593328275
 40
0.4375034158
 40
0.5213641238
 40
0.6102093251
 40
0.703293012
 40
0.7998291508
 40
0.8990129862
 40
1.0
 40
1.0
 40
1.0
 40
1.0
 10
5.3314601118
 20
5.5552980017
 30
0.0
 10
5.3314601118
 20
5.5552759372
 30
0.0
 10
5.3314462906
 20
5.5552403139
 30
0.0
 10
5.3314126291
 20
5.555201196
 30
0.0
 10
5.3313590577
 20
5.5551557182
 30
0.0
 10
5.3312638438
 20
5.5551013045
 30
0.0
 10
5.3311175601
 20
5.5550397416
 30
0.0
 10
5.330930433
 20
5.5549779306
 30
0.0
 10
5.3307023828
 20
5.5549158272
 30
0.0
 10
5.3304331874
 20
5.5548535381
 30
0.0
 10
5.3299928651
 20
5.5547650402
 30
0.0
 10
5.3293387254
 20
5.554657108
 30
0.0
 10
5.3284297365
 20
5.5545331751
 30
0.0
 10
5.3273568861
 20
5.5544087992
 30
0.0
 10
5.3256012566
 20
5.5542317923
 30
0.0
 10
5.3230008235
 20
5.5540161923
 30
0.0
 10
5.3193975241
 20
5.5537685271
 30
0.0
 10
5.3151572887
 20
5.553519948
 30
0.0
 10
5.3102890797
 20
5.5532706463
 30
0.0
 10
5.3048029809
 20
5.5530208694
 30
0.0
 10
5.29871061
 20
5.5527707757
 30
0.0
 10
5.2920246993
 20
5.5525204232
 30
0.0
 10
5.2847593649
 20
5.5522698972
 30
0.0
 10
5.2769298763
 20
5.552019219
 30
0.0
 10
5.2654112914
 20
5.5516744341
 30
0.0
 10
5.2497359534
 20
5.551247681
 30
0.0
 10
5.2294878568
 20
5.5507487416
 30
0.0
 10
5.2074493687
 20
5.5502492026
 30
0.0
 10
5.1838059646
 20
5.5497491893
 30
0.0
 10
5.1587565008
 20
5.5492488433
 30
0.0
 10
5.132511976
 20
5.5487482565
 30
0.0
 10
5.1052927212
 20
5.5482474861
 30
0.0
 10
5.0773283455
 20
5.5477465994
 30
0.0
 10
5.0584623107
 20
5.54741468
 30
0.0
 10
5.0489443053
 20
5.5472480017
 30
0.0
  0
SPLINE
  5
3BD
100
AcDbEntity
  8
0
100
AcDbSpline
 62
7
  6
CONTINUOUS
 70
0
 71
3
 72
63
 73
59
 74
0
 42
0.0000001
 43
0.0000001
 44
0.0000000001
 40
0.0
 40
0.0
 40
0.0
 40
0.0
 40
0.0010305439
 40
0.0023428665
 40
0.0039378946
 40
0.0058154434
 40
0.0079749501
 40
0.0104156581
 40
0.0161361513
 40
0.0229644753
 40
0.0308862016
 40
0.0398832294
 40
0.0499353554
 40
0.0610197556
 40
0.0731108327
 40
0.1002007982
 40
0.1309570638
 40
0.1650973053
 40
0.2023080595
 40
0.2422475171
 40
0.2845487262
 40
0.32882305
 40
0.3746636464
 40
0.4216492279
 40
0.469348067
 40
0.5173216871
 40
0.5651292758
 40
0.612331412
 40
0.658494333
 40
0.703193838
 40
0.7460191384
 40
0.7865767516
 40
0.824494031
 40
0.8594226088
 40
0.875664673
 40
0.8910417939
 40
0.9055183912
 40
0.919061351
 40
0.9316397314
 40
0.9432244415
 40
0.9537894395
 40
0.9633100346
 40
0.9717652337
 40
0.9791354181
 40
0.9854046816
 40
0.9905593072
 40
0.992715317
 40
0.9945893606
 40
0.9961808781
 40
0.9974896925
 40
0.9980383522
 40
0.9985168552
 40
0.9989256787
 40
0.9992656228
 40
0.9995381322
 40
0.9996499814
 40
0.9997463072
 40
1.0
 40
1.0
 40
1.0
 40
1.0
 10
5.330639194
 20
5.4408777095
 30
0.0
 10
5.3304291197
 20
5.4408269918
 30
0.0
 10
5.3299469708
 20
5.4407308717
 30
0.0
 10
5.3291311952
 20
5.4406021361
 30
0.0
 10
5.3281360569
 20
5.4404726839
 30
0.0
 10
5.3269621176
 20
5.4403426668
 30
0.0
 10
5.3256099322
 20
5.4402123039
 30
0.0
 10
5.3234534354
 20
5.4400282972
 30
0.0
 10
5.3203180131
 20
5.439803107
 30
0.0
 10
5.3160330433
 20
5.4395436255
 30
0.0
 10
5.311059927
 20
5.4392834108
 30
0.0
 10
5.3054100001
 20
5.439022547
 30
0.0
 10
5.2990962353
 20
5.4387612957
 30
0.0
 10
5.2921331482
 20
5.4384997298
 30
0.0
 10
5.2815984853
 20
5.4381367792
 30
0.0
 10
5.2669390754
 20
5.4376893869
 30
0.0
 10
5.2476560701
 20
5.4371691752
 30
0.0
 10
5.2262500208
 20
5.4366480008
 30
0.0
 10
5.202917715
 20
5.4361260658
 30
0.0
 10
5.1778736311
 20
5.4356036242
 30
0.0
 10
5.1513479895
 20
5.43508081
 30
0.0
 10
5.1235846285
 20
5.4345577311
 30
0.0
 10
5.0948387688
 20
5.4340344647
 30
0.0
 10
5.065374659
 20
5.4335110729
 30
0.0
 10
5.0354631763
 20
5.4329876077
 30
0.0
 10
5.0053792892
 20
5.4324641147
 30
0.0
 10
4.9753995785
 20
5.4319406384
 30
0.0
 10
4.9457996371
 20
5.4314172239
 30
0.0
 10
4.9168515769
 20
5.430893921
 30
0.0
 10
4.8888215104
 20
5.4303707897
 30
0.0
 10
4.8619671107
 20
5.4298479002
 30
0.0
 10
4.8365352503
 20
5.4293253603
 30
0.0
 10
4.8127597313
 20
5.4288032665
 30
0.0
 10
4.7940828491
 20
5.4283586754
 30
0.0
 10
4.780132071
 20
5.428000198
 30
0.0
 10
4.7704691219
 20
5.4277379754
 30
0.0
 10
4.7613724051
 20
5.4274758486
 30
0.0
 10
4.7528628528
 20
5.4272138355
 30
0.0
 10
4.7449600451
 20
5.4269519781
 30
0.0
 10
4.7376820927
 20
5.426690298
 30
0.0
 10
4.7310458118
 20
5.4264288928
 30
0.0
 10
4.7250663468
 20
5.4261678164
 30
0.0
 10
4.7197575368
 20
5.4259072373
 30
0.0
 10
4.7151314172
 20
5.4256474173
 30
0.0
 10
4.7111986629
 20
5.4253885485
 30
0.0
 10
4.7083596471
 20
5.4251632115
 30
0.0
 10
4.7064424378
 20
5.4249782008
 30
0.0
 10
4.7052706975
 20
5.4248481994
 30
0.0
 10
4.7042778417
 20
5.4247186673
 30
0.0
 10
4.7035632477
 20
5.4246058503
 30
0.0
 10
4.7030821532
 20
5.4245133452
 30
0.0
 10
4.7027880812
 20
5.4244482227
 30
0.0
 10
4.7025389793
 20
5.4243833847
 30
0.0
 10
4.7023345723
 20
5.4243186283
 30
0.0
 10
4.7021936191
 20
5.4242622947
 30
0.0
 10
4.7021036391
 20
5.4242152152
 30
0.0
 10
4.7020235943
 20
5.4241649169
 30
0.0
 10
4.7019601118
 20
5.424101938
 30
0.0
 10
4.7019601118
 20
5.4240487374
 30
0.0
  0
LINE
  5
3BE
100
AcDbEntity
  8
0
100
AcDbLine
 62
7
  6
CONTINUOUS
 10
5.3103497154
 20
5.435616709
 11
5.3100169513
 21
5.435538228
  0
SPLINE
  5
3BF
100
AcDbEntity
  8
0
100
AcDbSpline
 62
7
  6
CONTINUOUS
 70
0
 71
3
 72
62
 73
58
 74
0
 42
0.0000001
 43
0.0000001
 44
0.0000000001
 40
0.0
 40
0.0
 40
0.0
 40
0.0
 40
0.0011917355
 40
0.0026628804
 40
0.0044137858
 40
0.0064442606
 40
0.0113415203
 40
0.01734569
 40
0.0244442858
 40
0.032622176
 40
0.0418606508
 40
0.0521396639
 40
0.0634353968
 40
0.0757227799
 40
0.1031580213
 40
0.1341963188
 40
0.1685555901
 40
0.2059230851
 40
0.2459587594
 40
0.2882981069
 40
0.3325556648
 40
0.3783285278
 40
0.4251998336
 40
0.4727428177
 40
0.5205244593
 40
0.5681096385
 40
0.6150650662
 40
0.6609631485
 40
0.7053859404
 40
0.7479289631
 40
0.78820476
 40
0.8258467855
 40
0.8605124217
 40
0.8918863319
 40
0.9062486075
 40
0.919683297
 40
0.9321600979
 40
0.943650796
 40
0.9541290448
 40
0.9635717412
 40
0.9719569871
 40
0.979266774
 40
0.9854846562
 40
0.9905977863
 40
0.9927370683
 40
0.9945967582
 40
0.9961764556
 40
0.9974765101
 40
0.9980220437
 40
0.9984982651
 40
0.9989056827
 40
0.9992451678
 40
0.9995183152
 40
0.9997283668
 40
0.9998119262
 40
0.999883183
 40
1.0
 40
1.0
 40
1.0
 40
1.0
 10
5.3100169513
 20
5.435538228
 30
0.0
 10
5.3097885864
 20
5.435488834
 30
0.0
 10
5.309274996
 20
5.435393937
 30
0.0
 10
5.3084191989
 20
5.4352652693
 30
0.0
 10
5.3073974801
 20
5.4351360124
 30
0.0
 10
5.3057059798
 20
5.4349514
 30
0.0
 10
5.3031803442
 20
5.4347270565
 30
0.0
 10
5.2996606861
 20
5.4344696161
 30
0.0
 10
5.2954964515
 20
5.4342111702
 30
0.0
 10
5.2906971375
 20
5.4339518865
 30
0.0
 10
5.2852735149
 20
5.433692075
 30
0.0
 10
5.2792380181
 20
5.4334319201
 30
0.0
 10
5.2726042794
 20
5.43317146
 30
0.0
 10
5.2626083808
 20
5.4328105341
 30
0.0
 10
5.248742448
 20
5.4323653351
 30
0.0
 10
5.2305494686
 20
5.4318473032
 30
0.0
 10
5.210408538
 20
5.4313283616
 30
0.0
 10
5.1885031148
 20
5.4308087035
 30
0.0
 10
5.1650327619
 20
5.4302885647
 30
0.0
 10
5.1402112751
 20
5.4297680718
 30
0.0
 10
5.1142647546
 20
5.4292473273
 30
0.0
 10
5.0874295532
 20
5.4287264048
 30
0.0
 10
5.0599501122
 20
5.4282053641
 30
0.0
 10
5.0320767723
 20
5.4276842551
 30
0.0
 10
5.0040634502
 20
5.4271631222
 30
0.0
 10
4.976165341
 20
5.4266420087
 30
0.0
 10
4.9486365765
 20
5.426120959
 30
0.0
 10
4.9217279243
 20
5.4256000229
 30
0.0
 10
4.8956845086
 20
5.4250792579
 30
0.0
 10
4.8707435927
 20
5.4245587387
 30
0.0
 10
4.8471323753
 20
5.4240385553
 30
0.0
 10
4.8250659428
 20
5.4235188585
 30
0.0
 10
4.8047452748
 20
5.4229997826
 30
0.0
 10
4.7889883227
 20
5.422555971
 30
0.0
 10
4.7773931179
 20
5.4221974044
 30
0.0
 10
4.7695015505
 20
5.4219365746
 30
0.0
 10
4.7621732934
 20
5.4216759016
 30
0.0
 10
4.755425048
 20
5.4214154271
 30
0.0
 10
4.7492721255
 20
5.4211551849
 30
0.0
 10
4.7437286201
 20
5.4208953224
 30
0.0
 10
4.7388070452
 20
5.420635896
 30
0.0
 10
4.7345186391
 20
5.4203772791
 30
0.0
 10
4.7308730522
 20
5.4201195763
 30
0.0
 10
4.7282414929
 20
5.419895234
 30
0.0
 10
4.7264644885
 20
5.4197110856
 30
0.0
 10
4.7253783826
 20
5.4195816673
 30
0.0
 10
4.7244581194
 20
5.4194526963
 30
0.0
 10
4.7237958449
 20
5.4193404014
 30
0.0
 10
4.7233499987
 20
5.4192483496
 30
0.0
 10
4.7230773398
 20
5.4191835435
 30
0.0
 10
4.7228463404
 20
5.4191189274
 30
0.0
 10
4.7226567929
 20
5.4190545995
 30
0.0
 10
4.7225086192
 20
5.4189905134
 30
0.0
 10
4.7224122708
 20
5.4189338396
 30
0.0
 10
4.7223581548
 20
5.4188865653
 30
0.0
 10
4.7223240309
 20
5.4188456891
 30
0.0
 10
4.7223102161
 20
5.4188087721
 30
0.0
 10
4.7223102229
 20
5.4187858695
 30
0.0
  0
SPLINE
  5
3C0
100
AcDbEntity
  8
0
100
AcDbSpline
 62
7
  6
CONTINUOUS
 70
0
 71
3
 72
41
 73
37
 74
0
 42
0.0000001
 43
0.0000001
 44
0.0000000001
 40
0.0
 40
0.0
 40
0.0
 40
0.0
 40
0.0946454945
 40
0.1892712022
 40
0.2828434208
 40
0.3743397479
 40
0.4627607718
 40
0.5471404341
 40
0.6265571656
 40
0.7001435249
 40
0.7344962918
 40
0.7670960523
 40
0.7978529816
 40
0.8266839836
 40
0.8535095016
 40
0.8782573599
 40
0.9008592305
 40
0.9212546668
 40
0.9393873689
 40
0.9552095305
 40
0.9686779285
 40
0.9745187103
 40
0.9797586763
 40
0.9843943619
 40
0.9884236141
 40
0.991844911
 40
0.9933273057
 40
0.9946574868
 40
0.9958356124
 40
0.9968621735
 40
0.9977380245
 40
0.9984646191
 40
0.9990446197
 40
0.9992812996
 40
0.9994838563
 40
1.0
 40
1.0
 40
1.0
 40
1.0
 10
5.0489443053
 20
5.5710237374
 30
0.0
 10
5.0379902932
 20
5.5708319119
 30
0.0
 10
5.0160845231
 20
5.57045036
 30
0.0
 10
4.9833489433
 20
5.5698800548
 30
0.0
 10
4.9509779497
 20
5.5693098203
 30
0.0
 10
4.9193252899
 20
5.5687397309
 30
0.0
 10
4.8887368877
 20
5.5681698722
 30
0.0
 10
4.8595470039
 20
5.5676003671
 30
0.0
 10
4.8320746424
 20
5.5670313281
 30
0.0
 10
4.810392647
 20
5.5665473175
 30
0.0
 10
4.794129244
 20
5.5661570088
 30
0.0
 10
4.7828224936
 20
5.5658711145
 30
0.0
 10
4.7721551282
 20
5.565585315
 30
0.0
 10
4.7621564108
 20
5.5652996547
 30
0.0
 10
4.7528535721
 20
5.5650141399
 30
0.0
 10
4.7442721442
 20
5.5647288512
 30
0.0
 10
4.7364354668
 20
5.5644438221
 30
0.0
 10
4.7293650669
 20
5.5641591865
 30
0.0
 10
4.7230801287
 20
5.5638750921
 30
0.0
 10
4.7175979251
 20
5.5635917229
 30
0.0
 10
4.7135386096
 20
5.5633464175
 30
0.0
 10
4.7107039253
 20
5.5631467037
 30
0.0
 10
4.708890227
 20
5.5630043125
 30
0.0
 10
4.7072869127
 20
5.5628622027
 30
0.0
 10
4.7058950297
 20
5.5627204241
 30
0.0
 10
4.7048682171
 20
5.5625976477
 30
0.0
 10
4.7041535439
 20
5.5624977246
 30
0.0
 10
4.7036970995
 20
5.5624264882
 30
0.0
 10
4.7032941201
 20
5.562355376
 30
0.0
 10
4.7029445962
 20
5.5622843907
 30
0.0
 10
4.7026485775
 20
5.5622137277
 30
0.0
 10
4.7024056713
 20
5.5621431536
 30
0.0
 10
4.702238161
 20
5.5620817963
 30
0.0
 10
4.7021308641
 20
5.5620303503
 30
0.0
 10
4.7020378257
 20
5.5619766244
 30
0.0
 10
4.7019601118
 20
5.5619084836
 30
0.0
 10
4.7019601118
 20
5.5618487374
 30
0.0
  0
SPLINE
  5
3C1
100
AcDbEntity
  8
0
100
AcDbSpline
 62
7
  6
CONTINUOUS
 70
0
 71
3
 72
39
 73
35
 74
0
 42
0.0000001
 43
0.0000001
 44
0.0000000001
 40
0.0
 40
0.0
 40
0.0
 40
0.0
 40
0.0220348889
 40
0.0469566228
 40
0.074599535
 40
0.1047881146
 40
0.1720039635
 40
0.2468674106
 40
0.3274447492
 40
0.4116538589
 40
0.49731901
 40
0.5822266167
 40
0.6641827143
 40
0.7033876916
 40
0.741069767
 40
0.7769851519
 40
0.8109013991
 40
0.8425992494
 40
0.8718738752
 40
0.8985360259
 40
0.922413268
 40
0.9433516995
 40
0.9526761721
 40
0.9612167087
 40
0.9689600352
 40
0.975893815
 40
0.9820068064
 40
0.9872900913
 40
0.9917354139
 40
0.9953369176
 40
0.9968202149
 40
0.9980915558
 40
0.9991511225
 40
1.0
 40
1.0
 40
1.0
 40
1.0
 10
5.2930478047
 20
5.5870108696
 30
0.0
 10
5.2887127209
 20
5.5868531282
 30
0.0
 10
5.2794736591
 20
5.5865428571
 30
0.0
 10
5.264793922
 20
5.5861057577
 30
0.0
 10
5.2485083705
 20
5.5856679076
 30
0.0
 10
5.2238980732
 20
5.5850614741
 30
0.0
 10
5.189992252
 20
5.5843170271
 30
0.0
 10
5.1461669824
 20
5.5834491224
 30
0.0
 10
5.0989957208
 20
5.5825794864
 30
0.0
 10
5.0496976374
 20
5.5817087445
 30
0.0
 10
4.9995469419
 20
5.580837649
 30
0.0
 10
4.9498398557
 20
5.5799667082
 30
0.0
 10
4.9092782983
 20
5.579231209
 30
0.0
 10
4.8780129056
 20
5.5786363768
 30
0.0
 10
4.8558101203
 20
5.5781969896
 30
0.0
 10
4.8346487224
 20
5.5777577954
 30
0.0
 10
4.8146656852
 20
5.5773188388
 30
0.0
 10
4.7959903241
 20
5.5768802082
 30
0.0
 10
4.7787434704
 20
5.5764420089
 30
0.0
 10
4.7630367593
 20
5.5760044449
 30
0.0
 10
4.7489718549
 20
5.5755676729
 30
0.0
 10
4.7383199993
 20
5.5751917493
 30
0.0
 10
4.7306869348
 20
5.5748869328
 30
0.0
 10
4.7256502545
 20
5.5746674156
 30
0.0
 10
4.7210847003
 20
5.5744481504
 30
0.0
 10
4.7169976384
 20
5.5742292225
 30
0.0
 10
4.7133956344
 20
5.574010709
 30
0.0
 10
4.7102844767
 20
5.5737929872
 30
0.0
 10
4.7076691187
 20
5.5735761502
 30
0.0
 10
4.7058022813
 20
5.5733869932
 30
0.0
 10
4.7045606533
 20
5.5732311195
 30
0.0
 10
4.7038176033
 20
5.5731222813
 30
0.0
 10
4.7032009762
 20
5.5730139605
 30
0.0
 10
4.7028336921
 20
5.5729336955
 30
0.0
 10
4.7026719233
 20
5.5728917582
 30
0.0
  0
SPLINE
  5
3C2
100
AcDbEntity
  8
0
100
AcDbSpline
 62
7
  6
CONTINUOUS
 70
0
 71
3
 72
37
 73
33
 74
0
 42
0.0000001
 43
0.0000001
 44
0.0000000001
 40
0.0
 40
0.0
 40
0.0
 40
0.0
 40
0.0002963403
 40
0.000647559
 40
0.0010884297
 40
0.001636892
 40
0.0023022057
 40
0.0030894905
 40
0.0050406336
 40
0.0075044596
 40
0.0104871184
 40
0.013991799
 40
0.0180198014
 40
0.02257129
 40
0.0276459614
 40
0.0393621919
 40
0.0531617687
 40
0.06903252
 40
0.0869586023
 40
0.1069235521
 40
0.1289078385
 40
0.1528881286
 40
0.2067398765
 40
0.2682586685
 40
0.337193821
 40
0.413260069
 40
0.4961454569
 40
0.5855099855
 40
0.6809801797
 40
0.7821657111
 40
0.8886653088
 40
1.0
 40
1.0
 40
1.0
 40
1.0
 10
5.3314601118
 20
4.7973980017
 30
0.0
 10
5.3314601118
 20
4.7973829415
 30
0.0
 10
5.3314516551
 20
4.7973498405
 30
0.0
 10
5.3314180103
 20
4.7973049004
 30
0.0
 10
5.3313653109
 20
4.7972611578
 30
0.0
 10
5.3312930826
 20
4.7972176922
 30
0.0
 10
5.3312010445
 20
4.7971741757
 30
0.0
 10
5.3310397085
 20
4.7971114958
 30
0.0
 10
5.3307860496
 20
4.7970357728
 30
0.0
 10
5.3304200772
 20
4.7969493461
 30
0.0
 10
5.3299734316
 20
4.7968625279
 30
0.0
 10
5.3294461453
 20
4.7967753689
 30
0.0
 10
5.3288382266
 20
4.7966880163
 30
0.0
 10
5.3281498297
 20
4.7966005032
 30
0.0
 10
5.3270721424
 20
4.796477721
 30
0.0
 10
5.3255247551
 20
4.796326877
 30
0.0
 10
5.3234286431
 20
4.7961526975
 30
0.0
 10
5.3210160333
 20
4.7959780962
 30
0.0
 10
5.3182894073
 20
4.7958031367
 30
0.0
 10
5.3152515315
 20
4.7956279617
 30
0.0
 10
5.3119055265
 20
4.795452613
 30
0.0
 10
5.3068386269
 20
4.7952091143
 30
0.0
 10
5.2997630471
 20
4.7949086295
 30
0.0
 10
5.2904029845
 20
4.7945595609
 30
0.0
 10
5.2799132894
 20
4.7942099101
 30
0.0
 10
5.2683372061
 20
4.7938597642
 30
0.0
 10
5.2557224648
 20
4.7935092861
 30
0.0
 10
5.2421212582
 20
4.7931585599
 30
0.0
 10
5.2275897431
 20
4.7928076325
 30
0.0
 10
5.2121871775
 20
4.7924565439
 30
0.0
 10
5.1959781716
 20
4.7921053512
 30
0.0
 10
5.1849100585
 20
4.7918759445
 30
0.0
 10
5.1792531231
 20
4.7917608696
 30
0.0
  0
SPLINE
  5
3C3
100
AcDbEntity
  8
0
100
AcDbSpline
 62
7
  6
CONTINUOUS
 70
0
 71
3
 72
22
 73
18
 74
0
 42
0.0000001
 43
0.0000001
 44
0.0000000001
 40
0.0
 40
0.0
 40
0.0
 40
0.0
 40
0.0066200759
 40
0.0149023231
 40
0.0248529476
 40
0.0364717091
 40
0.0647018804
 40
0.0995602463
 40
0.1409873131
 40
0.1889088342
 40
0.2432402919
 40
0.3038770242
 40
0.3707094072
 40
0.4436101999
 40
0.6070580045
 40
0.7929889254
 40
1.0
 40
1.0
 40
1.0
 40
1.0
 10
5.3306391843
 20
5.1308277072
 30
0.0
 10
5.3304510115
 20
5.1307822774
 30
0.0
 10
5.3300237344
 20
5.1306954444
 30
0.0
 10
5.3293064233
 20
5.1305783649
 30
0.0
 10
5.3284414026
 20
5.1304607075
 30
0.0
 10
5.3269949352
 20
5.1302921398
 30
0.0
 10
5.3248197687
 20
5.1300876291
 30
0.0
 10
5.3217725427
 20
5.1298532071
 30
0.0
 10
5.3181481458
 20
5.129617796
 30
0.0
 10
5.3139533798
 20
5.1293815408
 30
0.0
 10
5.3091961442
 20
5.129144833
 30
0.0
 10
5.3038853458
 20
5.1289077439
 30
0.0
 10
5.2980310811
 20
5.1286704039
 30
0.0
 10
5.2891718089
 20
5.1283409912
 30
0.0
 10
5.2768304717
 20
5.1279347844
 30
0.0
 10
5.2605677847
 20
5.1274625991
 30
0.0
 10
5.249081585
 20
5.1271625549
 30
0.0
 10
5.2430302296
 20
5.1270108734
 30
0.0
  0
SPLINE
  5
3C4
100
AcDbEntity
  8
0
100
AcDbSpline
 62
7
  6
CONTINUOUS
 70
0
 71
3
 72
63
 73
59
 74
0
 42
0.0000001
 43
0.0000001
 44
0.0000000001
 40
0.0
 40
0.0
 40
0.0
 40
0.0
 40
0.0010305488
 40
0.0023428763
 40
0.0039379092
 40
0.0058154627
 40
0.0079749741
 40
0.0104156864
 40
0.0161361879
 40
0.0229645197
 40
0.0308862536
 40
0.0398832882
 40
0.0499354205
 40
0.0610198261
 40
0.0731109087
 40
0.1002008843
 40
0.1309571577
 40
0.1650974078
 40
0.2023081681
 40
0.2422476303
 40
0.284548844
 40
0.3288231691
 40
0.3746637636
 40
0.4216493439
 40
0.4693481802
 40
0.5173217944
 40
0.5651293801
 40
0.6123315063
 40
0.6584944184
 40
0.7031939143
 40
0.7460192019
 40
0.7865768078
 40
0.8244940777
 40
0.8594226492
 40
0.8756647097
 40
0.8910418262
 40
0.9055184197
 40
0.9190613758
 40
0.9316397528
 40
0.9432244591
 40
0.9537894533
 40
0.9633100455
 40
0.9717652419
 40
0.979135424
 40
0.9854046854
 40
0.9905593093
 40
0.9927153186
 40
0.9945893618
 40
0.996180879
 40
0.9974896931
 40
0.9980383526
 40
0.9985168556
 40
0.9989256789
 40
0.9992656229
 40
0.9995381323
 40
0.9996499814
 40
0.9997463072
 40
1.0
 40
1.0
 40
1.0
 40
1.0
 10
5.3306391843
 20
5.1652777072
 30
0.0
 10
5.330429109
 20
5.1652269895
 30
0.0
 10
5.329946958
 20
5.1651308694
 30
0.0
 10
5.3291311793
 20
5.1650021338
 30
0.0
 10
5.3281360379
 20
5.1648726816
 30
0.0
 10
5.3269620956
 20
5.1647426645
 30
0.0
 10
5.3256099074
 20
5.1646123017
 30
0.0
 10
5.323453407
 20
5.164428295
 30
0.0
 10
5.3203179803
 20
5.1642031049
 30
0.0
 10
5.3160330057
 20
5.1639436234
 30
0.0
 10
5.3110598848
 20
5.1636834087
 30
0.0
 10
5.3054099536
 20
5.163422545
 30
0.0
 10
5.2990961851
 20
5.1631612937
 30
0.0
 10
5.2921330944
 20
5.1628997279
 30
0.0
 10
5.2815984273
 20
5.1625367773
 30
0.0
 10
5.2669390127
 20
5.1620893851
 30
0.0
 10
5.2476560022
 20
5.1615691735
 30
0.0
 10
5.2262499485
 20
5.1610479991
 30
0.0
 10
5.202917639
 20
5.1605260641
 30
0.0
 10
5.1778735524
 20
5.1600036226
 30
0.0
 10
5.151347909
 20
5.1594808085
 30
0.0
 10
5.1235845476
 20
5.1589577296
 30
0.0
 10
5.0948386886
 20
5.1584344632
 30
0.0
 10
5.0653745805
 20
5.1579110715
 30
0.0
 10
5.0354631004
 20
5.1573876063
 30
0.0
 10
5.0053792163
 20
5.1568641135
 30
0.0
 10
4.97539951
 20
5.1563406372
 30
0.0
 10
4.9457995736
 20
5.1558172227
 30
0.0
 10
4.9168515198
 20
5.15529392
 30
0.0
 10
4.8888214602
 20
5.1547707888
 30
0.0
 10
4.8619670671
 20
5.1542478994
 30
0.0
 10
4.8365352133
 20
5.1537253595
 30
0.0
 10
4.8127596995
 20
5.1532032658
 30
0.0
 10
4.7940828217
 20
5.1527586747
 30
0.0
 10
4.7801320469
 20
5.1524001974
 30
0.0
 10
4.7704691004
 20
5.1521379748
 30
0.0
 10
4.7613723862
 20
5.1518758481
 30
0.0
 10
4.7528628364
 20
5.151613835
 30
0.0
 10
4.744960031
 20
5.1513519776
 30
0.0
 10
4.737682081
 20
5.1510902976
 30
0.0
 10
4.7310458025
 20
5.1508288925
 30
0.0
 10
4.7250663395
 20
5.1505678161
 30
0.0
 10
4.7197575313
 20
5.150307237
 30
0.0
 10
4.7151314132
 20
5.150047417
 30
0.0
 10
4.7111986602
 20
5.1497885484
 30
0.0
 10
4.7083596454
 20
5.1495632114
 30
0.0
 10
4.7064424366
 20
5.1493782006
 30
0.0
 10
4.7052706966
 20
5.1492481993
 30
0.0
 10
4.7042778411
 20
5.1491186672
 30
0.0
 10
4.7035632473
 20
5.1490058502
 30
0.0
 10
4.7030821529
 20
5.1489133452
 30
0.0
 10
4.702788081
 20
5.1488482227
 30
0.0
 10
4.7025389791
 20
5.1487833847
 30
0.0
 10
4.7023345722
 20
5.1487186283
 30
0.0
 10
4.7021936191
 20
5.1486622946
 30
0.0
 10
4.7021036391
 20
5.1486152152
 30
0.0
 10
4.7020235943
 20
5.1485649169
 30
0.0
 10
4.7019601118
 20
5.148501938
 30
0.0
 10
4.7019601118
 20
5.1484487374
 30
0.0
  0
SPLINE
  5
3C5
100
AcDbEntity
  8
0
100
AcDbSpline
 62
7
  6
CONTINUOUS
 70
0
 71
3
 72
63
 73
59
 74
0
 42
0.0000001
 43
0.0000001
 44
0.0000000001
 40
0.0
 40
0.0
 40
0.0
 40
0.0
 40
0.0010295223
 40
0.0023401753
 40
0.0039331659
 40
0.0058084303
 40
0.007965464
 40
0.0104035402
 40
0.0161185873
 40
0.022941368
 40
0.0308574223
 40
0.0398489947
 40
0.0498955767
 40
0.0609747779
 40
0.0730606979
 40
0.1001411665
 40
0.1308888594
 40
0.1650215351
 40
0.2022258113
 40
0.242159925
 40
0.2844569372
 40
0.3287282585
 40
0.3745668761
 40
0.4215515556
 40
0.4692503235
 40
0.5172247907
 40
0.5650340123
 40
0.6122384832
 40
0.6584043732
 40
0.703107251
 40
0.745936283
 40
0.7864978973
 40
0.8244193844
 40
0.8593523976
 40
0.8909761225
 40
0.9054548797
 40
0.9190002531
 40
0.9315806423
 40
0.9431678699
 40
0.9537348664
 40
0.9632579638
 40
0.9717154309
 40
0.9790881195
 40
0.9853601606
 40
0.9905175873
 40
0.992675412
 40
0.9945514092
 40
0.9961449408
 40
0.9974561584
 40
0.9980063144
 40
0.998486544
 40
0.9988973741
 40
0.9992396938
 40
0.9995151082
 40
0.9997268181
 40
0.9998109648
 40
0.9998826555
 40
1.0
 40
1.0
 40
1.0
 40
1.0
 10
5.3103496058
 20
5.160016709
 30
0.0
 10
5.3101541117
 20
5.159966014
 30
0.0
 10
5.30970486
 20
5.1598698932
 30
0.0
 10
5.3089440299
 20
5.1597411476
 30
0.0
 10
5.3080154241
 20
5.1596116806
 30
0.0
 10
5.3069195597
 20
5.159481646
 30
0.0
 10
5.3056569479
 20
5.1593512624
 30
0.0
 10
5.3036427732
 20
5.1591672161
 30
0.0
 10
5.3007134788
 20
5.1589419961
 30
0.0
 10
5.2967094112
 20
5.158682496
 30
0.0
 10
5.292061476
 20
5.1584222492
 30
0.0
 10
5.2867803125
 20
5.158161365
 30
0.0
 10
5.2808779855
 20
5.1579000766
 30
0.0
 10
5.2743681232
 20
5.1576384894
 30
0.0
 10
5.2645181761
 20
5.1572754849
 30
0.0
 10
5.2508104556
 20
5.1568280422
 30
0.0
 10
5.2327780815
 20
5.1563077741
 30
0.0
 10
5.212759018
 20
5.1557865436
 30
0.0
 10
5.1909373319
 20
5.1552645514
 30
0.0
 10
5.1675136458
 20
5.1547420521
 30
0.0
 10
5.1427033111
 20
5.15421918
 30
0.0
 10
5.1167344581
 20
5.1536960431
 30
0.0
 10
5.0898458556
 20
5.1531727186
 30
0.0
 10
5.0622847738
 20
5.1526492685
 30
0.0
 10
5.0343046323
 20
5.1521257444
 30
0.0
 10
5.0061627139
 20
5.1516021927
 30
0.0
 10
4.9781177776
 20
5.1510786576
 30
0.0
 10
4.9504276888
 20
5.1505551843
 30
0.0
 10
4.9233470763
 20
5.1500318232
 30
0.0
 10
4.8971249496
 20
5.1495086322
 30
0.0
 10
4.8720024287
 20
5.1489856865
 30
0.0
 10
4.8482104998
 20
5.1484630773
 30
0.0
 10
4.8259679071
 20
5.1479409574
 30
0.0
 10
4.8054791547
 20
5.1474194574
 30
0.0
 10
4.7895887397
 20
5.1469736043
 30
0.0
 10
4.7778932282
 20
5.1466133687
 30
0.0
 10
4.7699321907
 20
5.1463513289
 30
0.0
 10
4.762538705
 20
5.1460894272
 30
0.0
 10
4.7557298706
 20
5.1458277362
 30
0.0
 10
4.7495212529
 20
5.1455662812
 30
0.0
 10
4.7439271754
 20
5.1453051886
 30
0.0
 10
4.7389604577
 20
5.1450445696
 30
0.0
 10
4.7346324265
 20
5.1447847159
 30
0.0
 10
4.7309530619
 20
5.1445258322
 30
0.0
 10
4.7282970178
 20
5.1443004332
 30
0.0
 10
4.726503451
 20
5.1441154129
 30
0.0
 10
4.7254071588
 20
5.1439853956
 30
0.0
 10
4.7244782515
 20
5.1438558325
 30
0.0
 10
4.7238097778
 20
5.1437430059
 30
0.0
 10
4.7233597868
 20
5.1436505183
 30
0.0
 10
4.7230846046
 20
5.143585408
 30
0.0
 10
4.7228514567
 20
5.1435204885
 30
0.0
 10
4.7226601247
 20
5.1434558597
 30
0.0
 10
4.7225105324
 20
5.1433914803
 30
0.0
 10
4.7224132274
 20
5.1433345567
 30
0.0
 10
4.7223585564
 20
5.1432870507
 30
0.0
 10
4.7223241112
 20
5.1432460113
 30
0.0
 10
4.7223101416
 20
5.1432088888
 30
0.0
 10
4.722310155
 20
5.1431858695
 30
0.0
  0
SPLINE
  5
3C6
100
AcDbEntity
  8
0
100
AcDbSpline
 62
7
  6
CONTINUOUS
 70
0
 71
3
 72
63
 73
59
 74
0
 42
0.0000001
 43
0.0000001
 44
0.0000000001
 40
0.0
 40
0.0
 40
0.0
 40
0.0
 40
0.0001173503
 40
0.0001890525
 40
0.0002732121
 40
0.0004849357
 40
0.000760347
 40
0.0011026511
 40
0.0015134589
 40
0.001993666
 40
0.0025438055
 40
0.0038550342
 40
0.0054486313
 40
0.0073246264
 40
0.0094824126
 40
0.0146398492
 40
0.0209118961
 40
0.028284524
 40
0.0367420685
 40
0.0462651088
 40
0.0568321717
 40
0.0684193405
 40
0.0809997337
 40
0.0945451254
 40
0.109023851
 40
0.1406475703
 40
0.1755805928
 40
0.2135021139
 40
0.2540637282
 40
0.296892753
 40
0.3415956474
 40
0.387761482
 40
0.4349660117
 40
0.482775203
 40
0.5307496865
 40
0.5784484699
 40
0.6254330966
 40
0.6712717816
 40
0.7155430625
 40
0.75784013
 40
0.7977742252
 40
0.8349784785
 40
0.8691111568
 40
0.8998588129
 40
0.9269393097
 40
0.9390252551
 40
0.9501044696
 40
0.960151005
 40
0.9691426401
 40
0.9770586192
 40
0.9838814721
 40
0.9895964653
 40
0.9920345332
 40
0.9941916043
 40
0.9960669018
 40
0.9976598711
 40
0.9989704647
 40
1.0
 40
1.0
 40
1.0
 40
1.0
 10
5.3111100892
 20
5.4572108696
 30
0.0
 10
5.311110101
 20
5.4571878491
 30
0.0
 10
5.3110961228
 20
5.4571507248
 30
0.0
 10
5.3110616648
 20
5.4571096887
 30
0.0
 10
5.3110069823
 20
5.457062185
 30
0.0
 10
5.3109096731
 20
5.4570052609
 30
0.0
 10
5.3107600821
 20
5.4569408805
 30
0.0
 10
5.310568759
 20
5.456876251
 30
0.0
 10
5.3103356234
 20
5.4568113311
 30
0.0
 10
5.3100604536
 20
5.4567462207
 30
0.0
 10
5.3096104685
 20
5.4566537316
 30
0.0
 10
5.3089419827
 20
5.4565409051
 30
0.0
 10
5.30801306
 20
5.4564113479
 30
0.0
 10
5.3069167633
 20
5.4562813274
 30
0.0
 10
5.3051232029
 20
5.4560963035
 30
0.0
 10
5.302467163
 20
5.4558709076
 30
0.0
 10
5.2987878073
 20
5.4556120249
 30
0.0
 10
5.294459772
 20
5.455352167
 30
0.0
 10
5.2894930619
 20
5.4550915543
 30
0.0
 10
5.2838989678
 20
5.4548304552
 30
0.0
 10
5.2776903598
 20
5.4545690053
 30
0.0
 10
5.2708815233
 20
5.4543073109
 30
0.0
 10
5.2634880449
 20
5.4540454108
 30
0.0
 10
5.2555270094
 20
5.4537833714
 30
0.0
 10
5.2438315019
 20
5.4534231342
 30
0.0
 10
5.2279410926
 20
5.4529772821
 30
0.0
 10
5.2074523332
 20
5.4524557819
 30
0.0
 10
5.1852097324
 20
5.4519336622
 30
0.0
 10
5.1614177987
 20
5.4514110529
 30
0.0
 10
5.1362952764
 20
5.4508881072
 30
0.0
 10
5.1100731592
 20
5.4503649161
 30
0.0
 10
5.0829925433
 20
5.4498415549
 30
0.0
 10
5.0553024603
 20
5.4493180818
 30
0.0
 10
5.0272575157
 20
5.4487945466
 30
0.0
 10
4.9991155975
 20
5.4482709949
 30
0.0
 10
4.9711354607
 20
5.4477474708
 30
0.0
 10
4.9435743735
 20
5.4472240205
 30
0.0
 10
4.9166857766
 20
5.4467006961
 30
0.0
 10
4.890716908
 20
5.4461775592
 30
0.0
 10
4.8659065744
 20
5.4456546871
 30
0.0
 10
4.842482886
 20
5.445132188
 30
0.0
 10
4.820661208
 20
5.4446101955
 30
0.0
 10
4.800642156
 20
5.4440889652
 30
0.0
 10
4.7826097834
 20
5.4435686966
 30
0.0
 10
4.7689020599
 20
5.4431212541
 30
0.0
 10
4.7590520999
 20
5.4427582494
 30
0.0
 10
4.7525422391
 20
5.442496664
 30
0.0
 10
4.7466399066
 20
5.4422353716
 30
0.0
 10
4.7413587545
 20
5.4419744938
 30
0.0
 10
4.7367108082
 20
5.441714239
 30
0.0
 10
4.7327067513
 20
5.4414547464
 30
0.0
 10
4.7297774553
 20
5.4412295225
 30
0.0
 10
4.7277632857
 20
5.4410454751
 30
0.0
 10
4.7265006615
 20
5.4409150932
 30
0.0
 10
4.7254047872
 20
5.4407850605
 30
0.0
 10
4.7244761905
 20
5.440655595
 30
0.0
 10
4.7237153751
 20
5.440526842
 30
0.0
 10
4.7232661324
 20
5.4404307237
 30
0.0
 10
4.7230706353
 20
5.4403800301
 30
0.0
  0
SPLINE
  5
3C7
100
AcDbEntity
  8
0
100
AcDbSpline
 62
7
  6
CONTINUOUS
 70
0
 71
3
 72
20
 73
16
 74
0
 42
0.0000001
 43
0.0000001
 44
0.0000000001
 40
0.0
 40
0.0
 40
0.0
 40
0.0
 40
0.2280399651
 40
0.4263428567
 40
0.5948217436
 40
0.733428161
 40
0.7915384474
 40
0.8422114898
 40
0.885499221
 40
0.9214886744
 40
0.9503351848
 40
0.9723486727
 40
0.981007232
 40
0.9883032461
 40
1.0
 40
1.0
 40
1.0
 40
1.0
 10
4.7284855807
 20
5.1787608696
 30
0.0
 10
4.7280043397
 20
5.1787168807
 30
0.0
 10
4.727105024
 20
5.1786300048
 30
0.0
 10
4.7258521443
 20
5.1784909807
 30
0.0
 10
4.7247900946
 20
5.1783524136
 30
0.0
 10
4.7240254717
 20
5.1782317653
 30
0.0
 10
4.7235105911
 20
5.178132829
 30
0.0
 10
4.7231958821
 20
5.178063204
 30
0.0
 10
4.7229293231
 20
5.1779937918
 30
0.0
 10
4.722710654
 20
5.177924731
 30
0.0
 10
4.7225397868
 20
5.177855954
 30
0.0
 10
4.7224284694
 20
5.1777951941
 30
0.0
 10
4.7223657146
 20
5.1777442419
 30
0.0
 10
4.7223265247
 20
5.1777007747
 30
0.0
 10
4.7223100993
 20
5.1776606565
 30
0.0
 10
4.7223100978
 20
5.1776358695
 30
0.0
  0
LINE
  5
3C8
100
AcDbEntity
  8
0
100
AcDbLine
 62
7
  6
CONTINUOUS
 10
4.7284855807
 20
5.1655108696
 11
4.723070488
 21
5.1647800299
  0
SPLINE
  5
3C9
100
AcDbEntity
  8
0
100
AcDbSpline
 62
7
  6
CONTINUOUS
 70
0
 71
3
 72
63
 73
59
 74
0
 42
0.0000001
 43
0.0000001
 44
0.0000000001
 40
0.0
 40
0.0
 40
0.0
 40
0.0
 40
0.0001173533
 40
0.0001890375
 40
0.0002731611
 40
0.0004847795
 40
0.0007600918
 40
0.0011023634
 40
0.0015132148
 40
0.0019935112
 40
0.0025437537
 40
0.003855097
 40
0.0054485254
 40
0.007324336
 40
0.0094822186
 40
0.0146398722
 40
0.0209116176
 40
0.0282845752
 40
0.0367418257
 40
0.0462650511
 40
0.0568320452
 40
0.0684191643
 40
0.0809997559
 40
0.0945448885
 40
0.1090238662
 40
0.1406475057
 40
0.1755804513
 40
0.2135018906
 40
0.2540635521
 40
0.2968926332
 40
0.3415955685
 40
0.3877614186
 40
0.4349658701
 40
0.4827750729
 40
0.5307495533
 40
0.5784483461
 40
0.6254330013
 40
0.671271582
 40
0.7155428511
 40
0.7578398993
 40
0.7977740536
 40
0.8349784153
 40
0.8691111074
 40
0.8998587334
 40
0.9269390771
 40
0.939025181
 40
0.9501041397
 40
0.9601510061
 40
0.9691423473
 40
0.9770585412
 40
0.9838812785
 40
0.9895962254
 40
0.9920345147
 40
0.9941915445
 40
0.9960666463
 40
0.9976595291
 40
0.9989703154
 40
1.0
 40
1.0
 40
1.0
 40
1.0
 10
5.3111099948
 20
5.4916608696
 30
0.0
 10
5.3111099969
 20
5.4916378485
 30
0.0
 10
5.3110960207
 20
5.4916007327
 30
0.0
 10
5.3110615845
 20
5.4915596913
 30
0.0
 10
5.3110069444
 20
5.4915121866
 30
0.0
 10
5.310909693
 20
5.4914552554
 30
0.0
 10
5.3107601533
 20
5.4913908716
 30
0.0
 10
5.310568847
 20
5.4913262447
 30
0.0
 10
5.3103356899
 20
5.4912613287
 30
0.0
 10
5.3100604719
 20
5.4911962205
 30
0.0
 10
5.3096104242
 20
5.4911037371
 30
0.0
 10
5.3089419277
 20
5.4909909184
 30
0.0
 10
5.3080130545
 20
5.4908613451
 30
0.0
 10
5.3069168093
 20
5.4907313164
 30
0.0
 10
5.3051232218
 20
5.4905463069
 30
0.0
 10
5.3024671788
 20
5.4903209222
 30
0.0
 10
5.2987877769
 20
5.4900620061
 30
0.0
 10
5.2944597914
 20
5.4898021839
 30
0.0
 10
5.2894930394
 20
5.4895415411
 30
0.0
 10
5.2838989789
 20
5.4892804617
 30
0.0
 10
5.2776903578
 20
5.4890190041
 30
0.0
 10
5.2708815053
 20
5.4887573074
 30
0.0
 10
5.2634880478
 20
5.488495417
 30
0.0
 10
5.2555269748
 20
5.4882333638
 30
0.0
 10
5.2438314831
 20
5.4878731418
 30
0.0
 10
5.2279410545
 20
5.4874272796
 30
0.0
 10
5.2074523407
 20
5.486905782
 30
0.0
 10
5.1852097606
 20
5.4863836611
 30
0.0
 10
5.1614178213
 20
5.4858610524
 30
0.0
 10
5.1362952693
 20
5.485338107
 30
0.0
 10
5.1100731285
 20
5.4848149163
 30
0.0
 10
5.0829925155
 20
5.4842915548
 30
0.0
 10
5.055302441
 20
5.4837680814
 30
0.0
 10
5.0272575085
 20
5.4832445462
 30
0.0
 10
4.9991155852
 20
5.4827209946
 30
0.0
 10
4.97113544
 20
5.4821974708
 30
0.0
 10
4.9435743643
 20
5.4816740208
 30
0.0
 10
4.9166857831
 20
5.481150696
 30
0.0
 10
4.8907169396
 20
5.4806275588
 30
0.0
 10
4.8659065991
 20
5.4801046868
 30
0.0
 10
4.8424828804
 20
5.4795821875
 30
0.0
 10
4.8206611656
 20
5.479060196
 30
0.0
 10
4.8006420944
 20
5.478538965
 30
0.0
 10
4.7826097539
 20
5.4780187002
 30
0.0
 10
4.7689020349
 20
5.4775712457
 30
0.0
 10
4.7590521229
 20
5.4772082578
 30
0.0
 10
4.7525422167
 20
5.4769466519
 30
0.0
 10
4.7466399257
 20
5.4766853849
 30
0.0
 10
4.7413587251
 20
5.4764244817
 30
0.0
 10
4.7367108157
 20
5.4761642459
 30
0.0
 10
4.7327067483
 20
5.4759047494
 30
0.0
 10
4.7297774421
 20
5.4756795072
 30
0.0
 10
4.7277632439
 20
5.475495483
 30
0.0
 10
4.7265006228
 20
5.4753650988
 30
0.0
 10
4.7254048132
 20
5.4752350584
 30
0.0
 10
4.724476236
 20
5.4751055802
 30
0.0
 10
4.7237153686
 20
5.4749768385
 30
0.0
 10
4.7232660542
 20
5.4748807315
 30
0.0
 10
4.7230705289
 20
5.4748300301
 30
0.0
  0
SPLINE
  5
3CA
100
AcDbEntity
  8
0
100
AcDbSpline
 62
7
  6
CONTINUOUS
 70
0
 71
3
 72
63
 73
59
 74
0
 42
0.0000001
 43
0.0000001
 44
0.0000000001
 40
0.0
 40
0.0
 40
0.0
 40
0.0
 40
0.0001173815
 40
0.0001890987
 40
0.0002732606
 40
0.0004849484
 40
0.0007602847
 40
0.0011025009
 40
0.0015132367
 40
0.001993417
 40
0.0025436034
 40
0.003855055
 40
0.0054486786
 40
0.0073245083
 40
0.0094821644
 40
0.0146399066
 40
0.0209117184
 40
0.0282844776
 40
0.0367420107
 40
0.0462649207
 40
0.0568322013
 40
0.0684191119
 40
0.080999779
 40
0.0945449617
 40
0.1090238048
 40
0.1406474089
 40
0.1755803997
 40
0.2135019805
 40
0.2540636494
 40
0.2968927377
 40
0.3415956071
 40
0.3877614161
 40
0.434965916
 40
0.4827751071
 40
0.5307496385
 40
0.5784483922
 40
0.6254330172
 40
0.6712716442
 40
0.7155429389
 40
0.7578400779
 40
0.7977742396
 40
0.8349785091
 40
0.8691111191
 40
0.8998586838
 40
0.926939112
 40
0.9390253209
 40
0.9501042956
 40
0.9601509861
 40
0.9691425989
 40
0.9770584925
 40
0.9838815612
 40
0.9895962577
 40
0.9920344652
 40
0.9941916916
 40
0.9960669362
 40
0.9976596878
 40
0.9989702914
 40
1.0
 40
1.0
 40
1.0
 40
1.0
 10
5.3111100711
 20
5.5261108695
 30
0.0
 10
5.3111100577
 20
5.5260878429
 30
0.0
 10
5.3110960442
 20
5.5260507276
 30
0.0
 10
5.3110615733
 20
5.5260096916
 30
0.0
 10
5.3110068937
 20
5.5259621904
 30
0.0
 10
5.310909612
 20
5.5259052634
 30
0.0
 10
5.3107600643
 20
5.5258408798
 30
0.0
 10
5.3105687905
 20
5.5257762482
 30
0.0
 10
5.3103356931
 20
5.5257113272
 30
0.0
 10
5.3100605339
 20
5.5256462159
 30
0.0
 10
5.3096104999
 20
5.5255537273
 30
0.0
 10
5.3089419524
 20
5.5254409179
 30
0.0
 10
5.3080130144
 20
5.5253113534
 30
0.0
 10
5.3069167718
 20
5.5251813249
 30
0.0
 10
5.3051232107
 20
5.5249962882
 30
0.0
 10
5.3024671795
 20
5.5247709287
 30
0.0
 10
5.2987877869
 20
5.524512011
 30
0.0
 10
5.2944597731
 20
5.5242521729
 30
0.0
 10
5.2894930657
 20
5.5239915553
 30
0.0
 10
5.2838989572
 20
5.5237304488
 30
0.0
 10
5.2776903824
 20
5.5234690141
 30
0.0
 10
5.2708815011
 20
5.5232073017
 30
0.0
 10
5.2634880602
 20
5.5229454187
 30
0.0
 10
5.2555269897
 20
5.5226833661
 30
0.0
 10
5.2438315229
 20
5.5223231392
 30
0.0
 10
5.2279411203
 20
5.5218772797
 30
0.0
 10
5.2074523788
 20
5.5213557818
 30
0.0
 10
5.1852097628
 20
5.520833662
 30
0.0
 10
5.1614177953
 20
5.5203110531
 30
0.0
 10
5.1362952558
 20
5.5197881075
 30
0.0
 10
5.1100731372
 20
5.5192649163
 30
0.0
 10
5.0829925383
 20
5.5187415548
 30
0.0
 10
5.0553024674
 20
5.5182180816
 30
0.0
 10
5.0272575205
 20
5.5176945466
 30
0.0
 10
4.9991156
 20
5.5171709951
 30
0.0
 10
4.9711354611
 20
5.516647471
 30
0.0
 10
4.9435743927
 20
5.5161240207
 30
0.0
 10
4.9166858059
 20
5.515600696
 30
0.0
 10
4.890716933
 20
5.5150775589
 30
0.0
 10
4.8659065707
 20
5.5145546873
 30
0.0
 10
4.842482853
 20
5.5140321885
 30
0.0
 10
4.8206611731
 20
5.5135101965
 30
0.0
 10
4.8006421502
 20
5.5129889648
 30
0.0
 10
4.7826098231
 20
5.5124686997
 30
0.0
 10
4.7689020803
 20
5.5120212449
 30
0.0
 10
4.7590521289
 20
5.5116582579
 30
0.0
 10
4.7525422339
 20
5.5113966574
 30
0.0
 10
4.7466399223
 20
5.5111353746
 30
0.0
 10
4.741358761
 20
5.5108744975
 30
0.0
 10
4.7367107946
 20
5.5106142281
 30
0.0
 10
4.7327067685
 20
5.5103547649
 30
0.0
 10
4.7297774636
 20
5.510129509
 30
0.0
 10
4.7277632934
 20
5.5099454741
 30
0.0
 10
4.7265006207
 20
5.5098150996
 30
0.0
 10
4.7254047686
 20
5.5096850704
 30
0.0
 10
4.7244762263
 20
5.5095555853
 30
0.0
 10
4.7237154185
 20
5.5094268305
 30
0.0
 10
4.7232661372
 20
5.5093307222
 30
0.0
 10
4.7230706046
 20
5.5092800302
 30
0.0
  0
SPLINE
  5
3CB
100
AcDbEntity
  8
0
100
AcDbSpline
 62
7
  6
CONTINUOUS
 70
0
 71
3
 72
27
 73
23
 74
0
 42
0.0000001
 43
0.0000001
 44
0.0000000001
 40
0.0
 40
0.0
 40
0.0
 40
0.0
 40
0.0238938745
 40
0.0545723972
 40
0.0724231253
 40
0.091917263
 40
0.1129775653
 40
0.1355384697
 40
0.1595755241
 40
0.1850683277
 40
0.2402274788
 40
0.300570067
 40
0.3656517312
 40
0.4350612218
 40
0.5083183903
 40
0.5849363349
 40
0.6644123468
 40
0.705058403
 40
0.7462213992
 40
0.8298101248
 40
0.9146018289
 40
1.0
 40
1.0
 40
1.0
 40
1.0
 10
4.5724064282
 20
5.7471300142
 30
0.0
 10
4.5758996454
 20
5.746340914
 30
0.0
 10
4.5838801196
 20
5.7445481482
 30
0.0
 10
4.5944744358
 20
5.7421841859
 30
0.0
 10
4.6044307861
 20
5.7399892985
 30
0.0
 10
4.6129829303
 20
5.7381210764
 30
0.0
 10
4.6222282583
 20
5.7361182014
 30
0.0
 10
4.6321427818
 20
5.733988471
 30
0.0
 10
4.6427119786
 20
5.7317432615
 30
0.0
 10
4.6580690558
 20
5.7285238744
 30
0.0
 10
4.67877172
 20
5.7242830838
 30
0.0
 10
4.7053254661
 20
5.7190408201
 30
0.0
 10
4.734022484
 20
5.7136318924
 30
0.0
 10
4.7646833016
 20
5.7082000832
 30
0.0
 10
4.7971197174
 20
5.702892799
 30
0.0
 10
4.831130524
 20
5.6978881184
 30
0.0
 10
4.8603837704
 20
5.6941589427
 30
0.0
 10
4.8844122628
 20
5.6915097229
 30
0.0
 10
4.9090852844
 20
5.6890991951
 30
0.0
 10
4.9404021145
 20
5.6866686187
 30
0.0
 10
4.9784003998
 20
5.6848417071
 30
0.0
 10
5.0039105578
 20
5.684427919
 30
0.0
 10
5.0167101118
 20
5.6844279031
 30
0.0
  0
SPLINE
  5
3CC
100
AcDbEntity
  8
0
100
AcDbSpline
 62
7
  6
CONTINUOUS
 70
0
 71
3
 72
63
 73
59
 74
0
 42
0.0000001
 43
0.0000001
 44
0.0000000001
 40
0.0
 40
0.0
 40
0.0
 40
0.0
 40
0.0010305488
 40
0.0023428763
 40
0.0039379092
 40
0.0058154627
 40
0.0079749741
 40
0.0104156864
 40
0.0161361879
 40
0.0229645197
 40
0.0308862536
 40
0.0398832882
 40
0.0499354205
 40
0.0610198261
 40
0.0731109087
 40
0.1002008843
 40
0.1309571577
 40
0.1650974078
 40
0.2023081681
 40
0.2422476303
 40
0.284548844
 40
0.3288231691
 40
0.3746637636
 40
0.4216493439
 40
0.4693481802
 40
0.5173217944
 40
0.5651293801
 40
0.6123315063
 40
0.6584944184
 40
0.7031939143
 40
0.7460192019
 40
0.7865768078
 40
0.8244940777
 40
0.8594226492
 40
0.8756647097
 40
0.8910418262
 40
0.9055184197
 40
0.9190613758
 40
0.9316397528
 40
0.9432244591
 40
0.9537894533
 40
0.9633100455
 40
0.9717652419
 40
0.979135424
 40
0.9854046854
 40
0.9905593093
 40
0.9927153186
 40
0.9945893618
 40
0.996180879
 40
0.9974896931
 40
0.9980383526
 40
0.9985168556
 40
0.9989256789
 40
0.9992656229
 40
0.9995381323
 40
0.9996499814
 40
0.9997463072
 40
1.0
 40
1.0
 40
1.0
 40
1.0
 10
5.3306391843
 20
5.4753277072
 30
0.0
 10
5.330429109
 20
5.4752769895
 30
0.0
 10
5.329946958
 20
5.4751808694
 30
0.0
 10
5.3291311793
 20
5.4750521338
 30
0.0
 10
5.3281360379
 20
5.4749226816
 30
0.0
 10
5.3269620956
 20
5.4747926645
 30
0.0
 10
5.3256099074
 20
5.4746623017
 30
0.0
 10
5.323453407
 20
5.474478295
 30
0.0
 10
5.3203179803
 20
5.4742531048
 30
0.0
 10
5.3160330057
 20
5.4739936234
 30
0.0
 10
5.3110598848
 20
5.4737334087
 30
0.0
 10
5.3054099536
 20
5.473472545
 30
0.0
 10
5.2990961851
 20
5.4732112937
 30
0.0
 10
5.2921330944
 20
5.4729497279
 30
0.0
 10
5.2815984273
 20
5.4725867773
 30
0.0
 10
5.2669390127
 20
5.4721393851
 30
0.0
 10
5.2476560022
 20
5.4716191735
 30
0.0
 10
5.2262499485
 20
5.4710979991
 30
0.0
 10
5.202917639
 20
5.4705760641
 30
0.0
 10
5.1778735524
 20
5.4700536226
 30
0.0
 10
5.151347909
 20
5.4695308085
 30
0.0
 10
5.1235845476
 20
5.4690077296
 30
0.0
 10
5.0948386886
 20
5.4684844632
 30
0.0
 10
5.0653745805
 20
5.4679610715
 30
0.0
 10
5.0354631004
 20
5.4674376063
 30
0.0
 10
5.0053792163
 20
5.4669141135
 30
0.0
 10
4.97539951
 20
5.4663906372
 30
0.0
 10
4.9457995736
 20
5.4658672227
 30
0.0
 10
4.9168515198
 20
5.46534392
 30
0.0
 10
4.8888214602
 20
5.4648207888
 30
0.0
 10
4.8619670671
 20
5.4642978994
 30
0.0
 10
4.8365352133
 20
5.4637753595
 30
0.0
 10
4.8127596995
 20
5.4632532658
 30
0.0
 10
4.7940828217
 20
5.4628086747
 30
0.0
 10
4.7801320469
 20
5.4624501974
 30
0.0
 10
4.7704691004
 20
5.4621879748
 30
0.0
 10
4.7613723862
 20
5.4619258481
 30
0.0
 10
4.7528628364
 20
5.461663835
 30
0.0
 10
4.744960031
 20
5.4614019776
 30
0.0
 10
4.737682081
 20
5.4611402976
 30
0.0
 10
4.7310458025
 20
5.4608788925
 30
0.0
 10
4.7250663395
 20
5.4606178161
 30
0.0
 10
4.7197575313
 20
5.460357237
 30
0.0
 10
4.7151314132
 20
5.460097417
 30
0.0
 10
4.7111986602
 20
5.4598385483
 30
0.0
 10
4.7083596454
 20
5.4596132114
 30
0.0
 10
4.7064424366
 20
5.4594282006
 30
0.0
 10
4.7052706966
 20
5.4592981993
 30
0.0
 10
4.7042778411
 20
5.4591686672
 30
0.0
 10
4.7035632473
 20
5.4590558502
 30
0.0
 10
4.7030821529
 20
5.4589633452
 30
0.0
 10
4.702788081
 20
5.4588982227
 30
0.0
 10
4.7025389791
 20
5.4588333847
 30
0.0
 10
4.7023345722
 20
5.4587686283
 30
0.0
 10
4.7021936191
 20
5.4587122946
 30
0.0
 10
4.7021036391
 20
5.4586652152
 30
0.0
 10
4.7020235943
 20
5.4586149169
 30
0.0
 10
4.7019601118
 20
5.458551938
 30
0.0
 10
4.7019601118
 20
5.4584987374
 30
0.0
  0
LINE
  5
3CD
100
AcDbEntity
  8
0
100
AcDbLine
 62
7
  6
CONTINUOUS
 10
5.3103495848
 20
5.470066709
 11
5.3099734915
 21
5.469978938
  0
SPLINE
  5
3CE
100
AcDbEntity
  8
0
100
AcDbSpline
 62
7
  6
CONTINUOUS
 70
0
 71
3
 72
62
 73
58
 74
0
 42
0.0000001
 43
0.0000001
 44
0.0000000001
 40
0.0
 40
0.0
 40
0.0
 40
0.0
 40
0.0012106249
 40
0.0027005657
 40
0.0044702572
 40
0.0065192346
 40
0.0114518121
 40
0.0174901828
 40
0.0246212073
 40
0.0328297515
 40
0.0420975297
 40
0.0524035405
 40
0.0637250399
 40
0.076035826
 40
0.1035128693
 40
0.1345853974
 40
0.1689711664
 40
0.2063577145
 40
0.2464051642
 40
0.2887493777
 40
0.3330053415
 40
0.3787704166
 40
0.4256284013
 40
0.473152978
 40
0.5209119007
 40
0.5684707799
 40
0.6153969221
 40
0.6612635685
 40
0.7056533751
 40
0.7481627068
 40
0.7884049527
 40
0.8260141963
 40
0.8606485614
 40
0.8919932143
 40
0.9063415161
 40
0.9197634462
 40
0.9322279707
 40
0.9437073265
 40
0.9541753058
 40
0.9636082739
 40
0.9719853956
 40
0.9792874819
 40
0.9854992773
 40
0.9906070715
 40
0.992744012
 40
0.9946019037
 40
0.9961802096
 40
0.9974789046
 40
0.9980237945
 40
0.9984994401
 40
0.9989063818
 40
0.9992455218
 40
0.9995184762
 40
0.9997284487
 40
0.9998119893
 40
0.9998832301
 40
1.0
 40
1.0
 40
1.0
 40
1.0
 10
5.3099734915
 20
5.469978938
 30
0.0
 10
5.3097413287
 20
5.4699296786
 30
0.0
 10
5.3092202566
 20
5.4698349026
 30
0.0
 10
5.3083533304
 20
5.4697062532
 30
0.0
 10
5.3073206054
 20
5.4695770448
 30
0.0
 10
5.3056148957
 20
5.4693926404
 30
0.0
 10
5.3030721269
 20
5.4691683884
 30
0.0
 10
5.2995326888
 20
5.4689110654
 30
0.0
 10
5.2953496571
 20
5.4686527173
 30
0.0
 10
5.2905325627
 20
5.4683935473
 30
0.0
 10
5.2850922775
 20
5.4681338826
 30
0.0
 10
5.279041129
 20
5.4678738381
 30
0.0
 10
5.2723929422
 20
5.4676135343
 30
0.0
 10
5.2623799452
 20
5.4672528323
 30
0.0
 10
5.2484955477
 20
5.4668079141
 30
0.0
 10
5.2302838268
 20
5.4662901436
 30
0.0
 10
5.2101287644
 20
5.4657714739
 30
0.0
 10
5.188213747
 20
5.4652520917
 30
0.0
 10
5.1647381604
 20
5.4647322323
 30
0.0
 10
5.1399155908
 20
5.4642120212
 30
0.0
 10
5.1139719086
 20
5.4636915604
 30
0.0
 10
5.0871431786
 20
5.4631709226
 30
0.0
 10
5.0596735545
 20
5.4626501672
 30
0.0
 10
5.0318129887
 20
5.4621293437
 30
0.0
 10
5.0038149962
 20
5.461608497
 30
0.0
 10
4.9759343407
 20
5.4610876703
 30
0.0
 10
4.9484247113
 20
5.4605669078
 30
0.0
 10
4.9215364582
 20
5.460046259
 30
0.0
 10
4.8955142403
 20
5.4595257809
 30
0.0
 10
4.8705948538
 20
5.4590055484
 30
0.0
 10
4.8470050259
 20
5.4584856519
 30
0.0
 10
4.824959392
 20
5.4579662431
 30
0.0
 10
4.8046585495
 20
5.4574474515
 30
0.0
 10
4.7889173913
 20
5.4570038919
 30
0.0
 10
4.7773340381
 20
5.4566455082
 30
0.0
 10
4.7694507133
 20
5.4563848335
 30
0.0
 10
4.7621301408
 20
5.4561242996
 30
0.0
 10
4.7553890484
 20
5.4558639656
 30
0.0
 10
4.7492427336
 20
5.4556038821
 30
0.0
 10
4.7437051609
 20
5.4553441393
 30
0.0
 10
4.7387889655
 20
5.4550848879
 30
0.0
 10
4.7345051807
 20
5.4548263822
 30
0.0
 10
4.730863617
 20
5.4545688451
 30
0.0
 10
4.7282349549
 20
5.4543446279
 30
0.0
 10
4.7264599447
 20
5.4541605644
 30
0.0
 10
4.7253750055
 20
5.4540312187
 30
0.0
 10
4.7244557009
 20
5.4539023385
 30
0.0
 10
4.7237941425
 20
5.4537901021
 30
0.0
 10
4.7233488384
 20
5.4536980945
 30
0.0
 10
4.7230765348
 20
5.4536333221
 30
0.0
 10
4.7228458294
 20
5.4535687385
 30
0.0
 10
4.722656498
 20
5.4535044408
 30
0.0
 10
4.7225084552
 20
5.4534403888
 30
0.0
 10
4.7224121626
 20
5.453383753
 30
0.0
 10
4.7223580573
 20
5.4533365091
 30
0.0
 10
4.7223239329
 20
5.4532956607
 30
0.0
 10
4.7223101101
 20
5.4532587611
 30
0.0
 10
4.7223101161
 20
5.4532358695
 30
0.0
  0
SPLINE
  5
3CF
100
AcDbEntity
  8
0
100
AcDbSpline
 62
7
  6
CONTINUOUS
 70
0
 71
3
 72
14
 73
10
 74
0
 42
0.0000001
 43
0.0000001
 44
0.0000000001
 40
0.0
 40
0.0
 40
0.0
 40
0.0
 40
0.1337966718
 40
0.2668479003
 40
0.3989050493
 40
0.5295636589
 40
0.6581058796
 40
0.783093791
 40
1.0
 40
1.0
 40
1.0
 40
1.0
 10
5.0831532597
 20
3.7449240683
 30
0.0
 10
5.0793934109
 20
3.7329317157
 30
0.0
 10
5.0720321141
 20
3.7089705836
 30
0.0
 10
5.061366766
 20
3.6730496845
 30
0.0
 10
5.0510645684
 20
3.6373297272
 30
0.0
 10
5.0411110108
 20
3.6019509601
 30
0.0
 10
5.0315285857
 20
3.567158219
 30
0.0
 10
5.0199926944
 20
3.5245008805
 30
0.0
 10
5.0117773344
 20
3.4934539918
 30
0.0
 10
5.006619306
 20
3.4737430321
 30
0.0
  0
SPLINE
  5
3D0
100
AcDbEntity
  8
0
100
AcDbSpline
 62
7
  6
CONTINUOUS
 70
0
 71
3
 72
63
 73
59
 74
0
 42
0.0000001
 43
0.0000001
 44
0.0000000001
 40
0.0
 40
0.0
 40
0.0
 40
0.0
 40
0.0010305488
 40
0.0023428763
 40
0.0039379092
 40
0.0058154627
 40
0.0079749741
 40
0.0104156864
 40
0.0161361879
 40
0.0229645197
 40
0.0308862536
 40
0.0398832882
 40
0.0499354205
 40
0.0610198261
 40
0.0731109087
 40
0.1002008843
 40
0.1309571577
 40
0.1650974078
 40
0.2023081681
 40
0.2422476303
 40
0.284548844
 40
0.3288231691
 40
0.3746637636
 40
0.4216493439
 40
0.4693481802
 40
0.5173217944
 40
0.5651293801
 40
0.6123315063
 40
0.6584944184
 40
0.7031939143
 40
0.7460192019
 40
0.7865768078
 40
0.8244940777
 40
0.8594226492
 40
0.8756647097
 40
0.8910418262
 40
0.9055184197
 40
0.9190613758
 40
0.9316397528
 40
0.9432244591
 40
0.9537894533
 40
0.9633100455
 40
0.9717652419
 40
0.979135424
 40
0.9854046854
 40
0.9905593093
 40
0.9927153186
 40
0.9945893618
 40
0.996180879
 40
0.9974896931
 40
0.9980383526
 40
0.9985168556
 40
0.9989256789
 40
0.9992656229
 40
0.9995381323
 40
0.9996499814
 40
0.9997463072
 40
1.0
 40
1.0
 40
1.0
 40
1.0
 10
5.3306391843
 20
5.5097777072
 30
0.0
 10
5.330429109
 20
5.5097269895
 30
0.0
 10
5.329946958
 20
5.5096308694
 30
0.0
 10
5.3291311793
 20
5.5095021338
 30
0.0
 10
5.3281360379
 20
5.5093726816
 30
0.0
 10
5.3269620956
 20
5.5092426645
 30
0.0
 10
5.3256099074
 20
5.5091123017
 30
0.0
 10
5.323453407
 20
5.508928295
 30
0.0
 10
5.3203179803
 20
5.5087031048
 30
0.0
 10
5.3160330057
 20
5.5084436234
 30
0.0
 10
5.3110598848
 20
5.5081834087
 30
0.0
 10
5.3054099536
 20
5.507922545
 30
0.0
 10
5.2990961851
 20
5.5076612937
 30
0.0
 10
5.2921330944
 20
5.5073997279
 30
0.0
 10
5.2815984273
 20
5.5070367773
 30
0.0
 10
5.2669390127
 20
5.5065893851
 30
0.0
 10
5.2476560022
 20
5.5060691735
 30
0.0
 10
5.2262499485
 20
5.5055479991
 30
0.0
 10
5.202917639
 20
5.5050260641
 30
0.0
 10
5.1778735524
 20
5.5045036226
 30
0.0
 10
5.151347909
 20
5.5039808085
 30
0.0
 10
5.1235845476
 20
5.5034577296
 30
0.0
 10
5.0948386886
 20
5.5029344632
 30
0.0
 10
5.0653745805
 20
5.5024110715
 30
0.0
 10
5.0354631004
 20
5.5018876063
 30
0.0
 10
5.0053792163
 20
5.5013641135
 30
0.0
 10
4.97539951
 20
5.5008406372
 30
0.0
 10
4.9457995736
 20
5.5003172227
 30
0.0
 10
4.9168515198
 20
5.49979392
 30
0.0
 10
4.8888214602
 20
5.4992707888
 30
0.0
 10
4.8619670671
 20
5.4987478994
 30
0.0
 10
4.8365352133
 20
5.4982253595
 30
0.0
 10
4.8127596995
 20
5.4977032658
 30
0.0
 10
4.7940828217
 20
5.4972586747
 30
0.0
 10
4.7801320469
 20
5.4969001974
 30
0.0
 10
4.7704691004
 20
5.4966379748
 30
0.0
 10
4.7613723862
 20
5.4963758481
 30
0.0
 10
4.7528628364
 20
5.496113835
 30
0.0
 10
4.744960031
 20
5.4958519776
 30
0.0
 10
4.737682081
 20
5.4955902976
 30
0.0
 10
4.7310458025
 20
5.4953288925
 30
0.0
 10
4.7250663395
 20
5.4950678161
 30
0.0
 10
4.7197575313
 20
5.494807237
 30
0.0
 10
4.7151314132
 20
5.494547417
 30
0.0
 10
4.7111986602
 20
5.4942885483
 30
0.0
 10
4.7083596454
 20
5.4940632114
 30
0.0
 10
4.7064424366
 20
5.4938782006
 30
0.0
 10
4.7052706966
 20
5.4937481993
 30
0.0
 10
4.7042778411
 20
5.4936186672
 30
0.0
 10
4.7035632473
 20
5.4935058502
 30
0.0
 10
4.7030821529
 20
5.4934133452
 30
0.0
 10
4.702788081
 20
5.4933482227
 30
0.0
 10
4.7025389791
 20
5.4932833847
 30
0.0
 10
4.7023345722
 20
5.4932186283
 30
0.0
 10
4.7021936191
 20
5.4931622946
 30
0.0
 10
4.7021036391
 20
5.4931152152
 30
0.0
 10
4.7020235943
 20
5.4930649169
 30
0.0
 10
4.7019601118
 20
5.493001938
 30
0.0
 10
4.7019601118
 20
5.4929487374
 30
0.0
  0
SPLINE
  5
3D1
100
AcDbEntity
  8
0
100
AcDbSpline
 62
7
  6
CONTINUOUS
 70
0
 71
3
 72
29
 73
25
 74
0
 42
0.0000001
 43
0.0000001
 44
0.0000000001
 40
0.0
 40
0.0
 40
0.0
 40
0.0
 40
0.2340018958
 40
0.4365660096
 40
0.5261971503
 40
0.6080971331
 40
0.6822765638
 40
0.7487331713
 40
0.8074565815
 40
0.8584293466
 40
0.9016271405
 40
0.9203010722
 40
0.9370191977
 40
0.9517767778
 40
0.9645689427
 40
0.97539323
 40
0.9842496775
 40
0.9911384316
 40
0.9938449694
 40
0.9960596389
 40
0.9977824582
 40
0.9990134459
 40
0.9997526202
 40
1.0
 40
1.0
 40
1.0
 40
1.0
 10
5.4610138437
 20
5.7471300278
 30
0.0
 10
5.4620006084
 20
5.7473529294
 30
0.0
 10
5.4638506999
 20
5.7477297385
 30
0.0
 10
5.4660979307
 20
5.7480873123
 30
0.0
 10
5.4677022294
 20
5.7482924276
 30
0.0
 10
5.4687582306
 20
5.7484079366
 30
0.0
 10
5.4697161864
 20
5.7484970999
 30
0.0
 10
5.4705754855
 20
5.7485639405
 30
0.0
 10
5.471335538
 20
5.7486118701
 30
0.0
 10
5.4719957394
 20
5.7486444283
 30
0.0
 10
5.472483263
 20
5.748662428
 30
0.0
 10
5.4728228781
 20
5.7486722557
 30
0.0
 10
5.4730396169
 20
5.748677627
 30
0.0
 10
5.4732309491
 20
5.7486817813
 30
0.0
 10
5.4733968105
 20
5.7486852026
 30
0.0
 10
5.4735371666
 20
5.7486881227
 30
0.0
 10
5.4736520027
 20
5.748690528
 30
0.0
 10
5.4737317622
 20
5.7486921641
 30
0.0
 10
5.4737827966
 20
5.7486932796
 30
0.0
 10
5.4738115359
 20
5.7486937868
 30
0.0
 10
5.473833817
 20
5.7486945063
 30
0.0
 10
5.4738499102
 20
5.7486942832
 30
0.0
 10
5.4738592639
 20
5.748695476
 30
0.0
 10
5.4738637674
 20
5.7486945467
 30
0.0
 10
5.4738647379
 20
5.7486949959
 30
0.0
  0
SPLINE
  5
3D2
100
AcDbEntity
  8
0
100
AcDbSpline
 62
7
  6
CONTINUOUS
 70
0
 71
3
 72
27
 73
23
 74
0
 42
0.0000001
 43
0.0000001
 44
0.0000000001
 40
0.0
 40
0.0
 40
0.0
 40
0.0
 40
0.0853982269
 40
0.170189994
 40
0.2537787642
 40
0.2949417875
 40
0.3355878768
 40
0.4150639297
 40
0.4916819031
 40
0.5649391067
 40
0.6343486023
 40
0.6994302764
 40
0.7597728911
 40
0.8149320751
 40
0.8404249353
 40
0.8644620297
 40
0.8870228638
 40
0.9080829835
 40
0.9275770177
 40
0.9454278548
 40
0.9761062897
 40
1.0
 40
1.0
 40
1.0
 40
1.0
 10
5.0167101118
 20
5.6844279031
 30
0.0
 10
5.0295096756
 20
5.68442792
 30
0.0
 10
5.0550198541
 20
5.6848417182
 30
0.0
 10
5.0930181686
 20
5.6866686165
 30
0.0
 10
5.1243350227
 20
5.6890991912
 30
0.0
 10
5.1490080613
 20
5.6915097357
 30
0.0
 10
5.1730365687
 20
5.6941589823
 30
0.0
 10
5.2022898359
 20
5.6978881402
 30
0.0
 10
5.2363006656
 20
5.7028928009
 30
0.0
 10
5.2687370894
 20
5.7082001226
 30
0.0
 10
5.2993979228
 20
5.7136319048
 30
0.0
 10
5.3280949464
 20
5.7190408538
 30
0.0
 10
5.354648704
 20
5.7242831279
 30
0.0
 10
5.3753513886
 20
5.7285239176
 30
0.0
 10
5.3907084877
 20
5.7317433031
 30
0.0
 10
5.40127769
 20
5.7339885115
 30
0.0
 10
5.4111921823
 20
5.7361182406
 30
0.0
 10
5.4204374563
 20
5.7381211174
 30
0.0
 10
5.4289895738
 20
5.7399893422
 30
0.0
 10
5.4389459135
 20
5.7421842255
 30
0.0
 10
5.44954021
 20
5.7445481836
 30
0.0
 10
5.4575206401
 20
5.746340977
 30
0.0
 10
5.4610138437
 20
5.7471300278
 30
0.0
  0
LINE
  5
3D3
100
AcDbEntity
  8
0
100
AcDbLine
 62
7
  6
CONTINUOUS
 10
5.3103496606
 20
5.5045167089
 11
5.3099295258
 21
5.5044196992
  0
SPLINE
  5
3D4
100
AcDbEntity
  8
0
100
AcDbSpline
 62
7
  6
CONTINUOUS
 70
0
 71
3
 72
62
 73
58
 74
0
 42
0.0000001
 43
0.0000001
 44
0.0000000001
 40
0.0
 40
0.0
 40
0.0
 40
0.0
 40
0.0012298088
 40
0.0027384684
 40
0.0045264414
 40
0.0065936185
 40
0.0115618052
 40
0.0176336646
 40
0.0247972066
 40
0.0330361442
 40
0.042332828
 40
0.0526660237
 40
0.0640126323
 40
0.0763471741
 40
0.1038655266
 40
0.1349718175
 40
0.1693838997
 40
0.2067893779
 40
0.2468486877
 40
0.2891978247
 40
0.3334521028
 40
0.3792094248
 40
0.4260540555
 40
0.473560418
 40
0.5212968255
 40
0.5688295131
 40
0.6157265892
 40
0.6615618978
 40
0.705919057
 40
0.7483950752
 40
0.7886040467
 40
0.8261807804
 40
0.8607838764
 40
0.8920993184
 40
0.9064342388
 40
0.9198430141
 40
0.9322957331
 40
0.9437636172
 40
0.9542213943
 40
0.963644981
 40
0.9720135552
 40
0.9793085456
 40
0.9855137405
 40
0.990616689
 40
0.9927514086
 40
0.9946072206
 40
0.9961838487
 40
0.99748143
 40
0.9980258812
 40
0.9985010902
 40
0.998907591
 40
0.9992463181
 40
0.9995189214
 40
0.9997286368
 40
0.9998120923
 40
0.9998832777
 40
1.0
 40
1.0
 40
1.0
 40
1.0
 10
5.3099295258
 20
5.5044196992
 30
0.0
 10
5.3096935113
 20
5.5043705715
 30
0.0
 10
5.3091649151
 20
5.5042759409
 30
0.0
 10
5.3082869242
 20
5.5041473025
 30
0.0
 10
5.3072433755
 20
5.5040181159
 30
0.0
 10
5.3055235651
 20
5.5038339042
 30
0.0
 10
5.3029638065
 20
5.503609803
 30
0.0
 10
5.2994046662
 20
5.5033525316
 30
0.0
 10
5.2952030158
 20
5.5030943243
 30
0.0
 10
5.2903682619
 20
5.5028352534
 30
0.0
 10
5.2849114154
 20
5.5025757244
 30
0.0
 10
5.2788447933
 20
5.5023158163
 30
0.0
 10
5.2721821921
 20
5.5020556362
 30
0.0
 10
5.2621522653
 20
5.5016951909
 30
0.0
 10
5.2482495408
 20
5.5012505274
 30
0.0
 10
5.2300193248
 20
5.5007330235
 30
0.0
 10
5.2098503064
 20
5.5002146225
 30
0.0
 10
5.1879257632
 20
5.4996955157
 30
0.0
 10
5.1644449649
 20
5.499175935
 30
0.0
 10
5.1396213292
 20
5.4986560045
 30
0.0
 10
5.1136805122
 20
5.4981358253
 30
0.0
 10
5.0868582989
 20
5.4976154701
 30
0.0
 10
5.0593984811
 20
5.4970949982
 30
0.0
 10
5.0315506458
 20
5.4965744592
 30
0.0
 10
5.0035679111
 20
5.4960538976
 30
0.0
 10
4.9757046322
 20
5.4955333561
 30
0.0
 10
4.9482140807
 20
5.4950128788
 30
0.0
 10
4.9213461238
 20
5.4944925151
 30
0.0
 10
4.8953449686
 20
5.4939723226
 30
0.0
 10
4.8704469403
 20
5.4934523759
 30
0.0
 10
4.8468783421
 20
5.4929327654
 30
0.0
 10
4.8248534192
 20
5.4924136418
 30
0.0
 10
4.8045723578
 20
5.491895138
 30
0.0
 10
4.7888468827
 20
5.4914518092
 30
0.0
 10
4.7772753431
 20
5.4910936354
 30
0.0
 10
4.7694001379
 20
5.4908330882
 30
0.0
 10
4.7620872666
 20
5.4905727159
 30
0.0
 10
4.7553532534
 20
5.4903125105
 30
0.0
 10
4.7492134964
 20
5.4900525775
 30
0.0
 10
4.7436818617
 20
5.4897929821
 30
0.0
 10
4.7387709494
 20
5.4895338551
 30
0.0
 10
4.7344918511
 20
5.4892755248
 30
0.0
 10
4.7308542042
 20
5.489018087
 30
0.0
 10
4.7282284202
 20
5.4887940262
 30
0.0
 10
4.7264553397
 20
5.4886100598
 30
0.0
 10
4.7253716572
 20
5.4884807773
 30
0.0
 10
4.7244533805
 20
5.4883519556
 30
0.0
 10
4.7237925044
 20
5.4882397922
 30
0.0
 10
4.7233476218
 20
5.4881478431
 30
0.0
 10
4.7230755964
 20
5.4880831083
 30
0.0
 10
4.7228451628
 20
5.4880185594
 30
0.0
 10
4.7226560855
 20
5.4879542951
 30
0.0
 10
4.7225082596
 20
5.4878902753
 30
0.0
 10
4.7224121194
 20
5.4878336658
 30
0.0
 10
4.722358101
 20
5.4877864503
 30
0.0
 10
4.7223240215
 20
5.4877456171
 30
0.0
 10
4.7223102074
 20
5.4877087501
 30
0.0
 10
4.7223101952
 20
5.4876858696
 30
0.0
  0
SPLINE
  5
3D5
100
AcDbEntity
  8
0
100
AcDbSpline
 62
7
  6
CONTINUOUS
 70
0
 71
3
 72
57
 73
53
 74
0
 42
0.0000001
 43
0.0000001
 44
0.0000000001
 40
0.0
 40
0.0
 40
0.0
 40
0.0
 40
0.0975867728
 40
0.1942096366
 40
0.2889380429
 40
0.3808772734
 40
0.4691870591
 40
0.55306472
 40
0.6317389553
 40
0.6688885757
 40
0.7044674273
 40
0.7383929709
 40
0.7705735294
 40
0.8009198065
 40
0.8293586715
 40
0.8558219712
 40
0.8802469328
 40
0.9025692568
 40
0.9227123461
 40
0.9319426598
 40
0.9406046239
 40
0.9486950081
 40
0.9562105826
 40
0.9631477486
 40
0.9695011482
 40
0.9752648976
 40
0.9804331114
 40
0.9850005894
 40
0.988965174
 40
0.9907209707
 40
0.9923255512
 40
0.9937787513
 40
0.9950804069
 40
0.9962303235
 40
0.9972281611
 40
0.9980735354
 40
0.9984389286
 40
0.9987660618
 40
0.999054887
 40
0.9993053561
 40
0.999517421
 40
0.9996910336
 40
0.9997634053
 40
0.9998261459
 40
0.9998792494
 40
0.9999227098
 40
0.9999565211
 40
0.9999806772
 40
0.9999891327
 40
0.9999951722
 40
0.9999987948
 40
1.0
 40
1.0
 40
1.0
 40
1.0
 10
5.0167101118
 20
5.7019572022
 30
0.0
 10
5.0314622569
 20
5.7019572132
 30
0.0
 10
5.0608233617
 20
5.7024701688
 30
0.0
 10
5.1044516257
 20
5.7047142074
 30
0.0
 10
5.1471381812
 20
5.7082280851
 30
0.0
 10
5.1884641665
 20
5.7127471242
 30
0.0
 10
5.228051783
 20
5.7179694342
 30
0.0
 10
5.2655540678
 20
5.723611249
 30
0.0
 10
5.2953392497
 20
5.7285366113
 30
0.0
 10
5.3178863191
 20
5.7324697809
 30
0.0
 10
5.3337548365
 20
5.7353225352
 30
0.0
 10
5.3488715313
 20
5.7381109093
 30
0.0
 10
5.363199402
 20
5.740814389
 30
0.0
 10
5.3767029626
 20
5.7434126957
 30
0.0
 10
5.3893500207
 20
5.7458878252
 30
0.0
 10
5.4011124318
 20
5.7482224126
 30
0.0
 10
5.4119623849
 20
5.7504045881
 30
0.0
 10
5.4218707793
 20
5.7524225311
 30
0.0
 10
5.4295254439
 20
5.7539965496
 30
0.0
 10
5.4351564101
 20
5.7551594263
 30
0.0
 10
5.4390025935
 20
5.7559559069
 30
0.0
 10
5.4425945126
 20
5.756701913
 30
0.0
 10
5.4459307168
 20
5.7573969459
 30
0.0
 10
5.4490094331
 20
5.7580404756
 30
0.0
 10
5.4518285693
 20
5.7586315407
 30
0.0
 10
5.4543857017
 20
5.7591690789
 30
0.0
 10
5.4566784265
 20
5.7596520526
 30
0.0
 10
5.458704899
 20
5.7600795056
 30
0.0
 10
5.4602265277
 20
5.76040095
 30
0.0
 10
5.4613098595
 20
5.7606301434
 30
0.0
 10
5.4620217345
 20
5.7607809149
 30
0.0
 10
5.4626664118
 20
5.7609176279
 30
0.0
 10
5.4632438158
 20
5.7610402582
 30
0.0
 10
5.4637538437
 20
5.7611487804
 30
0.0
 10
5.4641963701
 20
5.7612431165
 30
0.0
 10
5.4645228806
 20
5.7613128487
 30
0.0
 10
5.4647502229
 20
5.7613614711
 30
0.0
 10
5.4648952869
 20
5.7613925241
 30
0.0
 10
5.4650233578
 20
5.7614199637
 30
0.0
 10
5.4651344158
 20
5.7614437788
 30
0.0
 10
5.4652284404
 20
5.7614639576
 30
0.0
 10
5.4652961404
 20
5.7614784989
 30
0.0
 10
5.4653417672
 20
5.7614883031
 30
0.0
 10
5.4653695873
 20
5.7614942858
 30
0.0
 10
5.4653931221
 20
5.7614993394
 30
0.0
 10
5.4654124155
 20
5.7615035073
 30
0.0
 10
5.4654273409
 20
5.7615066688
 30
0.0
 10
5.4654372918
 20
5.7615089081
 30
0.0
 10
5.4654428242
 20
5.7615099618
 30
0.0
 10
5.4654457984
 20
5.7615108206
 30
0.0
 10
5.465446882
 20
5.7615106621
 30
0.0
 10
5.4654481368
 20
5.7615113329
 30
0.0
 10
5.4654480935
 20
5.761511156
 30
0.0
  0
SPLINE
  5
3D6
100
AcDbEntity
  8
0
100
AcDbSpline
 62
7
  6
CONTINUOUS
 70
0
 71
3
 72
20
 73
16
 74
0
 42
0.0000001
 43
0.0000001
 44
0.0000000001
 40
0.0
 40
0.0
 40
0.0
 40
0.0
 40
0.0592545175
 40
0.1129815108
 40
0.2055497764
 40
0.3478618068
 40
0.4548523907
 40
0.5399748686
 40
0.610156928
 40
0.6694166502
 40
0.7647107791
 40
0.8390201158
 40
0.8998969456
 40
0.9523583847
 40
1.0
 40
1.0
 40
1.0
 40
1.0
 10
5.477735178
 20
5.6629305035
 30
0.0
 10
5.4781594016
 20
5.6629507782
 30
0.0
 10
5.4789678281
 20
5.6630001157
 30
0.0
 10
5.4804353822
 20
5.6631316437
 30
0.0
 10
5.4824885553
 20
5.6633891426
 30
0.0
 10
5.4848985355
 20
5.6638491873
 30
0.0
 10
5.4872112691
 20
5.6644883014
 30
0.0
 10
5.4889801265
 20
5.6651304605
 30
0.0
 10
5.4903824341
 20
5.6657660694
 30
0.0
 10
5.4917927184
 20
5.6665466606
 30
0.0
 10
5.4931339094
 20
5.6675061193
 30
0.0
 10
5.4942857542
 20
5.6687043939
 30
0.0
 10
5.4950061932
 20
5.6698523851
 30
0.0
 10
5.4953927528
 20
5.6709494877
 30
0.0
 10
5.4954732699
 20
5.6716693973
 30
0.0
 10
5.4954732697
 20
5.6720108695
 30
0.0
  0
SPLINE
  5
3D7
100
AcDbEntity
  8
0
100
AcDbSpline
 62
7
  6
CONTINUOUS
 70
0
 71
3
 72
28
 73
24
 74
0
 42
0.0000001
 43
0.0000001
 44
0.0000000001
 40
0.0
 40
0.0
 40
0.0
 40
0.0
 40
0.240455846
 40
0.4449291307
 40
0.5344675533
 40
0.6158326057
 40
0.6891833697
 40
0.7546260971
 40
0.8122340463
 40
0.8620717452
 40
0.9041918586
 40
0.9386346392
 40
0.9529864404
 40
0.9654283003
 40
0.9759617235
 40
0.9845874275
 40
0.991305343
 40
0.9939486561
 40
0.9961146384
 40
0.9978030609
 40
0.9990136465
 40
0.999746073
 40
1.0
 40
1.0
 40
1.0
 40
1.0
 10
5.4754732697
 20
5.7339555006
 30
0.0
 10
5.4760562329
 20
5.7341917706
 30
0.0
 10
5.4771520004
 20
5.7345885963
 30
0.0
 10
5.4785019563
 20
5.7349581466
 30
0.0
 10
5.4794628358
 20
5.7351614892
 30
0.0
 10
5.4800923028
 20
5.7352719374
 30
0.0
 10
5.4806625052
 20
5.7353534917
 30
0.0
 10
5.4811728773
 20
5.7354129674
 30
0.0
 10
5.4816232138
 20
5.7354551516
 30
0.0
 10
5.4820135487
 20
5.735482537
 30
0.0
 10
5.4823438745
 20
5.7354980018
 30
0.0
 10
5.4825816624
 20
5.7355035901
 30
0.0
 10
5.482741856
 20
5.7355043702
 30
0.0
 10
5.4828395018
 20
5.7355036913
 30
0.0
 10
5.4829221569
 20
5.7355021439
 30
0.0
 10
5.4829898179
 20
5.7355000657
 30
0.0
 10
5.4830368347
 20
5.7354980826
 30
0.0
 10
5.4830669409
 20
5.7354964819
 30
0.0
 10
5.4830839251
 20
5.7354955342
 30
0.0
 10
5.4830971067
 20
5.7354945462
 30
0.0
 10
5.4831066734
 20
5.7354941479
 30
0.0
 10
5.4831122396
 20
5.7354931812
 30
0.0
 10
5.4831149814
 20
5.7354934832
 30
0.0
 10
5.483115568
 20
5.7354931715
 30
0.0
  0
SPLINE
  5
3D8
100
AcDbEntity
  8
0
100
AcDbSpline
 62
7
  6
CONTINUOUS
 70
0
 71
3
 72
63
 73
59
 74
0
 42
0.0000001
 43
0.0000001
 44
0.0000000001
 40
0.0
 40
0.0
 40
0.0
 40
0.0
 40
0.0010305488
 40
0.0023428763
 40
0.0039379092
 40
0.0058154627
 40
0.0079749741
 40
0.0104156864
 40
0.0161361879
 40
0.0229645197
 40
0.0308862536
 40
0.0398832882
 40
0.0499354205
 40
0.0610198261
 40
0.0731109087
 40
0.1002008843
 40
0.1309571577
 40
0.1650974078
 40
0.2023081681
 40
0.2422476303
 40
0.284548844
 40
0.3288231691
 40
0.3746637636
 40
0.4216493439
 40
0.4693481802
 40
0.5173217944
 40
0.5651293801
 40
0.6123315063
 40
0.6584944184
 40
0.7031939143
 40
0.7460192019
 40
0.7865768078
 40
0.8244940777
 40
0.8594226492
 40
0.8756647097
 40
0.8910418262
 40
0.9055184197
 40
0.9190613758
 40
0.9316397528
 40
0.9432244591
 40
0.9537894533
 40
0.9633100455
 40
0.9717652419
 40
0.979135424
 40
0.9854046854
 40
0.9905593093
 40
0.9927153186
 40
0.9945893618
 40
0.996180879
 40
0.9974896931
 40
0.9980383526
 40
0.9985168556
 40
0.9989256789
 40
0.9992656229
 40
0.9995381323
 40
0.9996499814
 40
0.9997463072
 40
1.0
 40
1.0
 40
1.0
 40
1.0
 10
5.3306391843
 20
5.5442277072
 30
0.0
 10
5.330429109
 20
5.5441769895
 30
0.0
 10
5.329946958
 20
5.5440808694
 30
0.0
 10
5.3291311793
 20
5.5439521338
 30
0.0
 10
5.3281360379
 20
5.5438226816
 30
0.0
 10
5.3269620956
 20
5.5436926645
 30
0.0
 10
5.3256099074
 20
5.5435623017
 30
0.0
 10
5.323453407
 20
5.543378295
 30
0.0
 10
5.3203179803
 20
5.5431531048
 30
0.0
 10
5.3160330057
 20
5.5428936234
 30
0.0
 10
5.3110598848
 20
5.5426334087
 30
0.0
 10
5.3054099536
 20
5.542372545
 30
0.0
 10
5.2990961851
 20
5.5421112937
 30
0.0
 10
5.2921330944
 20
5.5418497279
 30
0.0
 10
5.2815984273
 20
5.5414867773
 30
0.0
 10
5.2669390127
 20
5.5410393851
 30
0.0
 10
5.2476560022
 20
5.5405191735
 30
0.0
 10
5.2262499485
 20
5.5399979991
 30
0.0
 10
5.202917639
 20
5.5394760641
 30
0.0
 10
5.1778735524
 20
5.5389536226
 30
0.0
 10
5.151347909
 20
5.5384308085
 30
0.0
 10
5.1235845476
 20
5.5379077296
 30
0.0
 10
5.0948386886
 20
5.5373844632
 30
0.0
 10
5.0653745805
 20
5.5368610715
 30
0.0
 10
5.0354631004
 20
5.5363376063
 30
0.0
 10
5.0053792163
 20
5.5358141135
 30
0.0
 10
4.97539951
 20
5.5352906372
 30
0.0
 10
4.9457995736
 20
5.5347672227
 30
0.0
 10
4.9168515198
 20
5.53424392
 30
0.0
 10
4.8888214602
 20
5.5337207888
 30
0.0
 10
4.8619670671
 20
5.5331978994
 30
0.0
 10
4.8365352133
 20
5.5326753595
 30
0.0
 10
4.8127596995
 20
5.5321532658
 30
0.0
 10
4.7940828217
 20
5.5317086747
 30
0.0
 10
4.7801320469
 20
5.5313501974
 30
0.0
 10
4.7704691004
 20
5.5310879748
 30
0.0
 10
4.7613723862
 20
5.5308258481
 30
0.0
 10
4.7528628364
 20
5.530563835
 30
0.0
 10
4.744960031
 20
5.5303019776
 30
0.0
 10
4.737682081
 20
5.5300402976
 30
0.0
 10
4.7310458025
 20
5.5297788925
 30
0.0
 10
4.7250663395
 20
5.5295178161
 30
0.0
 10
4.7197575313
 20
5.529257237
 30
0.0
 10
4.7151314132
 20
5.528997417
 30
0.0
 10
4.7111986602
 20
5.5287385483
 30
0.0
 10
4.7083596454
 20
5.5285132114
 30
0.0
 10
4.7064424366
 20
5.5283282006
 30
0.0
 10
4.7052706966
 20
5.5281981993
 30
0.0
 10
4.7042778411
 20
5.5280686672
 30
0.0
 10
4.7035632473
 20
5.5279558502
 30
0.0
 10
4.7030821529
 20
5.5278633452
 30
0.0
 10
4.702788081
 20
5.5277982227
 30
0.0
 10
4.7025389791
 20
5.5277333847
 30
0.0
 10
4.7023345722
 20
5.5276686283
 30
0.0
 10
4.7021936191
 20
5.5276122946
 30
0.0
 10
4.7021036391
 20
5.5275652152
 30
0.0
 10
4.7020235943
 20
5.5275149169
 30
0.0
 10
4.7019601118
 20
5.527451938
 30
0.0
 10
4.7019601118
 20
5.5273987374
 30
0.0
  0
SPLINE
  5
3D9
100
AcDbEntity
  8
0
100
AcDbSpline
 62
7
  6
CONTINUOUS
 70
0
 71
3
 72
18
 73
14
 74
0
 42
0.0000001
 43
0.0000001
 44
0.0000000001
 40
0.0
 40
0.0
 40
0.0
 40
0.0
 40
0.0475901511
 40
0.0999978367
 40
0.1608182528
 40
0.2350705157
 40
0.3303073554
 40
0.3895423949
 40
0.4597042224
 40
0.5448280383
 40
0.6518348825
 40
0.7942741767
 40
1.0
 40
1.0
 40
1.0
 40
1.0
 10
4.5379469539
 20
5.6720108694
 30
0.0
 10
4.5379469536
 20
5.671669258
 30
0.0
 10
4.5380275373
 20
5.6709490317
 30
0.0
 10
4.5384144475
 20
5.6698514453
 30
0.0
 10
4.5391355957
 20
5.6687029408
 30
0.0
 10
4.5402885833
 20
5.6675040334
 30
0.0
 10
4.541631322
 20
5.6665442208
 30
0.0
 10
4.5430433246
 20
5.6657633099
 30
0.0
 10
4.5444476225
 20
5.6651272542
 30
0.0
 10
4.5462194962
 20
5.66448534
 30
0.0
 10
4.5485367968
 20
5.663844989
 30
0.0
 10
4.5517502712
 20
5.6632349004
 30
0.0
 10
4.554243654
 20
5.6629985699
 30
0.0
 10
4.5557187429
 20
5.6629287573
 30
0.0
  0
LINE
  5
3DA
100
AcDbEntity
  8
0
100
AcDbLine
 62
7
  6
CONTINUOUS
 10
5.3103496627
 20
5.5389667091
 11
5.3098851928
 21
5.5388605358
  0
SPLINE
  5
3DB
100
AcDbEntity
  8
0
100
AcDbSpline
 62
7
  6
CONTINUOUS
 70
0
 71
3
 72
62
 73
58
 74
0
 42
0.0000001
 43
0.0000001
 44
0.0000000001
 40
0.0
 40
0.0
 40
0.0
 40
0.0
 40
0.0012487183
 40
0.0027761981
 40
0.0045825968
 40
0.006667606
 40
0.0116707611
 40
0.0177762949
 40
0.0249714762
 40
0.0332409982
 40
0.0425659767
 40
0.0529262243
 40
0.0642978068
 40
0.0766555345
 40
0.1042147867
 40
0.1353546305
 40
0.1697928829
 40
0.2072172401
 40
0.2472881192
 40
0.2896419955
 40
0.3338945348
 40
0.3796441209
 40
0.4264756426
 40
0.4739639021
 40
0.5216779759
 40
0.5691847009
 40
0.6160529419
 40
0.6618573587
 40
0.7061821595
 40
0.7486251352
 40
0.7888010179
 40
0.826345354
 40
0.8609175981
 40
0.8922042609
 40
0.9065257218
 40
0.9199218496
 40
0.9323623958
 40
0.943819441
 40
0.9542666682
 40
0.9636812081
 40
0.9720413258
 40
0.979329044
 40
0.9855281495
 40
0.990625699
 40
0.9927584723
 40
0.9946125484
 40
0.9961874565
 40
0.9974835598
 40
0.9980274434
 40
0.998502238
 40
0.9989084563
 40
0.9992469733
 40
0.9995193813
 40
0.9997288966
 40
0.9998122615
 40
0.9998833702
 40
1.0
 40
1.0
 40
1.0
 40
1.0
 10
5.3098851928
 20
5.5388605358
 30
0.0
 10
5.3096453884
 20
5.5388115262
 30
0.0
 10
5.3091093083
 20
5.5387170309
 30
0.0
 10
5.3082202606
 20
5.5385884233
 30
0.0
 10
5.3071659137
 20
5.5384592788
 30
0.0
 10
5.3054321815
 20
5.5382752245
 30
0.0
 10
5.3028555997
 20
5.5380512629
 30
0.0
 10
5.2992770206
 20
5.5377940968
 30
0.0
 10
5.2950568586
 20
5.537535969
 30
0.0
 10
5.2902047021
 20
5.5372770487
 30
0.0
 10
5.2847314096
 20
5.5370176199
 30
0.0
 10
5.2786494906
 20
5.5367578612
 30
0.0
 10
5.2719726443
 20
5.536497807
 30
0.0
 10
5.2619260135
 20
5.5361376035
 30
0.0
 10
5.2480052035
 20
5.5356932014
 30
0.0
 10
5.2297566523
 20
5.53517596
 30
0.0
 10
5.2095737674
 20
5.5346578277
 30
0.0
 10
5.1876398039
 20
5.5341389944
 30
0.0
 10
5.1641539074
 20
5.5336196889
 30
0.0
 10
5.1393293192
 20
5.5331000363
 30
0.0
 10
5.1133914208
 20
5.5325801363
 30
0.0
 10
5.086575693
 20
5.5320600617
 30
0.0
 10
5.0591256179
 20
5.5315398716
 30
0.0
 10
5.031290417
 20
5.5310196146
 30
0.0
 10
5.003322847
 20
5.5304993354
 30
0.0
 10
4.9754768275
 20
5.5299790764
 30
0.0
 10
4.9480051845
 20
5.529458882
 30
0.0
 10
4.9211573421
 20
5.5289388017
 30
0.0
 10
4.8951770598
 20
5.5284188928
 30
0.0
 10
4.8703002503
 20
5.5278992297
 30
0.0
 10
4.8467527765
 20
5.5273799021
 30
0.0
 10
4.8247484302
 20
5.5268610609
 30
0.0
 10
4.8044869667
 20
5.526342839
 30
0.0
 10
4.7887770273
 20
5.5258997523
 30
0.0
 10
4.7772171359
 20
5.5255417688
 30
0.0
 10
4.7693500394
 20
5.5252813717
 30
0.0
 10
4.7620447207
 20
5.5250211267
 30
0.0
 10
4.7553178031
 20
5.5247610846
 30
0.0
 10
4.749184485
 20
5.5245012713
 30
0.0
 10
4.7436587739
 20
5.5242418375
 30
0.0
 10
4.7387530962
 20
5.5239828419
 30
0.0
 10
4.7344786046
 20
5.5237246473
 30
0.0
 10
4.7308449132
 20
5.5234673758
 30
0.0
 10
4.7282219684
 20
5.5232434005
 30
0.0
 10
4.7264508029
 20
5.5230595546
 30
0.0
 10
4.7253682616
 20
5.5229303534
 30
0.0
 10
4.7244510244
 20
5.5228015951
 30
0.0
 10
4.7237909403
 20
5.5226894842
 30
0.0
 10
4.7233465757
 20
5.5225975843
 30
0.0
 10
4.723074819
 20
5.5225328844
 30
0.0
 10
4.7228445786
 20
5.522468374
 30
0.0
 10
4.7226556462
 20
5.5224041501
 30
0.0
 10
4.7225079456
 20
5.5223401711
 30
0.0
 10
4.722411908
 20
5.5222835885
 30
0.0
 10
4.7223579732
 20
5.5222363951
 30
0.0
 10
4.7223239583
 20
5.5221955776
 30
0.0
 10
4.7223102004
 20
5.5221587301
 30
0.0
 10
4.7223102097
 20
5.5221358695
 30
0.0
  0
SPLINE
  5
3DC
100
AcDbEntity
  8
0
100
AcDbSpline
 62
7
  6
CONTINUOUS
 70
0
 71
3
 72
55
 73
51
 74
0
 42
0.0000001
 43
0.0000001
 44
0.0000000001
 40
0.0
 40
0.0
 40
0.0
 40
0.0
 40
0.0001128487
 40
0.0002596562
 40
0.000457645
 40
0.0007139239
 40
0.0010316698
 40
0.001412476
 40
0.0018572268
 40
0.0023664457
 40
0.003579402
 40
0.0050528135
 40
0.0067871488
 40
0.0087821368
 40
0.0110369688
 40
0.013550692
 40
0.01935056
 40
0.0261710095
 40
0.0339977836
 40
0.042815523
 40
0.0526054247
 40
0.0633473935
 40
0.0750190604
 40
0.0875956041
 40
0.1010512259
 40
0.1304836712
 40
0.1630693816
 40
0.1985345941
 40
0.2365811903
 40
0.2768891737
 40
0.3191195584
 40
0.3629172345
 40
0.4079138683
 40
0.4537309421
 40
0.4999830933
 40
0.5462811969
 40
0.6374606323
 40
0.7242078439
 40
0.7650006973
 40
0.8036105559
 40
0.8397128114
 40
0.8730038737
 40
0.9032039589
 40
0.9300593548
 40
0.9533450587
 40
0.9728658316
 40
0.9811625672
 40
0.9884605144
 40
0.9947442128
 40
1.0
 40
1.0
 40
1.0
 40
1.0
 10
5.3111100196
 20
5.1816108696
 30
0.0
 10
5.3111100296
 20
5.1815889379
 30
0.0
 10
5.3110918358
 20
5.1815386053
 30
0.0
 10
5.3110268422
 20
5.1814759372
 30
0.0
 10
5.3109271884
 20
5.1814142324
 30
0.0
 10
5.31079001
 20
5.1813527075
 30
0.0
 10
5.3106149508
 20
5.1812908096
 30
0.0
 10
5.3104015139
 20
5.18122871
 30
0.0
 10
5.3101496457
 20
5.1811664133
 30
0.0
 10
5.3097378547
 20
5.1810779557
 30
0.0
 10
5.309126072
 20
5.1809700262
 30
0.0
 10
5.3082758478
 20
5.1808460656
 30
0.0
 10
5.3072723307
 20
5.1807216987
 30
0.0
 10
5.3061160053
 20
5.1805969875
 30
0.0
 10
5.3048074622
 20
5.1804720429
 30
0.0
 10
5.3027609985
 20
5.1802967613
 30
0.0
 10
5.2998275474
 20
5.1800814751
 30
0.0
 10
5.2958614784
 20
5.1798328125
 30
0.0
 10
5.2913079355
 20
5.1795835133
 30
0.0
 10
5.2861765623
 20
5.1793337489
 30
0.0
 10
5.2804780493
 20
5.1790836409
 30
0.0
 10
5.2742244148
 20
5.1788332932
 30
0.0
 10
5.2674288176
 20
5.1785827703
 30
0.0
 10
5.2601055081
 20
5.1783320823
 30
0.0
 10
5.2493316866
 20
5.1779873104
 30
0.0
 10
5.2346698338
 20
5.1775605497
 30
0.0
 10
5.2157308788
 20
5.1770616109
 30
0.0
 10
5.1951172821
 20
5.1765620712
 30
0.0
 10
5.1730024969
 20
5.1760620578
 30
0.0
 10
5.1495726194
 20
5.1755617129
 30
0.0
 10
5.1250248058
 20
5.1750611228
 30
0.0
 10
5.0995655935
 20
5.1745603569
 30
0.0
 10
5.0734091941
 20
5.1740594689
 30
0.0
 10
5.0467756931
 20
5.1735585018
 30
0.0
 10
5.0198892133
 20
5.1730574978
 30
0.0
 10
4.9841882548
 20
5.172392883
 30
0.0
 10
4.9406187686
 20
5.1715729399
 30
0.0
 10
4.8981197564
 20
5.1707339825
 30
0.0
 10
4.8658363517
 20
5.1700527601
 30
0.0
 10
4.8433939796
 20
5.1695526459
 30
0.0
 10
4.8224099241
 20
5.1690529746
 30
0.0
 10
4.8030607554
 20
5.1685539037
 30
0.0
 10
4.7855093066
 20
5.1680556499
 30
0.0
 10
4.7699031739
 20
5.167558747
 30
0.0
 10
4.7563736725
 20
5.1670634897
 30
0.0
 10
4.7464511196
 20
5.1666336781
 30
0.0
 10
4.7396356199
 20
5.1662815619
 30
0.0
 10
4.7353908894
 20
5.1660325538
 30
0.0
 10
4.7317382787
 20
5.1657843675
 30
0.0
 10
4.7295027817
 20
5.165603849
 30
0.0
 10
4.7284855807
 20
5.1655108696
 30
0.0
  0
SPLINE
  5
3DD
100
AcDbEntity
  8
0
100
AcDbSpline
 62
7
  6
CONTINUOUS
 70
0
 71
3
 72
63
 73
59
 74
0
 42
0.0000001
 43
0.0000001
 44
0.0000000001
 40
0.0
 40
0.0
 40
0.0
 40
0.0
 40
0.0001173745
 40
0.0001890798
 40
0.0002732254
 40
0.000484875
 40
0.0007601778
 40
0.0011023797
 40
0.0015131344
 40
0.0019933757
 40
0.0025436221
 40
0.0038550746
 40
0.0054486151
 40
0.0073243808
 40
0.0094820952
 40
0.0146399048
 40
0.020911602
 40
0.0282845082
 40
0.0367418957
 40
0.0462649304
 40
0.056832142
 40
0.0684190572
 40
0.0809997652
 40
0.0945448436
 40
0.1090238175
 40
0.1406474138
 40
0.1755803386
 40
0.2135018915
 40
0.2540635593
 40
0.2968926834
 40
0.3415955643
 40
0.3877613843
 40
0.4349658617
 40
0.4827750464
 40
0.5307495731
 40
0.5784483425
 40
0.6254329635
 40
0.6712715681
 40
0.7155428446
 40
0.7578399471
 40
0.7977741525
 40
0.8349784579
 40
0.8691111036
 40
0.8998586431
 40
0.926939025
 40
0.9390252923
 40
0.9501041626
 40
0.9601509776
 40
0.9691424384
 40
0.9770584628
 40
0.9838814435
 40
0.9895961728
 40
0.9920344544
 40
0.9941916582
 40
0.9960667827
 40
0.9976595481
 40
0.9989702374
 40
1.0
 40
1.0
 40
1.0
 40
1.0
 10
5.3111100232
 20
5.2160608695
 30
0.0
 10
5.3111100119
 20
5.2160378443
 30
0.0
 10
5.3110960093
 20
5.2160007303
 30
0.0
 10
5.3110615512
 20
5.2159596919
 30
0.0
 10
5.3110068896
 20
5.21591219
 30
0.0
 10
5.3109096283
 20
5.2158552612
 30
0.0
 10
5.310760099
 20
5.2157908771
 30
0.0
 10
5.3105688311
 20
5.2157262453
 30
0.0
 10
5.3103357203
 20
5.2156613242
 30
0.0
 10
5.3100605319
 20
5.2155962166
 30
0.0
 10
5.3096104725
 20
5.2155037335
 30
0.0
 10
5.3089419303
 20
5.2153909202
 30
0.0
 10
5.3080130216
 20
5.2152613521
 30
0.0
 10
5.3069167968
 20
5.2151313203
 30
0.0
 10
5.3051232227
 20
5.2149462917
 30
0.0
 10
5.3024671892
 20
5.2147209332
 30
0.0
 10
5.2987877777
 20
5.2144620034
 30
0.0
 10
5.294459785
 20
5.2142021806
 30
0.0
 10
5.2894930534
 20
5.2139415487
 30
0.0
 10
5.2838989619
 20
5.2136804535
 30
0.0
 10
5.2776903753
 20
5.2134190121
 30
0.0
 10
5.2708814983
 20
5.2131573012
 30
0.0
 10
5.2634880687
 20
5.2128954207
 30
0.0
 10
5.2555269848
 20
5.2126333632
 30
0.0
 10
5.2438315137
 20
5.2122731426
 30
0.0
 10
5.2279410994
 20
5.211827279
 30
0.0
 10
5.2074523771
 20
5.2113057819
 30
0.0
 10
5.185209779
 20
5.2107836615
 30
0.0
 10
5.1614178092
 20
5.210261053
 30
0.0
 10
5.1362952598
 20
5.2097381075
 30
0.0
 10
5.1100731288
 20
5.2092149164
 30
0.0
 10
5.0829925289
 20
5.2086915549
 30
0.0
 10
5.0553024605
 20
5.2081680815
 30
0.0
 10
5.0272575192
 20
5.2076445464
 30
0.0
 10
4.9991155967
 20
5.2071209951
 30
0.0
 10
4.9711354555
 20
5.2065974711
 30
0.0
 10
4.9435743881
 20
5.2060740208
 30
0.0
 10
4.9166858092
 20
5.205550696
 30
0.0
 10
4.8907169505
 20
5.2050275589
 30
0.0
 10
4.8659065894
 20
5.204504687
 30
0.0
 10
4.8424828625
 20
5.2039821883
 30
0.0
 10
4.8206611592
 20
5.2034601969
 30
0.0
 10
4.8006421264
 20
5.2029389648
 30
0.0
 10
4.7826098056
 20
5.2024187011
 30
0.0
 10
4.7689020651
 20
5.201971242
 30
0.0
 10
4.7590521312
 20
5.201608261
 30
0.0
 10
4.7525422209
 20
5.2013466524
 30
0.0
 10
4.7466399344
 20
5.2010853811
 30
0.0
 10
4.7413587533
 20
5.2008244907
 30
0.0
 10
4.7367108075
 20
5.2005642337
 30
0.0
 10
4.7327067669
 20
5.2003047625
 30
0.0
 10
4.7297774583
 20
5.2000795055
 30
0.0
 10
4.7277632709
 20
5.1998954766
 30
0.0
 10
4.7265006114
 20
5.1997651046
 30
0.0
 10
4.725404786
 20
5.199635065
 30
0.0
 10
4.7244762476
 20
5.1995055815
 30
0.0
 10
4.7237154087
 20
5.1993768304
 30
0.0
 10
4.7232660986
 20
5.1992807246
 30
0.0
 10
4.7230705557
 20
5.1992300302
 30
0.0
  0
SPLINE
  5
3DE
100
AcDbEntity
  8
0
100
AcDbSpline
 62
7
  6
CONTINUOUS
 70
0
 71
3
 72
63
 73
59
 74
0
 42
0.0000001
 43
0.0000001
 44
0.0000000001
 40
0.0
 40
0.0
 40
0.0
 40
0.0
 40
0.0001173663
 40
0.0001890828
 40
0.000273253
 40
0.0004849829
 40
0.0007603818
 40
0.0011026613
 40
0.0015134407
 40
0.0019936237
 40
0.0025437524
 40
0.0038550325
 40
0.0054486811
 40
0.007324638
 40
0.0094823645
 40
0.0146398741
 40
0.0209119023
 40
0.0282845073
 40
0.0367421078
 40
0.0462650532
 40
0.0568322213
 40
0.0684193209
 40
0.0809997825
 40
0.0945451362
 40
0.1090238339
 40
0.1406475468
 40
0.1755805891
 40
0.2135021243
 40
0.254063769
 40
0.296892801
 40
0.3415956587
 40
0.3877615198
 40
0.4349659927
 40
0.4827752401
 40
0.530749701
 40
0.5784484744
 40
0.625433123
 40
0.6712717454
 40
0.7155431042
 40
0.7578401473
 40
0.7977742762
 40
0.8349785104
 40
0.8691111471
 40
0.8998587952
 40
0.9269392707
 40
0.9390252845
 40
0.9501044734
 40
0.9601510036
 40
0.969142696
 40
0.9770585847
 40
0.9838815309
 40
0.9895964184
 40
0.9920345064
 40
0.9941916371
 40
0.9960669647
 40
0.9976598705
 40
0.9989704237
 40
1.0
 40
1.0
 40
1.0
 40
1.0
 10
5.3111101103
 20
5.2505108696
 30
0.0
 10
5.3111101141
 20
5.250487846
 30
0.0
 10
5.311096113
 20
5.2504507235
 30
0.0
 10
5.3110616415
 20
5.25040969
 30
0.0
 10
5.3110069498
 20
5.2503621875
 30
0.0
 10
5.3109096408
 20
5.2503052629
 30
0.0
 10
5.3107600568
 20
5.250240881
 30
0.0
 10
5.3105687476
 20
5.2501762505
 30
0.0
 10
5.3103356279
 20
5.25011133
 30
0.0
 10
5.3100604709
 20
5.2500462191
 30
0.0
 10
5.309610483
 20
5.2499537274
 30
0.0
 10
5.308941978
 20
5.2498409056
 30
0.0
 10
5.3080130422
 20
5.2497113509
 30
0.0
 10
5.3069167551
 20
5.2495813271
 30
0.0
 10
5.3051232003
 20
5.249396298
 30
0.0
 10
5.3024671606
 20
5.2491709121
 30
0.0
 10
5.2987877992
 20
5.2489120236
 30
0.0
 10
5.2944597612
 20
5.2486521646
 30
0.0
 10
5.2894930631
 20
5.248391557
 30
0.0
 10
5.2838989564
 20
5.2481304511
 30
0.0
 10
5.2776903597
 20
5.2478690087
 30
0.0
 10
5.2708815032
 20
5.2476073079
 30
0.0
 10
5.2634880323
 20
5.247345412
 30
0.0
 10
5.2555269965
 20
5.2470833706
 30
0.0
 10
5.2438315034
 20
5.2467231339
 30
0.0
 10
5.2279410972
 20
5.2462772815
 30
0.0
 10
5.2074523328
 20
5.2457557816
 30
0.0
 10
5.1852097198
 20
5.2452336619
 30
0.0
 10
5.1614177764
 20
5.2447110527
 30
0.0
 10
5.1362952544
 20
5.244188107
 30
0.0
 10
5.1100731383
 20
5.2436649159
 30
0.0
 10
5.0829925361
 20
5.2431415546
 30
0.0
 10
5.0553024485
 20
5.2426180815
 30
0.0
 10
5.027257509
 20
5.2420945465
 30
0.0
 10
4.9991155867
 20
5.2415709948
 30
0.0
 10
4.9711354524
 20
5.2410474706
 30
0.0
 10
4.9435743757
 20
5.2405240204
 30
0.0
 10
4.916685772
 20
5.2400006957
 30
0.0
 10
4.8907169056
 20
5.2394775591
 30
0.0
 10
4.8659065553
 20
5.2389546872
 30
0.0
 10
4.8424828693
 20
5.238432188
 30
0.0
 10
4.820661197
 20
5.2379101957
 30
0.0
 10
4.8006421588
 20
5.2373889648
 30
0.0
 10
4.7826098005
 20
5.236868697
 30
0.0
 10
4.7689020696
 20
5.2364212521
 30
0.0
 10
4.7590521054
 20
5.2360582507
 30
0.0
 10
4.7525422375
 20
5.235796664
 30
0.0
 10
4.7466399
 20
5.2355353695
 30
0.0
 10
4.7413587552
 20
5.2352744978
 30
0.0
 10
4.7367107977
 20
5.2350142332
 30
0.0
 10
4.7327067602
 20
5.2347547532
 30
0.0
 10
4.7297774635
 20
5.2345295195
 30
0.0
 10
4.7277632989
 20
5.2343454738
 30
0.0
 10
4.7265006529
 20
5.2342150933
 30
0.0
 10
4.7254047729
 20
5.2340850645
 30
0.0
 10
4.7244761915
 20
5.2339555946
 30
0.0
 10
4.7237153895
 20
5.2338268368
 30
0.0
 10
4.723266146
 20
5.2337307224
 30
0.0
 10
4.7230706403
 20
5.2336800301
 30
0.0
  0
SPLINE
  5
3DF
100
AcDbEntity
  8
0
100
AcDbSpline
 62
7
  6
CONTINUOUS
 70
0
 71
3
 72
63
 73
59
 74
0
 42
0.0000001
 43
0.0000001
 44
0.0000000001
 40
0.0
 40
0.0
 40
0.0
 40
0.0
 40
0.0001173458
 40
0.0001890255
 40
0.0002731471
 40
0.0004847769
 40
0.0007601292
 40
0.0011024393
 40
0.0015133003
 40
0.0019935846
 40
0.0025438011
 40
0.0038550859
 40
0.0054485045
 40
0.0073243996
 40
0.0094822997
 40
0.0146398594
 40
0.020911699
 40
0.028284573
 40
0.0367418493
 40
0.0462650983
 40
0.0568320441
 40
0.0684192339
 40
0.080999718
 40
0.0945449408
 40
0.1090238821
 40
0.1406475353
 40
0.1755804919
 40
0.2135019613
 40
0.2540635473
 40
0.2968926572
 40
0.3415955515
 40
0.3877614357
 40
0.4349658995
 40
0.4827750836
 40
0.5307495783
 40
0.5784483572
 40
0.6254330192
 40
0.6712716332
 40
0.7155428789
 40
0.7578399248
 40
0.7977740631
 40
0.8349783806
 40
0.8691111236
 40
0.8998587569
 40
0.9269391608
 40
0.9390251765
 40
0.9501042055
 40
0.9601509819
 40
0.9691423785
 40
0.9770586016
 40
0.9838812909
 40
0.9895963107
 40
0.992034527
 40
0.9941915169
 40
0.9960666633
 40
0.997659605
 40
0.9989703951
 40
1.0
 40
1.0
 40
1.0
 40
1.0
 10
5.3111100067
 20
5.2849608696
 30
0.0
 10
5.3111100148
 20
5.28493785
 30
0.0
 10
5.3110960469
 20
5.2849007325
 30
0.0
 10
5.3110616151
 20
5.2848596907
 30
0.0
 10
5.3110069748
 20
5.2848121844
 30
0.0
 10
5.3109097121
 20
5.2847552524
 30
0.0
 10
5.3107601512
 20
5.2846908733
 30
0.0
 10
5.3105688265
 20
5.2846262478
 30
0.0
 10
5.3103356625
 20
5.2845613302
 30
0.0
 10
5.3100604505
 20
5.2844962213
 30
0.0
 10
5.3096104223
 20
5.284403737
 30
0.0
 10
5.3089419449
 20
5.284290916
 30
0.0
 10
5.3080130686
 20
5.2841613417
 30
0.0
 10
5.3069168043
 20
5.2840313201
 30
0.0
 10
5.3051232155
 20
5.2838463091
 30
0.0
 10
5.3024671696
 20
5.2836209158
 30
0.0
 10
5.2987877833
 20
5.2833620118
 30
0.0
 10
5.2944597912
 20
5.2831021807
 30
0.0
 10
5.2894930457
 20
5.2828415424
 30
0.0
 10
5.283898985
 20
5.282580463
 30
0.0
 10
5.2776903551
 20
5.2823190017
 30
0.0
 10
5.2708815191
 20
5.2820573104
 30
0.0
 10
5.2634880514
 20
5.2817954145
 30
0.0
 10
5.2555269887
 20
5.2815333665
 30
0.0
 10
5.2438314841
 20
5.2811731399
 30
0.0
 10
5.2279410577
 20
5.2807272804
 30
0.0
 10
5.2074523333
 20
5.2802057823
 30
0.0
 10
5.18520976
 20
5.2796836616
 30
0.0
 10
5.1614178242
 20
5.2791610525
 30
0.0
 10
5.1362952895
 20
5.2786381072
 30
0.0
 10
5.1100731446
 20
5.2781149163
 30
0.0
 10
5.0829925306
 20
5.2775915551
 30
0.0
 10
5.0553024508
 20
5.2770680817
 30
0.0
 10
5.0272575169
 20
5.2765445465
 30
0.0
 10
4.9991155974
 20
5.2760209948
 30
0.0
 10
4.9711354509
 20
5.2754974709
 30
0.0
 10
4.9435743703
 20
5.2749740209
 30
0.0
 10
4.9166857859
 20
5.2744506962
 30
0.0
 10
4.890716941
 20
5.2739275591
 30
0.0
 10
4.8659066089
 20
5.273404687
 30
0.0
 10
4.8424829025
 20
5.2728821879
 30
0.0
 10
4.8206611896
 20
5.2723601958
 30
0.0
 10
4.8006421158
 20
5.2718389653
 30
0.0
 10
4.7826097522
 20
5.2713186996
 30
0.0
 10
4.7689020372
 20
5.2708712492
 30
0.0
 10
4.7590521172
 20
5.2705082549
 30
0.0
 10
4.752542232
 20
5.2702466554
 30
0.0
 10
4.7466399342
 20
5.269985383
 30
0.0
 10
4.7413587346
 20
5.269724482
 30
0.0
 10
4.7367108179
 20
5.2694642485
 30
0.0
 10
4.7327067404
 20
5.2692047443
 30
0.0
 10
4.7297774428
 20
5.2689795134
 30
0.0
 10
4.727763253
 20
5.2687954831
 30
0.0
 10
4.7265006457
 20
5.2686650962
 30
0.0
 10
4.7254048233
 20
5.2685350579
 30
0.0
 10
4.7244762247
 20
5.2684055815
 30
0.0
 10
4.7237153594
 20
5.2682768456
 30
0.0
 10
4.723266062
 20
5.2681807304
 30
0.0
 10
4.7230705526
 20
5.26813003
 30
0.0
  0
SPLINE
  5
3E0
100
AcDbEntity
  8
0
100
AcDbSpline
 62
7
  6
CONTINUOUS
 70
0
 71
3
 72
29
 73
25
 74
0
 42
0.0000001
 43
0.0000001
 44
0.0000000001
 40
0.0
 40
0.0
 40
0.0
 40
0.0
 40
0.0020652298
 40
0.0046490823
 40
0.0077540718
 40
0.0113810486
 40
0.0201971766
 40
0.0310858389
 40
0.0440307193
 40
0.0590077051
 40
0.0759898545
 40
0.0949460525
 40
0.1158396935
 40
0.1386327352
 40
0.189738301
 40
0.2478759504
 40
0.3126045578
 40
0.3834318265
 40
0.4598194593
 40
0.5411866762
 40
0.6269147051
 40
0.7163524999
 40
0.8088143956
 40
1.0
 40
1.0
 40
1.0
 40
1.0
 10
5.3103495948
 20
5.5734167089
 30
0.0
 10
5.3101739023
 20
5.5733711578
 30
0.0
 10
5.3097744323
 20
5.5732840811
 30
0.0
 10
5.3091030821
 20
5.5731666687
 30
0.0
 10
5.3082928208
 20
5.5730486608
 30
0.0
 10
5.3069368245
 20
5.5728795885
 30
0.0
 10
5.3048963643
 20
5.5726744881
 30
0.0
 10
5.3020365472
 20
5.5724393532
 30
0.0
 10
5.2986338096
 20
5.572203286
 30
0.0
 10
5.29469453
 20
5.5719663518
 30
0.0
 10
5.2902261402
 20
5.5717289429
 30
0.0
 10
5.2852371388
 20
5.5714911863
 30
0.0
 10
5.2797369421
 20
5.5712531393
 30
0.0
 10
5.2714127222
 20
5.5709227774
 30
0.0
 10
5.2598158941
 20
5.5705153798
 30
0.0
 10
5.2445337947
 20
5.5700418373
 30
0.0
 10
5.2275177479
 20
5.5695674334
 30
0.0
 10
5.2088972694
 20
5.5690923441
 30
0.0
 10
5.1888140906
 20
5.5686167928
 30
0.0
 10
5.1674210339
 20
5.5681408952
 30
0.0
 10
5.1448808097
 20
5.5676647455
 30
0.0
 10
5.1213653331
 20
5.5671884084
 30
0.0
 10
5.0885832532
 20
5.5665459623
 30
0.0
 10
5.0636595057
 20
5.5660753922
 30
0.0
 10
5.04686022
 20
5.5657608696
 30
0.0
  0
SPLINE
  5
3E1
100
AcDbEntity
  8
0
100
AcDbSpline
 62
7
  6
CONTINUOUS
 70
0
 71
3
 72
30
 73
26
 74
0
 42
0.0000001
 43
0.0000001
 44
0.0000000001
 40
0.0
 40
0.0
 40
0.0
 40
0.0
 40
0.0019559551
 40
0.0044345857
 40
0.0074380573
 40
0.0109669451
 40
0.0150210567
 40
0.0195994346
 40
0.0303207187
 40
0.0431127661
 40
0.05795377
 40
0.0748150262
 40
0.0936659844
 40
0.1144705202
 40
0.1371889094
 40
0.188192004
 40
0.24628612
 40
0.3110270132
 40
0.3819193752
 40
0.4584208015
 40
0.5399457535
 40
0.6258698411
 40
0.7155361304
 40
0.8082532716
 40
1.0
 40
1.0
 40
1.0
 40
1.0
 10
5.3307485152
 20
5.5787049807
 30
0.0
 10
5.3305705615
 20
5.5786588563
 30
0.0
 10
5.3301627726
 20
5.5785712232
 30
0.0
 10
5.3294735771
 20
5.578453632
 30
0.0
 10
5.3286348534
 20
5.5783353957
 30
0.0
 10
5.3276469306
 20
5.5782166684
 30
0.0
 10
5.3265100988
 20
5.5780976385
 30
0.0
 10
5.3246988358
 20
5.5779297001
 30
0.0
 10
5.3220664797
 20
5.5777240829
 30
0.0
 10
5.3184694195
 20
5.5774871706
 30
0.0
 10
5.3142942475
 20
5.5772495969
 30
0.0
 10
5.3095488566
 20
5.5770114242
 30
0.0
 10
5.3042423621
 20
5.5767729165
 30
0.0
 10
5.2983848884
 20
5.5765341155
 30
0.0
 10
5.2895068605
 20
5.5762025232
 30
0.0
 10
5.277124617
 20
5.5757937375
 30
0.0
 10
5.2607929997
 20
5.5753186895
 30
0.0
 10
5.2425913711
 20
5.5748427615
 30
0.0
 10
5.2226591826
 20
5.574366132
 30
0.0
 10
5.2011491094
 20
5.5738890312
 30
0.0
 10
5.1782259357
 20
5.5734115782
 30
0.0
 10
5.1540651901
 20
5.5729338675
 30
0.0
 10
5.1288523337
 20
5.5724559651
 30
0.0
 10
5.0936949191
 20
5.5718113674
 30
0.0
 10
5.0669632169
 20
5.5713392827
 30
0.0
 10
5.0489443053
 20
5.5710237374
 30
0.0
  0
SPLINE
  5
3E2
100
AcDbEntity
  8
0
100
AcDbSpline
 62
7
  6
CONTINUOUS
 70
0
 71
3
 72
39
 73
35
 74
0
 42
0.0000001
 43
0.0000001
 44
0.0000000001
 40
0.0
 40
0.0
 40
0.0
 40
0.0
 40
0.0002487114
 40
0.0005722767
 40
0.0010086651
 40
0.0015735253
 40
0.0022738299
 40
0.0031130958
 40
0.0040932793
 40
0.0052155418
 40
0.0078887896
 40
0.0111361388
 40
0.0149586188
 40
0.0193554579
 40
0.0243249251
 40
0.0298649967
 40
0.0426477602
 40
0.0576795683
 40
0.0749294123
 40
0.0943632987
 40
0.1159396223
 40
0.139614566
 40
0.1653381667
 40
0.1930563413
 40
0.2227118007
 40
0.287579512
 40
0.359396749
 40
0.4375601407
 40
0.5214129365
 40
0.6102494623
 40
0.703324088
 40
0.7998493645
 40
0.8990248855
 40
1.0
 40
1.0
 40
1.0
 40
1.0
 10
5.3111100322
 20
5.5605608696
 30
0.0
 10
5.3111100433
 20
5.5605389381
 30
0.0
 10
5.3110918497
 20
5.560488604
 30
0.0
 10
5.3110268508
 20
5.5604259358
 30
0.0
 10
5.3109271882
 20
5.5603642329
 30
0.0
 10
5.3107900023
 20
5.5603027091
 30
0.0
 10
5.3106149405
 20
5.5602408102
 30
0.0
 10
5.3104015063
 20
5.5601787103
 30
0.0
 10
5.3101496442
 20
5.5601164133
 30
0.0
 10
5.3097378624
 20
5.5600279551
 30
0.0
 10
5.3091260845
 20
5.5599200246
 30
0.0
 10
5.3082758538
 20
5.5597960645
 30
0.0
 10
5.307272327
 20
5.559671701
 30
0.0
 10
5.3061160007
 20
5.5595469881
 30
0.0
 10
5.304807469
 20
5.5594220427
 30
0.0
 10
5.3027610025
 20
5.5592467588
 30
0.0
 10
5.2998275522
 20
5.559031479
 30
0.0
 10
5.295861478
 20
5.5587828103
 30
0.0
 10
5.2913079392
 20
5.5585335138
 30
0.0
 10
5.2861765709
 20
5.5582837503
 30
0.0
 10
5.2804780489
 20
5.5580336384
 30
0.0
 10
5.2742244224
 20
5.557783296
 30
0.0
 10
5.2674288132
 20
5.5575327681
 30
0.0
 10
5.2601055121
 20
5.5572820836
 30
0.0
 10
5.2493316767
 20
5.5569373093
 30
0.0
 10
5.2346698209
 20
5.5565105505
 30
0.0
 10
5.2157308708
 20
5.5560116112
 30
0.0
 10
5.1951172848
 20
5.5555120708
 30
0.0
 10
5.1730025288
 20
5.555012058
 30
0.0
 10
5.1495725802
 20
5.5545117115
 30
0.0
 10
5.1250249253
 20
5.5540111261
 30
0.0
 10
5.0995653913
 20
5.5535103525
 30
0.0
 10
5.0734090576
 20
5.5530094665
 30
0.0
 10
5.0557627294
 20
5.5526775457
 30
0.0
 10
5.04686022
 20
5.5525108696
 30
0.0
  0
ELLIPSE
  5
3E3
100
AcDbEntity
  8
0
100
AcDbEllipse
 62
7
  6
CONTINUOUS
 10
4.8779858989
 20
4.8420108696
 30
0.0
 11
-0.0398102322
 21
0.0
 31
0.0
 40
0.5023834047
 41
0.0
 42
1.5707963268
  0
ELLIPSE
  5
3E4
100
AcDbEntity
  8
0
100
AcDbEllipse
 62
7
  6
CONTINUOUS
 10
5.1554343248
 20
4.8420108696
 30
0.0
 11
-0.0398102322
 21
0.0
 31
0.0
 40
0.5023834047
 41
1.5707963268
 42
3.1415926536
  0
ELLIPSE
  5
3E5
100
AcDbEntity
  8
0
100
AcDbEllipse
 62
7
  6
CONTINUOUS
 10
4.7789774163
 20
4.8420108696
 30
0.0
 11
0.020289227
 21
0.0
 31
0.0
 40
0.985744801
 41
-1.5707963268
 42
0.0
  0
ELLIPSE
  5
3E6
100
AcDbEntity
  8
0
100
AcDbEllipse
 62
7
  6
CONTINUOUS
 10
5.2544428073
 20
4.8420108696
 30
0.0
 11
0.020289227
 21
0.0
 31
0.0
 40
0.985744801
 41
-3.1415926536
 42
-1.5707963268
  0
ENDSEC
  0
SECTION
  2
OBJECTS
  0
DICTIONARY
  5
C
100
AcDbDictionary
280
0
281
1
  3
ACAD_GROUP
350
D
  3
ACAD_MLINESTYLE
350
17
  3
ACAD_LAYOUT
350
1A
  3
ACAD_PLOTSETTINGS
350
19
  3
ACAD_PLOTSTYLENAME
350
E
  0
DICTIONARY
  5
D
102
{ACAD_REACTORS
330
C
102
}
100
AcDbDictionary
280
0
281
1
  0
ACDBDICTIONARYWDFLT
  5
E
102
{ACAD_REACTORS
330
C
102
}
100
AcDbDictionary
281
1
  3
Normal
350
F
100
AcDbDictionaryWithDefault
340
F
  0
DICTIONARY
  5
17
102
{ACAD_REACTORS
330
C
102
}
100
AcDbDictionary
280
0
281
1
  3
Standard
350
18
  0
DICTIONARY
  5
19
102
{ACAD_REACTORS
330
C
102
}
100
AcDbDictionary
281
1
  0
DICTIONARY
  5
1A
102
{ACAD_REACTORS
330
C
102
}
100
AcDbDictionary
281
1
  3
Model
350
3E7
  3
Layout1
350
3E8
  0
ACDBPLACEHOLDER
  5
F
102
{ACAD_REACTORS
330
E
102
}
  0
MLINESTYLE
  5
18
102
{ACAD_REACTORS
330
17
102
}
100
AcDbMlineStyle
  2
STANDARD
 70
0
  3

 62
256
 51
90.0
 52
90.0
 71
2
 49
0.5
 62
256
  6
BYLAYER
 49
-0.5
 62
256
  6
BYLAYER
  0
LAYOUT
  5
3E7
102
{ACAD_REACTORS
330
1A
102
}
100
AcDbPlotSettings
  1

  2
none_device
  4
ANSI_A_(11.00_x_8.50_Inches)
  6

 40
0.0
 41
0.0
 42
0.0
 43
0.0
 44
279.4
 45
215.9
 46
0.0
 47
0.0
 48
0.0
 49
0.0
140
0.0
141
0.0
142
1.0
143
1.0
 70
1024
 72
0
 73
0
 74
0
  7

 75
0
147
1.0
148
0.0
149
0.0
100
AcDbLayout
  1
Model
 70
0
 71
0
 10
0.0
 20
0.0
 11
11.0
 21
8.5
 12
0.0
 22
0.0
 32
0.0
 14
0.0
 24
0.0
 34
0.0
 15
0.0
 25
0.0
 35
0.0
146
0.0
 13
0.0
 23
0.0
 33
0.0
 16
1.0
 26
0.0
 36
0.0
 17
0.0
 27
1.0
 37
0.0
 76
0
330
202
345
0
346
0
  0
LAYOUT
  5
3E8
102
{ACAD_REACTORS
330
1A
102
}
100
AcDbPlotSettings
  1

  2
none_device
  4
ANSI_A_(11.00_x_8.50_Inches)
  6

 40
0.0
 41
0.0
 42
0.0
 43
0.0
 44
279.4
 45
215.9
 46
0.0
 47
0.0
 48
0.0
 49
0.0
140
0.0
141
0.0
142
1.0
143
1.0
 70
0
 72
0
 73
0
 74
0
  7

 75
0
147
1.0
148
0.0
149
0.0
100
AcDbLayout
  1
Layout1
 70
0
 71
1
 10
0.0
 20
0.0
 11
11.0
 21
8.5
 12
0.0
 22
0.0
 32
0.0
 14
0.0
 24
0.0
 34
0.0
 15
0.0
 25
0.0
 35
0.0
146
0.0
 13
0.0
 23
0.0
 33
0.0
 16
1.0
 26
0.0
 36
0.0
 17
0.0
 27
1.0
 37
0.0
 76
0
330
203
345
0
346
0
  0
ENDSEC
  0
EOF
