999
DXF file: E:\BT Custom\CADOUTPUT\_FRONT.dxf
999
Pro/ENGINEER 2018400 by Parametric Technology Corporation
  0
SECTION
  2
HEADER
  9
$ACADVER
  1
AC1018
  9
$DWGCODEPAGE
  3
ANSI_1252
  9
$EXTMAX
 10
22.0
 20
17.0
 30
0.0
  9
$EXTMIN
 10
0.0
 20
0.0
 30
0.0
  9
$LIMMIN
 10
0.0
 20
0.0
  9
$LIMMAX
 10
22.0
 20
17.0
  9
$VIEWCTR
 10
11.0
 20
8.5
  9
$VIEWSIZE
 40
17.0
  9
$CLAYER
  8
0
  9
$LTSCALE
 40
1.21
  9
$CELTYPE
  6
BYLAYER
  9
$DIMSCALE
 40
1.0
  9
$DIMASZ
 40
0.1
  9
$DIMEXO
 40
0.0625
  9
$DIMDLI
 40
0.836
  9
$DIMEXE
 40
0.125
  9
$DIMCEN
 40
0.198
  9
$DIMLFAC
 40
1.0
  9
$DIMBLK
  1
_FILLED
  9
$DIMALT
 70
1
  9
$DIMALTD
 70
2
  9
$DIMALTTD
 70
2
  9
$DIMALTF
 40
25.4
  9
$DIMTXT
 40
0.08
  9
$DIMTOL
 70
1
  9
$DIMLIM
 70
0
  9
$DIMTFAC
 40
1.0
  9
$DIMTP
 40
0.001
  9
$DIMTM
 40
0.001
  9
$DIMGAP
 40
0.09
  9
$DIMDSEP
 70
46
  9
$AUNITS
 70
0
  9
$PDMODE
 70
3
  9
$PDSIZE
 40
0.06
  9
$HANDSEED
  5
259
  9
$TILEMODE
 70
1
  9
$MEASUREMENT
 70
0
  9
$INSUNITS
 70
1
  0
ENDSEC
  0
SECTION
  2
CLASSES
  0
CLASS
  1
ACDBDICTIONARYWDFLT
  2
AcDbDictionaryWithDefault
  3
AutoCAD 2000
 90
0
 91
1
280
0
281
0
  0
CLASS
  1
ACDBPLACEHOLDER
  2
AcDbPlaceHolder
  3
AutoCAD 2000
 90
0
 91
1
280
0
281
0
  0
CLASS
  1
LAYOUT
  2
AcDbLayout
  3
AutoCAD 2000
 90
0
 91
0
280
0
281
0
  0
ENDSEC
  0
SECTION
  2
TABLES
  0
TABLE
  2
VPORT
  5
8
100
AcDbSymbolTable
 70
2
  0
VPORT
  5
1F4
100
AcDbSymbolTableRecord
100
AcDbViewportTableRecord
  2
*ACTIVE
 70
0
 10
0.0
 20
0.0
 11
1.0
 21
1.0
 12
11.0
 22
8.5
 13
0.0
 23
0.0
 14
1.0
 24
1.0
 15
0.0
 25
0.0
 16
0.0
 26
0.0
 36
1.0
 17
0.0
 27
0.0
 37
0.0
 40
17.0
 41
1.2941176471
 42
50.0
 43
0.0
 44
0.0
 50
0.0
 51
0.0
 71
0
 72
100
 73
1
 74
1
 75
0
 76
0
 77
0
 78
0
  0
ENDTAB
  0
TABLE
  2
LTYPE
  5
5
100
AcDbSymbolTable
 70
6
  0
LTYPE
  5
14
100
AcDbSymbolTableRecord
100
AcDbLinetypeTableRecord
  2
BYBLOCK
 70
0
  3

 72
65
 73
0
 40
0.0
  0
LTYPE
  5
15
100
AcDbSymbolTableRecord
100
AcDbLinetypeTableRecord
  2
BYLAYER
 70
0
  3

 72
65
 73
0
 40
0.0
  0
LTYPE
  5
16
100
AcDbSymbolTableRecord
100
AcDbLinetypeTableRecord
  2
CONTINUOUS
 70
64
  3
Solid line
 72
65
 73
0
 40
0.0
  0
LTYPE
  5
1F5
100
AcDbSymbolTableRecord
100
AcDbLinetypeTableRecord
  2
CENTER
 70
64
  3
____ _ ____ _ ____ _ ____ _ ____ _ ____ _ ____
 72
65
 73
4
 40
0.6
 49
0.375
 74
0
 49
-0.075
 74
0
 49
0.075
 74
0
 49
-0.075
 74
0
  0
LTYPE
  5
1F6
100
AcDbSymbolTableRecord
100
AcDbLinetypeTableRecord
  2
HIDDEN
 70
64
  3
- - - - - - - - - - - - - - - - - - - -
 72
65
 73
2
 40
0.2
 49
0.1
 74
0
 49
-0.1
 74
0
  0
LTYPE
  5
1F7
100
AcDbSymbolTableRecord
100
AcDbLinetypeTableRecord
  2
PHANTOM
 70
64
  3
_____ _ _ _____ _ _ _____ _ _ _____
 72
65
 73
6
 40
0.8
 49
0.45
 74
0
 49
-0.05
 74
0
 49
0.1
 74
0
 49
-0.05
 74
0
 49
0.1
 74
0
 49
-0.05
 74
0
  0
LTYPE
  5
1F8
100
AcDbSymbolTableRecord
100
AcDbLinetypeTableRecord
  2
DOT
 70
64
  3
. . . . . . . . . . . . . . . . . . . .
 72
65
 73
2
 40
0.2
 49
0.1
 74
0
 49
-0.1
 74
0
  0
LTYPE
  5
1F9
100
AcDbSymbolTableRecord
100
AcDbLinetypeTableRecord
  2
DASHED
 70
64
  3
- - - - - - - - - - - - - - - - - - - -
 72
65
 73
2
 40
0.2
 49
0.1
 74
0
 49
-0.1
 74
0
  0
ENDTAB
  0
TABLE
  2
LAYER
  5
2
100
AcDbSymbolTable
 70
36
  0
LAYER
  5
10
100
AcDbSymbolTableRecord
100
AcDbLayerTableRecord
  2
0
 70
0
 62
7
  6
CONTINUOUS
370
-3
390
F
  0
LAYER
  5
1FA
100
AcDbSymbolTableRecord
100
AcDbLayerTableRecord
  2
DEFAULT_1
 70
0
 62
7
  6
CENTER
370
-3
390
F
  0
LAYER
  5
1FB
100
AcDbSymbolTableRecord
100
AcDbLayerTableRecord
  2
DEFAULT_2
 70
0
 62
8
  6
HIDDEN
370
-3
390
F
  0
LAYER
  5
1FC
100
AcDbSymbolTableRecord
100
AcDbLayerTableRecord
  2
DEFAULT_3
 70
0
 62
7
  6
PHANTOM
370
-3
390
F
  0
LAYER
  5
1FD
100
AcDbSymbolTableRecord
100
AcDbLayerTableRecord
  2
ALL_FEATURES
 70
0
 62
7
  6
CONTINUOUS
370
-3
390
F
  0
LAYER
  5
1FE
100
AcDbSymbolTableRecord
100
AcDbLayerTableRecord
  2
AXES_FEATURES
 70
0
 62
7
  6
CONTINUOUS
370
-3
390
F
  0
LAYER
  5
1FF
100
AcDbSymbolTableRecord
100
AcDbLayerTableRecord
  2
DEFAULT_COORDINATE_SYSTEM
 70
0
 62
7
  6
CONTINUOUS
370
-3
390
F
  0
LAYER
  5
200
100
AcDbSymbolTableRecord
100
AcDbLayerTableRecord
  2
DEFAULT_DATUM_AXES
 70
0
 62
7
  6
CONTINUOUS
370
-3
390
F
  0
LAYER
  5
201
100
AcDbSymbolTableRecord
100
AcDbLayerTableRecord
  2
DEFAULT_DATUM_PLANES
 70
0
 62
7
  6
CONTINUOUS
370
-3
390
F
  0
LAYER
  5
202
100
AcDbSymbolTableRecord
100
AcDbLayerTableRecord
  2
DIMENSIONS
 70
0
 62
7
  6
CONTINUOUS
370
-3
390
F
  0
ENDTAB
  0
TABLE
  2
STYLE
  5
3
100
AcDbSymbolTable
 70
1
  0
STYLE
  5
11
100
AcDbSymbolTableRecord
100
AcDbTextStyleTableRecord
  2
STANDARD
 70
0
 40
0.0
 41
0.8
 50
0.0
 71
0
 42
0.2
  3
txt
  4

  0
STYLE
  5
203
100
AcDbSymbolTableRecord
100
AcDbTextStyleTableRecord
  2
TEXTSTYLE_1
 70
0
 40
0.0
 41
0.8
 50
0.0
 71
0
 42
0.2
  3
gdt
  4

  0
ENDTAB
  0
TABLE
  2
VIEW
  5
6
100
AcDbSymbolTable
 70
0
  0
ENDTAB
  0
TABLE
  2
UCS
  5
7
100
AcDbSymbolTable
 70
0
  0
ENDTAB
  0
TABLE
  2
APPID
  5
9
100
AcDbSymbolTable
 70
1
  0
APPID
  5
204
100
AcDbSymbolTableRecord
100
AcDbRegAppTableRecord
  2
ACAD
 70
0
  0
ENDTAB
  0
TABLE
  2
BLOCK_RECORD
  5
1
100
AcDbSymbolTable
 70
0
  0
BLOCK_RECORD
  5
205
100
AcDbSymbolTableRecord
100
AcDbBlockTableRecord
  2
*Model_Space
  0
BLOCK_RECORD
  5
206
100
AcDbSymbolTableRecord
100
AcDbBlockTableRecord
  2
*Paper_Space
  0
BLOCK_RECORD
  5
207
100
AcDbSymbolTableRecord
100
AcDbBlockTableRecord
  2
_FILLED
  0
ENDTAB
  0
TABLE
  2
DIMSTYLE
  5
A
100
AcDbSymbolTable
 70
1
100
AcDbDimStyleTable
 71
0
  0
DIMSTYLE
105
208
100
AcDbSymbolTableRecord
100
AcDbDimStyleTableRecord
  2
STANDARD
 70
0
  3

  4

 40
1.0
 41
0.1
 42
0.0625
 43
0.38
 44
0.125
 45
0.0
 46
0.0
 47
0.001
 48
0.001
140
0.08
141
0.09
142
0.0
143
25.4
144
1.0
145
0.0
146
1.0
147
0.09
 71
1.0
 72
0.0
 73
1
 74
1
 75
0
 76
0
 77
0
 78
4
 79
1
170
1
171
2
172
0
173
0
174
0
175
0
176
0
177
0
178
0
270
2
179
3
271
3
272
3
273
2
274
2
275
0
280
0
281
0
282
0
283
1
284
4
285
0
286
0
287
3
288
0
340
11
278
46
341
207
342
207
343
207
344
207
  0
ENDTAB
  0
ENDSEC
  0
SECTION
  2
BLOCKS
  0
BLOCK
  5
20
100
AcDbEntity
  8
0
100
AcDbBlockBegin
  2
*Model_Space
 70
0
 10
0.0
 20
0.0
 30
0.0
  3
*Model_Space
  1

  0
ENDBLK
  5
21
100
AcDbEntity
  8
0
100
AcDbBlockEnd
  0
BLOCK
  5
1C
100
AcDbEntity
  8
0
100
AcDbBlockBegin
  2
*Paper_Space
 70
0
 10
0.0
 20
0.0
 30
0.0
  3
*Paper_Space
  1

  0
ENDBLK
  5
1D
100
AcDbEntity
  8
0
100
AcDbBlockEnd
  0
BLOCK
  5
209
100
AcDbEntity
  8
0
100
AcDbBlockBegin
  2
_FILLED
 70
64
 10
0.0
 20
0.0
  3
_FILLED
  1

  0
SOLID
  5
20A
100
AcDbEntity
  8
0
  6
BYBLOCK
 62
0
100
AcDbTrace
 10
0.0
 20
0.0
 11
-1.0
 21
0.2
 12
-1.0
 22
-0.2
 13
-1.0
 23
-0.2
  0
ENDBLK
  5
20B
100
AcDbEntity
  8
0
  6
BYBLOCK
 62
0
100
AcDbBlockEnd
  0
ENDSEC
  0
SECTION
  2
ENTITIES
  0
LINE
  5
20C
100
AcDbEntity
  8
0
100
AcDbLine
 62
7
  6
CONTINUOUS
 10
9.9126923427
 20
8.0596695021
 11
11.9626923427
 21
8.0596695021
  0
LINE
  5
20D
100
AcDbEntity
  8
0
100
AcDbLine
 62
9
  6
CONTINUOUS
 10
9.9126923427
 20
8.1696695021
 11
11.9626923427
 21
8.1696695021
  0
LINE
  5
20E
100
AcDbEntity
  8
0
100
AcDbLine
 62
7
  6
CONTINUOUS
 10
9.9526923427
 20
8.2096695021
 11
11.9226923427
 21
8.2096695021
  0
LINE
  5
20F
100
AcDbEntity
  8
0
100
AcDbLine
 62
7
  6
CONTINUOUS
 10
9.9126923427
 20
8.1696695021
 11
9.9126923427
 21
8.0596695021
  0
LINE
  5
210
100
AcDbEntity
  8
0
100
AcDbLine
 62
9
  6
CONTINUOUS
 10
9.9526923427
 20
8.2096695021
 11
9.9526923427
 21
8.0596695021
  0
LINE
  5
211
100
AcDbEntity
  8
0
100
AcDbLine
 62
9
  6
CONTINUOUS
 10
10.1535892157
 20
8.2296695021
 11
11.7217955096
 21
8.2296695021
  0
LINE
  5
212
100
AcDbEntity
  8
0
100
AcDbLine
 62
7
  6
CONTINUOUS
 10
10.0626923427
 20
8.3271266941
 11
10.0626923427
 21
8.4446695021
  0
LINE
  5
213
100
AcDbEntity
  8
0
100
AcDbLine
 62
9
  6
CONTINUOUS
 10
10.1535892157
 20
8.2096695021
 11
10.1535892157
 21
8.2296695021
  0
LINE
  5
214
100
AcDbEntity
  8
0
100
AcDbLine
 62
9
  6
CONTINUOUS
 10
10.0626923427
 20
8.4446695021
 11
11.8126923427
 21
8.4446695021
  0
LINE
  5
215
100
AcDbEntity
  8
0
100
AcDbLine
 62
7
  6
CONTINUOUS
 10
10.1026923427
 20
8.4846695021
 11
11.7726923427
 21
8.4846695021
  0
LINE
  5
216
100
AcDbEntity
  8
0
100
AcDbLine
 62
7
  6
CONTINUOUS
 10
10.2226923427
 20
9.0806695021
 11
10.2226923427
 21
10.3988082207
  0
LINE
  5
217
100
AcDbEntity
  8
0
100
AcDbLine
 62
7
  6
CONTINUOUS
 10
10.3326923427
 20
9.0806695021
 11
10.3326923427
 21
8.4846695021
  0
LINE
  5
218
100
AcDbEntity
  8
0
100
AcDbLine
 62
7
  6
CONTINUOUS
 10
10.6876923427
 20
10.1306695021
 11
10.6876923427
 21
9.6044719135
  0
LINE
  5
219
100
AcDbEntity
  8
0
100
AcDbLine
 62
7
  6
CONTINUOUS
 10
10.2226923427
 20
9.0806695021
 11
11.6526923427
 21
9.0806695021
  0
LINE
  5
21A
100
AcDbEntity
  8
0
100
AcDbLine
 62
7
  6
CONTINUOUS
 10
11.1876923427
 20
10.1306695021
 11
11.1876923427
 21
9.6044719135
  0
LINE
  5
21B
100
AcDbEntity
  8
0
100
AcDbLine
 62
7
  6
CONTINUOUS
 10
11.5426923427
 20
9.0806695021
 11
11.5426923427
 21
8.4846695021
  0
LINE
  5
21C
100
AcDbEntity
  8
0
100
AcDbLine
 62
7
  6
CONTINUOUS
 10
11.6526923427
 20
9.0806695021
 11
11.6526923427
 21
10.3988082207
  0
LINE
  5
21D
100
AcDbEntity
  8
0
100
AcDbLine
 62
9
  6
CONTINUOUS
 10
11.7217955096
 20
8.2096695021
 11
11.7217955096
 21
8.2296695021
  0
LINE
  5
21E
100
AcDbEntity
  8
0
100
AcDbLine
 62
7
  6
CONTINUOUS
 10
11.8126923427
 20
8.3271266941
 11
11.8126923427
 21
8.4446695021
  0
LINE
  5
21F
100
AcDbEntity
  8
0
100
AcDbLine
 62
9
  6
CONTINUOUS
 10
11.9226923427
 20
8.2096695021
 11
11.9226923427
 21
8.0596695021
  0
LINE
  5
220
100
AcDbEntity
  8
0
100
AcDbLine
 62
7
  6
CONTINUOUS
 10
11.9626923427
 20
8.1696695021
 11
11.9626923427
 21
8.0596695021
  0
LINE
  5
221
100
AcDbEntity
  8
0
100
AcDbLine
 62
9
  6
CONTINUOUS
 10
11.6526923427
 20
10.3988082207
 11
11.0812170357
 21
10.3988082207
  0
LINE
  5
222
100
AcDbEntity
  8
0
100
AcDbLine
 62
9
  6
CONTINUOUS
 10
10.7941676498
 20
10.3988082207
 11
10.2226923427
 21
10.3988082207
  0
LINE
  5
223
100
AcDbEntity
  8
0
100
AcDbLine
 62
9
  6
CONTINUOUS
 10
11.5957793868
 20
10.4587287527
 11
10.2796052987
 21
10.4587287527
  0
ARC
  5
224
100
AcDbEntity
  8
0
100
AcDbCircle
 62
7
  6
CONTINUOUS
 10
10.9376923427
 20
-2.3149554979
 40
12.790625
100
AcDbArc
 50
87.0507879325
 51
92.9492120675
  0
ARC
  5
225
100
AcDbEntity
  8
0
100
AcDbCircle
 62
7
  6
CONTINUOUS
 10
11.2547719303
 20
6.5355078437
 40
1.7973618653
100
AcDbArc
 50
75.0915368661
 51
76.2831760658
  0
ARC
  5
226
100
AcDbEntity
  8
0
100
AcDbCircle
 62
7
  6
CONTINUOUS
 10
10.5046481873
 20
6.9465823737
 40
1.3702092931
100
AcDbArc
 50
106.2400388373
 51
108.6626836521
  0
ARC
  5
227
100
AcDbEntity
  8
0
100
AcDbCircle
 62
7
  6
CONTINUOUS
 10
10.4916315207
 20
6.9886537141
 40
1.3261760062
100
AcDbArc
 50
106.2182448696
 51
109.4785210822
  0
ARC
  5
228
100
AcDbEntity
  8
0
100
AcDbCircle
 62
7
  6
CONTINUOUS
 10
10.4286133046
 20
7.1714251408
 40
1.1328526134
100
AcDbArc
 50
109.5561205954
 51
109.8997630567
  0
ARC
  5
229
100
AcDbEntity
  8
0
100
AcDbCircle
 62
7
  6
CONTINUOUS
 10
10.4251910519
 20
7.1810084599
 40
1.1226759685
100
AcDbArc
 50
109.7815738822
 51
109.9034644067
  0
ARC
  5
22A
100
AcDbEntity
  8
0
100
AcDbCircle
 62
7
  6
CONTINUOUS
 10
10.3841466811
 20
7.2919863903
 40
1.0043543524
100
AcDbArc
 50
109.8571555018
 51
112.4970970957
  0
ARC
  5
22B
100
AcDbEntity
  8
0
100
AcDbCircle
 62
7
  6
CONTINUOUS
 10
10.3836069125
 20
7.2933833176
 40
1.0028578608
100
AcDbArc
 50
109.8536317372
 51
112.4987112851
  0
ARC
  5
22C
100
AcDbEntity
  8
0
100
AcDbCircle
 62
7
  6
CONTINUOUS
 10
10.3251032006
 20
7.435956166
 40
0.8487488046
100
AcDbArc
 50
112.5334087286
 51
113.953288948
  0
ARC
  5
22D
100
AcDbEntity
  8
0
100
AcDbCircle
 62
7
  6
CONTINUOUS
 10
10.9376923427
 20
10.1306695021
 40
0.25
100
AcDbArc
 50
0.0
 51
180.0
  0
ARC
  5
22E
100
AcDbEntity
  8
0
100
AcDbCircle
 62
7
  6
CONTINUOUS
 10
10.2826923427
 20
10.3988082207
 40
0.06
100
AcDbArc
 50
92.9492120674
 51
180.0
  0
ARC
  5
22F
100
AcDbEntity
  8
0
100
AcDbCircle
 62
7
  6
CONTINUOUS
 10
11.5926923427
 20
10.3988082207
 40
0.06
100
AcDbArc
 50
0.0
 51
87.0507879326
  0
ARC
  5
230
100
AcDbEntity
  8
0
100
AcDbCircle
 62
7
  6
CONTINUOUS
 10
10.1026923427
 20
8.4446695021
 40
0.04
100
AcDbArc
 50
90.0
 51
180.0
  0
ARC
  5
231
100
AcDbEntity
  8
0
100
AcDbCircle
 62
7
  6
CONTINUOUS
 10
11.7726923427
 20
8.4446695021
 40
0.04
100
AcDbArc
 50
0.0
 51
90.0
  0
ARC
  5
232
100
AcDbEntity
  8
0
100
AcDbCircle
 62
7
  6
CONTINUOUS
 10
10.0226923427
 20
8.3271266941
 40
0.04
100
AcDbArc
 50
290.0968465459
 51
360.0
  0
ARC
  5
233
100
AcDbEntity
  8
0
100
AcDbCircle
 62
7
  6
CONTINUOUS
 10
11.8526923427
 20
8.3271266941
 40
0.04
100
AcDbArc
 50
180.0
 51
249.9031534541
  0
ARC
  5
234
100
AcDbEntity
  8
0
100
AcDbCircle
 62
7
  6
CONTINUOUS
 10
9.9526923427
 20
8.1696695021
 40
0.04
100
AcDbArc
 50
90.0
 51
180.0
  0
ARC
  5
235
100
AcDbEntity
  8
0
100
AcDbCircle
 62
7
  6
CONTINUOUS
 10
11.9226923427
 20
8.1696695021
 40
0.04
100
AcDbArc
 50
0.0
 51
90.0
  0
ARC
  5
236
100
AcDbEntity
  8
0
100
AcDbCircle
 62
7
  6
CONTINUOUS
 10
10.0467449033
 20
8.2613887725
 40
0.03
100
AcDbArc
 50
110.0968465459
 51
193.2680353701
  0
ARC
  5
237
100
AcDbEntity
  8
0
100
AcDbCircle
 62
7
  6
CONTINUOUS
 10
11.8286397822
 20
8.2613887725
 40
0.03
100
AcDbArc
 50
346.7319646257
 51
69.9031534541
  0
ARC
  5
238
100
AcDbEntity
  8
0
100
AcDbCircle
 62
7
  6
CONTINUOUS
 10
9.9883464795
 20
8.2476183659
 40
0.03
100
AcDbArc
 50
292.5489636902
 51
13.2680353792
  0
ARC
  5
239
100
AcDbEntity
  8
0
100
AcDbCircle
 62
7
  6
CONTINUOUS
 10
11.887038206
 20
8.2476183659
 40
0.03
100
AcDbArc
 50
166.73196462
 51
247.4510363098
  0
ARC
  5
23A
100
AcDbEntity
  8
0
100
AcDbCircle
 62
7
  6
CONTINUOUS
 10
9.9719127915
 20
8.2296695021
 40
0.0199999587
100
AcDbArc
 50
278.0012451786
 51
294.0037360891
  0
SPLINE
  5
23B
100
AcDbEntity
  8
0
100
AcDbSpline
 62
7
  6
CONTINUOUS
 70
0
 71
3
 72
28
 73
24
 74
0
 42
0.0000001
 43
0.0000001
 44
0.0000000001
 40
0.0
 40
0.0
 40
0.0
 40
0.0
 40
0.0263738024
 40
0.0527437065
 40
0.0791844199
 40
0.1057552712
 40
0.1324918225
 40
0.1594219587
 40
0.1865883639
 40
0.2140383173
 40
0.2699210575
 40
0.3274051628
 40
0.356833032
 40
0.3867431793
 40
0.4480523539
 40
0.5114124413
 40
0.576789765
 40
0.6440651344
 40
0.7130415059
 40
0.7834544344
 40
0.8549879472
 40
0.9273100163
 40
1.0
 40
1.0
 40
1.0
 40
1.0
 10
10.6876923427
 20
9.6044719135
 30
0.0
 10
10.6876923427
 20
9.6015784609
 30
0.0
 10
10.687918035
 20
9.5957894755
 30
0.0
 10
10.688928722
 20
9.5871529334
 30
0.0
 10
10.6906037486
 20
9.578597902
 30
0.0
 10
10.6929302995
 20
9.5701554385
 30
0.0
 10
10.6958877314
 20
9.5618560665
 30
0.0
 10
10.6994589908
 20
9.5537307656
 30
0.0
 10
10.7036219636
 20
9.5458038987
 30
0.0
 10
10.7099648092
 20
9.5354639653
 30
0.0
 10
10.7193025321
 20
9.5231032104
 30
0.0
 10
10.7301659041
 20
9.5117690923
 30
0.0
 10
10.739743437
 20
9.5032454027
 30
0.0
 10
10.7500696299
 20
9.4949569074
 30
0.0
 10
10.7640597842
 20
9.4853242026
 30
0.0
 10
10.7822331007
 20
9.4750550427
 30
0.0
 10
10.8017747173
 20
9.4660259457
 30
0.0
 10
10.8225179406
 20
9.45828581
 30
0.0
 10
10.8442860282
 20
9.4518800459
 30
0.0
 10
10.8668898859
 20
9.4468497909
 30
0.0
 10
10.8901329071
 20
9.4432298196
 30
0.0
 10
10.9138040879
 20
9.4410480846
 30
0.0
 10
10.9297175728
 20
9.4405617102
 30
0.0
 10
10.9376923433
 20
9.4405617102
 30
0.0
  0
SPLINE
  5
23C
100
AcDbEntity
  8
0
100
AcDbSpline
 62
7
  6
CONTINUOUS
 70
0
 71
3
 72
28
 73
24
 74
0
 42
0.0000001
 43
0.0000001
 44
0.0000000001
 40
0.0
 40
0.0
 40
0.0
 40
0.0
 40
0.0726903694
 40
0.1450133169
 40
0.2165472712
 40
0.2869603948
 40
0.3559369913
 40
0.4232123974
 40
0.4885896045
 40
0.5519495071
 40
0.6132583399
 40
0.6431683075
 40
0.6725959798
 40
0.7300795727
 40
0.7859618997
 40
0.8134116484
 40
0.8405778848
 40
0.8675078704
 40
0.894244203
 40
0.9208149591
 40
0.9472559884
 40
0.9736263833
 40
1.0
 40
1.0
 40
1.0
 40
1.0
 10
10.9376923433
 20
9.4405617102
 30
0.0
 10
10.9456671561
 20
9.4405617102
 30
0.0
 10
10.9615807789
 20
9.4410481095
 30
0.0
 10
10.9852521465
 20
9.4432298541
 30
0.0
 10
11.0084953288
 20
9.4468498801
 30
0.0
 10
11.0310992645
 20
9.4518802166
 30
0.0
 10
11.0528673945
 20
9.4582860143
 30
0.0
 10
11.0736106114
 20
9.4660262147
 30
0.0
 10
11.0931521774
 20
9.4750553504
 30
0.0
 10
11.1113254096
 20
9.4853245163
 30
0.0
 10
11.1253154719
 20
9.4949572178
 30
0.0
 10
11.1356415822
 20
9.5032456899
 30
0.0
 10
11.1452190244
 20
9.5117693343
 30
0.0
 10
11.1560822961
 20
9.5231033772
 30
0.0
 10
11.1654199276
 20
9.5354640448
 30
0.0
 10
11.1717627237
 20
9.545803907
 30
0.0
 10
11.1759256677
 20
9.5537307241
 30
0.0
 10
11.1794969049
 20
9.5618559693
 30
0.0
 10
11.1824543627
 20
9.5701552773
 30
0.0
 10
11.1847809332
 20
9.5785977375
 30
0.0
 10
11.1864559249
 20
9.5871528556
 30
0.0
 10
11.1874666256
 20
9.5957894629
 30
0.0
 10
11.1876923427
 20
9.6015784813
 30
0.0
 10
11.1876923427
 20
9.6044719135
 30
0.0
  0
SPLINE
  5
23D
100
AcDbEntity
  8
0
100
AcDbSpline
 62
7
  6
CONTINUOUS
 70
0
 71
3
 72
11
 73
7
 74
0
 42
0.0000001
 43
0.0000001
 44
0.0000000001
 40
0.0
 40
0.0
 40
0.0
 40
0.0
 40
0.25
 40
0.5
 40
0.75
 40
1.0
 40
1.0
 40
1.0
 40
1.0
 10
11.8953359396
 20
8.2113990916
 30
0.0
 10
11.8545129892
 20
8.2295779422
 30
0.0
 10
11.7596674053
 20
8.2636022385
 30
0.0
 10
11.5836383236
 20
8.3055445665
 30
0.0
 10
11.3810789997
 20
8.3366695748
 30
0.0
 10
11.2339003255
 20
8.3493558159
 30
0.0
 10
11.158785888
 20
8.353552812
 30
0.0
  0
SPLINE
  5
23E
100
AcDbEntity
  8
0
100
AcDbSpline
 62
7
  6
CONTINUOUS
 70
0
 71
3
 72
11
 73
7
 74
0
 42
0.0000001
 43
0.0000001
 44
0.0000000001
 40
0.0
 40
0.0
 40
0.0
 40
0.0
 40
0.25
 40
0.5
 40
0.75
 40
1.0
 40
1.0
 40
1.0
 40
1.0
 10
10.7165958352
 20
8.3535526465
 30
0.0
 10
10.6414816825
 20
8.3493556078
 30
0.0
 10
10.4943035987
 20
8.336669312
 30
0.0
 10
10.2917451277
 20
8.305544311
 30
0.0
 10
10.1157167773
 20
8.2636020709
 30
0.0
 10
10.0208715485
 20
8.2295778772
 30
0.0
 10
9.9800487326
 20
8.2113990857
 30
0.0
  0
SPLINE
  5
23F
100
AcDbEntity
  8
0
100
AcDbSpline
 62
9
  6
CONTINUOUS
 70
0
 71
3
 72
22
 73
18
 74
0
 42
0.0000001
 43
0.0000001
 44
0.0000000001
 40
0.0
 40
0.0
 40
0.0
 40
0.0
 40
0.0112396583
 40
0.0228852076
 40
0.0486245008
 40
0.0792857448
 40
0.1159710471
 40
0.1367469448
 40
0.1591722219
 40
0.2089817003
 40
0.2653597096
 40
0.3280575681
 40
0.3966891416
 40
0.4708282882
 40
0.6336055898
 40
0.8119330958
 40
1.0
 40
1.0
 40
1.0
 40
1.0
 10
11.1587858815
 20
8.3535528484
 30
0.0
 10
11.1586814169
 20
8.3535586853
 30
0.0
 10
11.1584693697
 20
8.3535917858
 30
0.0
 10
11.1580410899
 20
8.3537452197
 30
0.0
 10
11.1575120883
 20
8.3541121167
 30
0.0
 10
11.1569371197
 20
8.354767144
 30
0.0
 10
11.156504699
 20
8.3554676616
 30
0.0
 10
11.1561698056
 20
8.3561318188
 30
0.0
 10
11.1558205409
 20
8.3569244793
 30
0.0
 10
11.1554133626
 20
8.3580517819
 30
0.0
 10
11.1549801862
 20
8.3595639383
 30
0.0
 10
11.1545900274
 20
8.3612678696
 30
0.0
 10
11.1542456665
 20
8.3631498091
 30
0.0
 10
11.15383988
 20
8.3659655447
 30
0.0
 10
11.1534804852
 20
8.3698167465
 30
0.0
 10
11.1532775861
 20
8.3747401563
 30
0.0
 10
11.1532903143
 20
8.3781521092
 30
0.0
 10
11.1533333342
 20
8.3799022542
 30
0.0
  0
SPLINE
  5
240
100
AcDbEntity
  8
0
100
AcDbSpline
 62
9
  6
CONTINUOUS
 70
0
 71
3
 72
38
 73
34
 74
0
 42
0.0000001
 43
0.0000001
 44
0.0000000001
 40
0.0
 40
0.0
 40
0.0
 40
0.0
 40
0.1029639851
 40
0.203196879
 40
0.2999943584
 40
0.3927654824
 40
0.480901915
 40
0.5638344988
 40
0.6410388385
 40
0.7120233857
 40
0.7763012931
 40
0.8333928277
 40
0.8591006474
 40
0.8828395464
 40
0.9045519838
 40
0.9241794898
 40
0.941665183
 40
0.9569541613
 40
0.9699912851
 40
0.9756504999
 40
0.9807302836
 40
0.9852257506
 40
0.9891319806
 40
0.9924440989
 40
0.9951586875
 40
0.9972736403
 40
0.998105608
 40
0.9987868917
 40
0.9993172324
 40
0.9996963705
 40
0.9998291575
 40
0.9999240465
 40
1.0
 40
1.0
 40
1.0
 40
1.0
 10
11.1533333711
 20
8.3799022522
 30
0.0
 10
11.1779454905
 20
8.3785699129
 30
0.0
 10
11.2264931582
 20
8.3754757429
 30
0.0
 10
11.2980629337
 20
8.3694972022
 30
0.0
 10
11.3670708927
 20
8.3623281765
 30
0.0
 10
11.4330427379
 20
8.3540949523
 30
0.0
 10
11.4955401857
 20
8.3449385281
 30
0.0
 10
11.5541467557
 20
8.3350306448
 30
0.0
 10
11.6084813708
 20
8.3245711884
 30
0.0
 10
11.6581927907
 20
8.3137933145
 30
0.0
 10
11.7029537145
 20
8.3029686511
 30
0.0
 10
11.7369697643
 20
8.2938696054
 30
0.0
 10
11.7614825638
 20
8.2868274616
 30
0.0
 10
11.7777987921
 20
8.2819316512
 30
0.0
 10
11.7926692791
 20
8.277285904
 30
0.0
 10
11.8060643134
 20
8.272940265
 30
0.0
 10
11.8179559079
 20
8.2689457443
 30
0.0
 10
11.8283178832
 20
8.2653538836
 30
0.0
 10
11.8359819139
 20
8.262623976
 30
0.0
 10
11.8413322587
 20
8.2606825597
 30
0.0
 10
11.8447560036
 20
8.2594263532
 30
0.0
 10
11.8477821531
 20
8.258304841
 30
0.0
 10
11.8504087088
 20
8.257322832
 30
0.0
 10
11.8526341531
 20
8.2564853515
 30
0.0
 10
11.854457105
 20
8.2557958193
 30
0.0
 10
11.8557239086
 20
8.2553141424
 30
0.0
 10
11.8565352998
 20
8.2550042865
 30
0.0
 10
11.8569921903
 20
8.2548294321
 30
0.0
 10
11.8573476563
 20
8.2546928298
 30
0.0
 10
11.8575806218
 20
8.2546035222
 30
0.0
 10
11.8577160133
 20
8.2545508577
 30
0.0
 10
11.8577840709
 20
8.254525379
 30
0.0
 10
11.8578217299
 20
8.2545092736
 30
0.0
 10
11.8578389941
 20
8.2545035692
 30
0.0
  0
SPLINE
  5
241
100
AcDbEntity
  8
0
100
AcDbSpline
 62
9
  6
CONTINUOUS
 70
0
 71
3
 72
22
 73
18
 74
0
 42
0.0000001
 43
0.0000001
 44
0.0000000001
 40
0.0
 40
0.0
 40
0.0
 40
0.0
 40
0.0112373078
 40
0.0228806187
 40
0.0486160514
 40
0.0792744276
 40
0.1159577908
 40
0.1367330191
 40
0.1591578047
 40
0.2089667777
 40
0.2653448329
 40
0.3280432059
 40
0.3966756945
 40
0.4708161013
 40
0.6335967677
 40
0.8119284538
 40
1.0
 40
1.0
 40
1.0
 40
1.0
 10
10.7165958739
 20
8.3535526578
 30
0.0
 10
10.7167003141
 20
8.3535584937
 30
0.0
 10
10.7169123138
 20
8.3535915927
 30
0.0
 10
10.7173404994
 20
8.3537450268
 30
0.0
 10
10.717869378
 20
8.3541119304
 30
0.0
 10
10.7184441969
 20
8.3547669532
 30
0.0
 10
10.7188765001
 20
8.3554674602
 30
0.0
 10
10.7192113035
 20
8.356131611
 30
0.0
 10
10.7195604766
 20
8.3569242729
 30
0.0
 10
10.7199675442
 20
8.358051576
 30
0.0
 10
10.7204005973
 20
8.3595637299
 30
0.0
 10
10.7207906405
 20
8.3612676598
 30
0.0
 10
10.721134894
 20
8.3631495991
 30
0.0
 10
10.7215405459
 20
8.3659653392
 30
0.0
 10
10.7218998011
 20
8.3698165451
 30
0.0
 10
10.7221025804
 20
8.3747399581
 30
0.0
 10
10.7220898045
 20
8.3781519133
 30
0.0
 10
10.7220467685
 20
8.3799020604
 30
0.0
  0
SPLINE
  5
242
100
AcDbEntity
  8
0
100
AcDbSpline
 62
9
  6
CONTINUOUS
 70
0
 71
3
 72
15
 73
11
 74
0
 42
0.0000001
 43
0.0000001
 44
0.0000000001
 40
0.0
 40
0.0
 40
0.0
 40
0.0
 40
0.1234501136
 40
0.2482479281
 40
0.3739104506
 40
0.5000000744
 40
0.6260896248
 40
0.7517522207
 40
0.876550439
 40
1.0
 40
1.0
 40
1.0
 40
1.0
 10
10.7220467728
 20
8.3799020606
 30
0.0
 10
10.739772058
 20
8.3808615185
 30
0.0
 10
10.7754518027
 20
8.3821416597
 30
0.0
 10
10.829213983
 20
8.3828589471
 30
0.0
 10
10.8833592017
 20
8.3830510823
 30
0.0
 10
10.9376900919
 20
8.3830129848
 30
0.0
 10
10.9920209925
 20
8.383051042
 30
0.0
 10
11.0461662696
 20
8.3828589976
 30
0.0
 10
11.0999284394
 20
8.3821418038
 30
0.0
 10
11.1356081676
 20
8.3808617491
 30
0.0
 10
11.1533333711
 20
8.3799022522
 30
0.0
  0
SPLINE
  5
243
100
AcDbEntity
  8
0
100
AcDbSpline
 62
9
  6
CONTINUOUS
 70
0
 71
3
 72
45
 73
41
 74
0
 42
0.0000001
 43
0.0000001
 44
0.0000000001
 40
0.0
 40
0.0
 40
0.0
 40
0.0
 40
0.0000190068
 40
0.0000427474
 40
0.000075974
 40
0.0001708691
 40
0.0003036598
 40
0.0004743138
 40
0.0006827988
 40
0.001213133
 40
0.0018944045
 40
0.0027263557
 40
0.0037087297
 40
0.0048412696
 40
0.0061237189
 40
0.0075558217
 40
0.0108679181
 40
0.0147741457
 40
0.0192696238
 40
0.0243494245
 40
0.0300086552
 40
0.0362424602
 40
0.0430458035
 40
0.058334719
 40
0.0758203369
 40
0.0954478078
 40
0.1171602443
 40
0.140899125
 40
0.1666068632
 40
0.1942259864
 40
0.223699259
 40
0.287977411
 40
0.3589618036
 40
0.4361656578
 40
0.5190989308
 40
0.6072349956
 40
0.7000048498
 40
0.7968037915
 40
0.8970368051
 40
1.0
 40
1.0
 40
1.0
 40
1.0
 10
10.0175456914
 20
8.2545035692
 30
0.0
 10
10.0175495097
 20
8.2545060436
 30
0.0
 10
10.0175597215
 20
8.254508429
 30
0.0
 10
10.017576338
 20
8.2545156668
 30
0.0
 10
10.0176104436
 20
8.254528388
 30
0.0
 10
10.017668563
 20
8.2545511724
 30
0.0
 10
10.0177576042
 20
8.2545853432
 30
0.0
 10
10.0178719372
 20
8.2546294398
 30
0.0
 10
10.0180751522
 20
8.2547075707
 30
0.0
 10
10.0183925172
 20
8.2548294025
 30
0.0
 10
10.0188493824
 20
8.255004298
 30
0.0
 10
10.0194074868
 20
8.2552174078
 30
0.0
 10
10.0200667319
 20
8.2554684752
 30
0.0
 10
10.0208270104
 20
8.2557572605
 30
0.0
 10
10.0216882169
 20
8.2560835216
 30
0.0
 10
10.0230377914
 20
8.2565934236
 30
0.0
 10
10.0249758799
 20
8.2573227761
 30
0.0
 10
10.0276024172
 20
8.2583047827
 30
0.0
 10
10.0306285511
 20
8.2594263059
 30
0.0
 10
10.034052285
 20
8.2606825159
 30
0.0
 10
10.03787165
 20
8.2620684552
 30
0.0
 10
10.0420846241
 20
8.2635791597
 30
0.0
 10
10.0484765246
 20
8.2658426761
 30
0.0
 10
10.0574284844
 20
8.268945635
 30
0.0
 10
10.0693199668
 20
8.2729401335
 30
0.0
 10
10.0827149159
 20
8.2772857108
 30
0.0
 10
10.0975853088
 20
8.2819314492
 30
0.0
 10
10.1139014223
 20
8.2868271942
 30
0.0
 10
10.1316329568
 20
8.2919214175
 30
0.0
 10
10.1507476217
 20
8.2971678392
 30
0.0
 10
10.1788561534
 20
8.3045228989
 30
0.0
 10
10.2171907384
 20
8.3137928336
 30
0.0
 10
10.2669015572
 20
8.3245708694
 30
0.0
 10
10.3212359432
 20
8.3350303508
 30
0.0
 10
10.3798421765
 20
8.3449380006
 30
0.0
 10
10.4423390389
 20
8.3540945558
 30
0.0
 10
10.5083104429
 20
8.3623281671
 30
0.0
 10
10.5773181812
 20
8.3694965171
 30
0.0
 10
10.6488877369
 20
8.375475294
 30
0.0
 10
10.6974349645
 20
8.3785698841
 30
0.0
 10
10.7220467728
 20
8.3799020606
 30
0.0
  0
SPLINE
  5
244
100
AcDbEntity
  8
0
100
AcDbSpline
 62
9
  6
CONTINUOUS
 70
0
 71
3
 72
31
 73
27
 74
0
 42
0.0000001
 43
0.0000001
 44
0.0000000001
 40
0.0
 40
0.0
 40
0.0
 40
0.0
 40
0.0624912686
 40
0.0937509692
 40
0.125010849
 40
0.1562640835
 40
0.1875135131
 40
0.2187618795
 40
0.2500102351
 40
0.3125050123
 40
0.3750025204
 40
0.4062528161
 40
0.4375027322
 40
0.5000000091
 40
0.5624972842
 40
0.5937471983
 40
0.6249974924
 40
0.6874949983
 40
0.7499897704
 40
0.7812381228
 40
0.8124864864
 40
0.8437359139
 40
0.8749891482
 40
0.9062490284
 40
0.9375087286
 40
1.0
 40
1.0
 40
1.0
 40
1.0
 10
11.7217955096
 20
8.2296695021
 30
0.0
 10
11.6900181497
 20
8.2384614851
 30
0.0
 10
11.6419394871
 20
8.2502223317
 30
0.0
 10
11.5773404174
 20
8.2635508748
 30
0.0
 10
11.5286787783
 20
8.2725108703
 30
0.0
 10
11.4798634245
 20
8.2805500726
 30
0.0
 10
11.4309176843
 20
8.2877108538
 30
0.0
 10
11.3818611707
 20
8.2940463018
 30
0.0
 10
11.3163297794
 20
8.3014588919
 30
0.0
 10
11.2342218785
 20
8.3089235897
 30
0.0
 10
11.1519403521
 20
8.3141259099
 30
0.0
 10
11.0860513629
 20
8.3170060083
 30
0.0
 10
11.0201315883
 20
8.3190602946
 30
0.0
 10
10.9376923485
 20
8.3200883164
 30
0.0
 10
10.8552531098
 20
8.319060275
 30
0.0
 10
10.7893333389
 20
8.3170059606
 30
0.0
 10
10.7234443532
 20
8.3141258569
 30
0.0
 10
10.6411628294
 20
8.3089235736
 30
0.0
 10
10.5590549303
 20
8.301458916
 30
0.0
 10
10.4935235416
 20
8.2940463552
 30
0.0
 10
10.4444670295
 20
8.287710928
 30
0.0
 10
10.395521291
 20
8.280550154
 30
0.0
 10
10.3467059398
 20
8.2725109408
 30
0.0
 10
10.2980443099
 20
8.263550895
 30
0.0
 10
10.2334452584
 20
8.2502222531
 30
0.0
 10
10.1853666021
 20
8.2384613952
 30
0.0
 10
10.1535892157
 20
8.2296695021
 30
0.0
  0
SPLINE
  5
245
100
AcDbEntity
  8
0
100
AcDbSpline
 62
9
  6
CONTINUOUS
 70
0
 71
3
 72
63
 73
59
 74
0
 42
0.0000001
 43
0.0000001
 44
0.0000000001
 40
0.0
 40
0.0
 40
0.0
 40
0.0
 40
0.048626458
 40
0.0971558575
 40
0.1213403272
 40
0.1454486356
 40
0.1933805091
 40
0.2408420562
 40
0.2877241318
 40
0.3339157078
 40
0.3793056316
 40
0.4672610951
 40
0.5507888824
 40
0.6291388858
 40
0.6661548612
 40
0.7016205801
 40
0.7354585175
 40
0.7675916755
 40
0.7979471445
 40
0.8264539375
 40
0.8530417383
 40
0.8776421924
 40
0.9001863736
 40
0.9206068437
 40
0.9299997686
 40
0.9388364374
 40
0.9471086284
 40
0.9548085039
 40
0.9619281621
 40
0.9684596119
 40
0.9743948337
 40
0.9797268276
 40
0.9844495214
 40
0.9865804805
 40
0.9885568264
 40
0.9903777899
 40
0.9920425988
 40
0.9935504872
 40
0.9949009124
 40
0.9960935702
 40
0.9971281675
 40
0.9980044107
 40
0.9983830575
 40
0.9987220055
 40
0.9990212177
 40
0.9992806573
 40
0.9995002874
 40
0.9996800709
 40
0.9997550087
 40
0.9998199709
 40
0.9998749531
 40
0.9999199505
 40
0.9999549585
 40
0.9999799725
 40
0.9999887303
 40
0.9999949879
 40
0.9999987446
 40
1.0
 40
1.0
 40
1.0
 40
1.0
 10
10.9377306173
 20
8.4446695021
 30
0.0
 10
10.9521020566
 20
8.4446692998
 30
0.0
 10
10.9808164679
 20
8.4445016063
 30
0.0
 10
11.0166740237
 20
8.4439057855
 30
0.0
 10
11.045281381
 20
8.4432158956
 30
0.0
 10
11.0737085338
 20
8.4423926418
 30
0.0
 10
11.1090042645
 20
8.4411073674
 30
0.0
 10
11.1510080308
 20
8.4391356602
 30
0.0
 10
11.1924739021
 20
8.4367281827
 30
0.0
 10
11.2333000723
 20
8.4339079269
 30
0.0
 10
11.286193034
 20
8.4296686894
 30
0.0
 10
11.3499975682
 20
8.4234967629
 30
0.0
 10
11.4233153935
 20
8.4146968152
 30
0.0
 10
11.4815021389
 20
8.4063027282
 30
0.0
 10
11.5254948069
 20
8.3990962602
 30
0.0
 10
11.5564368706
 20
8.3936171399
 30
0.0
 10
11.5858877707
 20
8.3880081547
 30
0.0
 10
11.6137823183
 20
8.382313285
 30
0.0
 10
11.6400589926
 20
8.3765827081
 30
0.0
 10
11.6646592385
 20
8.3708676815
 30
0.0
 10
11.6875268594
 20
8.3652211768
 30
0.0
 10
11.7086107181
 20
8.3597104878
 30
0.0
 10
11.7278608544
 20
8.3543996316
 30
0.0
 10
11.7427226033
 20
8.3500876958
 30
0.0
 10
11.753661556
 20
8.346797668
 30
0.0
 10
11.7611480519
 20
8.3444950807
 30
0.0
 10
11.7681430816
 20
8.3422971641
 30
0.0
 10
11.774641952
 20
8.3402134623
 30
0.0
 10
11.7806400985
 20
8.3382534388
 30
0.0
 10
11.7861329626
 20
8.3364264953
 30
0.0
 10
11.7911163752
 20
8.3347421151
 30
0.0
 10
11.7955864822
 20
8.3332087216
 30
0.0
 10
11.7989880603
 20
8.3320256251
 30
0.0
 10
11.8014503202
 20
8.3311609031
 30
0.0
 10
11.8031023699
 20
8.3305773438
 30
0.0
 10
11.8046236198
 20
8.3300371407
 30
0.0
 10
11.8060136675
 20
8.3295412107
 30
0.0
 10
11.807272196
 20
8.3290905034
 30
0.0
 10
11.8083989395
 20
8.3286856947
 30
0.0
 10
11.8093936651
 20
8.3283271366
 30
0.0
 10
11.8102562265
 20
8.3280152031
 30
0.0
 10
11.8108923082
 20
8.3277844235
 30
0.0
 10
11.8113349872
 20
8.3276234007
 30
0.0
 10
11.8116173451
 20
8.3275205256
 30
0.0
 10
11.8118665522
 20
8.3274295795
 30
0.0
 10
11.8120825905
 20
8.3273506083
 30
0.0
 10
11.8122654408
 20
8.3272836567
 30
0.0
 10
11.8123970619
 20
8.3272353835
 30
0.0
 10
11.8124857492
 20
8.3272028085
 30
0.0
 10
11.8125398135
 20
8.3271829389
 30
0.0
 10
11.8125855504
 20
8.3271660955
 30
0.0
 10
11.8126230218
 20
8.3271523334
 30
0.0
 10
11.8126520542
 20
8.3271415272
 30
0.0
 10
11.8126713087
 20
8.327134628
 30
0.0
 10
11.8126821563
 20
8.3271303346
 30
0.0
 10
11.8126877677
 20
8.3271287202
 30
0.0
 10
11.8126901678
 20
8.3271270086
 30
0.0
 10
11.8126923047
 20
8.3271270631
 30
0.0
 10
11.8126923427
 20
8.3271266941
 30
0.0
  0
SPLINE
  5
246
100
AcDbEntity
  8
0
100
AcDbSpline
 62
9
  6
CONTINUOUS
 70
0
 71
3
 72
25
 73
21
 74
0
 42
0.0000001
 43
0.0000001
 44
0.0000000001
 40
0.0
 40
0.0
 40
0.0
 40
0.0
 40
0.1917575717
 40
0.3738143829
 40
0.4593118175
 40
0.5402244526
 40
0.6159097996
 40
0.6857673621
 40
0.7492920152
 40
0.8060284219
 40
0.8556420888
 40
0.8978998257
 40
0.9162564863
 40
0.9327880908
 40
0.9475409048
 40
0.9605960212
 40
0.9720937379
 40
0.9822552737
 40
0.9914071253
 40
1.0
 40
1.0
 40
1.0
 40
1.0
 10
11.0812170357
 20
10.3988082207
 30
0.0
 10
11.0794640283
 20
10.3956600063
 30
0.0
 10
11.0761437157
 20
10.3894682194
 30
0.0
 10
11.0723252686
 20
10.3817254143
 30
0.0
 10
11.0696074402
 20
10.3757674539
 30
0.0
 10
11.0678105969
 20
10.3715876089
 30
0.0
 10
11.0662266318
 20
10.3676374694
 30
0.0
 10
11.0648693048
 20
10.3639500694
 30
0.0
 10
11.0637489454
 20
10.3605568772
 30
0.0
 10
11.0628747904
 20
10.3574854548
 30
0.0
 10
11.0622528424
 20
10.3547616362
 30
0.0
 10
11.0619332094
 20
10.352712151
 30
0.0
 10
11.0618230719
 20
10.3512659293
 30
0.0
 10
11.0618103013
 20
10.3503324594
 30
0.0
 10
11.0618632077
 20
10.3494999122
 30
0.0
 10
11.0619823289
 20
10.3487694521
 30
0.0
 10
11.062168082
 20
10.3481418621
 30
0.0
 10
11.062421554
 20
10.347617653
 30
0.0
 10
11.0627446856
 20
10.3471990983
 30
0.0
 10
11.0630113236
 20
10.3469914361
 30
0.0
 10
11.0631509903
 20
10.3469104043
 30
0.0
  0
SPLINE
  5
247
100
AcDbEntity
  8
0
100
AcDbSpline
 62
9
  6
CONTINUOUS
 70
0
 71
3
 72
117
 73
113
 74
0
 42
0.0000001
 43
0.0000001
 44
0.0000000001
 40
0.0
 40
0.0
 40
0.0
 40
0.0
 40
0.0000006286
 40
0.0000025136
 40
0.0000056546
 40
0.0000100515
 40
0.0000226112
 40
0.00004019
 40
0.0000627856
 40
0.0000903951
 40
0.0001230162
 40
0.0001606462
 40
0.0002509227
 40
0.0003612042
 40
0.0004914702
 40
0.0006417001
 40
0.0008118735
 40
0.0010019699
 40
0.0014418501
 40
0.0019611773
 40
0.0025597884
 40
0.0032375203
 40
0.0039942103
 40
0.0048296341
 40
0.0057434249
 40
0.0067351965
 40
0.0078045636
 40
0.01017455
 40
0.0128503309
 40
0.015828875
 40
0.0191068832
 40
0.0226802571
 40
0.0265447882
 40
0.0306963066
 40
0.0351306823
 40
0.0398437423
 40
0.0500881333
 40
0.0613941217
 40
0.0737268788
 40
0.0870520403
 40
0.1013357107
 40
0.1165421551
 40
0.1326323339
 40
0.1495673548
 40
0.1673098256
 40
0.1858232907
 40
0.2050690217
 40
0.2250009749
 40
0.2455718671
 40
0.2667359241
 40
0.2884489095
 40
0.310665402
 40
0.3333328044
 40
0.3563962147
 40
0.4034916003
 40
0.4515123928
 40
0.4999999085
 40
0.5484875083
 40
0.596508357
 40
0.6436036135
 40
0.6666669773
 40
0.6893343812
 40
0.7115509408
 40
0.733264058
 40
0.7544282391
 40
0.7749991648
 40
0.794931059
 40
0.8141767163
 40
0.8326901561
 40
0.8504326376
 40
0.86736767
 40
0.8834578437
 40
0.8986642785
 40
0.9129479479
 40
0.9262731142
 40
0.9386058717
 40
0.9499118501
 40
0.9601562291
 40
0.964869286
 40
0.9693036618
 40
0.9734551824
 40
0.9773197168
 40
0.9808930938
 40
0.9841711035
 40
0.9871496458
 40
0.9898254221
 40
0.9921954032
 40
0.9932647681
 40
0.994256538
 40
0.9951703282
 40
0.9960057527
 40
0.9967624443
 40
0.9974401782
 40
0.9980387916
 40
0.9985581215
 40
0.9989980049
 40
0.9991881031
 40
0.9993582784
 40
0.9995085104
 40
0.9996387786
 40
0.9997490624
 40
0.9998393416
 40
0.9998769729
 40
0.9999095954
 40
0.9999372064
 40
0.9999598034
 40
0.9999773839
 40
0.9999899451
 40
0.9999943428
 40
0.9999974847
 40
0.9999993706
 40
1.0
 40
1.0
 40
1.0
 40
1.0
 10
10.0364366631
 20
8.2895621675
 30
0.0
 10
10.036436723
 20
8.2895625453
 30
0.0
 10
10.0364388965
 20
8.2895624476
 30
0.0
 10
10.0364414345
 20
8.2895641816
 30
0.0
 10
10.0364472409
 20
8.2895657598
 30
0.0
 10
10.0364585296
 20
8.2895700347
 30
0.0
 10
10.0364785284
 20
8.2895768786
 30
0.0
 10
10.0365087048
 20
8.2895876235
 30
0.0
 10
10.036547643
 20
8.2896013038
 30
0.0
 10
10.0365951723
 20
8.2896180532
 30
0.0
 10
10.0366513525
 20
8.2896378138
 30
0.0
 10
10.0367435079
 20
8.2896702134
 30
0.0
 10
10.0368802685
 20
8.2897182323
 30
0.0
 10
10.0370702477
 20
8.289784838
 30
0.0
 10
10.0372946938
 20
8.2898634068
 30
0.0
 10
10.0375535824
 20
8.2899538939
 30
0.0
 10
10.0378468899
 20
8.2900562538
 30
0.0
 10
10.0383066926
 20
8.2902164711
 30
0.0
 10
10.0389673077
 20
8.2904461051
 30
0.0
 10
10.0398630319
 20
8.2907565065
 30
0.0
 10
10.04089586
 20
8.2911133115
 30
0.0
 10
10.0420656024
 20
8.2915161538
 30
0.0
 10
10.0433720277
 20
8.2919646749
 30
0.0
 10
10.0448148173
 20
8.2924583853
 30
0.0
 10
10.0463936507
 20
8.2929963789
 30
0.0
 10
10.048108094
 20
8.2935777716
 30
0.0
 10
10.0506631402
 20
8.2944396054
 30
0.0
 10
10.0541924272
 20
8.2956194115
 30
0.0
 10
10.0588295267
 20
8.2971496453
 30
0.0
 10
10.0639983378
 20
8.2988317375
 30
0.0
 10
10.0696945714
 20
8.3006580454
 30
0.0
 10
10.0759136303
 20
8.3026193679
 30
0.0
 10
10.0826503027
 20
8.3047064593
 30
0.0
 10
10.0898993077
 20
8.3069099961
 30
0.0
 10
10.0976553164
 20
8.3092206484
 30
0.0
 10
10.1089839125
 20
8.3125247614
 30
0.0
 10
10.1243671079
 20
8.3168606152
 30
0.0
 10
10.1442802687
 20
8.3222112983
 30
0.0
 10
10.1660764741
 20
8.3277719372
 30
0.0
 10
10.189703395
 20
8.333478951
 30
0.0
 10
10.2151075093
 20
8.3392672939
 30
0.0
 10
10.2422301109
 20
8.3450769434
 30
0.0
 10
10.271006332
 20
8.3508585748
 30
0.0
 10
10.3013703661
 20
8.3565594707
 30
0.0
 10
10.333256051
 20
8.362133575
 30
0.0
 10
10.3665966036
 20
8.3675359917
 30
0.0
 10
10.4013191037
 20
8.3727228965
 30
0.0
 10
10.4373411092
 20
8.3776672353
 30
0.0
 10
10.4745761493
 20
8.3823401048
 30
0.0
 10
10.5129389824
 20
8.3867101564
 30
0.0
 10
10.5523454694
 20
8.3907436745
 30
0.0
 10
10.5927068155
 20
8.3944064023
 30
0.0
 10
10.6339256696
 20
8.3976842193
 30
0.0
 10
10.6902818886
 20
8.4015496383
 30
0.0
 10
10.7621052089
 20
8.4053150496
 30
0.0
 10
10.8494559086
 20
8.4080557004
 30
0.0
 10
10.9376922313
 20
8.4089768625
 30
0.0
 10
11.0259285627
 20
8.4080551908
 30
0.0
 10
11.1132793384
 20
8.4053164797
 30
0.0
 10
11.1851025187
 20
8.4015495348
 30
0.0
 10
11.2414585904
 20
8.3976835803
 30
0.0
 10
11.2826774571
 20
8.3944057603
 30
0.0
 10
11.323038945
 20
8.3907432549
 30
0.0
 10
11.3624456639
 20
8.3867100756
 30
0.0
 10
11.4008087104
 20
8.3823403372
 30
0.0
 10
11.4380438248
 20
8.3776675687
 30
0.0
 10
11.4740657531
 20
8.3727231067
 30
0.0
 10
11.5087881302
 20
8.3675360309
 30
0.0
 10
11.5421286176
 20
8.3621335511
 30
0.0
 10
11.574014302
 20
8.3565594551
 30
0.0
 10
11.6043783505
 20
8.3508585795
 30
0.0
 10
11.6331545684
 20
8.3450769418
 30
0.0
 10
11.6602771575
 20
8.3392672794
 30
0.0
 10
11.6856812668
 20
8.3334789304
 30
0.0
 10
11.7093081901
 20
8.3277719161
 30
0.0
 10
11.7311043947
 20
8.3222112859
 30
0.0
 10
11.7510175459
 20
8.3168606178
 30
0.0
 10
11.7664007287
 20
8.3125247757
 30
0.0
 10
11.777729317
 20
8.3092206686
 30
0.0
 10
11.7854853254
 20
8.306910017
 30
0.0
 10
11.7927343335
 20
8.3047064783
 30
0.0
 10
11.7994710104
 20
8.3026193834
 30
0.0
 10
11.8056900731
 20
8.3006580574
 30
0.0
 10
11.8113863076
 20
8.2988317467
 30
0.0
 10
11.8165551156
 20
8.2971496546
 30
0.0
 10
11.821192209
 20
8.2956194247
 30
0.0
 10
11.8247214899
 20
8.2944396241
 30
0.0
 10
11.8272765319
 20
8.2935777954
 30
0.0
 10
11.8289909736
 20
8.2929964063
 30
0.0
 10
11.8305698071
 20
8.292458416
 30
0.0
 10
11.8320125987
 20
8.2919647083
 30
0.0
 10
11.8333190277
 20
8.2915161901
 30
0.0
 10
11.8344887756
 20
8.2911133525
 30
0.0
 10
11.8355216099
 20
8.2907565526
 30
0.0
 10
11.836417341
 20
8.2904461556
 30
0.0
 10
11.8370779619
 20
8.2902165243
 30
0.0
 10
11.8375377692
 20
8.2900563075
 30
0.0
 10
11.8378310802
 20
8.289953947
 30
0.0
 10
11.8380899723
 20
8.2898634583
 30
0.0
 10
11.8383144219
 20
8.2897848869
 30
0.0
 10
11.8385044043
 20
8.2897182773
 30
0.0
 10
11.8386411674
 20
8.2896702539
 30
0.0
 10
11.8387333246
 20
8.2896378497
 30
0.0
 10
11.8387895063
 20
8.2896180854
 30
0.0
 10
11.8388370368
 20
8.289601332
 30
0.0
 10
11.8388759768
 20
8.2895876471
 30
0.0
 10
11.8389061532
 20
8.2895768977
 30
0.0
 10
11.8389261557
 20
8.2895700485
 30
0.0
 10
11.8389374414
 20
8.2895657702
 30
0.0
 10
11.8389432543
 20
8.2895641877
 30
0.0
 10
11.8389457822
 20
8.2895624534
 30
0.0
 10
11.8389479676
 20
8.2895625466
 30
0.0
 10
11.8389480224
 20
8.2895621675
 30
0.0
  0
SPLINE
  5
248
100
AcDbEntity
  8
0
100
AcDbSpline
 62
9
  6
CONTINUOUS
 70
0
 71
3
 72
25
 73
21
 74
0
 42
0.0000001
 43
0.0000001
 44
0.0000000001
 40
0.0
 40
0.0
 40
0.0
 40
0.0
 40
0.0620763721
 40
0.1240298031
 40
0.1859129351
 40
0.2478332277
 40
0.3098709759
 40
0.3720908899
 40
0.4345356923
 40
0.4972142741
 40
0.5601000561
 40
0.623136269
 40
0.6546937017
 40
0.6862571645
 40
0.7178144548
 40
0.7493539672
 40
0.8123236086
 40
0.875109915
 40
0.937671346
 40
1.0
 40
1.0
 40
1.0
 40
1.0
 10
10.7941676498
 20
10.3988082207
 30
0.0
 10
10.7858926043
 20
10.3936040452
 30
0.0
 10
10.7698909546
 20
10.3823330798
 30
0.0
 10
10.7477527989
 20
10.3631042127
 30
0.0
 10
10.7276453552
 20
10.3417930247
 30
0.0
 10
10.7096915341
 20
10.318625506
 30
0.0
 10
10.6939818074
 20
10.293820363
 30
0.0
 10
10.6806068573
 20
10.2675909304
 30
0.0
 10
10.6696508275
 20
10.2401550068
 30
0.0
 10
10.6611904696
 20
10.2117408044
 30
0.0
 10
10.6552882103
 20
10.1825940469
 30
0.0
 10
10.652542437
 20
10.157911624
 30
0.0
 10
10.6516643265
 20
10.1380591064
 30
0.0
 10
10.6516667528
 20
10.1231446061
 30
0.0
 10
10.6523306116
 20
10.1082476863
 30
0.0
 10
10.6540967711
 20
10.0884687038
 30
0.0
 10
10.6579427913
 20
10.0639630283
 30
0.0
 10
10.6651442279
 20
10.0351549402
 30
0.0
 10
10.6748711917
 20
10.0072063644
 30
0.0
 10
10.6830110414
 20
9.9892670482
 30
0.0
 10
10.6874754588
 20
9.9805259329
 30
0.0
  0
SPLINE
  5
249
100
AcDbEntity
  8
0
100
AcDbSpline
 62
9
  6
CONTINUOUS
 70
0
 71
3
 72
23
 73
19
 74
0
 42
0.0000001
 43
0.0000001
 44
0.0000000001
 40
0.0
 40
0.0
 40
0.0
 40
0.0
 40
0.0623305052
 40
0.1248939816
 40
0.1876821208
 40
0.2506536394
 40
0.3137373141
 40
0.3768443633
 40
0.4398827079
 40
0.5027701612
 40
0.5654507145
 40
0.6278975948
 40
0.6901193109
 40
0.7521590985
 40
0.8140812841
 40
0.875966233
 40
0.9379216967
 40
1.0
 40
1.0
 40
1.0
 40
1.0
 10
11.1879087924
 20
9.9805265819
 30
0.0
 10
11.1923729854
 20
9.989267779
 30
0.0
 10
11.20051269
 20
10.0072071453
 30
0.0
 10
11.2102414989
 20
10.0351546694
 30
0.0
 10
11.2174450216
 20
10.0639632949
 30
0.0
 10
11.2220564374
 20
10.0933804502
 30
0.0
 10
11.2240447503
 20
10.1231404422
 30
0.0
 10
11.2233925872
 20
10.1529702669
 30
0.0
 10
11.2200988255
 20
10.1825940166
 30
0.0
 10
11.2141941765
 20
10.211741286
 30
0.0
 10
11.205731332
 20
10.2401542987
 30
0.0
 10
11.1947776494
 20
10.267591113
 30
0.0
 10
11.181403163
 20
10.2938208309
 30
0.0
 10
11.1656931127
 20
10.3186256833
 30
0.0
 10
11.1477396889
 20
10.3417934524
 30
0.0
 10
11.1276317153
 20
10.3631041097
 30
0.0
 10
11.1054933922
 20
10.3823326491
 30
0.0
 10
11.0894920289
 20
10.3936039906
 30
0.0
 10
11.0812170357
 20
10.3988082207
 30
0.0
  0
SPLINE
  5
24A
100
AcDbEntity
  8
0
100
AcDbSpline
 62
9
  6
CONTINUOUS
 70
0
 71
3
 72
41
 73
37
 74
0
 42
0.0000001
 43
0.0000001
 44
0.0000000001
 40
0.0
 40
0.0
 40
0.0
 40
0.0
 40
0.0382458797
 40
0.0762752047
 40
0.1138367417
 40
0.1507252432
 40
0.1867378137
 40
0.2216902154
 40
0.2554261925
 40
0.2878213899
 40
0.3187895886
 40
0.3482908122
 40
0.3763406569
 40
0.4030166613
 40
0.4284657781
 40
0.4529081484
 40
0.4766320725
 40
0.4883397713
 40
0.5
 40
0.5116602287
 40
0.5233679275
 40
0.5470918516
 40
0.5715342219
 40
0.5969833387
 40
0.6236593431
 40
0.6517091878
 40
0.6812104114
 40
0.7121786101
 40
0.7445738075
 40
0.7783097846
 40
0.8132621863
 40
0.8492747568
 40
0.8861632583
 40
0.9237247953
 40
0.9617541203
 40
1.0
 40
1.0
 40
1.0
 40
1.0
 10
10.9376923427
 20
9.7145797055
 30
0.0
 10
10.9305025026
 20
9.7145797055
 30
0.0
 10
10.9161598317
 20
9.7141516244
 30
0.0
 10
10.894833422
 20
9.7122328199
 30
0.0
 10
10.8739149852
 20
9.7090533797
 30
0.0
 10
10.853607961
 20
9.7046447727
 30
0.0
 10
10.8341040288
 20
9.6990493703
 30
0.0
 10
10.8155897402
 20
9.6923195426
 30
0.0
 10
10.7982417964
 20
9.6845183214
 30
0.0
 10
10.7822246982
 20
9.6757196048
 30
0.0
 10
10.7676909996
 20
9.6660045928
 30
0.0
 10
10.7547799658
 20
9.6554619526
 30
0.0
 10
10.7436153437
 20
9.6441884451
 30
0.0
 10
10.7343077248
 20
9.6322855534
 30
0.0
 10
10.7269538395
 20
9.6198605338
 30
0.0
 10
10.7216337593
 20
9.6070325148
 30
0.0
 10
10.71893773
 20
9.5960527155
 30
0.0
 10
10.7178700654
 20
9.5872564205
 30
0.0
 10
10.7176040968
 20
9.5806695021
 30
0.0
 10
10.7178700654
 20
9.5740825837
 30
0.0
 10
10.71893773
 20
9.5652862888
 30
0.0
 10
10.7216337593
 20
9.5543064895
 30
0.0
 10
10.7269538395
 20
9.5414784705
 30
0.0
 10
10.7343077248
 20
9.5290534509
 30
0.0
 10
10.7436153437
 20
9.5171505592
 30
0.0
 10
10.7547799658
 20
9.5058770516
 30
0.0
 10
10.7676909996
 20
9.4953344115
 30
0.0
 10
10.7822246982
 20
9.4856193995
 30
0.0
 10
10.7982417964
 20
9.4768206829
 30
0.0
 10
10.8155897402
 20
9.4690194617
 30
0.0
 10
10.8341040288
 20
9.462289634
 30
0.0
 10
10.853607961
 20
9.4566942316
 30
0.0
 10
10.8739149852
 20
9.4522856246
 30
0.0
 10
10.894833422
 20
9.4491061844
 30
0.0
 10
10.9161598317
 20
9.4471873799
 30
0.0
 10
10.9305025026
 20
9.4467592988
 30
0.0
 10
10.9376923427
 20
9.4467592988
 30
0.0
  0
SPLINE
  5
24B
100
AcDbEntity
  8
0
100
AcDbSpline
 62
9
  6
CONTINUOUS
 70
0
 71
3
 72
26
 73
22
 74
0
 42
0.0000001
 43
0.0000001
 44
0.0000000001
 40
0.0
 40
0.0
 40
0.0
 40
0.0
 40
0.0233187988
 40
0.0467325312
 40
0.0703343436
 40
0.0942128427
 40
0.1184515284
 40
0.1431269509
 40
0.194021545
 40
0.2473697291
 40
0.3034654094
 40
0.362463599
 40
0.4243954735
 40
0.4891812302
 40
0.5566484054
 40
0.6265482681
 40
0.6985681981
 40
0.7723395571
 40
0.8474573722
 40
0.9235124416
 40
1.0
 40
1.0
 40
1.0
 40
1.0
 10
11.1876920148
 20
9.6044719135
 30
0.0
 10
11.1876920148
 20
9.6069628229
 30
0.0
 10
11.1874905068
 20
9.6119571155
 30
0.0
 10
11.186583871
 20
9.6194230153
 30
0.0
 10
11.1850750208
 20
9.6268521679
 30
0.0
 10
11.1829693242
 20
9.6342258677
 30
0.0
 10
11.1802708987
 20
9.6415262779
 30
0.0
 10
11.1758480115
 20
9.6512359859
 30
0.0
 10
11.1688109324
 20
9.6631274768
 30
0.0
 10
11.1582346456
 20
9.6766520557
 30
0.0
 10
11.1455474832
 20
9.6894632423
 30
0.0
 10
11.1308759632
 20
9.7014433729
 30
0.0
 10
11.1143604737
 20
9.7124832001
 30
0.0
 10
11.0961592925
 20
9.722481716
 30
0.0
 10
11.0764457825
 20
9.7313467594
 30
0.0
 10
11.0554068909
 20
9.7389943214
 30
0.0
 10
11.033243437
 20
9.7453527241
 30
0.0
 10
11.0101673849
 20
9.7503625403
 30
0.0
 10
10.9863963419
 20
9.7539756397
 30
0.0
 10
10.9621615037
 20
9.7561560701
 30
0.0
 10
10.9458627282
 20
9.7566425991
 30
0.0
 10
10.9376923427
 20
9.7566425991
 30
0.0
  0
SPLINE
  5
24C
100
AcDbEntity
  8
0
100
AcDbSpline
 62
9
  6
CONTINUOUS
 70
0
 71
3
 72
36
 73
32
 74
0
 42
0.0000001
 43
0.0000001
 44
0.0000000001
 40
0.0
 40
0.0
 40
0.0
 40
0.0
 40
0.1337122361
 40
0.2673559937
 40
0.4008129548
 40
0.4674077702
 40
0.5338565547
 40
0.6000905751
 40
0.6660031293
 40
0.7314190953
 40
0.7638525584
 40
0.7960290168
 40
0.8278627388
 40
0.8592234586
 40
0.8899095497
 40
0.9195819199
 40
0.9338604399
 40
0.9476155494
 40
0.9606613585
 40
0.9727390186
 40
0.9782827641
 40
0.9834199731
 40
0.9880664345
 40
0.9921069643
 40
0.9954246361
 40
0.996776486
 40
0.9979073848
 40
0.998806259
 40
0.9994620352
 40
0.99986364
 40
1.0
 40
1.0
 40
1.0
 40
1.0
 10
11.7217955094
 20
8.2296695022
 30
0.0
 10
11.7295437355
 20
8.2289895895
 30
0.0
 10
11.7450334061
 20
8.2275977924
 30
0.0
 10
11.7682457307
 20
8.2254095425
 30
0.0
 10
11.7875625719
 20
8.2234994709
 30
0.0
 10
11.8029840631
 20
8.2219189746
 30
0.0
 10
11.8145127065
 20
8.2207093283
 30
0.0
 10
11.8259988775
 20
8.2194755496
 30
0.0
 10
11.837422236
 20
8.2182198681
 30
0.0
 10
11.8468885689
 20
8.2171553774
 30
0.0
 10
11.8544031538
 20
8.2162959714
 30
0.0
 10
11.8599761241
 20
8.2156516002
 30
0.0
 10
11.8654863196
 20
8.2150076307
 30
0.0
 10
11.8709096318
 20
8.2143671276
 30
0.0
 10
11.8762073292
 20
8.2137349903
 30
0.0
 10
11.8805177483
 20
8.213215492
 30
0.0
 10
11.8838500353
 20
8.2128110518
 30
0.0
 10
11.8862220533
 20
8.2125218862
 30
0.0
 10
11.8884668507
 20
8.2122470827
 30
0.0
 10
11.8902374295
 20
8.2120294611
 30
0.0
 10
11.8915513551
 20
8.2118675674
 30
0.0
 10
11.8924362348
 20
8.2117583767
 30
0.0
 10
11.893234316
 20
8.2116597709
 30
0.0
 10
11.8939273375
 20
8.2115740146
 30
0.0
 10
11.8944301593
 20
8.2115117498
 30
0.0
 10
11.894764992
 20
8.2114701516
 30
0.0
 10
11.8949602186
 20
8.2114460222
 30
0.0
 10
11.8951151946
 20
8.2114264507
 30
0.0
 10
11.8952282321
 20
8.2114131066
 30
0.0
 10
11.8952969365
 20
8.2114032638
 30
0.0
 10
11.8953282037
 20
8.2114007265
 30
0.0
 10
11.8953359859
 20
8.2113991924
 30
0.0
  0
SPLINE
  5
24D
100
AcDbEntity
  8
0
100
AcDbSpline
 62
9
  6
CONTINUOUS
 70
0
 71
3
 72
44
 73
40
 74
0
 42
0.0000001
 43
0.0000001
 44
0.0000000001
 40
0.0
 40
0.0
 40
0.0
 40
0.0
 40
0.0000344527
 40
0.0001369127
 40
0.0003059407
 40
0.0005400972
 40
0.0008379429
 40
0.0011980383
 40
0.0020992207
 40
0.0032321292
 40
0.0045852486
 40
0.0061467172
 40
0.0079027955
 40
0.0119412949
 40
0.0165857707
 40
0.0217223595
 40
0.0272649657
 40
0.0331565192
 40
0.039341315
 40
0.0523889961
 40
0.0661450415
 40
0.0804250294
 40
0.0951033476
 40
0.1100973596
 40
0.1407828855
 40
0.1721433079
 40
0.2039767897
 40
0.2361529877
 40
0.2685862981
 40
0.3012172949
 40
0.3340018776
 40
0.3999139418
 40
0.4661474291
 40
0.5325957158
 40
0.5991900144
 40
0.6658840916
 40
0.7326460539
 40
0.8662887869
 40
1.0
 40
1.0
 40
1.0
 40
1.0
 10
9.9800486143
 20
8.2113991235
 30
0.0
 10
9.980046747
 20
8.2113983957
 30
0.0
 10
9.9800639893
 20
8.2114017565
 30
0.0
 10
9.9800726989
 20
8.2114017077
 30
0.0
 10
9.9801069244
 20
8.21140665
 30
0.0
 10
9.9801451883
 20
8.2114111688
 30
0.0
 10
9.9801975176
 20
8.2114178341
 30
0.0
 10
9.9802871172
 20
8.2114290002
 30
0.0
 10
9.9804255631
 20
8.2114463327
 30
0.0
 10
9.9806209759
 20
8.2114706806
 30
0.0
 10
9.9808546554
 20
8.2114997456
 30
0.0
 10
9.9811242685
 20
8.2115331848
 30
0.0
 10
9.9815489314
 20
8.2115857552
 30
0.0
 10
9.9821515858
 20
8.2116601932
 30
0.0
 10
9.9829494249
 20
8.211758573
 30
0.0
 10
9.9838341126
 20
8.2118675442
 30
0.0
 10
9.9847908124
 20
8.2119852736
 30
0.0
 10
9.9858080472
 20
8.2121103066
 30
0.0
 10
9.9872586176
 20
8.21228837
 30
0.0
 10
9.9891633193
 20
8.2125216494
 30
0.0
 10
9.9915355547
 20
8.2128111043
 30
0.0
 10
9.9940021145
 20
8.2131106593
 30
0.0
 10
9.9965403458
 20
8.2134173729
 30
0.0
 10
10.0000262435
 20
8.2138364774
 30
0.0
 10
10.0044760894
 20
8.2143673103
 30
0.0
 10
10.0098993589
 20
8.2150076681
 30
0.0
 10
10.0154095171
 20
8.2156515974
 30
0.0
 10
10.0209824466
 20
8.2162960323
 30
0.0
 10
10.0266022708
 20
8.2169387478
 30
0.0
 10
10.0322580636
 20
8.2175783784
 30
0.0
 10
10.0398500367
 20
8.2184273844
 30
0.0
 10
10.0493865493
 20
8.2194756714
 30
0.0
 10
10.0608726543
 20
8.2207093276
 30
0.0
 10
10.0724012166
 20
8.2219189752
 30
0.0
 10
10.083959318
 20
8.2231035176
 30
0.0
 10
10.0955383557
 20
8.2242624255
 30
0.0
 10
10.1110017625
 20
8.2257736871
 30
0.0
 10
10.1303514765
 20
8.2275978271
 30
0.0
 10
10.1458410418
 20
8.2289895903
 30
0.0
 10
10.153589215
 20
8.2296695019
 30
0.0
  0
SPLINE
  5
24E
100
AcDbEntity
  8
0
100
AcDbSpline
 62
9
  6
CONTINUOUS
 70
0
 71
3
 72
13
 73
9
 74
0
 42
0.0000001
 43
0.0000001
 44
0.0000000001
 40
0.0
 40
0.0
 40
0.0
 40
0.0
 40
0.1236649064
 40
0.2481491861
 40
0.4981967304
 40
0.6235576783
 40
0.7490272036
 40
1.0
 40
1.0
 40
1.0
 40
1.0
 10
11.0812170357
 20
10.3988082207
 30
0.0
 10
11.0754925101
 20
10.4006083238
 30
0.0
 10
11.0639229768
 20
10.4039636124
 30
0.0
 10
11.0404353418
 20
10.4097100612
 30
0.0
 10
11.0165353658
 20
10.4140294501
 30
0.0
 10
10.9924088741
 20
10.4170049026
 30
0.0
 10
10.9681464285
 20
10.4191164939
 30
0.0
 10
10.9498708804
 20
10.4197387105
 30
0.0
 10
10.9376923427
 20
10.4197388614
 30
0.0
  0
SPLINE
  5
24F
100
AcDbEntity
  8
0
100
AcDbSpline
 62
9
  6
CONTINUOUS
 70
0
 71
3
 72
13
 73
9
 74
0
 42
0.0000001
 43
0.0000001
 44
0.0000000001
 40
0.0
 40
0.0
 40
0.0
 40
0.0
 40
0.2509729308
 40
0.3764426686
 40
0.5018037827
 40
0.7518509592
 40
0.8763350952
 40
1.0
 40
1.0
 40
1.0
 40
1.0
 10
10.9376923427
 20
10.4197388614
 30
0.0
 10
10.925513802
 20
10.4197388376
 30
0.0
 10
10.9072382381
 20
10.4191164068
 30
0.0
 10
10.8829758014
 20
10.4170045571
 30
0.0
 10
10.8588493108
 20
10.4140291815
 30
0.0
 10
10.8349493082
 20
10.4097100438
 30
0.0
 10
10.8114617268
 20
10.4039634997
 30
0.0
 10
10.7998921965
 20
10.4006082506
 30
0.0
 10
10.7941676498
 20
10.3988082207
 30
0.0
  0
SPLINE
  5
250
100
AcDbEntity
  8
0
100
AcDbSpline
 62
9
  6
CONTINUOUS
 70
0
 71
3
 72
19
 73
15
 74
0
 42
0.0000001
 43
0.0000001
 44
0.0000000001
 40
0.0
 40
0.0
 40
0.0
 40
0.0
 40
0.1244683264
 40
0.1868919146
 40
0.2494101516
 40
0.3119972969
 40
0.3746360605
 40
0.500000562
 40
0.6253648731
 40
0.6880034195
 40
0.7505902853
 40
0.8131082981
 40
0.8755318359
 40
1.0
 40
1.0
 40
1.0
 40
1.0
 10
10.7165959261
 20
8.3535526699
 30
0.0
 10
10.734917504
 20
8.3545764547
 30
0.0
 10
10.7624589411
 20
8.3555694318
 30
0.0
 10
10.7992230394
 20
8.3562265749
 30
0.0
 10
10.8268691906
 20
8.3564916039
 30
0.0
 10
10.8545477216
 20
8.3566217146
 30
0.0
 10
10.891491879
 20
8.3566680729
 30
0.0
 10
10.9376911287
 20
8.3566012144
 30
0.0
 10
10.9838903464
 20
8.3566670813
 30
0.0
 10
11.0208344031
 20
8.3566217181
 30
0.0
 10
11.0485128306
 20
8.356491938
 30
0.0
 10
11.0761588976
 20
8.3562266288
 30
0.0
 10
11.1129229305
 20
8.3555694837
 30
0.0
 10
11.1404643381
 20
8.3545765881
 30
0.0
 10
11.1587858966
 20
8.3535528835
 30
0.0
  0
SPLINE
  5
251
100
AcDbEntity
  8
0
100
AcDbSpline
 62
9
  6
CONTINUOUS
 70
0
 71
3
 72
64
 73
60
 74
0
 42
0.0000001
 43
0.0000001
 44
0.0000000001
 40
0.0
 40
0.0
 40
0.0
 40
0.0
 40
0.0000012519
 40
0.0000050053
 40
0.0000112597
 40
0.0000200145
 40
0.0000450227
 40
0.0000800254
 40
0.000125018
 40
0.0001799958
 40
0.0002449542
 40
0.0003198885
 40
0.0004996663
 40
0.0007192923
 40
0.0009787294
 40
0.0012779407
 40
0.0016168892
 40
0.001995538
 40
0.0028717888
 40
0.0039063986
 40
0.0050990731
 40
0.0064495186
 40
0.0079574308
 40
0.0096222687
 40
0.0114432666
 40
0.013419652
 40
0.0155506556
 40
0.0202734529
 40
0.0256055686
 40
0.0315409296
 40
0.0380725374
 40
0.0451923678
 40
0.0528924243
 40
0.0611647996
 40
0.0700016517
 40
0.0793947595
 40
0.0998155987
 40
0.1223601584
 40
0.1469610033
 40
0.1735491938
 40
0.2020563648
 40
0.2324122061
 40
0.2645457336
 40
0.298384028
 40
0.3338500532
 40
0.3708662614
 40
0.4093504504
 40
0.4492180975
 40
0.5327460401
 40
0.6207011795
 40
0.6660907959
 40
0.7122819371
 40
0.7591634237
 40
0.806624228
 40
0.8545552001
 40
0.8786629915
 40
0.9028468961
 40
0.9513750185
 40
1.0
 40
1.0
 40
1.0
 40
1.0
 10
10.0626923427
 20
8.3271266941
 30
0.0
 10
10.0626923825
 20
8.327127062
 30
0.0
 10
10.0626945173
 20
8.3271269944
 30
0.0
 10
10.0626969178
 20
8.3271287086
 30
0.0
 10
10.0627025286
 20
8.3271303117
 30
0.0
 10
10.0627133772
 20
8.3271345989
 30
0.0
 10
10.0627326329
 20
8.3271414852
 30
0.0
 10
10.0627616676
 20
8.3271522808
 30
0.0
 10
10.0627991423
 20
8.3271660312
 30
0.0
 10
10.0628448836
 20
8.3271828638
 30
0.0
 10
10.0628989534
 20
8.327202723
 30
0.0
 10
10.0629876505
 20
8.3272352841
 30
0.0
 10
10.0631192863
 20
8.3272835417
 30
0.0
 10
10.0633021569
 20
8.3273504772
 30
0.0
 10
10.0635182195
 20
8.3274294343
 30
0.0
 10
10.063767455
 20
8.327520368
 30
0.0
 10
10.0640498452
 20
8.3276232328
 30
0.0
 10
10.0644925757
 20
8.3277842439
 30
0.0
 10
10.0651287308
 20
8.3280150144
 30
0.0
 10
10.0659913906
 20
8.3283269442
 30
0.0
 10
10.0669862292
 20
8.3286855057
 30
0.0
 10
10.0681130998
 20
8.3290903248
 30
0.0
 10
10.0693717697
 20
8.3295410494
 30
0.0
 10
10.0707619727
 20
8.3300370064
 30
0.0
 10
10.0722833922
 20
8.330577246
 30
0.0
 10
10.0739356258
 20
8.3311608515
 30
0.0
 10
10.0763981602
 20
8.3320256506
 30
0.0
 10
10.0798001152
 20
8.3332088682
 30
0.0
 10
10.0842707138
 20
8.334742439
 30
0.0
 10
10.0892546719
 20
8.3364270339
 30
0.0
 10
10.0947481344
 20
8.3382542283
 30
0.0
 10
10.1007469333
 20
8.340214525
 30
0.0
 10
10.1072465089
 20
8.34229851
 30
0.0
 10
10.1142422951
 20
8.3444967069
 30
0.0
 10
10.1217295996
 20
8.3467995576
 30
0.0
 10
10.1326697268
 20
8.3500899168
 30
0.0
 10
10.1475330678
 20
8.3544022279
 30
0.0
 10
10.166785251
 20
8.3597135209
 30
0.0
 10
10.1878713282
 20
8.3652246417
 30
0.0
 10
10.2107413373
 20
8.3708715298
 30
0.0
 10
10.2353441395
 20
8.3765868396
 30
0.0
 10
10.2616235174
 20
8.3823176529
 30
0.0
 10
10.2895208763
 20
8.3880128569
 30
0.0
 10
10.3189746917
 20
8.3936222722
 30
0.0
 10
10.3499197729
 20
8.3991015356
 30
0.0
 10
10.3822881201
 20
8.4044030598
 30
0.0
 10
10.4160067637
 20
8.409493008
 30
0.0
 10
10.4634027641
 20
8.416057214
 30
0.0
 10
10.5254333112
 20
8.4235040612
 30
0.0
 10
10.5892434172
 20
8.4296730181
 30
0.0
 10
10.6421408661
 20
8.4339109354
 30
0.0
 10
10.6829702134
 20
8.4367314729
 30
0.0
 10
10.7244391935
 20
8.4391393605
 30
0.0
 10
10.7664460135
 20
8.4411107003
 30
0.0
 10
10.8017442336
 20
8.4423952675
 30
0.0
 10
10.8301733137
 20
8.4432179518
 30
0.0
 10
10.8587824979
 20
8.4439073462
 30
0.0
 10
10.8946422301
 20
8.4445026177
 30
0.0
 10
10.9233583529
 20
8.4446697045
 30
0.0
 10
10.9377306173
 20
8.4446695021
 30
0.0
  0
SPLINE
  5
252
100
AcDbEntity
  8
0
100
AcDbSpline
 62
9
  6
CONTINUOUS
 70
0
 71
3
 72
41
 73
37
 74
0
 42
0.0000001
 43
0.0000001
 44
0.0000000001
 40
0.0
 40
0.0
 40
0.0
 40
0.0
 40
0.0382458797
 40
0.0762752047
 40
0.1138367417
 40
0.1507252432
 40
0.1867378137
 40
0.2216902154
 40
0.2554261925
 40
0.2878213899
 40
0.3187895886
 40
0.3482908122
 40
0.3763406569
 40
0.4030166613
 40
0.4284657781
 40
0.4529081484
 40
0.4766320725
 40
0.4883397713
 40
0.5
 40
0.5116602287
 40
0.5233679275
 40
0.5470918516
 40
0.5715342219
 40
0.5969833387
 40
0.6236593431
 40
0.6517091878
 40
0.6812104114
 40
0.7121786101
 40
0.7445738075
 40
0.7783097846
 40
0.8132621863
 40
0.8492747568
 40
0.8861632583
 40
0.9237247953
 40
0.9617541203
 40
1.0
 40
1.0
 40
1.0
 40
1.0
 10
10.9376923427
 20
9.4467592988
 30
0.0
 10
10.9448821828
 20
9.4467592988
 30
0.0
 10
10.9592248537
 20
9.4471873799
 30
0.0
 10
10.9805512635
 20
9.4491061844
 30
0.0
 10
11.0014697003
 20
9.4522856246
 30
0.0
 10
11.0217767244
 20
9.4566942316
 30
0.0
 10
11.0412806566
 20
9.462289634
 30
0.0
 10
11.0597949453
 20
9.4690194617
 30
0.0
 10
11.077142889
 20
9.4768206829
 30
0.0
 10
11.0931599873
 20
9.4856193995
 30
0.0
 10
11.1076936858
 20
9.4953344115
 30
0.0
 10
11.1206047197
 20
9.5058770516
 30
0.0
 10
11.1317693418
 20
9.5171505592
 30
0.0
 10
11.1410769607
 20
9.5290534509
 30
0.0
 10
11.148430846
 20
9.5414784705
 30
0.0
 10
11.1537509261
 20
9.5543064895
 30
0.0
 10
11.1564469555
 20
9.5652862888
 30
0.0
 10
11.15751462
 20
9.5740825837
 30
0.0
 10
11.1577805887
 20
9.5806695021
 30
0.0
 10
11.15751462
 20
9.5872564205
 30
0.0
 10
11.1564469555
 20
9.5960527155
 30
0.0
 10
11.1537509261
 20
9.6070325148
 30
0.0
 10
11.148430846
 20
9.6198605338
 30
0.0
 10
11.1410769607
 20
9.6322855534
 30
0.0
 10
11.1317693418
 20
9.6441884451
 30
0.0
 10
11.1206047197
 20
9.6554619526
 30
0.0
 10
11.1076936858
 20
9.6660045928
 30
0.0
 10
11.0931599873
 20
9.6757196048
 30
0.0
 10
11.077142889
 20
9.6845183214
 30
0.0
 10
11.0597949453
 20
9.6923195426
 30
0.0
 10
11.0412806566
 20
9.6990493703
 30
0.0
 10
11.0217767244
 20
9.7046447727
 30
0.0
 10
11.0014697003
 20
9.7090533797
 30
0.0
 10
10.9805512635
 20
9.7122328199
 30
0.0
 10
10.9592248537
 20
9.7141516244
 30
0.0
 10
10.9448821828
 20
9.7145797055
 30
0.0
 10
10.9376923427
 20
9.7145797055
 30
0.0
  0
SPLINE
  5
253
100
AcDbEntity
  8
0
100
AcDbSpline
 62
9
  6
CONTINUOUS
 70
0
 71
3
 72
26
 73
22
 74
0
 42
0.0000001
 43
0.0000001
 44
0.0000000001
 40
0.0
 40
0.0
 40
0.0
 40
0.0
 40
0.0233187988
 40
0.0467325312
 40
0.0703343436
 40
0.0942128427
 40
0.1184515284
 40
0.1431269509
 40
0.194021545
 40
0.2473697291
 40
0.3034654094
 40
0.362463599
 40
0.4243954735
 40
0.4891812302
 40
0.5566484054
 40
0.6265482681
 40
0.6985681981
 40
0.7723395571
 40
0.8474573722
 40
0.9235124416
 40
1.0
 40
1.0
 40
1.0
 40
1.0
 10
11.1876920148
 20
9.7393522446
 30
0.0
 10
11.1876920148
 20
9.741843154
 30
0.0
 10
11.1874905068
 20
9.7468374466
 30
0.0
 10
11.186583871
 20
9.7543033464
 30
0.0
 10
11.1850750208
 20
9.761732499
 30
0.0
 10
11.1829693242
 20
9.7691061988
 30
0.0
 10
11.1802708987
 20
9.776406609
 30
0.0
 10
11.1758480115
 20
9.786116317
 30
0.0
 10
11.1688109324
 20
9.7980078079
 30
0.0
 10
11.1582346456
 20
9.8115323868
 30
0.0
 10
11.1455474832
 20
9.8243435734
 30
0.0
 10
11.1308759632
 20
9.836323704
 30
0.0
 10
11.1143604737
 20
9.8473635312
 30
0.0
 10
11.0961592925
 20
9.8573620471
 30
0.0
 10
11.0764457825
 20
9.8662270905
 30
0.0
 10
11.0554068909
 20
9.8738746525
 30
0.0
 10
11.033243437
 20
9.8802330552
 30
0.0
 10
11.0101673849
 20
9.8852428714
 30
0.0
 10
10.9863963419
 20
9.8888559708
 30
0.0
 10
10.9621615037
 20
9.8910364012
 30
0.0
 10
10.9458627282
 20
9.8915229302
 30
0.0
 10
10.9376923427
 20
9.8915229302
 30
0.0
  0
SPLINE
  5
254
100
AcDbEntity
  8
0
100
AcDbSpline
 62
9
  6
CONTINUOUS
 70
0
 71
3
 72
26
 73
22
 74
0
 42
0.0000001
 43
0.0000001
 44
0.0000000001
 40
0.0
 40
0.0
 40
0.0
 40
0.0
 40
0.0764875584
 40
0.1525426278
 40
0.2276604429
 40
0.3014318019
 40
0.3734517319
 40
0.4433515946
 40
0.5108187698
 40
0.5756045265
 40
0.637536401
 40
0.6965345906
 40
0.7526302709
 40
0.805978455
 40
0.8568730491
 40
0.8815484716
 40
0.9057871573
 40
0.9296656564
 40
0.9532674688
 40
0.9766812012
 40
1.0
 40
1.0
 40
1.0
 40
1.0
 10
10.9376923427
 20
9.8915229302
 30
0.0
 10
10.9295219573
 20
9.8915229302
 30
0.0
 10
10.9132231818
 20
9.8910364012
 30
0.0
 10
10.8889883436
 20
9.8888559708
 30
0.0
 10
10.8652173006
 20
9.8852428714
 30
0.0
 10
10.8421412484
 20
9.8802330552
 30
0.0
 10
10.8199777946
 20
9.8738746525
 30
0.0
 10
10.798938903
 20
9.8662270905
 30
0.0
 10
10.7792253929
 20
9.8573620471
 30
0.0
 10
10.7610242118
 20
9.8473635312
 30
0.0
 10
10.7445087223
 20
9.836323704
 30
0.0
 10
10.7298372022
 20
9.8243435734
 30
0.0
 10
10.7171500399
 20
9.8115323868
 30
0.0
 10
10.706573753
 20
9.7980078079
 30
0.0
 10
10.699536674
 20
9.786116317
 30
0.0
 10
10.6951137868
 20
9.776406609
 30
0.0
 10
10.6924153613
 20
9.7691061988
 30
0.0
 10
10.6903096646
 20
9.761732499
 30
0.0
 10
10.6888008145
 20
9.7543033464
 30
0.0
 10
10.6878941786
 20
9.7468374466
 30
0.0
 10
10.6876926707
 20
9.741843154
 30
0.0
 10
10.6876926707
 20
9.7393522446
 30
0.0
  0
SPLINE
  5
255
100
AcDbEntity
  8
0
100
AcDbSpline
 62
9
  6
CONTINUOUS
 70
0
 71
3
 72
25
 73
21
 74
0
 42
0.0000001
 43
0.0000001
 44
0.0000000001
 40
0.0
 40
0.0
 40
0.0
 40
0.0
 40
0.1917583041
 40
0.3738158433
 40
0.459313609
 40
0.5402265392
 40
0.6159121334
 40
0.685769883
 40
0.7492946519
 40
0.8060310909
 40
0.8556446912
 40
0.8979022427
 40
0.9162587582
 40
0.9327901794
 40
0.9475427685
 40
0.9605976154
 40
0.9720950127
 40
0.9822561736
 40
0.9914075955
 40
1.0
 40
1.0
 40
1.0
 40
1.0
 10
10.7941676498
 20
10.3988082207
 30
0.0
 10
10.7959205875
 20
10.3956599649
 30
0.0
 10
10.7992407872
 20
10.3894681124
 30
0.0
 10
10.8030591451
 20
10.3817252571
 30
0.0
 10
10.8057769334
 20
10.3757672736
 30
0.0
 10
10.8075737611
 20
10.3715874199
 30
0.0
 10
10.8091577237
 20
10.3676372794
 30
0.0
 10
10.8105150603
 20
10.3639498852
 30
0.0
 10
10.8116354394
 20
10.3605567051
 30
0.0
 10
10.8125096229
 20
10.3574853
 30
0.0
 10
10.8131316065
 20
10.3547615031
 30
0.0
 10
10.813451276
 20
10.3527120382
 30
0.0
 10
10.8135614454
 20
10.3512658333
 30
0.0
 10
10.8135742393
 20
10.3503323771
 30
0.0
 10
10.8135213567
 20
10.3494998439
 30
0.0
 10
10.8134022594
 20
10.3487693978
 30
0.0
 10
10.8132165305
 20
10.3481418218
 30
0.0
 10
10.8129630829
 20
10.3476176264
 30
0.0
 10
10.8126399759
 20
10.347199085
 30
0.0
 10
10.8123733537
 20
10.3469914314
 30
0.0
 10
10.8122336951
 20
10.3469104042
 30
0.0
  0
SPLINE
  5
256
100
AcDbEntity
  8
0
100
AcDbSpline
 62
9
  6
CONTINUOUS
 70
0
 71
3
 72
26
 73
22
 74
0
 42
0.0000001
 43
0.0000001
 44
0.0000000001
 40
0.0
 40
0.0
 40
0.0
 40
0.0
 40
0.0764875584
 40
0.1525426278
 40
0.2276604429
 40
0.3014318019
 40
0.3734517319
 40
0.4433515946
 40
0.5108187698
 40
0.5756045265
 40
0.637536401
 40
0.6965345906
 40
0.7526302709
 40
0.805978455
 40
0.8568730491
 40
0.8815484716
 40
0.9057871573
 40
0.9296656564
 40
0.9532674688
 40
0.9766812012
 40
1.0
 40
1.0
 40
1.0
 40
1.0
 10
10.9376923427
 20
9.7566425991
 30
0.0
 10
10.9295219573
 20
9.7566425991
 30
0.0
 10
10.9132231818
 20
9.7561560701
 30
0.0
 10
10.8889883436
 20
9.7539756397
 30
0.0
 10
10.8652173006
 20
9.7503625403
 30
0.0
 10
10.8421412484
 20
9.7453527241
 30
0.0
 10
10.8199777946
 20
9.7389943214
 30
0.0
 10
10.798938903
 20
9.7313467594
 30
0.0
 10
10.7792253929
 20
9.722481716
 30
0.0
 10
10.7610242118
 20
9.7124832001
 30
0.0
 10
10.7445087223
 20
9.7014433729
 30
0.0
 10
10.7298372022
 20
9.6894632423
 30
0.0
 10
10.7171500399
 20
9.6766520557
 30
0.0
 10
10.706573753
 20
9.6631274768
 30
0.0
 10
10.699536674
 20
9.6512359859
 30
0.0
 10
10.6951137868
 20
9.6415262779
 30
0.0
 10
10.6924153613
 20
9.6342258677
 30
0.0
 10
10.6903096646
 20
9.6268521679
 30
0.0
 10
10.6888008145
 20
9.6194230153
 30
0.0
 10
10.6878941786
 20
9.6119571155
 30
0.0
 10
10.6876926707
 20
9.6069628229
 30
0.0
 10
10.6876926707
 20
9.6044719135
 30
0.0
  0
ENDSEC
  0
SECTION
  2
OBJECTS
  0
DICTIONARY
  5
C
100
AcDbDictionary
280
0
281
1
  3
ACAD_GROUP
350
D
  3
ACAD_MLINESTYLE
350
17
  3
ACAD_LAYOUT
350
1A
  3
ACAD_PLOTSETTINGS
350
19
  3
ACAD_PLOTSTYLENAME
350
E
  0
DICTIONARY
  5
D
102
{ACAD_REACTORS
330
C
102
}
100
AcDbDictionary
280
0
281
1
  0
ACDBDICTIONARYWDFLT
  5
E
102
{ACAD_REACTORS
330
C
102
}
100
AcDbDictionary
281
1
  3
Normal
350
F
100
AcDbDictionaryWithDefault
340
F
  0
DICTIONARY
  5
17
102
{ACAD_REACTORS
330
C
102
}
100
AcDbDictionary
280
0
281
1
  3
Standard
350
18
  0
DICTIONARY
  5
19
102
{ACAD_REACTORS
330
C
102
}
100
AcDbDictionary
281
1
  0
DICTIONARY
  5
1A
102
{ACAD_REACTORS
330
C
102
}
100
AcDbDictionary
281
1
  3
Model
350
257
  3
Layout1
350
258
  0
ACDBPLACEHOLDER
  5
F
102
{ACAD_REACTORS
330
E
102
}
  0
MLINESTYLE
  5
18
102
{ACAD_REACTORS
330
17
102
}
100
AcDbMlineStyle
  2
STANDARD
 70
0
  3

 62
256
 51
90.0
 52
90.0
 71
2
 49
0.5
 62
256
  6
BYLAYER
 49
-0.5
 62
256
  6
BYLAYER
  0
LAYOUT
  5
257
102
{ACAD_REACTORS
330
1A
102
}
100
AcDbPlotSettings
  1

  2
none_device
  4
ANSI_C_(22.00_x_17.00_Inches)
  6

 40
0.0
 41
0.0
 42
0.0
 43
0.0
 44
558.8
 45
431.8
 46
0.0
 47
0.0
 48
0.0
 49
0.0
140
0.0
141
0.0
142
1.0
143
1.0
 70
1024
 72
0
 73
0
 74
0
  7

 75
0
147
1.0
148
0.0
149
0.0
100
AcDbLayout
  1
Model
 70
0
 71
0
 10
0.0
 20
0.0
 11
22.0
 21
17.0
 12
0.0
 22
0.0
 32
0.0
 14
0.0
 24
0.0
 34
0.0
 15
0.0
 25
0.0
 35
0.0
146
0.0
 13
0.0
 23
0.0
 33
0.0
 16
1.0
 26
0.0
 36
0.0
 17
0.0
 27
1.0
 37
0.0
 76
0
330
205
345
0
346
0
  0
LAYOUT
  5
258
102
{ACAD_REACTORS
330
1A
102
}
100
AcDbPlotSettings
  1

  2
none_device
  4
ANSI_C_(22.00_x_17.00_Inches)
  6

 40
0.0
 41
0.0
 42
0.0
 43
0.0
 44
558.8
 45
431.8
 46
0.0
 47
0.0
 48
0.0
 49
0.0
140
0.0
141
0.0
142
1.0
143
1.0
 70
0
 72
0
 73
0
 74
0
  7

 75
0
147
1.0
148
0.0
149
0.0
100
AcDbLayout
  1
Layout1
 70
0
 71
1
 10
0.0
 20
0.0
 11
22.0
 21
17.0
 12
0.0
 22
0.0
 32
0.0
 14
0.0
 24
0.0
 34
0.0
 15
0.0
 25
0.0
 35
0.0
146
0.0
 13
0.0
 23
0.0
 33
0.0
 16
1.0
 26
0.0
 36
0.0
 17
0.0
 27
1.0
 37
0.0
 76
0
330
206
345
0
346
0
  0
ENDSEC
  0
EOF
