999
DXF file: 3170-5751_front.dxf
999
Pro/ENGINEER 2013150 by Parametric Technology Corporation
  0
SECTION
  2
HEADER
  9
$ACADVER
  1
AC1021
  9
$DWGCODEPAGE
  3
ANSI_1252
  9
$EXTMAX
 10
11.0
 20
8.5
 30
0.0
  9
$EXTMIN
 10
0.0
 20
0.0
 30
0.0
  9
$LIMMIN
 10
0.0
 20
0.0
  9
$LIMMAX
 10
11.0
 20
8.5
  9
$VIEWCTR
 10
5.5
 20
4.25
  9
$VIEWSIZE
 40
8.5
  9
$CLAYER
  8
0
  9
$LTSCALE
 40
0.605
  9
$CELTYPE
  6
BYLAYER
  9
$DIMSCALE
 40
1.0
  9
$DIMASZ
 40
0.1
  9
$DIMEXO
 40
0.0625
  9
$DIMDLI
 40
0.418
  9
$DIMEXE
 40
0.125
  9
$DIMCEN
 40
0.099
  9
$DIMLFAC
 40
1.0
  9
$DIMBLK
  1
_FILLED
  9
$DIMTXT
 40
0.08
  9
$DIMTOL
 70
1
  9
$DIMLIM
 70
0
  9
$DIMTFAC
 40
1.0
  9
$DIMTP
 40
0.001
  9
$DIMTM
 40
0.001
  9
$DIMGAP
 40
0.09
  9
$DIMDSEP
 70
46
  9
$PDMODE
 70
3
  9
$PDSIZE
 40
0.3125
  9
$HANDSEED
  5
26D
  9
$TILEMODE
 70
1
  9
$MEASUREMENT
 70
0
  9
$INSUNITS
 70
1
  0
ENDSEC
  0
SECTION
  2
CLASSES
  0
CLASS
  1
ACDBDICTIONARYWDFLT
  2
AcDbDictionaryWithDefault
  3
AutoCAD 2000
 90
0
 91
1
280
0
281
0
  0
CLASS
  1
ACDBPLACEHOLDER
  2
AcDbPlaceHolder
  3
AutoCAD 2000
 90
0
 91
1
280
0
281
0
  0
CLASS
  1
LAYOUT
  2
AcDbLayout
  3
AutoCAD 2000
 90
0
 91
0
280
0
281
0
  0
ENDSEC
  0
SECTION
  2
TABLES
  0
TABLE
  2
VPORT
  5
8
100
AcDbSymbolTable
 70
2
  0
VPORT
  5
1F4
100
AcDbSymbolTableRecord
100
AcDbViewportTableRecord
  2
*ACTIVE
 70
0
 10
0.0
 20
0.0
 11
1.0
 21
1.0
 12
5.5
 22
4.25
 13
0.0
 23
0.0
 14
1.0
 24
1.0
 15
0.0
 25
0.0
 16
0.0
 26
0.0
 36
1.0
 17
0.0
 27
0.0
 37
0.0
 40
8.5
 41
1.2941176471
 42
50.0
 43
0.0
 44
0.0
 50
0.0
 51
0.0
 71
0
 72
100
 73
1
 74
1
 75
0
 76
0
 77
0
 78
0
  0
ENDTAB
  0
TABLE
  2
LTYPE
  5
5
100
AcDbSymbolTable
 70
6
  0
LTYPE
  5
14
100
AcDbSymbolTableRecord
100
AcDbLinetypeTableRecord
  2
BYBLOCK
 70
0
  3

 72
65
 73
0
 40
0.0
  0
LTYPE
  5
15
100
AcDbSymbolTableRecord
100
AcDbLinetypeTableRecord
  2
BYLAYER
 70
0
  3

 72
65
 73
0
 40
0.0
  0
LTYPE
  5
16
100
AcDbSymbolTableRecord
100
AcDbLinetypeTableRecord
  2
CONTINUOUS
 70
64
  3
Solid line
 72
65
 73
0
 40
0.0
  0
LTYPE
  5
1F5
100
AcDbSymbolTableRecord
100
AcDbLinetypeTableRecord
  2
CENTER
 70
64
  3
____ _ ____ _ ____ _ ____ _ ____ _ ____ _ ____
 72
65
 73
4
 40
0.6
 49
0.375
 74
0
 49
-0.075
 74
0
 49
0.075
 74
0
 49
-0.075
 74
0
  0
LTYPE
  5
1F6
100
AcDbSymbolTableRecord
100
AcDbLinetypeTableRecord
  2
HIDDEN
 70
64
  3
- - - - - - - - - - - - - - - - - - - -
 72
65
 73
2
 40
0.2
 49
0.1
 74
0
 49
-0.1
 74
0
  0
LTYPE
  5
1F7
100
AcDbSymbolTableRecord
100
AcDbLinetypeTableRecord
  2
PHANTOM
 70
64
  3
_____ _ _ _____ _ _ _____ _ _ _____
 72
65
 73
6
 40
0.8
 49
0.45
 74
0
 49
-0.05
 74
0
 49
0.1
 74
0
 49
-0.05
 74
0
 49
0.1
 74
0
 49
-0.05
 74
0
  0
LTYPE
  5
1F8
100
AcDbSymbolTableRecord
100
AcDbLinetypeTableRecord
  2
DOT
 70
64
  3
. . . . . . . . . . . . . . . . . . . .
 72
65
 73
2
 40
0.2
 49
0.1
 74
0
 49
-0.1
 74
0
  0
LTYPE
  5
1F9
100
AcDbSymbolTableRecord
100
AcDbLinetypeTableRecord
  2
DASHED
 70
64
  3
- - - - - - - - - - - - - - - - - - - -
 72
65
 73
2
 40
0.2
 49
0.1
 74
0
 49
-0.1
 74
0
  0
ENDTAB
  0
TABLE
  2
LAYER
  5
2
100
AcDbSymbolTable
 70
36
  0
LAYER
  5
10
100
AcDbSymbolTableRecord
100
AcDbLayerTableRecord
  2
0
 70
0
 62
7
  6
CONTINUOUS
370
-3
390
F
  0
LAYER
  5
1FA
100
AcDbSymbolTableRecord
100
AcDbLayerTableRecord
  2
DEFAULT_1
 70
0
 62
7
  6
CENTER
370
-3
390
F
  0
LAYER
  5
1FB
100
AcDbSymbolTableRecord
100
AcDbLayerTableRecord
  2
DEFAULT_2
 70
0
 62
8
  6
HIDDEN
370
-3
390
F
  0
LAYER
  5
1FC
100
AcDbSymbolTableRecord
100
AcDbLayerTableRecord
  2
DEFAULT_3
 70
0
 62
7
  6
PHANTOM
370
-3
390
F
  0
LAYER
  5
1FD
100
AcDbSymbolTableRecord
100
AcDbLayerTableRecord
  2
ALL_FEATURES
 70
0
 62
7
  6
CONTINUOUS
370
-3
390
F
  0
LAYER
  5
1FE
100
AcDbSymbolTableRecord
100
AcDbLayerTableRecord
  2
AXES_FEATURES
 70
0
 62
7
  6
CONTINUOUS
370
-3
390
F
  0
LAYER
  5
1FF
100
AcDbSymbolTableRecord
100
AcDbLayerTableRecord
  2
DATUM_CURVES
 70
0
 62
7
  6
CONTINUOUS
370
-3
390
F
  0
LAYER
  5
200
100
AcDbSymbolTableRecord
100
AcDbLayerTableRecord
  2
DEFAULT_COORDINATE_SYSTEM
 70
0
 62
7
  6
CONTINUOUS
370
-3
390
F
  0
LAYER
  5
201
100
AcDbSymbolTableRecord
100
AcDbLayerTableRecord
  2
DEFAULT_DATUM_AXES
 70
0
 62
7
  6
CONTINUOUS
370
-3
390
F
  0
LAYER
  5
202
100
AcDbSymbolTableRecord
100
AcDbLayerTableRecord
  2
DEFAULT_DATUM_PLANES
 70
0
 62
7
  6
CONTINUOUS
370
-3
390
F
  0
LAYER
  5
203
100
AcDbSymbolTableRecord
100
AcDbLayerTableRecord
  2
DIMENSIONS
 70
0
 62
7
  6
CONTINUOUS
370
-3
390
F
  0
LAYER
  5
204
100
AcDbSymbolTableRecord
100
AcDbLayerTableRecord
  2
LAY0001
 70
0
 62
7
  6
CONTINUOUS
370
-3
390
F
  0
LAYER
  5
205
100
AcDbSymbolTableRecord
100
AcDbLayerTableRecord
  2
PROTRUSION_FEATURES
 70
0
 62
7
  6
CONTINUOUS
370
-3
390
F
  0
LAYER
  5
206
100
AcDbSymbolTableRecord
100
AcDbLayerTableRecord
  2
SIZE_REF
 70
0
 62
7
  6
CONTINUOUS
370
-3
390
F
  0
ENDTAB
  0
TABLE
  2
STYLE
  5
3
100
AcDbSymbolTable
 70
1
  0
STYLE
  5
11
100
AcDbSymbolTableRecord
100
AcDbTextStyleTableRecord
  2
STANDARD
 70
0
 40
0.0
 41
0.8
 50
0.0
 71
0
 42
0.2
  3
txt
  4

  0
STYLE
  5
207
100
AcDbSymbolTableRecord
100
AcDbTextStyleTableRecord
  2
TEXTSTYLE_1
 70
0
 40
0.0
 41
0.8
 50
0.0
 71
0
 42
0.2
  3
gdt
  4

  0
ENDTAB
  0
TABLE
  2
VIEW
  5
6
100
AcDbSymbolTable
 70
0
  0
ENDTAB
  0
TABLE
  2
UCS
  5
7
100
AcDbSymbolTable
 70
0
  0
ENDTAB
  0
TABLE
  2
APPID
  5
9
100
AcDbSymbolTable
 70
1
  0
APPID
  5
208
100
AcDbSymbolTableRecord
100
AcDbRegAppTableRecord
  2
ACAD
 70
0
  0
ENDTAB
  0
TABLE
  2
BLOCK_RECORD
  5
1
100
AcDbSymbolTable
 70
0
  0
BLOCK_RECORD
  5
209
100
AcDbSymbolTableRecord
100
AcDbBlockTableRecord
  2
*Model_Space
  0
BLOCK_RECORD
  5
20A
100
AcDbSymbolTableRecord
100
AcDbBlockTableRecord
  2
*Paper_Space
  0
ENDTAB
  0
TABLE
  2
DIMSTYLE
  5
A
100
AcDbSymbolTable
 70
1
100
AcDbDimStyleTable
 71
0
  0
DIMSTYLE
105
20B
100
AcDbSymbolTableRecord
100
AcDbDimStyleTableRecord
  2
STANDARD
 70
0
  3

  4

 40
1.0
 41
0.1
 42
0.0625
 43
0.38
 44
0.125
 45
0.0
 46
0.0
 47
0.001
 48
0.001
140
0.08
141
0.09
142
0.0
143
25.4
144
1.0
145
0.0
146
1.0
147
0.09
 71
1.0
 72
0.0
 73
1
 74
1
 75
0
 76
0
 77
0
 78
4
170
0
171
2
172
0
173
0
174
0
175
0
176
0
177
0
178
0
270
2
271
3
272
3
273
2
274
2
275
0
280
0
281
0
282
0
283
1
284
4
285
0
286
0
287
3
288
0
340
11
278
46
  0
ENDTAB
  0
ENDSEC
  0
SECTION
  2
BLOCKS
  0
BLOCK
  5
20
100
AcDbEntity
  8
0
100
AcDbBlockBegin
  2
*Model_Space
 70
0
 10
0.0
 20
0.0
 30
0.0
  3
*Model_Space
  1

  0
ENDBLK
  5
21
100
AcDbEntity
  8
0
100
AcDbBlockEnd
  0
BLOCK
  5
1C
100
AcDbEntity
  8
0
100
AcDbBlockBegin
  2
*Paper_Space
 70
0
 10
0.0
 20
0.0
 30
0.0
  3
*Paper_Space
  1

  0
ENDBLK
  5
1D
100
AcDbEntity
  8
0
100
AcDbBlockEnd
  0
ENDSEC
  0
SECTION
  2
ENTITIES
  0
LINE
  5
20C
100
AcDbEntity
  8
0
100
AcDbLine
 62
7
  6
CONTINUOUS
 10
0.0
 20
0.0
 11
0.0
 21
8.5
  0
LINE
  5
20D
100
AcDbEntity
  8
0
100
AcDbLine
 62
7
  6
CONTINUOUS
 10
0.0
 20
0.0
 11
11.0
 21
0.0
  0
LINE
  5
20E
100
AcDbEntity
  8
0
100
AcDbLine
 62
7
  6
CONTINUOUS
 10
0.0
 20
8.5
 11
11.0
 21
8.5
  0
LINE
  5
20F
100
AcDbEntity
  8
0
100
AcDbLine
 62
7
  6
CONTINUOUS
 10
11.0
 20
0.0
 11
11.0
 21
8.5
  0
LINE
  5
210
100
AcDbEntity
  8
0
100
AcDbLine
 62
7
  6
CONTINUOUS
 10
3.6056025124
 20
2.7760592432
 11
5.6556025124
 21
2.7760592432
  0
LINE
  5
211
100
AcDbEntity
  8
0
100
AcDbLine
 62
7
  6
CONTINUOUS
 10
3.6056025124
 20
2.8860592432
 11
3.6056025124
 21
2.7760592432
  0
LINE
  5
212
100
AcDbEntity
  8
0
100
AcDbLine
 62
7
  6
CONTINUOUS
 10
3.6456025124
 20
2.9260592432
 11
3.6456025124
 21
2.7760592432
  0
LINE
  5
213
100
AcDbEntity
  8
0
100
AcDbLine
 62
7
  6
CONTINUOUS
 10
3.6730761966
 20
3.0360540636
 11
3.6730761966
 21
2.9460592432
  0
LINE
  5
214
100
AcDbEntity
  8
0
100
AcDbLine
 62
7
  6
CONTINUOUS
 10
3.6056025124
 20
2.8860592432
 11
5.6556025124
 21
2.8860592432
  0
LINE
  5
215
100
AcDbEntity
  8
0
100
AcDbLine
 62
7
  6
CONTINUOUS
 10
3.6456025124
 20
2.9260592432
 11
5.6156025124
 21
2.9260592432
  0
LINE
  5
216
100
AcDbEntity
  8
0
100
AcDbLine
 62
7
  6
CONTINUOUS
 10
3.7130761966
 20
2.9277888963
 11
5.5481288282
 21
2.9277888268
  0
LINE
  5
217
100
AcDbEntity
  8
0
100
AcDbLine
 62
7
  6
CONTINUOUS
 10
3.7130761966
 20
2.9277888963
 11
3.7130761966
 21
3.0699484504
  0
LWPOLYLINE
  5
218
100
AcDbEntity
  8
0
100
AcDbPolyline
 62
7
  6
CONTINUOUS
 90
13
 70
0
 10
3.7162986565
 20
3.0994210187
 10
3.7162083734
 20
3.0980717904
 10
3.7157894472
 20
3.0950896333
 10
3.7150737011
 20
3.0921646251
 10
3.7140683848
 20
3.0893262263
 10
3.7127836634
 20
3.0866030184
 10
3.7112325089
 20
3.0840224092
 10
3.7094305829
 20
3.0816103798
 10
3.7073960846
 20
3.0793912188
 10
3.7051495661
 20
3.0773872654
 10
3.702713657
 20
3.0756186344
 10
3.7001128369
 20
3.0741030562
 10
3.6977911845
 20
3.0730248957
  0
LINE
  5
219
100
AcDbEntity
  8
0
100
AcDbLine
 62
7
  6
CONTINUOUS
 10
3.8131025124
 20
5.1610592432
 11
3.8131025124
 21
3.325199927
  0
LINE
  5
21A
100
AcDbEntity
  8
0
100
AcDbLine
 62
7
  6
CONTINUOUS
 10
3.8131025124
 20
3.325199927
 11
3.7959064666
 21
3.2053189219
  0
LINE
  5
21B
100
AcDbEntity
  8
0
100
AcDbLine
 62
7
  6
CONTINUOUS
 10
5.4652985582
 20
3.2053189219
 11
5.4356025124
 21
3.2010592432
  0
LINE
  5
21C
100
AcDbEntity
  8
0
100
AcDbLine
 62
7
  6
CONTINUOUS
 10
3.7556025124
 20
3.1610592432
 11
5.5056025124
 21
3.1610592432
  0
LINE
  5
21D
100
AcDbEntity
  8
0
100
AcDbLine
 62
7
  6
CONTINUOUS
 10
3.7956025124
 20
3.2010592432
 11
5.4656025124
 21
3.2010592432
  0
LINE
  5
21E
100
AcDbEntity
  8
0
100
AcDbLine
 62
7
  6
CONTINUOUS
 10
3.7959064666
 20
3.2053189219
 11
5.4652985582
 21
3.2053189219
  0
LINE
  5
21F
100
AcDbEntity
  8
0
100
AcDbLine
 62
7
  6
CONTINUOUS
 10
3.7959064666
 20
3.2053189219
 11
3.8256025124
 21
3.2010592432
  0
LINE
  5
220
100
AcDbEntity
  8
0
100
AcDbLine
 62
7
  6
CONTINUOUS
 10
3.8131025124
 20
3.325199927
 11
5.4481025124
 21
3.325199927
  0
LWPOLYLINE
  5
221
100
AcDbEntity
  8
0
100
AcDbPolyline
 62
7
  6
CONTINUOUS
 90
13
 70
0
 10
5.5634138653
 20
3.0730248814
 10
5.5610894996
 20
3.0741044472
 10
5.5584888228
 20
3.0756202993
 10
5.5560531064
 20
3.0773891719
 10
5.5538068428
 20
3.079393306
 10
5.5517726545
 20
3.0816125637
 10
5.5499710668
 20
3.0840246032
 10
5.5484202551
 20
3.0866051375
 10
5.5471358617
 20
3.0893281857
 10
5.546130842
 20
3.0921663385
 10
5.5454153427
 20
3.0950910187
 10
5.5449965955
 20
3.0980727734
 10
5.5449064009
 20
3.0994210168
  0
LINE
  5
222
100
AcDbEntity
  8
0
100
AcDbLine
 62
7
  6
CONTINUOUS
 10
4.6306025124
 20
2.9363015421
 11
4.6306025124
 21
3.0435164351
  0
LINE
  5
223
100
AcDbEntity
  8
0
100
AcDbLine
 62
7
  6
CONTINUOUS
 10
5.0266025124
 20
3.8810592432
 11
4.2426025124
 21
3.8810592432
  0
LINE
  5
224
100
AcDbEntity
  8
0
100
AcDbLine
 62
7
  6
CONTINUOUS
 10
5.4448851084
 20
4.0010592432
 11
5.4333506496
 21
4.0010592432
  0
LINE
  5
225
100
AcDbEntity
  8
0
100
AcDbLine
 62
7
  6
CONTINUOUS
 10
5.4116761723
 20
4.0010592432
 11
5.4073143316
 21
4.0010592432
  0
LINE
  5
226
100
AcDbEntity
  8
0
100
AcDbLine
 62
7
  6
CONTINUOUS
 10
5.4333506496
 20
4.0217400942
 11
5.4448851084
 21
4.0217400942
  0
LINE
  5
227
100
AcDbEntity
  8
0
100
AcDbLine
 62
7
  6
CONTINUOUS
 10
5.3890754849
 20
4.0760592432
 11
5.2773685056
 21
4.0760592432
  0
LINE
  5
228
100
AcDbEntity
  8
0
100
AcDbLine
 62
7
  6
CONTINUOUS
 10
5.0266025124
 20
4.0760592432
 11
4.2426025124
 21
4.0760592432
  0
LINE
  5
229
100
AcDbEntity
  8
0
100
AcDbLine
 62
7
  6
CONTINUOUS
 10
5.4073143316
 20
4.076889031
 11
5.4275896042
 21
4.076889031
  0
LINE
  5
22A
100
AcDbEntity
  8
0
100
AcDbLine
 62
7
  6
CONTINUOUS
 10
5.3890754849
 20
4.0810592432
 11
5.2773685056
 21
4.0810592432
  0
LINE
  5
22B
100
AcDbEntity
  8
0
100
AcDbLine
 62
7
  6
CONTINUOUS
 10
5.4073143316
 20
4.0975698796
 11
5.4275896042
 21
4.0975698796
  0
LINE
  5
22C
100
AcDbEntity
  8
0
100
AcDbLine
 62
7
  6
CONTINUOUS
 10
5.4073143316
 20
4.1423783946
 11
5.4296188335
 21
4.1423783946
  0
LINE
  5
22D
100
AcDbEntity
  8
0
100
AcDbLine
 62
7
  6
CONTINUOUS
 10
5.4358666551
 20
4.1630592432
 11
5.4333506496
 21
4.1630592432
  0
LINE
  5
22E
100
AcDbEntity
  8
0
100
AcDbLine
 62
7
  6
CONTINUOUS
 10
5.4073143316
 20
4.1630592432
 11
5.4296188335
 21
4.1630592432
  0
LWPOLYLINE
  5
22F
100
AcDbEntity
  8
0
100
AcDbPolyline
 62
7
  6
CONTINUOUS
 90
13
 70
0
 10
3.733126558
 20
3.1250598116
 10
3.7325304597
 20
3.1247610535
 10
3.7298935764
 20
3.1232281886
 10
3.7274258785
 20
3.1214354286
 10
3.7251529039
 20
3.1194012837
 10
3.7230981777
 20
3.1171467628
 10
3.721282965
 20
3.1146951502
 10
3.7197260593
 20
3.1120717703
 10
3.7184435896
 20
3.10930373
 10
3.7174488525
 20
3.1064196429
 10
3.71675217
 20
3.1034493286
 10
3.7163607817
 20
3.1004235025
 10
3.7162995338
 20
3.0994209793
  0
LINE
  5
230
100
AcDbEntity
  8
0
100
AcDbLine
 62
7
  6
CONTINUOUS
 10
5.0266025124
 20
4.2750592432
 11
4.2426025124
 21
4.2750592432
  0
LINE
  5
231
100
AcDbEntity
  8
0
100
AcDbLine
 62
7
  6
CONTINUOUS
 10
5.0266025124
 20
4.4700592432
 11
4.2426025124
 21
4.4700592432
  0
LINE
  5
232
100
AcDbEntity
  8
0
100
AcDbLine
 62
7
  6
CONTINUOUS
 10
5.2773685056
 20
4.0810592432
 11
5.2773685056
 21
4.0760592432
  0
LINE
  5
233
100
AcDbEntity
  8
0
100
AcDbLine
 62
7
  6
CONTINUOUS
 10
5.4481025124
 20
3.325199927
 11
5.4652985582
 21
3.2053189219
  0
LINE
  5
234
100
AcDbEntity
  8
0
100
AcDbLine
 62
7
  6
CONTINUOUS
 10
5.3782864363
 20
4.0760592432
 11
5.3782864363
 21
4.0810592432
  0
LINE
  5
235
100
AcDbEntity
  8
0
100
AcDbLine
 62
7
  6
CONTINUOUS
 10
5.3890754849
 20
4.0810592432
 11
5.3890754849
 21
4.0760592432
  0
LINE
  5
236
100
AcDbEntity
  8
0
100
AcDbLine
 62
7
  6
CONTINUOUS
 10
5.4073143316
 20
4.0010592432
 11
5.4073143316
 21
4.1630592432
  0
LINE
  5
237
100
AcDbEntity
  8
0
100
AcDbLine
 62
7
  6
CONTINUOUS
 10
5.4116761723
 20
4.1423783946
 11
5.4116761723
 21
4.0975698796
  0
LINE
  5
238
100
AcDbEntity
  8
0
100
AcDbLine
 62
7
  6
CONTINUOUS
 10
5.4116761723
 20
4.076889031
 11
5.4116761723
 21
4.0010592432
  0
LINE
  5
239
100
AcDbEntity
  8
0
100
AcDbLine
 62
7
  6
CONTINUOUS
 10
5.4173289098
 20
4.076889031
 11
5.4173289098
 21
4.0975698796
  0
LINE
  5
23A
100
AcDbEntity
  8
0
100
AcDbLine
 62
7
  6
CONTINUOUS
 10
5.4193845364
 20
4.1423783946
 11
5.4193845364
 21
4.1630592432
  0
LINE
  5
23B
100
AcDbEntity
  8
0
100
AcDbLine
 62
7
  6
CONTINUOUS
 10
5.4275896042
 20
4.0975698796
 11
5.4275896042
 21
4.076889031
  0
LINE
  5
23C
100
AcDbEntity
  8
0
100
AcDbLine
 62
7
  6
CONTINUOUS
 10
5.4296188335
 20
4.1630592432
 11
5.4296188335
 21
4.1423783946
  0
LINE
  5
23D
100
AcDbEntity
  8
0
100
AcDbLine
 62
7
  6
CONTINUOUS
 10
5.4333506496
 20
4.1630592432
 11
5.4333506496
 21
4.0010592432
  0
LINE
  5
23E
100
AcDbEntity
  8
0
100
AcDbLine
 62
7
  6
CONTINUOUS
 10
5.434845104
 20
4.0010592432
 11
5.434845104
 21
4.0217400942
  0
LINE
  5
23F
100
AcDbEntity
  8
0
100
AcDbLine
 62
7
  6
CONTINUOUS
 10
5.4358666551
 20
4.1630592432
 11
5.4358666551
 21
4.0217400942
  0
LINE
  5
240
100
AcDbEntity
  8
0
100
AcDbLine
 62
7
  6
CONTINUOUS
 10
5.4448851084
 20
4.0217400942
 11
5.4448851084
 21
4.0010592432
  0
LINE
  5
241
100
AcDbEntity
  8
0
100
AcDbLine
 62
7
  6
CONTINUOUS
 10
5.4481025124
 20
5.1610592432
 11
5.4481025124
 21
3.325199927
  0
LWPOLYLINE
  5
242
100
AcDbEntity
  8
0
100
AcDbPolyline
 62
7
  6
CONTINUOUS
 90
13
 70
0
 10
5.5449055059
 20
3.0994209767
 10
5.5448875649
 20
3.0997778406
 10
5.5445835157
 20
3.1026712674
 10
5.5440006234
 20
3.1055215807
 10
5.5431443859
 20
3.1083019764
 10
5.5420228716
 20
3.1109863095
 10
5.5406466439
 20
3.1135493394
 10
5.5390286608
 20
3.1159669699
 10
5.5371841508
 20
3.1182164769
 10
5.5351304698
 20
3.1202767197
 10
5.5328869386
 20
3.1221283385
 10
5.5304746639
 20
3.1237539341
 10
5.528078476
 20
3.1250598163
  0
LINE
  5
243
100
AcDbEntity
  8
0
100
AcDbLine
 62
7
  6
CONTINUOUS
 10
5.5481288282
 20
2.9260592432
 11
5.5481288282
 21
3.0699484816
  0
LINE
  5
244
100
AcDbEntity
  8
0
100
AcDbLine
 62
7
  6
CONTINUOUS
 10
5.5881288282
 20
3.0360601848
 11
5.5881288282
 21
2.9460592432
  0
LINE
  5
245
100
AcDbEntity
  8
0
100
AcDbLine
 62
7
  6
CONTINUOUS
 10
5.6156025124
 20
2.9260592432
 11
5.6156025124
 21
2.7760592432
  0
LINE
  5
246
100
AcDbEntity
  8
0
100
AcDbLine
 62
7
  6
CONTINUOUS
 10
5.6556025124
 20
2.8860592432
 11
5.6556025124
 21
2.7760592432
  0
LINE
  5
247
100
AcDbEntity
  8
0
100
AcDbLine
 62
7
  6
CONTINUOUS
 10
3.8131025124
 20
5.1610592432
 11
5.4481025124
 21
5.1610592432
  0
LINE
  5
248
100
AcDbEntity
  8
0
100
AcDbLine
 62
7
  6
CONTINUOUS
 10
5.2181025124
 20
5.3910592432
 11
4.0431025124
 21
5.3910592432
  0
ARC
  5
249
100
AcDbEntity
  8
0
100
AcDbCircle
 62
7
  6
CONTINUOUS
 10
4.0431025124
 20
5.1610592432
 40
0.23
100
AcDbArc
 50
90.0
 51
180.0
  0
ARC
  5
24A
100
AcDbEntity
  8
0
100
AcDbCircle
 62
7
  6
CONTINUOUS
 10
5.2181025124
 20
5.1610592432
 40
0.23
100
AcDbArc
 50
0.0
 51
90.0
  0
ARC
  5
24B
100
AcDbEntity
  8
0
100
AcDbCircle
 62
7
  6
CONTINUOUS
 10
5.0266025124
 20
3.9785592432
 40
0.0975
100
AcDbArc
 50
270.0
 51
90.0
  0
ARC
  5
24C
100
AcDbEntity
  8
0
100
AcDbCircle
 62
7
  6
CONTINUOUS
 10
5.0266025124
 20
4.3725592432
 40
0.0975
100
AcDbArc
 50
270.0
 51
90.0
  0
ARC
  5
24D
100
AcDbEntity
  8
0
100
AcDbCircle
 62
7
  6
CONTINUOUS
 10
4.2426025124
 20
4.3725592432
 40
0.0975
100
AcDbArc
 50
90.0
 51
270.0
  0
ARC
  5
24E
100
AcDbEntity
  8
0
100
AcDbCircle
 62
7
  6
CONTINUOUS
 10
4.2426025124
 20
3.9785592432
 40
0.0975
100
AcDbArc
 50
90.0
 51
270.0
  0
ARC
  5
24F
100
AcDbEntity
  8
0
100
AcDbCircle
 62
7
  6
CONTINUOUS
 10
5.5480905077
 20
3.0227155195
 40
0.0949266628
100
AcDbArc
 50
270.0231294384
 51
273.7432193578
  0
ARC
  5
250
100
AcDbEntity
  8
0
100
AcDbCircle
 62
7
  6
CONTINUOUS
 10
3.7130875737
 20
3.0219462165
 40
0.0941572736
100
AcDbArc
 50
266.0551199191
 51
269.993076902
  0
ARC
  5
251
100
AcDbEntity
  8
0
100
AcDbCircle
 62
7
  6
CONTINUOUS
 10
5.4656025124
 20
3.1610592432
 40
0.04
100
AcDbArc
 50
0.0
 51
90.0
  0
ARC
  5
252
100
AcDbEntity
  8
0
100
AcDbCircle
 62
7
  6
CONTINUOUS
 10
3.7956025124
 20
3.1610592432
 40
0.04
100
AcDbArc
 50
90.0
 51
180.0
  0
ARC
  5
253
100
AcDbEntity
  8
0
100
AcDbCircle
 62
7
  6
CONTINUOUS
 10
3.7130761966
 20
3.0360592643
 40
0.04
100
AcDbArc
 50
112.4647273761
 51
180.0
  0
ARC
  5
254
100
AcDbEntity
  8
0
100
AcDbCircle
 62
7
  6
CONTINUOUS
 10
5.5481288282
 20
3.0360592431
 40
0.04
100
AcDbArc
 50
0.0
 51
67.5352437206
  0
ARC
  5
255
100
AcDbEntity
  8
0
100
AcDbCircle
 62
7
  6
CONTINUOUS
 10
3.6456025124
 20
2.8860592432
 40
0.04
100
AcDbArc
 50
90.0
 51
180.0
  0
ARC
  5
256
100
AcDbEntity
  8
0
100
AcDbCircle
 62
7
  6
CONTINUOUS
 10
5.6156025124
 20
2.8860592432
 40
0.04
100
AcDbArc
 50
0.0
 51
90.0
  0
ARC
  5
257
100
AcDbEntity
  8
0
100
AcDbCircle
 62
7
  6
CONTINUOUS
 10
3.7156025133
 20
3.1610168368
 40
0.04
100
AcDbArc
 50
295.9827893366
 51
359.9999999767
  0
ARC
  5
258
100
AcDbEntity
  8
0
100
AcDbCircle
 62
7
  6
CONTINUOUS
 10
5.545602511
 20
3.1610168419
 40
0.0399999999
100
AcDbArc
 50
180.0000000152
 51
244.0172234478
  0
ARC
  5
259
100
AcDbEntity
  8
0
100
AcDbCircle
 62
7
  6
CONTINUOUS
 10
3.6530761966
 20
2.9460592432
 40
0.02
100
AcDbArc
 50
270.0
 51
360.0
  0
ARC
  5
25A
100
AcDbEntity
  8
0
100
AcDbCircle
 62
7
  6
CONTINUOUS
 10
5.6081288282
 20
2.9460592432
 40
0.02
100
AcDbArc
 50
180.0
 51
270.0
  0
SPLINE
  5
25B
100
AcDbEntity
  8
0
100
AcDbSpline
 62
7
  6
CONTINUOUS
 70
0
 71
3
 72
35
 73
31
 74
0
 42
0.0000001
 43
0.0000001
 44
0.0000000001
 40
0.0
 40
0.0
 40
0.0
 40
0.0
 40
0.0000624594
 40
0.0002473558
 40
0.0005546779
 40
0.0009844101
 40
0.0015365364
 40
0.0022110406
 40
0.0039271176
 40
0.0061325111
 40
0.0088270908
 40
0.0120107265
 40
0.0156833666
 40
0.0244964436
 40
0.0352681535
 40
0.0480004803
 40
0.0626955425
 40
0.0793556037
 40
0.0979830774
 40
0.1185805295
 40
0.1411490813
 40
0.192170651
 40
0.2509826131
 40
0.3175249168
 40
0.3917557548
 40
0.4736798183
 40
0.5633222895
 40
0.6607207146
 40
0.7659236456
 40
1.0
 40
1.0
 40
1.0
 40
1.0
 10
3.7162985568
 20
3.099421082
 30
0.0
 10
3.7162989538
 20
3.0994207161
 30
0.0
 10
3.7163014356
 20
3.0994214883
 30
0.0
 10
3.7163058999
 20
3.0994206135
 30
0.0
 10
3.716314056
 20
3.099420929
 30
0.0
 10
3.7163251164
 20
3.0994205586
 30
0.0
 10
3.7163394653
 20
3.0994204213
 30
0.0
 10
3.7163648858
 20
3.0994200164
 30
0.0
 10
3.7164046221
 20
3.0994194855
 30
0.0
 10
3.7164618053
 20
3.0994187019
 30
0.0
 10
3.7165316801
 20
3.099417786
 30
0.0
 10
3.7166142356
 20
3.0994167248
 30
0.0
 10
3.7167496797
 20
3.099415016
 30
0.0
 10
3.7169507116
 20
3.0994123079
 30
0.0
 10
3.7172300434
 20
3.0994078367
 30
0.0
 10
3.7175601968
 20
3.0994014618
 30
0.0
 10
3.7179412126
 20
3.0993926601
 30
0.0
 10
3.7183731314
 20
3.0993809081
 30
0.0
 10
3.7188559938
 20
3.0993656813
 30
0.0
 10
3.7193898267
 20
3.0993464515
 30
0.0
 10
3.7202033687
 20
3.09931342
 30
0.0
 10
3.7213465819
 20
3.0992573691
 30
0.0
 10
3.7228683904
 20
3.0991628801
 30
0.0
 10
3.7245887371
 20
3.0990310597
 30
0.0
 10
3.7265057886
 20
3.0988540707
 30
0.0
 10
3.7286180382
 20
3.0986223325
 30
0.0
 10
3.7309243327
 20
3.0983263021
 30
0.0
 10
3.7334236326
 20
3.0979565805
 30
0.0
 10
3.7371460338
 20
3.0973281854
 30
0.0
 10
3.740021385
 20
3.0967433653
 30
0.0
 10
3.7419951453
 20
3.0962975325
 30
0.0
  0
SPLINE
  5
25C
100
AcDbEntity
  8
0
100
AcDbSpline
 62
7
  6
CONTINUOUS
 70
0
 71
3
 72
30
 73
26
 74
0
 42
0.0000001
 43
0.0000001
 44
0.0000000001
 40
0.0
 40
0.0
 40
0.0
 40
0.0
 40
0.0238934441
 40
0.0383948492
 40
0.0545659542
 40
0.0724242962
 40
0.0919203485
 40
0.1129705411
 40
0.1355262055
 40
0.1595634104
 40
0.1850566623
 40
0.2402067756
 40
0.3005434967
 40
0.3325126061
 40
0.3656212332
 40
0.435029583
 40
0.5082861239
 40
0.5849050061
 40
0.6643878488
 40
0.7462058247
 40
0.7878198312
 40
0.8298063501
 40
0.8720913416
 40
0.9146018808
 40
1.0
 40
1.0
 40
1.0
 40
1.0
 10
3.7419951453
 20
3.0962975325
 30
0.0
 10
3.748981476
 20
3.0947193554
 30
0.0
 10
3.7602109107
 20
3.0921964588
 30
0.0
 10
3.7761737268
 20
3.0886278859
 30
0.0
 10
3.7903745076
 20
3.0854695991
 30
0.0
 10
3.8060435336
 20
3.0820167161
 30
0.0
 10
3.8231478591
 20
3.0782810039
 30
0.0
 10
3.8416342768
 20
3.0742744276
 30
0.0
 10
3.8614590319
 20
3.0700163689
 30
0.0
 10
3.8825960964
 20
3.0655260606
 30
0.0
 10
3.9133079642
 20
3.0590882127
 30
0.0
 10
3.954709057
 20
3.0506069614
 30
0.0
 10
3.9980743965
 20
3.0420460177
 30
0.0
 10
4.0350024201
 20
3.0349973914
 30
0.0
 10
4.0746384037
 20
3.0276345195
 30
0.0
 10
4.1265220348
 20
3.0184419931
 30
0.0
 10
4.1913948503
 20
3.0078280685
 30
0.0
 10
4.2594187706
 20
2.9978166662
 30
0.0
 10
4.3301706921
 20
2.9887975665
 30
0.0
 10
4.3906753054
 20
2.9824830681
 30
0.0
 10
4.440087555
 20
2.978315748
 30
0.0
 10
4.4777317681
 20
2.97567004
 30
0.0
 10
4.5156793387
 20
2.9735614635
 30
0.0
 10
4.566657396
 20
2.9715162378
 30
0.0
 10
4.6050033386
 20
2.970893342
 30
0.0
 10
4.6306025124
 20
2.9708933102
 30
0.0
  0
SPLINE
  5
25D
100
AcDbEntity
  8
0
100
AcDbSpline
 62
7
  6
CONTINUOUS
 70
0
 71
3
 72
66
 73
62
 74
0
 42
0.0000001
 43
0.0000001
 44
0.0000000001
 40
0.0
 40
0.0
 40
0.0
 40
0.0
 40
0.0000012604
 40
0.0000050172
 40
0.0000112617
 40
0.0000199856
 40
0.0000311808
 40
0.000044839
 40
0.0000795136
 40
0.0001239485
 40
0.0001780855
 40
0.0002418694
 40
0.0003152479
 40
0.0004905907
 40
0.000703755
 40
0.000954528
 40
0.0012430586
 40
0.001569535
 40
0.001934123
 40
0.0023369791
 40
0.0027782583
 40
0.0037763493
 40
0.0049279693
 40
0.0062323821
 40
0.0076889441
 40
0.0092973229
 40
0.0110572497
 40
0.0129684459
 40
0.0150306044
 40
0.0196065587
 40
0.0247826718
 40
0.0305561743
 40
0.0369227584
 40
0.0438773508
 40
0.0514143126
 40
0.0595272944
 40
0.0682102644
 40
0.0774582459
 40
0.0872658136
 40
0.0976268265
 40
0.1085336399
 40
0.1199774223
 40
0.1444410057
 40
0.1709500567
 40
0.1994373867
 40
0.2298288661
 40
0.2620444988
 40
0.2960023733
 40
0.3316166069
 40
0.3687995808
 40
0.4074620882
 40
0.4475116188
 40
0.488853732
 40
0.5313925236
 40
0.6196657694
 40
0.7115258259
 40
0.8061278604
 40
0.8541833374
 40
0.9025897942
 40
0.9512365177
 40
1.0
 40
1.0
 40
1.0
 40
1.0
 10
3.7556025124
 20
3.1610592432
 30
0.0
 10
3.7556028446
 20
3.1610594099
 30
0.0
 10
3.7556042804
 20
3.1610582035
 30
0.0
 10
3.7556073622
 20
3.1610577577
 30
0.0
 10
3.7556125892
 20
3.1610555261
 30
0.0
 10
3.7556198586
 20
3.1610531456
 30
0.0
 10
3.7556292203
 20
3.1610498493
 30
0.0
 10
3.7556458341
 20
3.1610442288
 30
0.0
 10
3.7556717948
 20
3.1610355949
 30
0.0
 10
3.7557091952
 20
3.1610235819
 30
0.0
 10
3.7557549049
 20
3.1610093666
 30
0.0
 10
3.7558089223
 20
3.1609931424
 30
0.0
 10
3.7558974192
 20
3.1609674995
 30
0.0
 10
3.7560287976
 20
3.1609316297
 30
0.0
 10
3.7562115853
 20
3.1608856111
 30
0.0
 10
3.7564277457
 20
3.1608356489
 30
0.0
 10
3.7566770776
 20
3.1607809584
 30
0.0
 10
3.7569595769
 20
3.1607208915
 30
0.0
 10
3.7572752351
 20
3.1606547176
 30
0.0
 10
3.7576240481
 20
3.1605817307
 30
0.0
 10
3.7581554995
 20
3.1604696423
 30
0.0
 10
3.7589022932
 20
3.1603088753
 30
0.0
 10
3.7598975196
 20
3.1600929691
 30
0.0
 10
3.7610249828
 20
3.1598490405
 30
0.0
 10
3.7622846118
 20
3.1595791663
 30
0.0
 10
3.7636760045
 20
3.1592832432
 30
0.0
 10
3.7651989097
 20
3.1589613482
 30
0.0
 10
3.7668530674
 20
3.1586134796
 30
0.0
 10
3.769320092
 20
3.15809661
 30
0.0
 10
3.7727299118
 20
3.1573854953
 30
0.0
 10
3.7772109629
 20
3.1564512973
 30
0.0
 10
3.7822078502
 20
3.155404651
 30
0.0
 10
3.7877175258
 20
3.154248496
 30
0.0
 10
3.793736195
 20
3.1529863093
 30
0.0
 10
3.8002596247
 20
3.1516224162
 30
0.0
 10
3.807283949
 20
3.150164321
 30
0.0
 10
3.814804867
 20
3.1486165926
 30
0.0
 10
3.8228162213
 20
3.1469734144
 30
0.0
 10
3.8313124561
 20
3.1452319669
 30
0.0
 10
3.8402870726
 20
3.1433887597
 30
0.0
 10
3.8497342473
 20
3.1414485836
 30
0.0
 10
3.8632567528
 20
3.1386840657
 30
0.0
 10
3.8812944722
 20
3.135039486
 30
0.0
 10
3.904273818
 20
3.1304807569
 30
0.0
 10
3.9289788046
 20
3.1256395022
 30
0.0
 10
3.9553476149
 20
3.1205401018
 30
0.0
 10
3.9833187998
 20
3.1152327006
 30
0.0
 10
4.0128228873
 20
3.1097449851
 30
0.0
 10
4.0437930053
 20
3.1041318998
 30
0.0
 10
4.0761578026
 20
3.0984385222
 30
0.0
 10
4.1098416943
 20
3.0926985929
 30
0.0
 10
4.1447712609
 20
3.0869727893
 30
0.0
 10
4.1808699056
 20
3.081318947
 30
0.0
 10
4.2310763707
 20
3.0738666965
 30
0.0
 10
4.2961451614
 20
3.0651129469
 30
0.0
 10
4.376649709
 20
3.0560979073
 30
0.0
 10
4.4455567697
 20
3.050261294
 30
0.0
 10
4.501785466
 20
3.0468277061
 30
0.0
 10
4.5445279386
 20
3.0449323053
 30
0.0
 10
4.5875055398
 20
3.0437759138
 30
0.0
 10
4.616225603
 20
3.0435165361
 30
0.0
 10
4.6306025124
 20
3.0435164351
 30
0.0
  0
SPLINE
  5
25E
100
AcDbEntity
  8
0
100
AcDbSpline
 62
7
  6
CONTINUOUS
 70
0
 71
3
 72
63
 73
59
 74
0
 42
0.0000001
 43
0.0000001
 44
0.0000000001
 40
0.0
 40
0.0
 40
0.0
 40
0.0
 40
0.0000012023
 40
0.0000048053
 40
0.0000108088
 40
0.0000192129
 40
0.0000432232
 40
0.0000768374
 40
0.0001200565
 40
0.0001728817
 40
0.0002353141
 40
0.0003073549
 40
0.0004802659
 40
0.0006916239
 40
0.0009414378
 40
0.0012297116
 40
0.00155644
 40
0.0019216168
 40
0.0027672903
 40
0.0037666479
 40
0.0049191149
 40
0.0062237466
 40
0.0076796069
 40
0.0092860351
 40
0.0110425905
 40
0.012948855
 40
0.0150046963
 40
0.0195655489
 40
0.0247260442
 40
0.0304865903
 40
0.0368426003
 40
0.0437863344
 40
0.051309756
 40
0.0594042377
 40
0.0680617099
 40
0.077282261
 40
0.0974142087
 40
0.1197460265
 40
0.1441753016
 40
0.1706308804
 40
0.1990647299
 40
0.2294114527
 40
0.2615884546
 40
0.2955120373
 40
0.3310886924
 40
0.368234849
 40
0.4068710267
 40
0.4469042328
 40
0.4882389854
 40
0.5307789847
 40
0.5744280889
 40
0.6190890748
 40
0.7110337198
 40
0.7581081279
 40
0.8057709099
 40
0.9023987402
 40
0.9511399244
 40
1.0
 40
1.0
 40
1.0
 40
1.0
 10
3.7331265605
 20
3.1250598101
 30
0.0
 10
3.7331268931
 20
3.1250599569
 30
0.0
 10
3.7331283709
 20
3.1250591171
 30
0.0
 10
3.7331315133
 20
3.1250589595
 30
0.0
 10
3.733136871
 20
3.1250575355
 30
0.0
 10
3.7331482148
 20
3.1250553045
 30
0.0
 10
3.7331677572
 20
3.1250510276
 30
0.0
 10
3.7331975752
 20
3.1250447611
 30
0.0
 10
3.733235924
 20
3.1250365935
 30
0.0
 10
3.7332827914
 20
3.1250266466
 30
0.0
 10
3.7333381829
 20
3.1250148727
 30
0.0
 10
3.7334290865
 20
3.1249955496
 30
0.0
 10
3.7335640291
 20
3.1249668459
 30
0.0
 10
3.7337515378
 20
3.1249269332
 30
0.0
 10
3.7339731542
 20
3.1248797258
 30
0.0
 10
3.7342288784
 20
3.1248252131
 30
0.0
 10
3.7345187056
 20
3.1247633842
 30
0.0
 10
3.734973334
 20
3.1246663232
 30
0.0
 10
3.7356268108
 20
3.1245266462
 30
0.0
 10
3.7365129917
 20
3.1243368952
 30
0.0
 10
3.7375348538
 20
3.1241180658
 30
0.0
 10
3.7386917642
 20
3.1238707481
 30
0.0
 10
3.7399830597
 20
3.1235955171
 30
0.0
 10
3.7414081873
 20
3.1232927366
 30
0.0
 10
3.7429667184
 20
3.1229626017
 30
0.0
 10
3.7446583943
 20
3.1226053405
 30
0.0
 10
3.7471798955
 20
3.1220741537
 30
0.0
 10
3.7506645444
 20
3.1213420014
 30
0.0
 10
3.7552455984
 20
3.1203807426
 30
0.0
 10
3.7603576525
 20
3.1193071542
 30
0.0
 10
3.7659973942
 20
3.1181229972
 30
0.0
 10
3.7721592447
 20
3.1168316633
 30
0.0
 10
3.7788364005
 20
3.1154366686
 30
0.0
 10
3.7860220393
 20
3.1139419411
 30
0.0
 10
3.7937119184
 20
3.1123517844
 30
0.0
 10
3.8049676885
 20
3.1100336894
 30
0.0
 10
3.8202745447
 20
3.1068901325
 30
0.0
 10
3.8400908243
 20
3.1028468823
 30
0.0
 10
3.861792338
 20
3.0984802153
 30
0.0
 10
3.8853155954
 20
3.0938152078
 30
0.0
 10
3.9106063566
 20
3.0888660628
 30
0.0
 10
3.9376109198
 20
3.083667926
 30
0.0
 10
3.966265928
 20
3.0782640464
 30
0.0
 10
3.9964968038
 20
3.0726851208
 30
0.0
 10
4.0282318771
 20
3.0669802413
 30
0.0
 10
4.0613996786
 20
3.061194706
 30
0.0
 10
4.095928756
 20
3.0553750897
 30
0.0
 10
4.1317455354
 20
3.0495802597
 30
0.0
 10
4.1687702048
 20
3.0438668978
 30
0.0
 10
4.2069218817
 20
3.038296345
 30
0.0
 10
4.2461192141
 20
3.0329363695
 30
0.0
 10
4.3001879066
 20
3.0261004343
 30
0.0
 10
4.3553994816
 20
3.0200627585
 30
0.0
 10
4.4116194382
 20
3.015045522
 30
0.0
 10
4.469317808
 20
3.0107357428
 30
0.0
 10
4.52761464
 20
3.0077386361
 30
0.0
 10
4.5863204277
 20
3.0062093933
 30
0.0
 10
4.6158300815
 20
3.0059519587
 30
0.0
 10
4.6306025124
 20
3.0059519085
 30
0.0
  0
SPLINE
  5
25F
100
AcDbEntity
  8
0
100
AcDbSpline
 62
7
  6
CONTINUOUS
 70
0
 71
3
 72
36
 73
32
 74
0
 42
0.0000001
 43
0.0000001
 44
0.0000000001
 40
0.0
 40
0.0
 40
0.0
 40
0.0
 40
0.2340839415
 40
0.3392828879
 40
0.436665516
 40
0.5262913707
 40
0.6082096041
 40
0.6824505989
 40
0.7489939405
 40
0.807792216
 40
0.8587889655
 40
0.8813461039
 40
0.9019412503
 40
0.9205747939
 40
0.9372469186
 40
0.9519576071
 40
0.9647066489
 40
0.9754936559
 40
0.9801512337
 40
0.9843181429
 40
0.9879944621
 40
0.9911802845
 40
0.993875703
 40
0.9960808106
 40
0.9977957005
 40
0.9984693428
 40
0.9990204656
 40
0.9994490804
 40
0.9997551992
 40
0.999938834
 40
1.0
 40
1.0
 40
1.0
 40
1.0
 10
5.5192099761
 20
3.0962975596
 30
0.0
 10
5.52118379
 20
3.0967434271
 30
0.0
 10
5.5240592333
 20
3.097327922
 30
0.0
 10
5.5277815101
 20
3.0979563224
 30
0.0
 10
5.5302804319
 20
3.0983264071
 30
0.0
 10
5.5325864141
 20
3.0986222498
 30
0.0
 10
5.5346985707
 20
3.0988537808
 30
0.0
 10
5.5366156313
 20
3.0990311133
 30
0.0
 10
5.53833596
 20
3.0991628545
 30
0.0
 10
5.5398574546
 20
3.0992570911
 30
0.0
 10
5.5410002198
 20
3.0993133476
 30
0.0
 10
5.5418134068
 20
3.0993468545
 30
0.0
 10
5.5423471707
 20
3.0993661334
 30
0.0
 10
5.5428301729
 20
3.0993812341
 30
0.0
 10
5.5432623885
 20
3.0993927643
 30
0.0
 10
5.5436437925
 20
3.0994013333
 30
0.0
 10
5.5439743598
 20
3.0994075516
 30
0.0
 10
5.5442180497
 20
3.0994114392
 30
0.0
 10
5.5443875633
 20
3.0994139543
 30
0.0
 10
5.5444956151
 20
3.0994155354
 30
0.0
 10
5.544590947
 20
3.0994169062
 30
0.0
 10
5.5446735572
 20
3.0994180693
 30
0.0
 10
5.5447434597
 20
3.0994190403
 30
0.0
 10
5.5448006239
 20
3.0994197942
 30
0.0
 10
5.544840371
 20
3.0994203502
 30
0.0
 10
5.544865719
 20
3.0994206132
 30
0.0
 10
5.5448801404
 20
3.0994209071
 30
0.0
 10
5.5448909204
 20
3.0994207288
 30
0.0
 10
5.5448996162
 20
3.0994215116
 30
0.0
 10
5.5449030505
 20
3.0994203343
 30
0.0
 10
5.5449065405
 20
3.0994216097
 30
0.0
 10
5.5449065054
 20
3.0994210821
 30
0.0
  0
SPLINE
  5
260
100
AcDbEntity
  8
0
100
AcDbSpline
 62
7
  6
CONTINUOUS
 70
0
 71
3
 72
30
 73
26
 74
0
 42
0.0000001
 43
0.0000001
 44
0.0000000001
 40
0.0
 40
0.0
 40
0.0
 40
0.0
 40
0.0853992546
 40
0.1279106845
 40
0.1701963218
 40
0.2121830908
 40
0.2537965982
 40
0.3356107229
 40
0.4150903934
 40
0.4537899921
 40
0.491709491
 40
0.5649670091
 40
0.634376181
 40
0.6994535433
 40
0.7302397139
 40
0.7597903855
 40
0.8149413296
 40
0.8404350758
 40
0.8644725924
 40
0.8870284873
 40
0.9080788265
 40
0.9275752682
 40
0.9454340115
 40
0.9761061467
 40
1.0
 40
1.0
 40
1.0
 40
1.0
 10
4.6306025124
 20
2.9708933102
 30
0.0
 10
4.6562020465
 20
2.970893344
 30
0.0
 10
4.6945486245
 20
2.9715163304
 30
0.0
 10
4.7455275241
 20
2.9735615244
 30
0.0
 10
4.7834756579
 20
2.9756701657
 30
0.0
 10
4.8211200164
 20
2.978315892
 30
0.0
 10
4.8705310806
 20
2.9824832236
 30
0.0
 10
4.9310334255
 20
2.9887974385
 30
0.0
 10
4.9905072084
 20
2.9963790135
 30
0.0
 10
5.0368332776
 20
3.0029741388
 30
0.0
 10
5.0812547831
 20
3.0097011034
 30
0.0
 10
5.134679731
 20
3.0184413912
 30
0.0
 10
5.1960001594
 20
3.029305464
 30
0.0
 10
5.2446864527
 20
3.03848162
 30
0.0
 10
5.2815836377
 20
3.0456894169
 30
0.0
 10
5.3155344788
 20
3.0524583157
 30
0.0
 10
5.3478951485
 20
3.0590878667
 30
0.0
 10
5.3786075325
 20
3.0655257314
 30
0.0
 10
5.3997449175
 20
3.0700161124
 30
0.0
 10
5.4195698909
 20
3.0742742116
 30
0.0
 10
5.4380565305
 20
3.0782809188
 30
0.0
 10
5.4551611572
 20
3.0820166324
 30
0.0
 10
5.4750753922
 20
3.0864053016
 30
0.0
 10
5.4962643454
 20
3.0911344002
 30
0.0
 10
5.5122235004
 20
3.0947194425
 30
0.0
 10
5.5192099761
 20
3.0962975596
 30
0.0
  0
SPLINE
  5
261
100
AcDbEntity
  8
0
100
AcDbSpline
 62
7
  6
CONTINUOUS
 70
0
 71
3
 72
64
 73
60
 74
0
 42
0.0000001
 43
0.0000001
 44
0.0000000001
 40
0.0
 40
0.0
 40
0.0
 40
0.0
 40
0.0975887789
 40
0.1460840038
 40
0.1942224014
 40
0.2418867536
 40
0.2889619551
 40
0.3353373846
 40
0.3809078031
 40
0.4255688032
 40
0.4692179712
 40
0.5117580071
 40
0.5530932011
 40
0.5931270073
 40
0.6317636528
 40
0.6689104459
 40
0.7044876374
 40
0.7384116343
 40
0.7705891775
 40
0.8009363634
 40
0.82937031
 40
0.8558262505
 40
0.8802555197
 40
0.9025865674
 40
0.9227181245
 40
0.9319386954
 40
0.9405961462
 40
0.9486896746
 40
0.9562132106
 40
0.9631568914
 40
0.9695129792
 40
0.9752739272
 40
0.9804345751
 40
0.9849954301
 40
0.9870512585
 40
0.98895749
 40
0.9907139823
 40
0.9923203405
 40
0.9937761483
 40
0.9950807404
 40
0.996233181
 40
0.9972325335
 40
0.9980782472
 40
0.9984434537
 40
0.9987702123
 40
0.9990585123
 40
0.9993083452
 40
0.9995197162
 40
0.9996926356
 40
0.9997646791
 40
0.9998271135
 40
0.9998799402
 40
0.9999231603
 40
0.9999567753
 40
0.9999807862
 40
0.9999891906
 40
0.9999951944
 40
0.9999987976
 40
1.0
 40
1.0
 40
1.0
 40
1.0
 10
4.6306025124
 20
3.0059519085
 30
0.0
 10
4.6601076924
 20
3.0059519304
 30
0.0
 10
4.7042799131
 20
3.006723199
 30
0.0
 10
4.7629489049
 20
3.0092480997
 30
0.0
 10
4.8065018767
 20
3.0118281067
 30
0.0
 10
4.8495815595
 20
3.0150441533
 30
0.0
 10
4.8920789079
 20
3.0188382292
 30
0.0
 10
4.9338918322
 20
3.0231341754
 30
0.0
 10
4.9749236788
 20
3.0278584509
 30
0.0
 10
5.0150824123
 20
3.0329361507
 30
0.0
 10
5.0542798053
 20
3.0382957314
 30
0.0
 10
5.0924316874
 20
3.0438664956
 30
0.0
 10
5.1294567423
 20
3.0495797719
 30
0.0
 10
5.1652740081
 20
3.0553747507
 30
0.0
 10
5.1998036544
 20
3.0611943561
 30
0.0
 10
5.232971981
 20
3.0669800192
 30
0.0
 10
5.2647075591
 20
3.0726850326
 30
0.0
 10
5.2949389433
 20
3.0782639044
 30
0.0
 10
5.3235943908
 20
3.0836679697
 30
0.0
 10
5.3505992911
 20
3.0888662998
 30
0.0
 10
5.3758904088
 20
3.0938152457
 30
0.0
 10
5.3994137866
 20
3.0984805077
 30
0.0
 10
5.4211151936
 20
3.1028472101
 30
0.0
 10
5.4409312172
 20
3.1068900799
 30
0.0
 10
5.4562377154
 20
3.110033764
 30
0.0
 10
5.4674933678
 20
3.1123519156
 30
0.0
 10
5.4751829094
 20
3.1139423267
 30
0.0
 10
5.482368444
 20
3.1154363233
 30
0.0
 10
5.4890452909
 20
3.1168315209
 30
0.0
 10
5.4952072068
 20
3.1181227857
 30
0.0
 10
5.5008470808
 20
3.1193069764
 30
0.0
 10
5.505959281
 20
3.1203808311
 30
0.0
 10
5.5105405
 20
3.1213421523
 30
0.0
 10
5.5140252028
 20
3.1220742791
 30
0.0
 10
5.5165467006
 20
3.1226054338
 30
0.0
 10
5.5182383523
 20
3.1229626608
 30
0.0
 10
5.5197968451
 20
3.1232927437
 30
0.0
 10
5.5212219287
 20
3.1235954707
 30
0.0
 10
5.5225131832
 20
3.1238706672
 30
0.0
 10
5.5236700636
 20
3.1241179606
 30
0.0
 10
5.5246919078
 20
3.124336777
 30
0.0
 10
5.5255780936
 20
3.1245265236
 30
0.0
 10
5.5262315859
 20
3.124666226
 30
0.0
 10
5.5266862395
 20
3.1247633165
 30
0.0
 10
5.526976089
 20
3.1248251675
 30
0.0
 10
5.5272318326
 20
3.1248796995
 30
0.0
 10
5.5274534645
 20
3.1249269207
 30
0.0
 10
5.5276409841
 20
3.1249668417
 30
0.0
 10
5.5277759336
 20
3.1249955494
 30
0.0
 10
5.527866841
 20
3.125014874
 30
0.0
 10
5.5279222344
 20
3.1250266485
 30
0.0
 10
5.5279691032
 20
3.1250365954
 30
0.0
 10
5.5280074532
 20
3.1250447635
 30
0.0
 10
5.5280372715
 20
3.1250510287
 30
0.0
 10
5.5280568155
 20
3.1250553079
 30
0.0
 10
5.5280681582
 20
3.1250575359
 30
0.0
 10
5.5280735185
 20
3.1250589653
 30
0.0
 10
5.5280766569
 20
3.1250591137
 30
0.0
 10
5.5280781392
 20
3.1250599631
 30
0.0
 10
5.52807847
 20
3.1250598123
 30
0.0
  0
SPLINE
  5
262
100
AcDbEntity
  8
0
100
AcDbSpline
 62
7
  6
CONTINUOUS
 70
0
 71
3
 72
17
 73
13
 74
0
 42
0.0000001
 43
0.0000001
 44
0.0000000001
 40
0.0
 40
0.0
 40
0.0
 40
0.0
 40
0.122891192
 40
0.1847726269
 40
0.2468007437
 40
0.3710510543
 40
0.4958391728
 40
0.6212398184
 40
0.7472499234
 40
0.8105241829
 40
0.8738441166
 40
1.0
 40
1.0
 40
1.0
 40
1.0
 10
5.5481288216
 20
3.069948493
 30
0.0
 10
5.5463842795
 20
3.0699717339
 30
0.0
 10
5.5437567874
 20
3.0702539226
 30
0.0
 10
5.5403522161
 20
3.0710958373
 30
0.0
 10
5.5370183805
 20
3.0722492056
 30
0.0
 10
5.5330600327
 20
3.0742658044
 30
0.0
 10
5.5288057381
 20
3.0774994557
 30
0.0
 10
5.5251763303
 20
3.0814550629
 30
0.0
 10
5.5227626727
 20
3.0852441567
 30
0.0
 10
5.5212518711
 20
3.0885012921
 30
0.0
 10
5.5200288807
 20
3.0918780594
 30
0.0
 10
5.5194420649
 20
3.0945216145
 30
0.0
 10
5.5192099749
 20
3.0962975594
 30
0.0
  0
SPLINE
  5
263
100
AcDbEntity
  8
0
100
AcDbSpline
 62
7
  6
CONTINUOUS
 70
0
 71
3
 72
17
 73
13
 74
0
 42
0.0000001
 43
0.0000001
 44
0.0000000001
 40
0.0
 40
0.0
 40
0.0
 40
0.0
 40
0.1228913697
 40
0.1847728848
 40
0.2468010715
 40
0.3710514767
 40
0.4958396226
 40
0.6212402272
 40
0.7472502301
 40
0.8105244206
 40
0.8738442782
 40
1.0
 40
1.0
 40
1.0
 40
1.0
 10
3.7130761966
 20
3.0699484821
 30
0.0
 10
3.7148207444
 20
3.0699717207
 30
0.0
 10
3.717448245
 20
3.0702539064
 30
0.0
 10
3.7208528282
 20
3.0710958178
 30
0.0
 10
3.7241866751
 20
3.0722491828
 30
0.0
 10
3.7281450364
 20
3.0742657782
 30
0.0
 10
3.7323993461
 20
3.077499427
 30
0.0
 10
3.7360287667
 20
3.081455033
 30
0.0
 10
3.7384424327
 20
3.0852441273
 30
0.0
 10
3.7399532392
 20
3.0885012635
 30
0.0
 10
3.7411762331
 20
3.0918780316
 30
0.0
 10
3.7417630501
 20
3.0945215879
 30
0.0
 10
3.7419951403
 20
3.0962975336
 30
0.0
  0
SPLINE
  5
264
100
AcDbEntity
  8
0
100
AcDbSpline
 62
7
  6
CONTINUOUS
 70
0
 71
3
 72
35
 73
31
 74
0
 42
0.0000001
 43
0.0000001
 44
0.0000000001
 40
0.0
 40
0.0
 40
0.0
 40
0.0
 40
0.0000595444
 40
0.0002380232
 40
0.0005354344
 40
0.0009517602
 40
0.0014869812
 40
0.0021410776
 40
0.0038058158
 40
0.0059458138
 40
0.0085609099
 40
0.0116509427
 40
0.0152158983
 40
0.0237727131
 40
0.0342363392
 40
0.0466122485
 40
0.0609063801
 40
0.0771251766
 40
0.0952755996
 40
0.115365136
 40
0.1374006221
 40
0.187309032
 40
0.2450043316
 40
0.3105154505
 40
0.3839067186
 40
0.4652995902
 40
0.5548649612
 40
0.6528192128
 40
0.7594341014
 40
1.0
 40
1.0
 40
1.0
 40
1.0
 10
3.69779131
 20
3.0730247586
 30
0.0
 10
3.6977913161
 20
3.0730244472
 30
0.0
 10
3.6977933039
 20
3.0730251459
 30
0.0
 10
3.6977953879
 20
3.0730244522
 30
0.0
 10
3.6978004643
 20
3.0730248502
 30
0.0
 10
3.6978068175
 20
3.0730246972
 30
0.0
 10
3.6978152873
 20
3.0730248002
 30
0.0
 10
3.6978301847
 20
3.0730248442
 30
0.0
 10
3.6978535325
 20
3.0730250068
 30
0.0
 10
3.6978871075
 20
3.0730252291
 30
0.0
 10
3.6979281515
 20
3.0730255424
 30
0.0
 10
3.6979766451
 20
3.0730259361
 30
0.0
 10
3.6980562231
 20
3.0730266197
 30
0.0
 10
3.6981743755
 20
3.073027452
 30
0.0
 10
3.6983386259
 20
3.0730278266
 30
0.0
 10
3.6985328903
 20
3.0730270614
 30
0.0
 10
3.6987572513
 20
3.0730245735
 30
0.0
 10
3.6990117909
 20
3.0730197801
 30
0.0
 10
3.6992965912
 20
3.0730120981
 30
0.0
 10
3.6996117281
 20
3.0730009343
 30
0.0
 10
3.7000927405
 20
3.0729797801
 30
0.0
 10
3.700769797
 20
3.0729392401
 30
0.0
 10
3.7016723027
 20
3.0728625903
 30
0.0
 10
3.7026944435
 20
3.0727471288
 30
0.0
 10
3.7038354565
 20
3.0725836801
 30
0.0
 10
3.7050944665
 20
3.072360933
 30
0.0
 10
3.706470649
 20
3.0720675731
 30
0.0
 10
3.7079633925
 20
3.0716924955
 30
0.0
 10
3.7101990528
 20
3.0710392722
 30
0.0
 10
3.7119098303
 20
3.070421225
 30
0.0
 10
3.7130761966
 20
3.06994851
 30
0.0
  0
SPLINE
  5
265
100
AcDbEntity
  8
0
100
AcDbSpline
 62
7
  6
CONTINUOUS
 70
0
 71
3
 72
65
 73
61
 74
0
 42
0.0000001
 43
0.0000001
 44
0.0000000001
 40
0.0
 40
0.0
 40
0.0
 40
0.0
 40
0.0973991552
 40
0.1938611187
 40
0.2414535158
 40
0.2884684423
 40
0.334796222
 40
0.3803306308
 40
0.4686045053
 40
0.5111436773
 40
0.55248651
 40
0.5925368185
 40
0.6312000603
 40
0.6683837721
 40
0.7039986886
 40
0.7379571704
 40
0.7701733289
 40
0.8005652456
 40
0.8290528761
 40
0.855562178
 40
0.8800256434
 40
0.8914692561
 40
0.9023757764
 40
0.9127365188
 40
0.9225437346
 40
0.9317912735
 40
0.9404740798
 40
0.9485868725
 40
0.9561236878
 40
0.9630782348
 40
0.9694447966
 40
0.9752182925
 40
0.9803943816
 40
0.9849702622
 40
0.9870323819
 40
0.9889435339
 40
0.9907034079
 40
0.9923117265
 40
0.9937682237
 40
0.9950725712
 40
0.9962241299
 40
0.9972221661
 40
0.9980662453
 40
0.9984308009
 40
0.9987572417
 40
0.9990457332
 40
0.9992964632
 40
0.9995095836
 40
0.9996848863
 40
0.9997582459
 40
0.9998220117
 40
0.9998761314
 40
0.9999205495
 40
0.9999552079
 40
0.9999688582
 40
0.9999800454
 40
0.9999887616
 40
0.9999949983
 40
0.9999987473
 40
1.0
 40
1.0
 40
1.0
 40
1.0
 10
4.6306025124
 20
3.0435164351
 30
0.0
 10
4.6593185661
 20
3.0435164752
 30
0.0
 10
4.7164793397
 20
3.0445496661
 30
0.0
 10
4.7875801503
 20
3.0483226003
 30
0.0
 10
4.843748839
 20
3.0526407957
 30
0.0
 10
4.8851284302
 20
3.0564346323
 30
0.0
 10
4.9258494806
 20
3.0607216444
 30
0.0
 10
4.9785951855
 20
3.0669341279
 30
0.0
 10
5.0301274547
 20
3.0738664519
 30
0.0
 10
5.0803341871
 20
3.0813188647
 30
0.0
 10
5.116433307
 20
3.0869726565
 30
0.0
 10
5.1513634015
 20
3.0926986528
 30
0.0
 10
5.1850478519
 20
3.0984386665
 30
0.0
 10
5.2174131913
 20
3.1041320794
 30
0.0
 10
5.2483838037
 20
3.1097452785
 30
0.0
 10
5.2778883337
 20
3.1152330666
 30
0.0
 10
5.3058598993
 20
3.1205405043
 30
0.0
 10
5.3322289521
 20
3.1256402004
 30
0.0
 10
5.3569342084
 20
3.1304812192
 30
0.0
 10
5.3799134928
 20
3.1350405584
 30
0.0
 10
5.3979513531
 20
3.1386841172
 30
0.0
 10
5.4114735474
 20
3.141449104
 30
0.0
 10
5.4209205055
 20
3.143389121
 30
0.0
 10
5.429894705
 20
3.1452328855
 30
0.0
 10
5.4383905413
 20
3.1469745875
 30
0.0
 10
5.4464018528
 20
3.1486164517
 30
0.0
 10
5.4539223423
 20
3.1501649881
 30
0.0
 10
5.4609465922
 20
3.1516226123
 30
0.0
 10
5.4674699687
 20
3.1529861176
 30
0.0
 10
5.4734885231
 20
3.1542484572
 30
0.0
 10
5.4789981375
 20
3.1554047176
 30
0.0
 10
5.4839949346
 20
3.1564516462
 30
0.0
 10
5.4884759048
 20
3.157386017
 30
0.0
 10
5.4918857011
 20
3.1580969977
 30
0.0
 10
5.494352684
 20
3.158613805
 30
0.0
 10
5.4960068082
 20
3.1589616143
 30
0.0
 10
5.497529679
 20
3.1592834264
 30
0.0
 10
5.4989210339
 20
3.1595792552
 30
0.0
 10
5.5001806226
 20
3.159849032
 30
0.0
 10
5.5013080391
 20
3.1600928942
 30
0.0
 10
5.5023032202
 20
3.1603087417
 30
0.0
 10
5.5031660554
 20
3.1604945919
 30
0.0
 10
5.5038028241
 20
3.1606279891
 30
0.0
 10
5.5042457802
 20
3.1607208443
 30
0.0
 10
5.5045282455
 20
3.1607809148
 30
0.0
 10
5.5047775433
 20
3.1608355956
 30
0.0
 10
5.5049936699
 20
3.1608855354
 30
0.0
 10
5.5051764243
 20
3.1609315313
 30
0.0
 10
5.5053077712
 20
3.1609673999
 30
0.0
 10
5.5053962428
 20
3.1609930483
 30
0.0
 10
5.5054502401
 20
3.1610092817
 30
0.0
 10
5.5054959337
 20
3.161023501
 30
0.0
 10
5.5055333058
 20
3.1610355419
 30
0.0
 10
5.5055592699
 20
3.1610441506
 30
0.0
 10
5.5055758391
 20
3.1610498389
 30
0.0
 10
5.5055852556
 20
3.1610530234
 30
0.0
 10
5.5055923472
 20
3.1610557206
 30
0.0
 10
5.5055979446
 20
3.1610572589
 30
0.0
 10
5.5056003482
 20
3.1610589441
 30
0.0
 10
5.5056024701
 20
3.1610588765
 30
0.0
 10
5.5056025124
 20
3.1610592434
 30
0.0
  0
SPLINE
  5
266
100
AcDbEntity
  8
0
100
AcDbSpline
 62
7
  6
CONTINUOUS
 70
0
 71
3
 72
32
 73
28
 74
0
 42
0.0000001
 43
0.0000001
 44
0.0000000001
 40
0.0
 40
0.0
 40
0.0
 40
0.0
 40
0.0239560969
 40
0.0385015967
 40
0.0547253882
 40
0.0726422992
 40
0.0922022324
 40
0.1133232214
 40
0.1359569834
 40
0.1600784519
 40
0.1856598929
 40
0.2409937543
 40
0.270637364
 40
0.3015161341
 40
0.3335757626
 40
0.3667701032
 40
0.4363244344
 40
0.4725578729
 40
0.5096764178
 40
0.586316201
 40
0.6657228394
 40
0.7473522341
 40
0.8306483638
 40
0.8727451388
 40
0.915048281
 40
0.9574905222
 40
1.0
 40
1.0
 40
1.0
 40
1.0
 10
3.7130761966
 20
3.0699484504
 30
0.0
 10
3.7203052041
 20
3.0682740852
 30
0.0
 10
3.7319273342
 20
3.0655997833
 30
0.0
 10
3.7484490931
 20
3.0618086566
 30
0.0
 10
3.7631508491
 20
3.0584500279
 30
0.0
 10
3.7793752599
 20
3.0547826243
 30
0.0
 10
3.7970871387
 20
3.0508158936
 30
0.0
 10
3.8162306429
 20
3.0465563066
 30
0.0
 10
3.8367607504
 20
3.042023204
 30
0.0
 10
3.858650515
 20
3.0372400861
 30
0.0
 10
3.890454876
 20
3.0303834112
 30
0.0
 10
3.9239638894
 20
3.0233178325
 30
0.0
 10
3.9591170402
 20
3.0161003034
 30
0.0
 10
3.9872301944
 20
3.0104402174
 30
0.0
 10
4.0164465123
 20
3.0046881971
 30
0.0
 10
4.0574569497
 20
2.9968281258
 30
0.0
 10
4.0998051078
 20
2.9890814316
 30
0.0
 10
4.1434252902
 20
2.9815508464
 30
0.0
 10
4.1892656165
 20
2.9739869409
 30
0.0
 10
4.2484206904
 20
2.964984572
 30
0.0
 10
4.3214146865
 20
2.9553610916
 30
0.0
 10
4.3966673188
 20
2.9472391466
 30
0.0
 10
4.4605971065
 20
2.9421129714
 30
0.0
 10
4.5124572022
 20
2.9391357307
 30
0.0
 10
4.551714539
 20
2.9375082551
 30
0.0
 10
4.5911209734
 20
2.936521661
 30
0.0
 10
4.6174352304
 20
2.936301613
 30
0.0
 10
4.630602505
 20
2.936301542
 30
0.0
  0
SPLINE
  5
267
100
AcDbEntity
  8
0
100
AcDbSpline
 62
7
  6
CONTINUOUS
 70
0
 71
3
 72
32
 73
28
 74
0
 42
0.0000001
 43
0.0000001
 44
0.0000000001
 40
0.0
 40
0.0
 40
0.0
 40
0.0
 40
0.0425099151
 40
0.084952826
 40
0.1272568289
 40
0.1693542431
 40
0.2526502011
 40
0.3342758906
 40
0.413679292
 40
0.452378533
 40
0.490319283
 40
0.5636717165
 40
0.5989560189
 40
0.6332271649
 40
0.6664209159
 40
0.6984809381
 40
0.7293595481
 40
0.7590032971
 40
0.8143379917
 40
0.8399199223
 40
0.8640417048
 40
0.8866757111
 40
0.9077968745
 40
0.9273572029
 40
0.9452745261
 40
0.9760435266
 40
1.0
 40
1.0
 40
1.0
 40
1.0
 10
4.630602505
 20
2.936301542
 30
0.0
 10
4.6437699233
 20
2.9363016104
 30
0.0
 10
4.6700845405
 20
2.9365216375
 30
0.0
 10
4.7094916064
 20
2.9375083476
 30
0.0
 10
4.7487496425
 20
2.9391357913
 30
0.0
 10
4.8006101759
 20
2.9421131101
 30
0.0
 10
4.8645390201
 20
2.9472393483
 30
0.0
 10
4.9397894195
 20
2.9553607904
 30
0.0
 10
5.0011294935
 20
2.9634481779
 30
0.0
 10
5.0489490046
 20
2.9704878017
 30
0.0
 10
5.0948504513
 20
2.9776741849
 30
0.0
 10
5.1396195181
 20
2.9852425224
 30
0.0
 10
5.1831882264
 20
2.9930674218
 30
0.0
 10
5.2144788094
 20
2.9988844896
 30
0.0
 10
5.2447555359
 20
3.0046879644
 30
0.0
 10
5.273971852
 20
3.0104394504
 30
0.0
 10
5.3020850969
 20
3.0160997838
 30
0.0
 10
5.3372385256
 20
3.023317316
 30
0.0
 10
5.3707480039
 20
3.0303829928
 30
0.0
 10
5.4025529006
 20
3.037239686
 30
0.0
 10
5.4244429973
 20
3.0420228715
 30
0.0
 10
5.4449733416
 20
3.0465560163
 30
0.0
 10
5.4641170718
 20
3.0508158055
 30
0.0
 10
5.4818292812
 20
3.0547825033
 30
0.0
 10
5.5024483447
 20
3.0594437772
 30
0.0
 10
5.5243800326
 20
3.0644736716
 30
0.0
 10
5.5408996403
 20
3.0682743576
 30
0.0
 10
5.5481288282
 20
3.0699484816
 30
0.0
  0
SPLINE
  5
268
100
AcDbEntity
  8
0
100
AcDbSpline
 62
7
  6
CONTINUOUS
 70
0
 71
3
 72
20
 73
16
 74
0
 42
0.0000001
 43
0.0000001
 44
0.0000000001
 40
0.0
 40
0.0
 40
0.0
 40
0.0
 40
0.0492840343
 40
0.1034586309
 40
0.1661356707
 40
0.2423315668
 40
0.2877303601
 40
0.3396161356
 40
0.3997521924
 40
0.4706439048
 40
0.5561088826
 40
0.6625352094
 40
0.8020301867
 40
0.8913889235
 40
1.0
 40
1.0
 40
1.0
 40
1.0
 10
3.6730761966
 20
2.9460592429
 30
0.0
 10
3.6730761959
 20
2.9453846438
 30
0.0
 10
3.6732330994
 20
2.9439638487
 30
0.0
 10
3.6739857673
 20
2.9417987528
 30
0.0
 10
3.6753859577
 20
2.9395346192
 30
0.0
 10
3.6771295267
 20
2.9376894497
 30
0.0
 10
3.6789705096
 20
2.936186427
 30
0.0
 10
3.680753603
 20
2.9349715918
 30
0.0
 10
3.6829341115
 20
2.9337358654
 30
0.0
 10
3.6856222887
 20
2.9324817099
 30
0.0
 10
3.6889926632
 20
2.9312152641
 30
0.0
 10
3.6933528916
 20
2.9299490217
 30
0.0
 10
3.6978535811
 20
2.9290231779
 30
0.0
 10
3.7024274257
 20
2.928369509
 30
0.0
 10
3.7051267674
 20
2.9281150803
 30
0.0
 10
3.7066098583
 20
2.9280120302
 30
0.0
  0
SPLINE
  5
269
100
AcDbEntity
  8
0
100
AcDbSpline
 62
7
  6
CONTINUOUS
 70
0
 71
3
 72
30
 73
26
 74
0
 42
0.0000001
 43
0.0000001
 44
0.0000000001
 40
0.0
 40
0.0
 40
0.0
 40
0.0
 40
0.2404998505
 40
0.3470855959
 40
0.4450085595
 40
0.5345439057
 40
0.6159181655
 40
0.6893056985
 40
0.7548127027
 40
0.8124999435
 40
0.862394787
 40
0.9045182888
 40
0.9226815299
 40
0.9389201613
 40
0.9532392135
 40
0.9656430357
 40
0.9761353492
 40
0.9847192861
 40
0.9913966777
 40
0.9940207477
 40
0.9961685722
 40
0.9978402799
 40
0.9990359993
 40
0.9997558602
 40
1.0
 40
1.0
 40
1.0
 40
1.0
 10
5.5481288282
 20
3.0699485052
 30
0.0
 10
5.5492948719
 20
3.0704210928
 30
0.0
 10
5.5510053516
 20
3.0710384994
 30
0.0
 10
5.553240326
 20
3.0716916432
 30
0.0
 10
5.5547324445
 20
3.0720672662
 30
0.0
 10
5.5561082429
 20
3.0723604555
 30
0.0
 10
5.557367
 20
3.0725830097
 30
0.0
 10
5.558507804
 20
3.0727469289
 30
0.0
 10
5.5595298735
 20
3.072862317
 30
0.0
 10
5.5604322629
 20
3.0729387256
 30
0.0
 10
5.5612140754
 20
3.0729860079
 30
0.0
 10
5.5617900403
 20
3.0730096582
 30
0.0
 10
5.5621902465
 20
3.0730202548
 30
0.0
 10
5.5624450921
 20
3.0730247882
 30
0.0
 10
5.5626698361
 20
3.0730269906
 30
0.0
 10
5.5628645269
 20
3.073027554
 30
0.0
 10
5.5630292158
 20
3.0730271389
 30
0.0
 10
5.5631639402
 20
3.0730264701
 30
0.0
 10
5.5632575151
 20
3.0730259968
 30
0.0
 10
5.5633173969
 20
3.0730255609
 30
0.0
 10
5.5633511347
 20
3.0730254433
 30
0.0
 10
5.5633772963
 20
3.0730249414
 30
0.0
 10
5.5633962321
 20
3.0730254611
 30
0.0
 10
5.5634072311
 20
3.0730241443
 30
0.0
 10
5.5634125864
 20
3.0730253318
 30
0.0
 10
5.5634137334
 20
3.0730247699
 30
0.0
  0
SPLINE
  5
26A
100
AcDbEntity
  8
0
100
AcDbSpline
 62
7
  6
CONTINUOUS
 70
0
 71
3
 72
19
 73
15
 74
0
 42
0.0000001
 43
0.0000001
 44
0.0000000001
 40
0.0
 40
0.0
 40
0.0
 40
0.0
 40
0.1993695928
 40
0.339290182
 40
0.4457620982
 40
0.5311444636
 40
0.6019038272
 40
0.6618849408
 40
0.7136073127
 40
0.7588413661
 40
0.8347209053
 40
0.8970968242
 40
0.950987181
 40
1.0
 40
1.0
 40
1.0
 40
1.0
 10
5.5542877985
 20
2.927991368
 30
0.0
 10
5.5570311037
 20
2.9281724247
 30
0.0
 10
5.5616903773
 20
2.928689509
 30
0.0
 10
5.5677204162
 20
2.9299154493
 30
0.0
 10
5.5721209139
 20
2.931184239
 30
0.0
 10
5.5755162709
 20
2.9324536054
 30
0.0
 10
5.5782219771
 20
2.9337103369
 30
0.0
 10
5.5804152025
 20
2.9349488349
 30
0.0
 10
5.5822078599
 20
2.9361663088
 30
0.0
 10
5.5840576735
 20
2.9376724054
 30
0.0
 10
5.5858092556
 20
2.9395211098
 30
0.0
 10
5.5872154666
 20
2.9417901525
 30
0.0
 10
5.5879712897
 20
2.9439596622
 30
0.0
 10
5.5881288287
 20
2.9453833643
 30
0.0
 10
5.5881288282
 20
2.946059243
 30
0.0
  0
ENDSEC
  0
SECTION
  2
OBJECTS
  0
DICTIONARY
  5
C
100
AcDbDictionary
280
0
281
1
  3
ACAD_GROUP
350
D
  3
ACAD_MLINESTYLE
350
17
  3
ACAD_LAYOUT
350
1A
  3
ACAD_PLOTSETTINGS
350
19
  3
ACAD_PLOTSTYLENAME
350
E
  0
DICTIONARY
  5
D
102
{ACAD_REACTORS
330
C
102
}
100
AcDbDictionary
280
0
281
1
  0
ACDBDICTIONARYWDFLT
  5
E
102
{ACAD_REACTORS
330
C
102
}
100
AcDbDictionary
281
1
  3
Normal
350
F
100
AcDbDictionaryWithDefault
340
F
  0
DICTIONARY
  5
17
102
{ACAD_REACTORS
330
C
102
}
100
AcDbDictionary
280
0
281
1
  3
Standard
350
18
  0
DICTIONARY
  5
19
102
{ACAD_REACTORS
330
C
102
}
100
AcDbDictionary
281
1
  0
DICTIONARY
  5
1A
102
{ACAD_REACTORS
330
C
102
}
100
AcDbDictionary
281
1
  3
Model
350
26B
  3
Layout1
350
26C
  0
ACDBPLACEHOLDER
  5
F
102
{ACAD_REACTORS
330
E
102
}
  0
MLINESTYLE
  5
18
102
{ACAD_REACTORS
330
17
102
}
100
AcDbMlineStyle
  2
STANDARD
 70
0
  3

 62
256
 51
90.0
 52
90.0
 71
2
 49
0.5
 62
256
  6
BYLAYER
 49
-0.5
 62
256
  6
BYLAYER
  0
LAYOUT
  5
26B
102
{ACAD_REACTORS
330
1A
102
}
100
AcDbPlotSettings
  1

  2
none_device
  4
ANSI_A_(11.00_x_8.50_Inches)
  6

 40
0.0
 41
0.0
 42
0.0
 43
0.0
 44
279.4
 45
215.9
 46
0.0
 47
0.0
 48
0.0
 49
0.0
140
0.0
141
0.0
142
1.0
143
1.0
 70
1024
 72
0
 73
0
 74
0
  7

 75
0
147
1.0
148
0.0
149
0.0
100
AcDbLayout
  1
Model
 70
0
 71
0
 10
0.0
 20
0.0
 11
11.0
 21
8.5
 12
0.0
 22
0.0
 32
0.0
 14
0.0
 24
0.0
 34
0.0
 15
0.0
 25
0.0
 35
0.0
146
0.0
 13
0.0
 23
0.0
 33
0.0
 16
1.0
 26
0.0
 36
0.0
 17
0.0
 27
1.0
 37
0.0
 76
0
330
209
345
0
346
0
  0
LAYOUT
  5
26C
102
{ACAD_REACTORS
330
1A
102
}
100
AcDbPlotSettings
  1

  2
none_device
  4
ANSI_A_(11.00_x_8.50_Inches)
  6

 40
0.0
 41
0.0
 42
0.0
 43
0.0
 44
279.4
 45
215.9
 46
0.0
 47
0.0
 48
0.0
 49
0.0
140
0.0
141
0.0
142
1.0
143
1.0
 70
0
 72
0
 73
0
 74
0
  7

 75
0
147
1.0
148
0.0
149
0.0
100
AcDbLayout
  1
Layout1
 70
0
 71
1
 10
0.0
 20
0.0
 11
11.0
 21
8.5
 12
0.0
 22
0.0
 32
0.0
 14
0.0
 24
0.0
 34
0.0
 15
0.0
 25
0.0
 35
0.0
146
0.0
 13
0.0
 23
0.0
 33
0.0
 16
1.0
 26
0.0
 36
0.0
 17
0.0
 27
1.0
 37
0.0
 76
0
330
20A
345
0
346
0
  0
ENDSEC
  0
EOF
