999
DXF file: 3170-5751_right.dxf
999
Pro/ENGINEER 2013150 by Parametric Technology Corporation
  0
SECTION
  2
HEADER
  9
$ACADVER
  1
AC1021
  9
$DWGCODEPAGE
  3
ANSI_1252
  9
$EXTMAX
 10
11.0
 20
8.5
 30
0.0
  9
$EXTMIN
 10
0.0
 20
0.0
 30
0.0
  9
$LIMMIN
 10
0.0
 20
0.0
  9
$LIMMAX
 10
11.0
 20
8.5
  9
$VIEWCTR
 10
5.5
 20
4.25
  9
$VIEWSIZE
 40
8.5
  9
$CLAYER
  8
0
  9
$LTSCALE
 40
0.605
  9
$CELTYPE
  6
BYLAYER
  9
$DIMSCALE
 40
1.0
  9
$DIMASZ
 40
0.1
  9
$DIMEXO
 40
0.0625
  9
$DIMDLI
 40
0.418
  9
$DIMEXE
 40
0.125
  9
$DIMCEN
 40
0.099
  9
$DIMLFAC
 40
1.0
  9
$DIMBLK
  1
_FILLED
  9
$DIMTXT
 40
0.08
  9
$DIMTOL
 70
1
  9
$DIMLIM
 70
0
  9
$DIMTFAC
 40
1.0
  9
$DIMTP
 40
0.001
  9
$DIMTM
 40
0.001
  9
$DIMGAP
 40
0.09
  9
$DIMDSEP
 70
46
  9
$PDMODE
 70
3
  9
$PDSIZE
 40
0.3125
  9
$HANDSEED
  5
269
  9
$TILEMODE
 70
1
  9
$MEASUREMENT
 70
0
  9
$INSUNITS
 70
1
  0
ENDSEC
  0
SECTION
  2
CLASSES
  0
CLASS
  1
ACDBDICTIONARYWDFLT
  2
AcDbDictionaryWithDefault
  3
AutoCAD 2000
 90
0
 91
1
280
0
281
0
  0
CLASS
  1
ACDBPLACEHOLDER
  2
AcDbPlaceHolder
  3
AutoCAD 2000
 90
0
 91
1
280
0
281
0
  0
CLASS
  1
LAYOUT
  2
AcDbLayout
  3
AutoCAD 2000
 90
0
 91
0
280
0
281
0
  0
ENDSEC
  0
SECTION
  2
TABLES
  0
TABLE
  2
VPORT
  5
8
100
AcDbSymbolTable
 70
2
  0
VPORT
  5
1F4
100
AcDbSymbolTableRecord
100
AcDbViewportTableRecord
  2
*ACTIVE
 70
0
 10
0.0
 20
0.0
 11
1.0
 21
1.0
 12
5.5
 22
4.25
 13
0.0
 23
0.0
 14
1.0
 24
1.0
 15
0.0
 25
0.0
 16
0.0
 26
0.0
 36
1.0
 17
0.0
 27
0.0
 37
0.0
 40
8.5
 41
1.2941176471
 42
50.0
 43
0.0
 44
0.0
 50
0.0
 51
0.0
 71
0
 72
100
 73
1
 74
1
 75
0
 76
0
 77
0
 78
0
  0
ENDTAB
  0
TABLE
  2
LTYPE
  5
5
100
AcDbSymbolTable
 70
6
  0
LTYPE
  5
14
100
AcDbSymbolTableRecord
100
AcDbLinetypeTableRecord
  2
BYBLOCK
 70
0
  3

 72
65
 73
0
 40
0.0
  0
LTYPE
  5
15
100
AcDbSymbolTableRecord
100
AcDbLinetypeTableRecord
  2
BYLAYER
 70
0
  3

 72
65
 73
0
 40
0.0
  0
LTYPE
  5
16
100
AcDbSymbolTableRecord
100
AcDbLinetypeTableRecord
  2
CONTINUOUS
 70
64
  3
Solid line
 72
65
 73
0
 40
0.0
  0
LTYPE
  5
1F5
100
AcDbSymbolTableRecord
100
AcDbLinetypeTableRecord
  2
CENTER
 70
64
  3
____ _ ____ _ ____ _ ____ _ ____ _ ____ _ ____
 72
65
 73
4
 40
0.6
 49
0.375
 74
0
 49
-0.075
 74
0
 49
0.075
 74
0
 49
-0.075
 74
0
  0
LTYPE
  5
1F6
100
AcDbSymbolTableRecord
100
AcDbLinetypeTableRecord
  2
HIDDEN
 70
64
  3
- - - - - - - - - - - - - - - - - - - -
 72
65
 73
2
 40
0.2
 49
0.1
 74
0
 49
-0.1
 74
0
  0
LTYPE
  5
1F7
100
AcDbSymbolTableRecord
100
AcDbLinetypeTableRecord
  2
PHANTOM
 70
64
  3
_____ _ _ _____ _ _ _____ _ _ _____
 72
65
 73
6
 40
0.8
 49
0.45
 74
0
 49
-0.05
 74
0
 49
0.1
 74
0
 49
-0.05
 74
0
 49
0.1
 74
0
 49
-0.05
 74
0
  0
LTYPE
  5
1F8
100
AcDbSymbolTableRecord
100
AcDbLinetypeTableRecord
  2
DOT
 70
64
  3
. . . . . . . . . . . . . . . . . . . .
 72
65
 73
2
 40
0.2
 49
0.1
 74
0
 49
-0.1
 74
0
  0
LTYPE
  5
1F9
100
AcDbSymbolTableRecord
100
AcDbLinetypeTableRecord
  2
DASHED
 70
64
  3
- - - - - - - - - - - - - - - - - - - -
 72
65
 73
2
 40
0.2
 49
0.1
 74
0
 49
-0.1
 74
0
  0
ENDTAB
  0
TABLE
  2
LAYER
  5
2
100
AcDbSymbolTable
 70
36
  0
LAYER
  5
10
100
AcDbSymbolTableRecord
100
AcDbLayerTableRecord
  2
0
 70
0
 62
7
  6
CONTINUOUS
370
-3
390
F
  0
LAYER
  5
1FA
100
AcDbSymbolTableRecord
100
AcDbLayerTableRecord
  2
DEFAULT_1
 70
0
 62
7
  6
CENTER
370
-3
390
F
  0
LAYER
  5
1FB
100
AcDbSymbolTableRecord
100
AcDbLayerTableRecord
  2
DEFAULT_2
 70
0
 62
8
  6
HIDDEN
370
-3
390
F
  0
LAYER
  5
1FC
100
AcDbSymbolTableRecord
100
AcDbLayerTableRecord
  2
DEFAULT_3
 70
0
 62
7
  6
PHANTOM
370
-3
390
F
  0
LAYER
  5
1FD
100
AcDbSymbolTableRecord
100
AcDbLayerTableRecord
  2
ALL_FEATURES
 70
0
 62
7
  6
CONTINUOUS
370
-3
390
F
  0
LAYER
  5
1FE
100
AcDbSymbolTableRecord
100
AcDbLayerTableRecord
  2
AXES_FEATURES
 70
0
 62
7
  6
CONTINUOUS
370
-3
390
F
  0
LAYER
  5
1FF
100
AcDbSymbolTableRecord
100
AcDbLayerTableRecord
  2
DATUM_CURVES
 70
0
 62
7
  6
CONTINUOUS
370
-3
390
F
  0
LAYER
  5
200
100
AcDbSymbolTableRecord
100
AcDbLayerTableRecord
  2
DEFAULT_COORDINATE_SYSTEM
 70
0
 62
7
  6
CONTINUOUS
370
-3
390
F
  0
LAYER
  5
201
100
AcDbSymbolTableRecord
100
AcDbLayerTableRecord
  2
DEFAULT_DATUM_AXES
 70
0
 62
7
  6
CONTINUOUS
370
-3
390
F
  0
LAYER
  5
202
100
AcDbSymbolTableRecord
100
AcDbLayerTableRecord
  2
DEFAULT_DATUM_PLANES
 70
0
 62
7
  6
CONTINUOUS
370
-3
390
F
  0
LAYER
  5
203
100
AcDbSymbolTableRecord
100
AcDbLayerTableRecord
  2
DIMENSIONS
 70
0
 62
7
  6
CONTINUOUS
370
-3
390
F
  0
LAYER
  5
204
100
AcDbSymbolTableRecord
100
AcDbLayerTableRecord
  2
LAY0001
 70
0
 62
7
  6
CONTINUOUS
370
-3
390
F
  0
LAYER
  5
205
100
AcDbSymbolTableRecord
100
AcDbLayerTableRecord
  2
PROTRUSION_FEATURES
 70
0
 62
7
  6
CONTINUOUS
370
-3
390
F
  0
LAYER
  5
206
100
AcDbSymbolTableRecord
100
AcDbLayerTableRecord
  2
SIZE_REF
 70
0
 62
7
  6
CONTINUOUS
370
-3
390
F
  0
ENDTAB
  0
TABLE
  2
STYLE
  5
3
100
AcDbSymbolTable
 70
1
  0
STYLE
  5
11
100
AcDbSymbolTableRecord
100
AcDbTextStyleTableRecord
  2
STANDARD
 70
0
 40
0.0
 41
0.8
 50
0.0
 71
0
 42
0.2
  3
txt
  4

  0
STYLE
  5
207
100
AcDbSymbolTableRecord
100
AcDbTextStyleTableRecord
  2
TEXTSTYLE_1
 70
0
 40
0.0
 41
0.8
 50
0.0
 71
0
 42
0.2
  3
gdt
  4

  0
ENDTAB
  0
TABLE
  2
VIEW
  5
6
100
AcDbSymbolTable
 70
0
  0
ENDTAB
  0
TABLE
  2
UCS
  5
7
100
AcDbSymbolTable
 70
0
  0
ENDTAB
  0
TABLE
  2
APPID
  5
9
100
AcDbSymbolTable
 70
1
  0
APPID
  5
208
100
AcDbSymbolTableRecord
100
AcDbRegAppTableRecord
  2
ACAD
 70
0
  0
ENDTAB
  0
TABLE
  2
BLOCK_RECORD
  5
1
100
AcDbSymbolTable
 70
0
  0
BLOCK_RECORD
  5
209
100
AcDbSymbolTableRecord
100
AcDbBlockTableRecord
  2
*Model_Space
  0
BLOCK_RECORD
  5
20A
100
AcDbSymbolTableRecord
100
AcDbBlockTableRecord
  2
*Paper_Space
  0
ENDTAB
  0
TABLE
  2
DIMSTYLE
  5
A
100
AcDbSymbolTable
 70
1
100
AcDbDimStyleTable
 71
0
  0
DIMSTYLE
105
20B
100
AcDbSymbolTableRecord
100
AcDbDimStyleTableRecord
  2
STANDARD
 70
0
  3

  4

 40
1.0
 41
0.1
 42
0.0625
 43
0.38
 44
0.125
 45
0.0
 46
0.0
 47
0.001
 48
0.001
140
0.08
141
0.09
142
0.0
143
25.4
144
1.0
145
0.0
146
1.0
147
0.09
 71
1.0
 72
0.0
 73
1
 74
1
 75
0
 76
0
 77
0
 78
4
170
0
171
2
172
0
173
0
174
0
175
0
176
0
177
0
178
0
270
2
271
3
272
3
273
2
274
2
275
0
280
0
281
0
282
0
283
1
284
4
285
0
286
0
287
3
288
0
340
11
278
46
  0
ENDTAB
  0
ENDSEC
  0
SECTION
  2
BLOCKS
  0
BLOCK
  5
20
100
AcDbEntity
  8
0
100
AcDbBlockBegin
  2
*Model_Space
 70
0
 10
0.0
 20
0.0
 30
0.0
  3
*Model_Space
  1

  0
ENDBLK
  5
21
100
AcDbEntity
  8
0
100
AcDbBlockEnd
  0
BLOCK
  5
1C
100
AcDbEntity
  8
0
100
AcDbBlockBegin
  2
*Paper_Space
 70
0
 10
0.0
 20
0.0
 30
0.0
  3
*Paper_Space
  1

  0
ENDBLK
  5
1D
100
AcDbEntity
  8
0
100
AcDbBlockEnd
  0
ENDSEC
  0
SECTION
  2
ENTITIES
  0
LINE
  5
20C
100
AcDbEntity
  8
0
100
AcDbLine
 62
7
  6
CONTINUOUS
 10
0.0
 20
0.0
 11
0.0
 21
8.5
  0
LINE
  5
20D
100
AcDbEntity
  8
0
100
AcDbLine
 62
7
  6
CONTINUOUS
 10
0.0
 20
0.0
 11
11.0
 21
0.0
  0
LINE
  5
20E
100
AcDbEntity
  8
0
100
AcDbLine
 62
7
  6
CONTINUOUS
 10
0.0
 20
8.5
 11
11.0
 21
8.5
  0
LINE
  5
20F
100
AcDbEntity
  8
0
100
AcDbLine
 62
7
  6
CONTINUOUS
 10
11.0
 20
0.0
 11
11.0
 21
8.5
  0
LINE
  5
210
100
AcDbEntity
  8
0
100
AcDbLine
 62
7
  6
CONTINUOUS
 10
3.6056025124
 20
2.7760592432
 11
5.6556025124
 21
2.7760592432
  0
LINE
  5
211
100
AcDbEntity
  8
0
100
AcDbLine
 62
7
  6
CONTINUOUS
 10
3.6056025124
 20
2.8860592432
 11
3.6056025124
 21
2.7760592432
  0
LINE
  5
212
100
AcDbEntity
  8
0
100
AcDbLine
 62
7
  6
CONTINUOUS
 10
3.6456025124
 20
2.9260592432
 11
3.6456025124
 21
2.7760592432
  0
LINE
  5
213
100
AcDbEntity
  8
0
100
AcDbLine
 62
7
  6
CONTINUOUS
 10
3.6056025124
 20
2.8860592432
 11
5.6556025124
 21
2.8860592432
  0
LINE
  5
214
100
AcDbEntity
  8
0
100
AcDbLine
 62
7
  6
CONTINUOUS
 10
3.6456025124
 20
2.9260592432
 11
5.6156025124
 21
2.9260592432
  0
LINE
  5
215
100
AcDbEntity
  8
0
100
AcDbLine
 62
7
  6
CONTINUOUS
 10
3.7556025124
 20
3.0435164351
 11
3.7556025124
 21
3.1610592432
  0
LINE
  5
216
100
AcDbEntity
  8
0
100
AcDbLine
 62
7
  6
CONTINUOUS
 10
3.8464993854
 20
2.9460592432
 11
5.4147056793
 21
2.9460592432
  0
LINE
  5
217
100
AcDbEntity
  8
0
100
AcDbLine
 62
7
  6
CONTINUOUS
 10
3.8131025124
 20
5.1610592432
 11
3.8131025124
 21
4.4700592432
  0
LINE
  5
218
100
AcDbEntity
  8
0
100
AcDbLine
 62
7
  6
CONTINUOUS
 10
3.8131025124
 20
4.2750592432
 11
3.8131025124
 21
4.0760592432
  0
LINE
  5
219
100
AcDbEntity
  8
0
100
AcDbLine
 62
7
  6
CONTINUOUS
 10
3.8131025124
 20
3.8810592432
 11
3.8131025124
 21
3.325199927
  0
LINE
  5
21A
100
AcDbEntity
  8
0
100
AcDbLine
 62
7
  6
CONTINUOUS
 10
3.8464993854
 20
2.9260592432
 11
3.8464993854
 21
2.9460592432
  0
LINE
  5
21B
100
AcDbEntity
  8
0
100
AcDbLine
 62
7
  6
CONTINUOUS
 10
5.4652985582
 20
3.2053189219
 11
5.4356025124
 21
3.2010592432
  0
LINE
  5
21C
100
AcDbEntity
  8
0
100
AcDbLine
 62
7
  6
CONTINUOUS
 10
3.7556025124
 20
3.1610592432
 11
5.5056025124
 21
3.1610592432
  0
LINE
  5
21D
100
AcDbEntity
  8
0
100
AcDbLine
 62
7
  6
CONTINUOUS
 10
3.8256025124
 20
3.2010592432
 11
3.7959064666
 21
3.2053189219
  0
LINE
  5
21E
100
AcDbEntity
  8
0
100
AcDbLine
 62
7
  6
CONTINUOUS
 10
3.8131025124
 20
3.325199927
 11
3.7959064666
 21
3.2053189219
  0
LINE
  5
21F
100
AcDbEntity
  8
0
100
AcDbLine
 62
7
  6
CONTINUOUS
 10
3.7956025124
 20
3.2010592432
 11
5.4656025124
 21
3.2010592432
  0
LINE
  5
220
100
AcDbEntity
  8
0
100
AcDbLine
 62
7
  6
CONTINUOUS
 10
5.4652985582
 20
3.2053189219
 11
3.7959064666
 21
3.2053189219
  0
LINE
  5
221
100
AcDbEntity
  8
0
100
AcDbLine
 62
7
  6
CONTINUOUS
 10
4.1306025124
 20
4.0810592432
 11
4.1306025124
 21
4.0760592432
  0
LINE
  5
222
100
AcDbEntity
  8
0
100
AcDbLine
 62
7
  6
CONTINUOUS
 10
5.4481025124
 20
3.325199927
 11
3.8131025124
 21
3.325199927
  0
LINE
  5
223
100
AcDbEntity
  8
0
100
AcDbLine
 62
7
  6
CONTINUOUS
 10
4.3256025124
 20
4.0810592432
 11
4.3256025124
 21
4.0760592432
  0
LINE
  5
224
100
AcDbEntity
  8
0
100
AcDbLine
 62
7
  6
CONTINUOUS
 10
4.3756025124
 20
4.0010592432
 11
4.3756025124
 21
4.1630592432
  0
LINE
  5
225
100
AcDbEntity
  8
0
100
AcDbLine
 62
7
  6
CONTINUOUS
 10
4.3892931927
 20
4.1423783946
 11
4.3892931927
 21
4.0975698796
  0
LINE
  5
226
100
AcDbEntity
  8
0
100
AcDbLine
 62
7
  6
CONTINUOUS
 10
4.3892931927
 20
4.076889031
 11
4.3892931927
 21
4.0010592432
  0
LINE
  5
227
100
AcDbEntity
  8
0
100
AcDbLine
 62
7
  6
CONTINUOUS
 10
4.4486194759
 20
4.0975698796
 11
4.4486194759
 21
4.076889031
  0
LINE
  5
228
100
AcDbEntity
  8
0
100
AcDbLine
 62
7
  6
CONTINUOUS
 10
4.4577465939
 20
4.1630592432
 11
4.4577465939
 21
4.1423783946
  0
LINE
  5
229
100
AcDbEntity
  8
0
100
AcDbLine
 62
7
  6
CONTINUOUS
 10
4.4760008364
 20
4.1630592432
 11
4.4760008364
 21
4.0010592432
  0
LINE
  5
22A
100
AcDbEntity
  8
0
100
AcDbLine
 62
7
  6
CONTINUOUS
 10
4.4896915102
 20
4.1630592432
 11
4.4896915102
 21
4.0217400942
  0
LINE
  5
22B
100
AcDbEntity
  8
0
100
AcDbLine
 62
7
  6
CONTINUOUS
 10
4.5581449114
 20
4.0217400942
 11
4.5581449114
 21
4.0010592432
  0
LINE
  5
22C
100
AcDbEntity
  8
0
100
AcDbLine
 62
7
  6
CONTINUOUS
 10
3.915417047
 20
3.8810592432
 11
3.8131025124
 21
3.8810592432
  0
LINE
  5
22D
100
AcDbEntity
  8
0
100
AcDbLine
 62
7
  6
CONTINUOUS
 10
4.5581449114
 20
4.0010592432
 11
4.4760008364
 21
4.0010592432
  0
LINE
  5
22E
100
AcDbEntity
  8
0
100
AcDbLine
 62
7
  6
CONTINUOUS
 10
4.3892931927
 20
4.0010592432
 11
4.3756025124
 21
4.0010592432
  0
LINE
  5
22F
100
AcDbEntity
  8
0
100
AcDbLine
 62
7
  6
CONTINUOUS
 10
4.5581449114
 20
4.0217400942
 11
4.4896915102
 21
4.0217400942
  0
LINE
  5
230
100
AcDbEntity
  8
0
100
AcDbLine
 62
7
  6
CONTINUOUS
 10
4.3256025124
 20
4.0760592432
 11
4.1306025124
 21
4.0760592432
  0
LINE
  5
231
100
AcDbEntity
  8
0
100
AcDbLine
 62
7
  6
CONTINUOUS
 10
3.915417047
 20
4.0760592432
 11
3.8131025124
 21
4.0760592432
  0
LINE
  5
232
100
AcDbEntity
  8
0
100
AcDbLine
 62
7
  6
CONTINUOUS
 10
4.4486194759
 20
4.076889031
 11
4.3892931927
 21
4.076889031
  0
LINE
  5
233
100
AcDbEntity
  8
0
100
AcDbLine
 62
7
  6
CONTINUOUS
 10
4.3256025124
 20
4.0810592432
 11
4.1306025124
 21
4.0810592432
  0
LINE
  5
234
100
AcDbEntity
  8
0
100
AcDbLine
 62
7
  6
CONTINUOUS
 10
4.3892931927
 20
4.0975698796
 11
4.4486194759
 21
4.0975698796
  0
LINE
  5
235
100
AcDbEntity
  8
0
100
AcDbLine
 62
7
  6
CONTINUOUS
 10
4.4577465939
 20
4.1423783946
 11
4.3892931927
 21
4.1423783946
  0
LINE
  5
236
100
AcDbEntity
  8
0
100
AcDbLine
 62
7
  6
CONTINUOUS
 10
4.4896915102
 20
4.1630592432
 11
4.4760008364
 21
4.1630592432
  0
LINE
  5
237
100
AcDbEntity
  8
0
100
AcDbLine
 62
7
  6
CONTINUOUS
 10
4.3756025124
 20
4.1630592432
 11
4.4577465939
 21
4.1630592432
  0
LINE
  5
238
100
AcDbEntity
  8
0
100
AcDbLine
 62
7
  6
CONTINUOUS
 10
3.915417047
 20
4.2750592432
 11
3.8131025124
 21
4.2750592432
  0
LINE
  5
239
100
AcDbEntity
  8
0
100
AcDbLine
 62
7
  6
CONTINUOUS
 10
3.915417047
 20
4.4700592432
 11
3.8131025124
 21
4.4700592432
  0
LINE
  5
23A
100
AcDbEntity
  8
0
100
AcDbLine
 62
7
  6
CONTINUOUS
 10
5.4481025124
 20
3.325199927
 11
5.4652985582
 21
3.2053189219
  0
LINE
  5
23B
100
AcDbEntity
  8
0
100
AcDbLine
 62
7
  6
CONTINUOUS
 10
5.4147056793
 20
2.9260592432
 11
5.4147056793
 21
2.9460592432
  0
LINE
  5
23C
100
AcDbEntity
  8
0
100
AcDbLine
 62
7
  6
CONTINUOUS
 10
5.4481025124
 20
5.1610592432
 11
5.4481025124
 21
3.325199927
  0
LINE
  5
23D
100
AcDbEntity
  8
0
100
AcDbLine
 62
7
  6
CONTINUOUS
 10
5.5056025124
 20
3.0435164351
 11
5.5056025124
 21
3.1610592432
  0
LINE
  5
23E
100
AcDbEntity
  8
0
100
AcDbLine
 62
7
  6
CONTINUOUS
 10
5.6156025124
 20
2.9260592432
 11
5.6156025124
 21
2.7760592432
  0
LINE
  5
23F
100
AcDbEntity
  8
0
100
AcDbLine
 62
7
  6
CONTINUOUS
 10
5.6556025124
 20
2.8860592432
 11
5.6556025124
 21
2.7760592432
  0
LINE
  5
240
100
AcDbEntity
  8
0
100
AcDbLine
 62
7
  6
CONTINUOUS
 10
5.4481025124
 20
5.1610592432
 11
3.8131025124
 21
5.1610592432
  0
LINE
  5
241
100
AcDbEntity
  8
0
100
AcDbLine
 62
7
  6
CONTINUOUS
 10
5.2181025124
 20
5.3910592432
 11
4.0431025124
 21
5.3910592432
  0
ARC
  5
242
100
AcDbEntity
  8
0
100
AcDbCircle
 62
7
  6
CONTINUOUS
 10
4.0383055085
 20
2.1040892622
 40
0.9010984414
100
AcDbArc
 50
112.4040565847
 51
112.5488201529
  0
ARC
  5
243
100
AcDbEntity
  8
0
100
AcDbCircle
 62
7
  6
CONTINUOUS
 10
4.0257692107
 20
2.1340321255
 40
0.8686367626
100
AcDbArc
 50
112.4688558218
 51
113.4458881328
  0
ARC
  5
244
100
AcDbEntity
  8
0
100
AcDbCircle
 62
7
  6
CONTINUOUS
 10
5.2181025124
 20
5.1610592432
 40
0.23
100
AcDbArc
 50
0.0
 51
90.0
  0
ARC
  5
245
100
AcDbEntity
  8
0
100
AcDbCircle
 62
7
  6
CONTINUOUS
 10
4.0431025124
 20
5.1610592432
 40
0.23
100
AcDbArc
 50
90.0
 51
180.0
  0
ARC
  5
246
100
AcDbEntity
  8
0
100
AcDbCircle
 62
7
  6
CONTINUOUS
 10
3.7956025124
 20
3.1610592432
 40
0.04
100
AcDbArc
 50
90.0
 51
180.0
  0
ARC
  5
247
100
AcDbEntity
  8
0
100
AcDbCircle
 62
7
  6
CONTINUOUS
 10
5.4656025124
 20
3.1610592432
 40
0.04
100
AcDbArc
 50
0.0
 51
90.0
  0
ARC
  5
248
100
AcDbEntity
  8
0
100
AcDbCircle
 62
7
  6
CONTINUOUS
 10
3.7156025124
 20
3.0435164351
 40
0.04
100
AcDbArc
 50
290.0968465459
 51
360.0
  0
ARC
  5
249
100
AcDbEntity
  8
0
100
AcDbCircle
 62
7
  6
CONTINUOUS
 10
5.5456025124
 20
3.0435164351
 40
0.04
100
AcDbArc
 50
180.0
 51
249.9031534541
  0
ARC
  5
24A
100
AcDbEntity
  8
0
100
AcDbCircle
 62
7
  6
CONTINUOUS
 10
3.6456025124
 20
2.8860592432
 40
0.04
100
AcDbArc
 50
90.0
 51
180.0
  0
ARC
  5
24B
100
AcDbEntity
  8
0
100
AcDbCircle
 62
7
  6
CONTINUOUS
 10
5.6156025124
 20
2.8860592432
 40
0.04
100
AcDbArc
 50
0.0
 51
90.0
  0
ARC
  5
24C
100
AcDbEntity
  8
0
100
AcDbCircle
 62
7
  6
CONTINUOUS
 10
3.6812566492
 20
2.9640081069
 40
0.03
100
AcDbArc
 50
292.5489636902
 51
13.2680353791
  0
ARC
  5
24D
100
AcDbEntity
  8
0
100
AcDbCircle
 62
7
  6
CONTINUOUS
 10
5.5799483756
 20
2.9640081069
 40
0.03
100
AcDbArc
 50
166.73196462
 51
247.4510363098
  0
ARC
  5
24E
100
AcDbEntity
  8
0
100
AcDbCircle
 62
7
  6
CONTINUOUS
 10
3.739655073
 20
2.9777785135
 40
0.03
100
AcDbArc
 50
110.0968465459
 51
193.2680353701
  0
ARC
  5
24F
100
AcDbEntity
  8
0
100
AcDbCircle
 62
7
  6
CONTINUOUS
 10
5.5215499518
 20
2.9777785135
 40
0.03
100
AcDbArc
 50
346.7319646257
 51
69.9031534541
  0
ARC
  5
250
100
AcDbEntity
  8
0
100
AcDbCircle
 62
7
  6
CONTINUOUS
 10
3.6648229612
 20
2.9460592432
 40
0.0199999587
100
AcDbArc
 50
271.0230554432
 51
294.0037360891
  0
SPLINE
  5
251
100
AcDbEntity
  8
0
100
AcDbSpline
 62
7
  6
CONTINUOUS
 70
0
 71
3
 72
11
 73
7
 74
0
 42
0.0000001
 43
0.0000001
 44
0.0000000001
 40
0.0
 40
0.0
 40
0.0
 40
0.0
 40
0.25
 40
0.5
 40
0.75
 40
1.0
 40
1.0
 40
1.0
 40
1.0
 10
4.4096150982
 20
3.0699484816
 30
0.0
 10
4.3344903842
 20
3.0657530061
 30
0.0
 10
4.1872904156
 20
3.05306871
 30
0.0
 10
3.9847003605
 20
3.0219433939
 30
0.0
 10
3.808644975
 20
2.9799978454
 30
0.0
 10
3.713786659
 20
2.9459698184
 30
0.0
 10
3.6729589023
 20
2.9277888268
 30
0.0
  0
SPLINE
  5
252
100
AcDbEntity
  8
0
100
AcDbSpline
 62
7
  6
CONTINUOUS
 70
0
 71
3
 72
11
 73
7
 74
0
 42
0.0000001
 43
0.0000001
 44
0.0000000001
 40
0.0
 40
0.0
 40
0.0
 40
0.0
 40
0.25
 40
0.5
 40
0.75
 40
1.0
 40
1.0
 40
1.0
 40
1.0
 10
5.5882461093
 20
2.9277888327
 30
0.0
 10
5.5474182193
 20
2.9459698828
 30
0.0
 10
5.4525595514
 20
2.9799980115
 30
0.0
 10
5.2765034412
 20
3.0219436472
 30
0.0
 10
5.0739125409
 20
3.0530689704
 30
0.0
 10
4.9267119873
 20
3.0657532122
 30
0.0
 10
4.8515869912
 20
3.0699486456
 30
0.0
  0
SPLINE
  5
253
100
AcDbEntity
  8
0
100
AcDbSpline
 62
7
  6
CONTINUOUS
 70
0
 71
3
 72
45
 73
41
 74
0
 42
0.0000001
 43
0.0000001
 44
0.0000000001
 40
0.0
 40
0.0
 40
0.0
 40
0.0
 40
0.1029667054
 40
0.1534715731
 40
0.2032087254
 40
0.2520706843
 40
0.2999838386
 40
0.3468977243
 40
0.3927447275
 40
0.4374391778
 40
0.480893518
 40
0.5638140695
 40
0.6031552455
 40
0.6410132348
 40
0.7120152465
 40
0.776286816
 40
0.8333812783
 40
0.8590955998
 40
0.8828378901
 40
0.9045504923
 40
0.9241811779
 40
0.9416707854
 40
0.9569587447
 40
0.9699893299
 40
0.9756459667
 40
0.9807248425
 40
0.9852215031
 40
0.98913109
 40
0.9924472612
 40
0.9951640512
 40
0.9962968255
 40
0.9972789119
 40
0.9981101438
 40
0.9987904046
 40
0.9993195804
 40
0.9996975825
 40
0.9998298866
 40
0.9999243916
 40
0.9999810963
 40
1.0
 40
1.0
 40
1.0
 40
1.0
 10
4.8461371578
 20
3.0962977506
 30
0.0
 10
4.870753774
 20
3.0949658535
 30
0.0
 10
4.9074270248
 20
3.092626925
 30
0.0
 10
4.955930827
 20
3.0888142608
 30
0.0
 10
4.9914911474
 20
3.0856637118
 30
0.0
 10
5.0263997474
 20
3.0822098009
 30
0.0
 10
5.0605989381
 20
3.0784697274
 30
0.0
 10
5.09404115
 20
3.0744642257
 30
0.0
 10
5.126675711
 20
3.0702106936
 30
0.0
 10
5.1584430334
 20
3.0657255194
 30
0.0
 10
5.1989342881
 20
3.0595561998
 30
0.0
 10
5.2380594859
 20
3.0529424556
 30
0.0
 10
5.2757435795
 20
3.0458967159
 30
0.0
 10
5.3105454346
 20
3.0389753534
 30
0.0
 10
5.3510609098
 20
3.0301952407
 30
0.0
 10
5.395831415
 20
3.0193659014
 30
0.0
 10
5.4298538992
 20
3.0102669279
 30
0.0
 10
5.4543734384
 20
3.003222838
 30
0.0
 10
5.4706948322
 20
2.9983266892
 30
0.0
 10
5.4855690798
 20
2.993679469
 30
0.0
 10
5.4989677018
 20
2.9893321983
 30
0.0
 10
5.5108625632
 20
2.9853367447
 30
0.0
 10
5.5212254365
 20
2.9817449498
 30
0.0
 10
5.5288881839
 20
2.9790149124
 30
0.0
 10
5.5342369213
 20
2.9770735221
 30
0.0
 10
5.5376607646
 20
2.9758175398
 30
0.0
 10
5.5406883402
 20
2.9746959294
 30
0.0
 10
5.543317371
 20
2.9737134177
 30
0.0
 10
5.5455451515
 20
2.9728745656
 30
0.0
 10
5.5471496441
 20
2.9722670794
 30
0.0
 10
5.5482309771
 20
2.971856072
 30
0.0
 10
5.5488901282
 20
2.9716049603
 30
0.0
 10
5.549447893
 20
2.9713920471
 30
0.0
 10
5.5499042256
 20
2.9712174764
 30
0.0
 10
5.5502591539
 20
2.9710815431
 30
0.0
 10
5.5504914687
 20
2.9709922648
 30
0.0
 10
5.5506267025
 20
2.9709405015
 30
0.0
 10
5.550689966
 20
2.9709158768
 30
0.0
 10
5.5507281495
 20
2.9709017286
 30
0.0
 10
5.5507448678
 20
2.9708947348
 30
0.0
 10
5.5507491637
 20
2.9708933102
 30
0.0
  0
SPLINE
  5
254
100
AcDbEntity
  8
0
100
AcDbSpline
 62
7
  6
CONTINUOUS
 70
0
 71
3
 72
23
 73
19
 74
0
 42
0.0000001
 43
0.0000001
 44
0.0000000001
 40
0.0
 40
0.0
 40
0.0
 40
0.0
 40
0.0615541509
 40
0.1234806054
 40
0.185726857
 40
0.248244853
 40
0.3109849809
 40
0.3738949218
 40
0.4369184357
 40
0.4999985027
 40
0.5630784626
 40
0.62610153
 40
0.6890105354
 40
0.7517498276
 40
0.814267367
 40
0.87651452
 40
0.9384447478
 40
1.0
 40
1.0
 40
1.0
 40
1.0
 10
4.4150633477
 20
3.0962975596
 30
0.0
 10
4.4238971791
 20
3.0967754828
 30
0.0
 10
4.4416273383
 20
3.0975707459
 30
0.0
 10
4.4683089772
 20
3.098378814
 30
0.0
 10
4.4951362533
 20
3.0988917354
 30
0.0
 10
4.5220835107
 20
3.0991887178
 30
0.0
 10
4.5491272691
 20
3.0993374219
 30
0.0
 10
4.5762439589
 20
3.0994006931
 30
0.0
 10
4.603409557
 20
3.0994175247
 30
0.0
 10
4.6305995912
 20
3.0994228392
 30
0.0
 10
4.6577895614
 20
3.0994176128
 30
0.0
 10
4.6849549453
 20
3.0994007103
 30
0.0
 10
4.7120713166
 20
3.0993373812
 30
0.0
 10
4.7391147537
 20
3.0991886883
 30
0.0
 10
4.7660619609
 20
3.0988920658
 30
0.0
 10
4.7928898313
 20
3.0983786558
 30
0.0
 10
4.8195723285
 20
3.0975714612
 30
0.0
 10
4.8373031696
 20
3.096775704
 30
0.0
 10
4.8461371578
 20
3.0962977506
 30
0.0
  0
SPLINE
  5
255
100
AcDbEntity
  8
0
100
AcDbSpline
 62
7
  6
CONTINUOUS
 70
0
 71
3
 72
52
 73
48
 74
0
 42
0.0000001
 43
0.0000001
 44
0.0000000001
 40
0.0
 40
0.0
 40
0.0
 40
0.0
 40
0.0000047335
 40
0.0000189178
 40
0.000042553
 40
0.0000756389
 40
0.000170162
 40
0.0003024862
 40
0.0004726102
 40
0.0006805331
 40
0.0009262536
 40
0.0012097709
 40
0.001890191
 40
0.0027217361
 40
0.0037041693
 40
0.0048372129
 40
0.0061205901
 40
0.0075540242
 40
0.0108697367
 40
0.0147796563
 40
0.0192777817
 40
0.0243581783
 40
0.0300159966
 40
0.0362473623
 40
0.0430484778
 40
0.0504147417
 40
0.0583388699
 40
0.075829652
 40
0.0954603773
 40
0.1171734353
 40
0.1409154064
 40
0.1666302129
 40
0.1942533852
 40
0.223726222
 40
0.28799788
 40
0.3589988004
 40
0.4361944912
 40
0.5191144831
 40
0.5625685575
 40
0.6072622836
 40
0.6531079526
 40
0.7000206058
 40
0.7479334121
 40
0.7967969279
 40
0.8465337436
 40
0.8970372526
 40
1.0
 40
1.0
 40
1.0
 40
1.0
 10
3.7104558611
 20
2.9708933102
 30
0.0
 10
3.7104568119
 20
2.9708939269
 30
0.0
 10
3.7104612972
 20
2.9708950482
 30
0.0
 10
3.7104705548
 20
2.9708991993
 30
0.0
 10
3.7104865393
 20
2.9709050208
 30
0.0
 10
3.710520249
 20
2.970918193
 30
0.0
 10
3.7105784007
 20
2.9709404024
 30
0.0
 10
3.7106670907
 20
2.9709745492
 30
0.0
 10
3.7107811797
 20
2.9710183183
 30
0.0
 10
3.7109206127
 20
2.9710718123
 30
0.0
 10
3.7110854164
 20
2.9711349738
 30
0.0
 10
3.7113558789
 20
2.9712385534
 30
0.0
 10
3.7117573895
 20
2.9713921241
 30
0.0
 10
3.7123153085
 20
2.9716051729
 30
0.0
 10
3.7129746446
 20
2.9718564107
 30
0.0
 10
3.7137353009
 20
2.9721455584
 30
0.0
 10
3.7145971729
 20
2.9724723295
 30
0.0
 10
3.7159481499
 20
2.9729831259
 30
0.0
 10
3.717888392
 20
2.9737135323
 30
0.0
 10
3.7205176941
 20
2.9746961811
 30
0.0
 10
3.7235459834
 20
2.9758180917
 30
0.0
 10
3.7269706382
 20
2.9770746889
 30
0.0
 10
3.7307897106
 20
2.9784609784
 30
0.0
 10
3.7350018463
 20
2.9799717451
 30
0.0
 10
3.7396056771
 20
2.981601891
 30
0.0
 10
3.7445990638
 20
2.9833459576
 30
0.0
 10
3.7520203661
 20
2.9859001641
 30
0.0
 10
3.762244098
 20
2.9893343453
 30
0.0
 10
3.775642969
 20
2.9936818316
 30
0.0
 10
3.7905172277
 20
2.9983288375
 30
0.0
 10
3.8068386737
 20
3.0032248949
 30
0.0
 10
3.8245762653
 20
3.0083205988
 30
0.0
 10
3.8436963637
 20
3.0135684087
 30
0.0
 10
3.8718089912
 20
3.0209226905
 30
0.0
 10
3.9101511383
 20
3.0301969136
 30
0.0
 10
3.9598712983
 20
3.0409710997
 30
0.0
 10
4.014212696
 20
3.0514321076
 30
0.0
 10
4.0622742146
 20
3.0595568354
 30
0.0
 10
4.1027649401
 20
3.06572587
 30
0.0
 10
4.1345315014
 20
3.0702108567
 30
0.0
 10
4.16716506
 20
3.0744643624
 30
0.0
 10
4.2006063427
 20
3.0784699069
 30
0.0
 10
4.234805296
 20
3.0822100684
 30
0.0
 10
4.2697139255
 20
3.0856634922
 30
0.0
 10
4.3052739718
 20
3.088814124
 30
0.0
 10
4.3537761013
 20
3.092626766
 30
0.0
 10
4.3904478293
 20
3.0949658685
 30
0.0
 10
4.4150633477
 20
3.0962975596
 30
0.0
  0
SPLINE
  5
256
100
AcDbEntity
  8
0
100
AcDbSpline
 62
7
  6
CONTINUOUS
 70
0
 71
3
 72
33
 73
29
 74
0
 42
0.0000001
 43
0.0000001
 44
0.0000000001
 40
0.0
 40
0.0
 40
0.0
 40
0.0
 40
0.0312494736
 40
0.0624991618
 40
0.0937490512
 40
0.1249990776
 40
0.156249194
 40
0.1874993803
 40
0.2187496253
 40
0.2499999214
 40
0.281250265
 40
0.3125006597
 40
0.3750002236
 40
0.4375000867
 40
0.500000067
 40
0.5624999459
 40
0.6249995685
 40
0.6874988688
 40
0.7187491465
 40
0.7499994096
 40
0.7812496824
 40
0.8124999774
 40
0.8437502809
 40
0.8750005441
 40
0.9062506998
 40
0.937500694
 40
0.9687504826
 40
1.0
 40
1.0
 40
1.0
 40
1.0
 10
5.4147056793
 20
2.9460592432
 30
0.0
 10
5.398814891
 20
2.950455818
 30
0.0
 10
5.3668951125
 20
2.9587557243
 30
0.0
 10
5.3187015464
 20
2.9699141713
 30
0.0
 10
5.2702570233
 20
2.9799258235
 30
0.0
 10
5.2216107812
 20
2.9889026171
 30
0.0
 10
5.1727997825
 20
2.9969333039
 30
0.0
 10
5.1238531506
 20
3.0040889675
 30
0.0
 10
5.0747941739
 20
3.0104272271
 30
0.0
 10
5.0256419693
 20
3.0159950416
 30
0.0
 10
4.9764123767
 20
3.0208308995
 30
0.0
 10
4.9106889898
 20
3.0263440548
 30
0.0
 10
4.8284025983
 20
3.0315493809
 30
0.0
 10
4.7295333202
 20
3.0352440035
 30
0.0
 10
4.6306024756
 20
3.0364669068
 30
0.0
 10
4.5316717556
 20
3.0352440926
 30
0.0
 10
4.4328027992
 20
3.0315494018
 30
0.0
 10
4.3505167354
 20
3.0263440974
 30
0.0
 10
4.2847935899
 20
3.0208309778
 30
0.0
 10
4.2355641088
 20
3.0159951776
 30
0.0
 10
4.1864119296
 20
3.0104273897
 30
0.0
 10
4.1373528737
 20
3.004089152
 30
0.0
 10
4.08840607
 20
2.9969335179
 30
0.0
 10
4.0395948631
 20
2.9889028168
 30
0.0
 10
3.9909484299
 20
2.9799259475
 30
0.0
 10
3.9425037468
 20
2.9699142038
 30
0.0
 10
3.8943100282
 20
2.9587558262
 30
0.0
 10
3.8623902084
 20
2.950455779
 30
0.0
 10
3.8464993854
 20
2.9460592432
 30
0.0
  0
SPLINE
  5
257
100
AcDbEntity
  8
0
100
AcDbSpline
 62
7
  6
CONTINUOUS
 70
0
 71
3
 72
133
 73
129
 74
0
 42
0.0000001
 43
0.0000001
 44
0.0000000001
 40
0.0
 40
0.0
 40
0.0
 40
0.0
 40
0.0000006259
 40
0.0000025032
 40
0.0000056317
 40
0.0000100113
 40
0.000015642
 40
0.0000225238
 40
0.00004004
 40
0.0000625595
 40
0.0000900816
 40
0.0001226059
 40
0.0001601316
 40
0.0002501855
 40
0.0003602387
 40
0.0004902867
 40
0.0006403251
 40
0.0008103492
 40
0.0010003468
 40
0.0012102986
 40
0.0014401848
 40
0.0019596812
 40
0.0025586778
 40
0.0032370142
 40
0.0039944232
 40
0.004830496
 40
0.0057448151
 40
0.0067369637
 40
0.0078065278
 40
0.0101764661
 40
0.0128520133
 40
0.0158305936
 40
0.0191088541
 40
0.0226826828
 40
0.0265479335
 40
0.0307001997
 40
0.0351349742
 40
0.0398479446
 40
0.0500924194
 40
0.0614000629
 40
0.0737343442
 40
0.0870595395
 40
0.1013416996
 40
0.1165465341
 40
0.1326380638
 40
0.1495743206
 40
0.1673160972
 40
0.1858282017
 40
0.2050710522
 40
0.2149537104
 40
0.2250033228
 40
0.2455772003
 40
0.2667415334
 40
0.2884513418
 40
0.299498526
 40
0.3106663048
 40
0.3333340252
 40
0.3563948417
 40
0.3797973136
 40
0.3916105193
 40
0.4034891679
 40
0.4274127097
 40
0.4515094504
 40
0.463605182
 40
0.475723009
 40
0.4999953972
 40
0.5242678123
 40
0.5363856596
 40
0.5484814475
 40
0.5725784191
 40
0.596502221
 40
0.6083809607
 40
0.6201942532
 40
0.643597095
 40
0.6666586855
 40
0.6893275015
 40
0.7115431813
 40
0.7332536814
 40
0.7544185799
 40
0.7749927948
 40
0.7949249659
 40
0.8141678885
 40
0.8326800455
 40
0.8504219077
 40
0.8673584145
 40
0.8834501425
 40
0.8986550865
 40
0.9129374557
 40
0.9262629248
 40
0.938597589
 40
0.949905736
 40
0.9601504742
 40
0.9648636741
 40
0.9692985928
 40
0.9734509466
 40
0.977316388
 40
0.9808904574
 40
0.9841686499
 40
0.9871470443
 40
0.9898227412
 40
0.9921929052
 40
0.9932624919
 40
0.9942545768
 40
0.9951687797
 40
0.9960047235
 40
0.9967620763
 40
0.9974405359
 40
0.9980397998
 40
0.9985595651
 40
0.9987895414
 40
0.9989995441
 40
0.9991895676
 40
0.9993596077
 40
0.9995096599
 40
0.99963972
 40
0.9997497835
 40
0.9998398461
 40
0.9998773757
 40
0.9999099034
 40
0.9999374288
 40
0.9999599511
 40
0.99997747
 40
0.9999843529
 40
0.9999899848
 40
0.9999943655
 40
0.999997495
 40
0.9999993732
 40
1.0
 40
1.0
 40
1.0
 40
1.0
 10
3.7293468327
 20
3.0059519085
 30
0.0
 10
3.7293468924
 20
3.0059522847
 30
0.0
 10
3.7293490583
 20
3.0059521836
 30
0.0
 10
3.729351587
 20
3.005953907
 30
0.0
 10
3.7293573765
 20
3.005955467
 30
0.0
 10
3.7293647422
 20
3.0059582658
 30
0.0
 10
3.7293745093
 20
3.0059616158
 30
0.0
 10
3.7293917176
 20
3.0059676985
 30
0.0
 10
3.7294186782
 20
3.0059771377
 30
0.0
 10
3.7294574615
 20
3.0059907566
 30
0.0
 10
3.7295048783
 20
3.0060073807
 30
0.0
 10
3.729560911
 20
3.0060270214
 30
0.0
 10
3.7296528615
 20
3.0060592322
 30
0.0
 10
3.7297893494
 20
3.0061070067
 30
0.0
 10
3.7299790008
 20
3.0061733209
 30
0.0
 10
3.7302031341
 20
3.0062516118
 30
0.0
 10
3.7304617494
 20
3.0063418542
 30
0.0
 10
3.7307548417
 20
3.0064440227
 30
0.0
 10
3.7310824
 20
3.0065580825
 30
0.0
 10
3.7314444063
 20
3.0066839896
 30
0.0
 10
3.7319958698
 20
3.0068755538
 30
0.0
 10
3.7327711384
 20
3.0071443243
 30
0.0
 10
3.7338045499
 20
3.0075016157
 30
0.0
 10
3.7349751335
 20
3.0079052268
 30
0.0
 10
3.7362825457
 20
3.0083545889
 30
0.0
 10
3.7377263768
 20
3.0088488421
 30
0.0
 10
3.7393061106
 20
3.0093871497
 30
0.0
 10
3.7410212332
 20
3.0099686536
 30
0.0
 10
3.743576662
 20
3.0108303929
 30
0.0
 10
3.7471059951
 20
3.0120099513
 30
0.0
 10
3.7517430186
 20
3.0135400086
 30
0.0
 10
3.7569117934
 20
3.0152223995
 30
0.0
 10
3.7626084251
 20
3.0170490379
 30
0.0
 10
3.7688283378
 20
3.0190106396
 30
0.0
 10
3.7755662199
 20
3.0210978891
 30
0.0
 10
3.7828164039
 20
3.0233015704
 30
0.0
 10
3.7905730397
 20
3.0256124972
 30
0.0
 10
3.8019016996
 20
3.0289174365
 30
0.0
 10
3.8172859341
 20
3.0332536023
 30
0.0
 10
3.8372014537
 20
3.0386035046
 30
0.0
 10
3.8589994307
 20
3.0441655179
 30
0.0
 10
3.8826267823
 20
3.0498713768
 30
0.0
 10
3.9080290684
 20
3.0556597281
 30
0.0
 10
3.9351499172
 20
3.06147309
 30
0.0
 10
3.9639276796
 20
3.0672508613
 30
0.0
 10
3.9942932765
 20
3.0729502892
 30
0.0
 10
4.0261783623
 20
3.078525876
 30
0.0
 10
4.0595163884
 20
3.0839258583
 30
0.0
 10
4.088187143
 20
3.0882156308
 30
0.0
 10
4.111794966
 20
3.0915314787
 30
0.0
 10
4.1362253715
 20
3.0948109524
 30
0.0
 10
4.1674969557
 20
3.0987240502
 30
0.0
 10
4.2058604396
 20
3.1030894553
 30
0.0
 10
4.2385026522
 20
3.1064405004
 30
0.0
 10
4.2651155026
 20
3.1089391102
 30
0.0
 10
4.2923233062
 20
3.1113319089
 30
0.0
 10
4.3268391862
 20
3.114067741
 30
0.0
 10
4.3688092095
 20
3.1169567975
 30
0.0
 10
4.4042136282
 20
3.1190124612
 30
0.0
 10
4.4328367346
 20
3.1204395301
 30
0.0
 10
4.4617840382
 20
3.1217232984
 30
0.0
 10
4.4982111919
 20
3.1230488934
 30
0.0
 10
4.5347818813
 20
3.1240114327
 30
0.0
 10
4.5641754572
 20
3.1245561614
 30
0.0
 10
4.593678414
 20
3.1249444053
 30
0.0
 10
4.6305939534
 20
3.1251367644
 30
0.0
 10
4.6675095066
 20
3.1249444796
 30
0.0
 10
4.697012524
 20
3.1245560009
 30
0.0
 10
4.7264062805
 20
3.1240110038
 30
0.0
 10
4.7629773419
 20
3.1230500745
 30
0.0
 10
4.7994048732
 20
3.1217249149
 30
0.0
 10
4.8283524198
 20
3.1204405983
 30
0.0
 10
4.8569758175
 20
3.1190126684
 30
0.0
 10
4.8923809703
 20
3.1169568863
 30
0.0
 10
4.9343524328
 20
3.114068667
 30
0.0
 10
4.9755716683
 20
3.1108031917
 30
0.0
 10
5.0159316694
 20
3.1071352897
 30
0.0
 10
5.0553355584
 20
3.1030896483
 30
0.0
 10
5.0937001559
 20
3.098725137
 30
0.0
 10
5.1309398327
 20
3.0940663036
 30
0.0
 10
5.1669624954
 20
3.0891217516
 30
0.0
 10
5.2016815585
 20
3.0839269573
 30
0.0
 10
5.235019772
 20
3.0785272155
 30
0.0
 10
5.266905029
 20
3.0729512634
 30
0.0
 10
5.2972710147
 20
3.0672521514
 30
0.0
 10
5.3260491426
 20
3.0614744648
 30
0.0
 10
5.3531702648
 20
3.0556608814
 30
0.0
 10
5.3785729568
 20
3.0498726893
 30
0.0
 10
5.4022008045
 20
3.0441666398
 30
0.0
 10
5.423999512
 20
3.0386046338
 30
0.0
 10
5.4439156816
 20
3.0332544521
 30
0.0
 10
5.4593005376
 20
3.0289182623
 30
0.0
 10
5.4706296293
 20
3.0256134165
 30
0.0
 10
5.4783864653
 20
3.0233021766
 30
0.0
 10
5.4856368137
 20
3.0210981529
 30
0.0
 10
5.4923750121
 20
3.0190108596
 30
0.0
 10
5.4985952403
 20
3.0170495243
 30
0.0
 10
5.5042919968
 20
3.0152233009
 30
0.0
 10
5.5094606972
 20
3.0135408827
 30
0.0
 10
5.5140976159
 20
3.0120101394
 30
0.0
 10
5.5176271312
 20
3.0108303643
 30
0.0
 10
5.520182705
 20
3.0099687033
 30
0.0
 10
5.5218977834
 20
3.0093873671
 30
0.0
 10
5.5234774053
 20
3.0088493142
 30
0.0
 10
5.5249211529
 20
3.0083553838
 30
0.0
 10
5.5262286099
 20
3.0079062678
 30
0.0
 10
5.527399379
 20
3.0075025705
 30
0.0
 10
5.5284330863
 20
3.0071449065
 30
0.0
 10
5.5292086321
 20
3.006875772
 30
0.0
 10
5.5297602907
 20
3.0066840095
 30
0.0
 10
5.53012238
 20
3.0065580318
 30
0.0
 10
5.5304499887
 20
3.0064439455
 30
0.0
 10
5.5307431159
 20
3.0063417736
 30
0.0
 10
5.5310017605
 20
3.0062515381
 30
0.0
 10
5.5312259218
 20
3.0061732607
 30
0.0
 10
5.5314155993
 20
3.0061069637
 30
0.0
 10
5.5315521076
 20
3.0060592052
 30
0.0
 10
5.5316440727
 20
3.0060270064
 30
0.0
 10
5.5317001149
 20
3.0060073734
 30
0.0
 10
5.5317475401
 20
3.0059907556
 30
0.0
 10
5.5317863306
 20
3.0059771416
 30
0.0
 10
5.5318132968
 20
3.0059677049
 30
0.0
 10
5.531830508
 20
3.0059616233
 30
0.0
 10
5.5318402783
 20
3.005958273
 30
0.0
 10
5.5318476432
 20
3.0059554743
 30
0.0
 10
5.5318534403
 20
3.0059539117
 30
0.0
 10
5.5318559594
 20
3.0059521887
 30
0.0
 10
5.5318581375
 20
3.005952286
 30
0.0
 10
5.5318581921
 20
3.0059519085
 30
0.0
  0
SPLINE
  5
258
100
AcDbEntity
  8
0
100
AcDbSpline
 62
7
  6
CONTINUOUS
 70
0
 71
3
 72
21
 73
17
 74
0
 42
0.0000001
 43
0.0000001
 44
0.0000000001
 40
0.0
 40
0.0
 40
0.0
 40
0.0
 40
0.0112164238
 40
0.0228462359
 40
0.0485752051
 40
0.0792354581
 40
0.1159106991
 40
0.1591291313
 40
0.2089799637
 40
0.2653370597
 40
0.3279752655
 40
0.3965881898
 40
0.4707327736
 40
0.6336079357
 40
0.8121131012
 40
1.0
 40
1.0
 40
1.0
 40
1.0
 10
4.8515869848
 20
3.0699486819
 30
0.0
 10
4.8514827461
 20
3.0699545032
 30
0.0
 10
4.8512710849
 20
3.0699876658
 30
0.0
 10
4.8508434528
 20
3.0701414348
 30
0.0
 10
4.8503151742
 20
3.0705087298
 30
0.0
 10
4.8497403243
 20
3.071163406
 30
0.0
 10
4.8491969021
 20
3.0720413481
 30
0.0
 10
4.8486886484
 20
3.0731390604
 30
0.0
 10
4.8482161676
 20
3.0744485947
 30
0.0
 10
4.8477829984
 20
3.0759602834
 30
0.0
 10
4.847392772
 20
3.0776630634
 30
0.0
 10
4.8470492768
 20
3.0795442982
 30
0.0
 10
4.8466437864
 20
3.0823605768
 30
0.0
 10
4.8462838052
 20
3.0862139896
 30
0.0
 10
4.8460821518
 20
3.091137863
 30
0.0
 10
4.8460941697
 20
3.0945494513
 30
0.0
 10
4.8461371216
 20
3.0962977526
 30
0.0
  0
SPLINE
  5
259
100
AcDbEntity
  8
0
100
AcDbSpline
 62
7
  6
CONTINUOUS
 70
0
 71
3
 72
23
 73
19
 74
0
 42
0.0000001
 43
0.0000001
 44
0.0000000001
 40
0.0
 40
0.0
 40
0.0
 40
0.0
 40
0.0621793144
 40
0.1244848798
 40
0.1868986786
 40
0.249405076
 40
0.3119871154
 40
0.374626235
 40
0.4373032866
 40
0.4999990479
 40
0.5626947744
 40
0.6253716495
 40
0.6880105027
 40
0.750592193
 40
0.8130983007
 40
0.8755124241
 40
0.9378202148
 40
1.0
 40
1.0
 40
1.0
 40
1.0
 10
4.4096151889
 20
3.0699485052
 30
0.0
 10
4.4187634687
 20
3.0704594364
 30
0.0
 10
4.4370891654
 20
3.071298014
 30
0.0
 10
4.4646183062
 20
3.0721239474
 30
0.0
 10
4.4922032487
 20
3.0726227608
 30
0.0
 10
4.5198318916
 20
3.0728878026
 30
0.0
 10
4.5474946501
 20
3.0729991901
 30
0.0
 10
4.5751827002
 20
3.0730306778
 30
0.0
 10
4.6028875127
 20
3.0730259128
 30
0.0
 10
4.6306006655
 20
3.073024144
 30
0.0
 10
4.6583137922
 20
3.0730261245
 30
0.0
 10
4.6860185343
 20
3.0730307031
 30
0.0
 10
4.7137064678
 20
3.0729992207
 30
0.0
 10
4.7413690925
 20
3.0728879458
 30
0.0
 10
4.7689976927
 20
3.0726229151
 30
0.0
 10
4.796582948
 20
3.0721233063
 30
0.0
 10
4.824112579
 20
3.0712988049
 30
0.0
 10
4.8424386492
 20
3.0704596126
 30
0.0
 10
4.8515870005
 20
3.0699487171
 30
0.0
  0
SPLINE
  5
25A
100
AcDbEntity
  8
0
100
AcDbSpline
 62
7
  6
CONTINUOUS
 70
0
 71
3
 72
46
 73
42
 74
0
 42
0.0000001
 43
0.0000001
 44
0.0000000001
 40
0.0
 40
0.0
 40
0.0
 40
0.0
 40
0.0000345602
 40
0.0001373159
 40
0.0003067871
 40
0.0005414941
 40
0.000839957
 40
0.0012006958
 40
0.0021030819
 40
0.0032368136
 40
0.0045900518
 40
0.0061508809
 40
0.0079062557
 40
0.011945003
 40
0.0165949082
 40
0.0217445639
 40
0.0272929712
 40
0.0331822729
 40
0.0393657873
 40
0.0524292068
 40
0.0661813614
 40
0.0804662816
 40
0.0951491807
 40
0.110141032
 40
0.1253864377
 40
0.1408322225
 40
0.1721936852
 40
0.2040267396
 40
0.2362028454
 40
0.2686347745
 40
0.3012644373
 40
0.334047423
 40
0.3999559363
 40
0.4661853986
 40
0.5326291283
 40
0.5992187422
 40
0.6659082878
 40
0.7326654723
 40
0.7994676527
 40
0.8662986118
 40
1.0
 40
1.0
 40
1.0
 40
1.0
 10
3.6729587839
 20
2.9277888645
 30
0.0
 10
3.6729569108
 20
2.9277881345
 30
0.0
 10
3.672974205
 20
2.9277914996
 30
0.0
 10
3.6729829393
 20
2.9277914457
 30
0.0
 10
3.6730172531
 20
2.9277963887
 30
0.0
 10
3.673055607
 20
2.9278009053
 30
0.0
 10
3.6731080441
 20
2.927807569
 30
0.0
 10
3.6731977883
 20
2.9278187306
 30
0.0
 10
3.6733363917
 20
2.9278360572
 30
0.0
 10
3.6735319307
 20
2.9278604013
 30
0.0
 10
3.6737656279
 20
2.9278894663
 30
0.0
 10
3.6740351677
 20
2.9279229181
 30
0.0
 10
3.6744597614
 20
2.9279755298
 30
0.0
 10
3.6750626921
 20
2.928050091
 30
0.0
 10
3.6758616005
 20
2.9281487091
 30
0.0
 10
3.6767476824
 20
2.9282579235
 30
0.0
 10
3.677705338
 20
2.9283758001
 30
0.0
 10
3.6787227045
 20
2.9285008437
 30
0.0
 10
3.6801739863
 20
2.9286789396
 30
0.0
 10
3.6820793166
 20
2.9289121439
 30
0.0
 10
3.6844525524
 20
2.9292014598
 30
0.0
 10
3.6869194539
 20
2.929500916
 30
0.0
 10
3.6894581162
 20
2.9298076294
 30
0.0
 10
3.692052429
 20
2.9301195289
 30
0.0
 10
3.6946909861
 20
2.930435186
 30
0.0
 10
3.6982752733
 20
2.9308618101
 30
0.0
 10
3.7028181851
 20
2.9313983675
 30
0.0
 10
3.7083283627
 20
2.9320423959
 30
0.0
 10
3.7139011862
 20
2.9326867887
 30
0.0
 10
3.7195208543
 20
2.9333294357
 30
0.0
 10
3.7251764026
 20
2.9339690006
 30
0.0
 10
3.7327680068
 20
2.9348179177
 30
0.0
 10
3.742303988
 20
2.935866162
 30
0.0
 10
3.7537893889
 20
2.9370997733
 30
0.0
 10
3.7653171807
 20
2.9383093778
 30
0.0
 10
3.7768744874
 20
2.9394938261
 30
0.0
 10
3.7884527195
 20
2.9406526158
 30
0.0
 10
3.8000459277
 20
2.9417856078
 30
0.0
 10
3.8116498829
 20
2.9428928977
 30
0.0
 10
3.8271336211
 20
2.9443354615
 30
0.0
 10
3.8387517801
 20
2.9453793812
 30
0.0
 10
3.8464993846
 20
2.946059243
 30
0.0
  0
SPLINE
  5
25B
100
AcDbEntity
  8
0
100
AcDbSpline
 62
7
  6
CONTINUOUS
 70
0
 71
3
 72
38
 73
34
 74
0
 42
0.0000001
 43
0.0000001
 44
0.0000000001
 40
0.0
 40
0.0
 40
0.0
 40
0.0
 40
0.1337239479
 40
0.267379404
 40
0.3341477462
 40
0.4008481498
 40
0.4674487724
 40
0.5339033523
 40
0.600143113
 40
0.6660613041
 40
0.7314827468
 40
0.7639187354
 40
0.7960976789
 40
0.8279332487
 40
0.8592950687
 40
0.8899811243
 40
0.9049737402
 40
0.9196498994
 40
0.9339267711
 40
0.9476737649
 40
0.9607159802
 40
0.9727749979
 40
0.9783193198
 40
0.98344623
 40
0.9880773469
 40
0.9921119718
 40
0.9954293274
 40
0.996781298
 40
0.99791147
 40
0.9988091225
 40
0.9994635593
 40
0.9998640839
 40
1.0
 40
1.0
 40
1.0
 40
1.0
 10
5.4147056791
 20
2.9460592432
 30
0.0
 10
5.4224545846
 20
2.9453792709
 30
0.0
 10
5.4379456108
 20
2.943987353
 30
0.0
 10
5.4572971546
 20
2.9421630483
 30
0.0
 10
5.4727620232
 20
2.9406516594
 30
0.0
 10
5.4843421552
 20
2.9394926585
 30
0.0
 10
5.4959013405
 20
2.9383079713
 30
0.0
 10
5.5074309863
 20
2.9370982054
 30
0.0
 10
5.5189181487
 20
2.935864291
 30
0.0
 10
5.5303424807
 20
2.9346084848
 30
0.0
 10
5.5398096009
 20
2.9335438867
 30
0.0
 10
5.5473247913
 20
2.9326844003
 30
0.0
 10
5.552898157
 20
2.9320399715
 30
0.0
 10
5.5584086652
 20
2.9313959505
 30
0.0
 10
5.5638321438
 20
2.9307554076
 30
0.0
 10
5.568281998
 20
2.9302244117
 30
0.0
 10
5.5717677175
 20
2.9298053223
 30
0.0
 10
5.5743055693
 20
2.9294987199
 30
0.0
 10
5.5767713174
 20
2.9291994089
 30
0.0
 10
5.5791425607
 20
2.9289103087
 30
0.0
 10
5.5813856175
 20
2.9286358152
 30
0.0
 10
5.5831549541
 20
2.9284184125
 30
0.0
 10
5.584467228
 20
2.9282566052
 30
0.0
 10
5.5853506508
 20
2.9281475139
 30
0.0
 10
5.5861469111
 20
2.9280491352
 30
0.0
 10
5.5868386976
 20
2.9279636139
 30
0.0
 10
5.5873411764
 20
2.927901466
 30
0.0
 10
5.5876759578
 20
2.9278598899
 30
0.0
 10
5.5878710775
 20
2.9278357622
 30
0.0
 10
5.5880258613
 20
2.9278161941
 30
0.0
 10
5.5881386846
 20
2.9278028451
 30
0.0
 10
5.5882072226
 20
2.9277930124
 30
0.0
 10
5.5882383987
 20
2.9277904625
 30
0.0
 10
5.5882461556
 20
2.9277889334
 30
0.0
  0
SPLINE
  5
25C
100
AcDbEntity
  8
0
100
AcDbSpline
 62
7
  6
CONTINUOUS
 70
0
 71
3
 72
21
 73
17
 74
0
 42
0.0000001
 43
0.0000001
 44
0.0000000001
 40
0.0
 40
0.0
 40
0.0
 40
0.0
 40
0.0112140707
 40
0.022841641
 40
0.0485667406
 40
0.0792241114
 40
0.1158973959
 40
0.159114664
 40
0.2089649873
 40
0.2653221243
 40
0.3279608422
 40
0.3965746847
 40
0.4707205331
 40
0.6335990764
 40
0.8121084476
 40
1.0
 40
1.0
 40
1.0
 40
1.0
 10
4.4096151368
 20
3.069948493
 30
0.0
 10
4.4097193512
 20
3.0699543133
 30
0.0
 10
4.4099309647
 20
3.0699874744
 30
0.0
 10
4.4103585024
 20
3.0701412436
 30
0.0
 10
4.4108866577
 20
3.070508545
 30
0.0
 10
4.4114613574
 20
3.0711632166
 30
0.0
 10
4.4120046359
 20
3.0720411528
 30
0.0
 10
4.4125127524
 20
3.0731388595
 30
0.0
 10
4.4129851026
 20
3.0744483898
 30
0.0
 10
4.4134181482
 20
3.0759600759
 30
0.0
 10
4.4138082586
 20
3.0776628544
 30
0.0
 10
4.4141516463
 20
3.0795440887
 30
0.0
 10
4.4145570019
 20
3.0823603718
 30
0.0
 10
4.4149168428
 20
3.0862137888
 30
0.0
 10
4.4151183764
 20
3.0911376655
 30
0.0
 10
4.4151063107
 20
3.094549256
 30
0.0
 10
4.4150633427
 20
3.0962975594
 30
0.0
  0
SPLINE
  5
25D
100
AcDbEntity
  8
0
100
AcDbSpline
 62
7
  6
CONTINUOUS
 70
0
 71
3
 72
79
 73
75
 74
0
 42
0.0000001
 43
0.0000001
 44
0.0000000001
 40
0.0
 40
0.0
 40
0.0
 40
0.0
 40
0.0243257456
 40
0.0364844635
 40
0.04863748
 40
0.0607829256
 40
0.0729190621
 40
0.0971564233
 40
0.1213349299
 40
0.1454397371
 40
0.1694563823
 40
0.1933704244
 40
0.2171674793
 40
0.2408332877
 40
0.2877146962
 40
0.3109027222
 40
0.3339040609
 40
0.3567052638
 40
0.379293033
 40
0.4237759427
 40
0.4672501399
 40
0.5096156656
 40
0.5303527529
 40
0.5507772079
 40
0.5708778044
 40
0.5906435097
 40
0.6291264438
 40
0.6661411634
 40
0.684072574
 40
0.7016066632
 40
0.7354432891
 40
0.7675753753
 40
0.7979308872
 40
0.8264380627
 40
0.8530266804
 40
0.8776279431
 40
0.9001735634
 40
0.9205958819
 40
0.9299898467
 40
0.9388278138
 40
0.9471014934
 40
0.9548025753
 40
0.9619231259
 40
0.9684553432
 40
0.9743915844
 40
0.9797248392
 40
0.9844482057
 40
0.9865792175
 40
0.9885555242
 40
0.9903764352
 40
0.9920412607
 40
0.9935494029
 40
0.9949003694
 40
0.9960936718
 40
0.9971288207
 40
0.9975869343
 40
0.9980053359
 40
0.9983839992
 40
0.9987229015
 40
0.9990220202
 40
0.9992813326
 40
0.9995008158
 40
0.9996804473
 40
0.9997553114
 40
0.9998202041
 40
0.9998751225
 40
0.9999200637
 40
0.9999550249
 40
0.9999687621
 40
0.9999800033
 40
0.999988748
 40
0.9999949959
 40
0.9999987467
 40
1.0
 40
1.0
 40
1.0
 40
1.0
 10
4.630640787
 20
3.1610592432
 30
0.0
 10
4.6378302464
 20
3.1610591419
 30
0.0
 10
4.6486132161
 20
3.1610106953
 30
0.0
 10
4.6629874943
 20
3.1608916822
 30
0.0
 10
4.6737618835
 20
3.1607862486
 30
0.0
 10
4.6845293723
 20
3.1606597459
 30
0.0
 10
4.6988676873
 20
3.1604560974
 30
0.0
 10
4.7167607605
 20
3.1601206593
 30
0.0
 10
4.7381880955
 20
3.1596055811
 30
0.0
 10
4.7595475005
 20
3.1589892829
 30
0.0
 10
4.7808254395
 20
3.1582686231
 30
0.0
 10
4.8020085061
 20
3.1574421074
 30
0.0
 10
4.8230833025
 20
3.1565074018
 30
0.0
 10
4.8509320509
 20
3.155115564
 30
0.0
 10
4.8785890344
 20
3.1535012714
 30
0.0
 10
4.9060356728
 20
3.1516784173
 30
0.0
 10
4.9263737005
 20
3.1502205049
 30
0.0
 10
4.9465271911
 20
3.1486730928
 30
0.0
 10
4.9729995405
 20
3.1464963517
 30
0.0
 10
5.0055367017
 20
3.1435268689
 30
0.0
 10
5.0438490846
 20
3.1395561822
 30
0.0
 10
5.0751433911
 20
3.13596759
 30
0.0
 10
5.0996446206
 20
3.1329489141
 30
0.0
 10
5.1176018387
 20
3.1306318079
 30
0.0
 10
5.135260224
 20
3.1282446001
 30
0.0
 10
5.158187684
 20
3.1249979021
 30
0.0
 10
5.1860274624
 20
3.1207913008
 30
0.0
 10
5.2132777497
 20
3.1163261031
 30
0.0
 10
5.2343824747
 20
3.1126550565
 30
0.0
 10
5.2545385744
 20
3.1090140377
 30
0.0
 10
5.2787829968
 20
3.1043981213
 30
0.0
 10
5.3066786246
 20
3.0987112197
 30
0.0
 10
5.3329547628
 20
3.0929781685
 30
0.0
 10
5.3575547792
 20
3.0872599983
 30
0.0
 10
5.380423382
 20
3.081614456
 30
0.0
 10
5.4015081652
 20
3.0761032329
 30
0.0
 10
5.4207599273
 20
3.0707933138
 30
0.0
 10
5.4356231131
 20
3.066481401
 30
0.0
 10
5.4465631298
 20
3.0631903878
 30
0.0
 10
5.4540505921
 20
3.0608869461
 30
0.0
 10
5.4610467249
 20
3.0586884678
 30
0.0
 10
5.4675466887
 20
3.0566045792
 30
0.0
 10
5.4735457713
 20
3.0546445791
 30
0.0
 10
5.4790394946
 20
3.0528176047
 30
0.0
 10
5.4840237105
 20
3.0511326917
 30
0.0
 10
5.4884944387
 20
3.0495983378
 30
0.0
 10
5.4918965615
 20
3.0484149614
 30
0.0
 10
5.4943591235
 20
3.0475504433
 30
0.0
 10
5.4960112603
 20
3.0469671357
 30
0.0
 10
5.4975325806
 20
3.0464271702
 30
0.0
 10
5.4989227599
 20
3.0459313926
 30
0.0
 10
5.5001814998
 20
3.0454805411
 30
0.0
 10
5.5013085158
 20
3.0450752122
 30
0.0
 10
5.502303562
 20
3.0447160121
 30
0.0
 10
5.5030501249
 20
3.0444456419
 30
0.0
 10
5.5035812357
 20
3.0442529339
 30
0.0
 10
5.5039299189
 20
3.0441262977
 30
0.0
 10
5.5042454499
 20
3.0440115901
 30
0.0
 10
5.5045278162
 20
3.043908839
 30
0.0
 10
5.5047770062
 20
3.0438180715
 30
0.0
 10
5.5049930082
 20
3.0437393144
 30
0.0
 10
5.505175811
 20
3.0436725951
 30
0.0
 10
5.5053073879
 20
3.043624522
 30
0.0
 10
5.505396042
 20
3.0435921037
 30
0.0
 10
5.5054500737
 20
3.0435723328
 30
0.0
 10
5.5054958015
 20
3.0435555951
 30
0.0
 10
5.5055332062
 20
3.0435418805
 30
0.0
 10
5.5055592119
 20
3.0435323705
 30
0.0
 10
5.505575809
 20
3.043526242
 30
0.0
 10
5.5055852355
 20
3.0435228605
 30
0.0
 10
5.5055923311
 20
3.0435200465
 30
0.0
 10
5.5055979414
 20
3.0435184487
 30
0.0
 10
5.5056003391
 20
3.0435167443
 30
0.0
 10
5.5056024744
 20
3.0435168036
 30
0.0
 10
5.5056025124
 20
3.0435164351
 30
0.0
  0
SPLINE
  5
25E
100
AcDbEntity
  8
0
100
AcDbSpline
 62
7
  6
CONTINUOUS
 70
0
 71
3
 72
78
 73
74
 74
0
 42
0.0000001
 43
0.0000001
 44
0.0000000001
 40
0.0
 40
0.0
 40
0.0
 40
0.0
 40
0.0000012494
 40
0.0000049957
 40
0.0000112383
 40
0.0000199772
 40
0.0000312118
 40
0.0000449421
 40
0.0000798878
 40
0.000124812
 40
0.0001797121
 40
0.0002445856
 40
0.00031943
 40
0.0004990218
 40
0.0007184677
 40
0.0009777477
 40
0.0012768421
 40
0.001615729
 40
0.0019943726
 40
0.0024127309
 40
0.0028707617
 40
0.0039056734
 40
0.005098772
 40
0.0064497032
 40
0.0079579338
 40
0.0096228357
 40
0.0114437822
 40
0.0134201489
 40
0.0155512836
 40
0.0202747762
 40
0.0256080009
 40
0.0315445352
 40
0.0380769797
 40
0.0451976535
 40
0.0528987864
 40
0.0611723522
 40
0.0700103165
 40
0.0794043386
 40
0.0998267667
 40
0.1223724709
 40
0.1469739283
 40
0.17356302
 40
0.2020708252
 40
0.2324270054
 40
0.2645599342
 40
0.2983974623
 40
0.3159319781
 40
0.3338638274
 40
0.3708794405
 40
0.4093632313
 40
0.4492300494
 40
0.4903920773
 40
0.5327578629
 40
0.5762312769
 40
0.5983523723
 40
0.6207128269
 40
0.6432998582
 40
0.666100478
 40
0.7122890059
 40
0.7591698784
 40
0.7828353956
 40
0.8066321463
 40
0.8305459062
 40
0.8545622888
 40
0.878666815
 40
0.9028450092
 40
0.9270820734
 40
0.9392180403
 40
0.9513632915
 40
0.9635160971
 40
0.9756746072
 40
0.9878366371
 40
1.0
 40
1.0
 40
1.0
 40
1.0
 10
3.7556025124
 20
3.0435164351
 30
0.0
 10
3.7556025521
 20
3.0435168023
 30
0.0
 10
3.7556046841
 20
3.0435167312
 30
0.0
 10
3.755607081
 20
3.0435184387
 30
0.0
 10
3.7556126879
 20
3.0435200276
 30
0.0
 10
3.7556197802
 20
3.04352284
 30
0.0
 10
3.7556292024
 20
3.0435262178
 30
0.0
 10
3.7556457932
 20
3.0435323437
 30
0.0
 10
3.7556717896
 20
3.0435418519
 30
0.0
 10
3.7557091818
 20
3.0435555671
 30
0.0
 10
3.7557548959
 20
3.0435723074
 30
0.0
 10
3.7558089132
 20
3.043592083
 30
0.0
 10
3.7558975477
 20
3.0436245107
 30
0.0
 10
3.7560291015
 20
3.043672599
 30
0.0
 10
3.7562118805
 20
3.0437393378
 30
0.0
 10
3.7564278669
 20
3.0438181146
 30
0.0
 10
3.7566770522
 20
3.0439088995
 30
0.0
 10
3.7569594233
 20
3.0440116617
 30
0.0
 10
3.7572749641
 20
3.0441263588
 30
0.0
 10
3.7576236536
 20
3.044252945
 30
0.0
 10
3.7581547576
 20
3.0444454993
 30
0.0
 10
3.758901327
 20
3.0447155977
 30
0.0
 10
3.7598964013
 20
3.0450745733
 30
0.0
 10
3.7610234466
 20
3.0454799931
 30
0.0
 10
3.7622822395
 20
3.0459311513
 30
0.0
 10
3.7636725098
 20
3.0464272282
 30
0.0
 10
3.765193952
 20
3.0469674176
 30
0.0
 10
3.7668462548
 20
3.047550902
 30
0.0
 10
3.7693090866
 20
3.0484156055
 30
0.0
 10
3.772711655
 20
3.0495988434
 30
0.0
 10
3.7771830853
 20
3.0511327571
 30
0.0
 10
3.7821678056
 20
3.0528180406
 30
0.0
 10
3.7876620643
 20
3.0546455873
 30
0.0
 10
3.7936617034
 20
3.0566060167
 30
0.0
 10
3.8001622789
 20
3.0586899818
 30
0.0
 10
3.807159092
 20
3.0608883356
 30
0.0
 10
3.8146472223
 20
3.0631918365
 30
0.0
 10
3.8255881649
 20
3.0664833529
 30
0.0
 10
3.840452765
 20
3.0707954426
 30
0.0
 10
3.8597063084
 20
3.0761057929
 30
0.0
 10
3.8807931481
 20
3.0816174496
 30
0.0
 10
3.9036641635
 20
3.0872632739
 30
0.0
 10
3.9282668052
 20
3.0929820665
 30
0.0
 10
3.954545959
 20
3.0987151282
 30
0.0
 10
3.9824447124
 20
3.1044025119
 30
0.0
 10
4.0066918089
 20
3.1090191848
 30
0.0
 10
4.026850265
 20
3.1126600184
 30
0.0
 10
4.0479573734
 20
3.1163311435
 30
0.0
 10
4.075210757
 20
3.1207962106
 30
0.0
 10
4.1089281313
 20
3.1258916455
 30
0.0
 10
4.1439213557
 20
3.1307280369
 30
0.0
 10
4.1801088063
 20
3.1352842964
 30
0.0
 10
4.2174032078
 20
3.1395632309
 30
0.0
 10
4.2491445287
 20
3.1428509031
 30
0.0
 10
4.2750268874
 20
3.1452941052
 30
0.0
 10
4.2947742055
 20
3.1470350414
 30
0.0
 10
4.3147315688
 20
3.148676389
 30
0.0
 10
4.3417197798
 20
3.1507494421
 30
0.0
 10
4.3758871988
 20
3.1531107627
 30
0.0
 10
4.4103333368
 20
3.1551193913
 30
0.0
 10
4.4381842269
 20
3.1565099413
 30
0.0
 10
4.4592606223
 20
3.1574436704
 30
0.0
 10
4.480445292
 20
3.1582694259
 30
0.0
 10
4.501724794
 20
3.1589907872
 30
0.0
 10
4.5230857668
 20
3.1596078139
 30
0.0
 10
4.5445146961
 20
3.1601223275
 30
0.0
 10
4.5624090631
 20
3.1604586146
 30
0.0
 10
4.5767484207
 20
3.1606620584
 30
0.0
 10
4.5875166795
 20
3.160787554
 30
0.0
 10
4.5982918239
 20
3.1608916978
 30
0.0
 10
4.6090720668
 20
3.1609805492
 30
0.0
 10
4.6198556237
 20
3.1610429616
 30
0.0
 10
4.627045603
 20
3.1610592938
 30
0.0
 10
4.630640787
 20
3.1610592432
 30
0.0
  0
SPLINE
  5
25F
100
AcDbEntity
  8
0
100
AcDbSpline
 62
7
  6
CONTINUOUS
 70
0
 71
3
 72
39
 73
35
 74
0
 42
0.0000001
 43
0.0000001
 44
0.0000000001
 40
0.0
 40
0.0
 40
0.0
 40
0.0
 40
0.0203560035
 40
0.0415865026
 40
0.0639787822
 40
0.0877555899
 40
0.1130823667
 40
0.1400655213
 40
0.168774611
 40
0.1992480466
 40
0.2314999174
 40
0.265522628
 40
0.3012657016
 40
0.3386491092
 40
0.3774950529
 40
0.4175868154
 40
0.4585557036
 40
0.5000017921
 40
0.5414479623
 40
0.5824160951
 40
0.6225068547
 40
0.6613520675
 40
0.6987346338
 40
0.7344775322
 40
0.7685003816
 40
0.8007521917
 40
0.8312252852
 40
0.8599340762
 40
0.8869171267
 40
0.9122438614
 40
0.9360207429
 40
0.95841322
 40
0.9796439152
 40
1.0
 40
1.0
 40
1.0
 40
1.0
 10
3.915417047
 20
4.2750592432
 30
0.0
 10
3.9171319048
 20
4.2750592432
 30
0.0
 10
3.9206408044
 20
4.2753637073
 30
0.0
 10
3.9258899279
 20
4.2766661174
 30
0.0
 10
3.9311714731
 20
4.2787959957
 30
0.0
 10
3.9364452438
 20
4.2817337156
 30
0.0
 10
3.9416750232
 20
4.2854601002
 30
0.0
 10
3.9468181579
 20
4.2899628433
 30
0.0
 10
3.9518254641
 20
4.2952311325
 30
0.0
 10
3.9566421242
 20
4.3012535075
 30
0.0
 10
3.9612024467
 20
4.3080191126
 30
0.0
 10
3.9654357787
 20
4.3155085009
 30
0.0
 10
3.9692571952
 20
4.3236963128
 30
0.0
 10
3.9725764772
 20
4.332536045
 30
0.0
 10
3.975298816
 20
4.3419602316
 30
0.0
 10
3.977323199
 20
4.3518674626
 30
0.0
 10
3.978582577
 20
4.3621221144
 30
0.0
 10
3.9790011736
 20
4.3725597055
 30
0.0
 10
3.9785824584
 20
4.3829972215
 30
0.0
 10
3.977323181
 20
4.3932517466
 30
0.0
 10
3.9752986292
 20
4.4031587292
 30
0.0
 10
3.9725764136
 20
4.4125827214
 30
0.0
 10
3.9692571356
 20
4.4214223006
 30
0.0
 10
3.9654357377
 20
4.4296100376
 30
0.0
 10
3.9612024151
 20
4.437099422
 30
0.0
 10
3.9566421056
 20
4.4438650093
 30
0.0
 10
3.9518254788
 20
4.4498873349
 30
0.0
 10
3.9468182175
 20
4.4551555804
 30
0.0
 10
3.9416751113
 20
4.4596582975
 30
0.0
 10
3.9364453615
 20
4.4633847129
 30
0.0
 10
3.9311715751
 20
4.4663224468
 30
0.0
 10
3.9258899942
 20
4.4684523411
 30
0.0
 10
3.9206408345
 20
4.4697547706
 30
0.0
 10
3.9171319117
 20
4.4700592432
 30
0.0
 10
3.915417047
 20
4.4700592432
 30
0.0
  0
SPLINE
  5
260
100
AcDbEntity
  8
0
100
AcDbSpline
 62
7
  6
CONTINUOUS
 70
0
 71
3
 72
39
 73
35
 74
0
 42
0.0000001
 43
0.0000001
 44
0.0000000001
 40
0.0
 40
0.0
 40
0.0
 40
0.0
 40
0.0203560035
 40
0.0415865026
 40
0.0639787822
 40
0.0877555899
 40
0.1130823667
 40
0.1400655213
 40
0.168774611
 40
0.1992480466
 40
0.2314999174
 40
0.265522628
 40
0.3012657016
 40
0.3386491092
 40
0.3774950529
 40
0.4175868154
 40
0.4585557036
 40
0.5000017921
 40
0.5414479623
 40
0.5824160951
 40
0.6225068547
 40
0.6613520675
 40
0.6987346338
 40
0.7344775322
 40
0.7685003816
 40
0.8007521917
 40
0.8312252852
 40
0.8599340762
 40
0.8869171267
 40
0.9122438614
 40
0.9360207429
 40
0.95841322
 40
0.9796439152
 40
1.0
 40
1.0
 40
1.0
 40
1.0
 10
3.915417047
 20
3.8810592432
 30
0.0
 10
3.9171319048
 20
3.8810592432
 30
0.0
 10
3.9206408044
 20
3.8813637073
 30
0.0
 10
3.9258899279
 20
3.8826661174
 30
0.0
 10
3.9311714731
 20
3.8847959957
 30
0.0
 10
3.9364452438
 20
3.8877337156
 30
0.0
 10
3.9416750232
 20
3.8914601002
 30
0.0
 10
3.9468181579
 20
3.8959628433
 30
0.0
 10
3.9518254641
 20
3.9012311325
 30
0.0
 10
3.9566421242
 20
3.9072535075
 30
0.0
 10
3.9612024467
 20
3.9140191126
 30
0.0
 10
3.9654357787
 20
3.9215085009
 30
0.0
 10
3.9692571952
 20
3.9296963128
 30
0.0
 10
3.9725764772
 20
3.938536045
 30
0.0
 10
3.975298816
 20
3.9479602316
 30
0.0
 10
3.977323199
 20
3.9578674626
 30
0.0
 10
3.978582577
 20
3.9681221144
 30
0.0
 10
3.9790011736
 20
3.9785597055
 30
0.0
 10
3.9785824584
 20
3.9889972215
 30
0.0
 10
3.977323181
 20
3.9992517466
 30
0.0
 10
3.9752986292
 20
4.0091587292
 30
0.0
 10
3.9725764136
 20
4.0185827214
 30
0.0
 10
3.9692571356
 20
4.0274223006
 30
0.0
 10
3.9654357377
 20
4.0356100376
 30
0.0
 10
3.9612024151
 20
4.043099422
 30
0.0
 10
3.9566421056
 20
4.0498650093
 30
0.0
 10
3.9518254788
 20
4.0558873349
 30
0.0
 10
3.9468182175
 20
4.0611555804
 30
0.0
 10
3.9416751113
 20
4.0656582975
 30
0.0
 10
3.9364453615
 20
4.0693847129
 30
0.0
 10
3.9311715751
 20
4.0723224468
 30
0.0
 10
3.9258899942
 20
4.0744523411
 30
0.0
 10
3.9206408345
 20
4.0757547706
 30
0.0
 10
3.9171319117
 20
4.0760592432
 30
0.0
 10
3.915417047
 20
4.0760592432
 30
0.0
  0
LINE
  5
261
100
AcDbEntity
  8
0
100
AcDbLine
 62
7
  6
CONTINUOUS
 10
3.9184805129
 20
4.2759964517
 11
3.9222742589
 21
4.2771617798
  0
SPLINE
  5
262
100
AcDbEntity
  8
0
100
AcDbSpline
 62
7
  6
CONTINUOUS
 70
0
 71
3
 72
35
 73
31
 74
0
 42
0.0000001
 43
0.0000001
 44
0.0000000001
 40
0.0
 40
0.0
 40
0.0
 40
0.0
 40
0.0435163907
 40
0.0672057058
 40
0.0922822886
 40
0.118797604
 40
0.1467886983
 40
0.1762676759
 40
0.2072382471
 40
0.2735276079
 40
0.3087810883
 40
0.3452890451
 40
0.3829113205
 40
0.4214401224
 40
0.4605975845
 40
0.5000953228
 40
0.5395912413
 40
0.5787440885
 40
0.6172658578
 40
0.6548777819
 40
0.691373799
 40
0.7266136381
 40
0.7928741052
 40
0.8238296385
 40
0.8532937012
 40
0.881269928
 40
0.9077705414
 40
0.9328327796
 40
0.9565083155
 40
1.0
 40
1.0
 40
1.0
 40
1.0
 10
3.9222742589
 20
4.2771617798
 30
0.0
 10
3.9253747493
 20
4.278297183
 30
0.0
 10
3.9299519899
 20
4.2806609165
 30
0.0
 10
3.9356597372
 20
4.2847231486
 30
0.0
 10
3.9400099281
 20
4.2884375759
 30
0.0
 10
3.944271112
 20
4.2927242045
 30
0.0
 10
3.9484128306
 20
4.297574787
 30
0.0
 10
3.9523964573
 20
4.3029821018
 30
0.0
 10
3.9575564545
 20
4.3111038905
 30
0.0
 10
3.9620703159
 20
4.3201276737
 30
0.0
 10
3.9658365993
 20
4.3299073847
 30
0.0
 10
3.968308641
 20
4.3378371075
 30
0.0
 10
3.9703057711
 20
4.3461550426
 30
0.0
 10
3.9717782794
 20
4.3547859892
 30
0.0
 10
3.9726830239
 20
4.3636382247
 30
0.0
 10
3.9729806687
 20
4.372604991
 30
0.0
 10
3.972676935
 20
4.3815712116
 30
0.0
 10
3.9717659365
 20
4.3904217735
 30
0.0
 10
3.9702880045
 20
4.3990500943
 30
0.0
 10
3.9682856623
 20
4.407364489
 30
0.0
 10
3.9658091235
 20
4.4152899466
 30
0.0
 10
3.96203777
 20
4.425063271
 30
0.0
 10
3.9575198176
 20
4.4340801104
 30
0.0
 10
3.9523566086
 20
4.4421945687
 30
0.0
 10
3.9483710995
 20
4.4475962731
 30
0.0
 10
3.9442279156
 20
4.452441168
 30
0.0
 10
3.9399656311
 20
4.4567220092
 30
0.0
 10
3.9356146686
 20
4.4604305409
 30
0.0
 10
3.92990631
 20
4.4644850041
 30
0.0
 10
3.9253289871
 20
4.4668423827
 30
0.0
 10
3.9222288563
 20
4.467973309
 30
0.0
  0
SPLINE
  5
263
100
AcDbEntity
  8
0
100
AcDbSpline
 62
7
  6
CONTINUOUS
 70
0
 71
3
 72
9
 73
5
 74
0
 42
0.0000001
 43
0.0000001
 44
0.0000000001
 40
0.0
 40
0.0
 40
0.0
 40
0.0
 40
0.5093064316
 40
1.0
 40
1.0
 40
1.0
 40
1.0
 10
3.9222288563
 20
4.467973309
 30
0.0
 10
3.9209932159
 20
4.46842407
 30
0.0
 10
3.9185203088
 20
4.4691872394
 30
0.0
 10
3.915976005
 20
4.4696678959
 30
0.0
 10
3.9147186754
 20
4.4698259417
 30
0.0
  0
LINE
  5
264
100
AcDbEntity
  8
0
100
AcDbLine
 62
7
  6
CONTINUOUS
 10
3.9184805129
 20
3.8819964517
 11
3.9222742589
 21
3.8831617798
  0
SPLINE
  5
265
100
AcDbEntity
  8
0
100
AcDbSpline
 62
7
  6
CONTINUOUS
 70
0
 71
3
 72
35
 73
31
 74
0
 42
0.0000001
 43
0.0000001
 44
0.0000000001
 40
0.0
 40
0.0
 40
0.0
 40
0.0
 40
0.0435163907
 40
0.0672057058
 40
0.0922822886
 40
0.118797604
 40
0.1467886983
 40
0.1762676759
 40
0.2072382471
 40
0.2735276079
 40
0.3087810883
 40
0.3452890451
 40
0.3829113205
 40
0.4214401224
 40
0.4605975845
 40
0.5000953228
 40
0.5395912413
 40
0.5787440885
 40
0.6172658578
 40
0.6548777819
 40
0.691373799
 40
0.7266136381
 40
0.7928741052
 40
0.8238296385
 40
0.8532937012
 40
0.881269928
 40
0.9077705414
 40
0.9328327796
 40
0.9565083155
 40
1.0
 40
1.0
 40
1.0
 40
1.0
 10
3.9222742589
 20
3.8831617798
 30
0.0
 10
3.9253747493
 20
3.884297183
 30
0.0
 10
3.9299519899
 20
3.8866609165
 30
0.0
 10
3.9356597372
 20
3.8907231486
 30
0.0
 10
3.9400099281
 20
3.8944375759
 30
0.0
 10
3.944271112
 20
3.8987242045
 30
0.0
 10
3.9484128306
 20
3.903574787
 30
0.0
 10
3.9523964573
 20
3.9089821018
 30
0.0
 10
3.9575564545
 20
3.9171038905
 30
0.0
 10
3.9620703159
 20
3.9261276737
 30
0.0
 10
3.9658365993
 20
3.9359073847
 30
0.0
 10
3.968308641
 20
3.9438371075
 30
0.0
 10
3.9703057711
 20
3.9521550426
 30
0.0
 10
3.9717782794
 20
3.9607859892
 30
0.0
 10
3.9726830239
 20
3.9696382247
 30
0.0
 10
3.9729806687
 20
3.978604991
 30
0.0
 10
3.972676935
 20
3.9875712116
 30
0.0
 10
3.9717659365
 20
3.9964217735
 30
0.0
 10
3.9702880045
 20
4.0050500943
 30
0.0
 10
3.9682856623
 20
4.013364489
 30
0.0
 10
3.9658091235
 20
4.0212899466
 30
0.0
 10
3.96203777
 20
4.031063271
 30
0.0
 10
3.9575198176
 20
4.0400801104
 30
0.0
 10
3.9523566086
 20
4.0481945687
 30
0.0
 10
3.9483710995
 20
4.0535962731
 30
0.0
 10
3.9442279156
 20
4.058441168
 30
0.0
 10
3.9399656311
 20
4.0627220092
 30
0.0
 10
3.9356146686
 20
4.0664305409
 30
0.0
 10
3.92990631
 20
4.0704850041
 30
0.0
 10
3.9253289871
 20
4.0728423827
 30
0.0
 10
3.9222288563
 20
4.073973309
 30
0.0
  0
SPLINE
  5
266
100
AcDbEntity
  8
0
100
AcDbSpline
 62
7
  6
CONTINUOUS
 70
0
 71
3
 72
9
 73
5
 74
0
 42
0.0000001
 43
0.0000001
 44
0.0000000001
 40
0.0
 40
0.0
 40
0.0
 40
0.0
 40
0.5093064316
 40
1.0
 40
1.0
 40
1.0
 40
1.0
 10
3.9222288563
 20
4.073973309
 30
0.0
 10
3.9209932159
 20
4.07442407
 30
0.0
 10
3.9185203088
 20
4.0751872394
 30
0.0
 10
3.915976005
 20
4.0756678959
 30
0.0
 10
3.9147186754
 20
4.0758259417
 30
0.0
  0
ENDSEC
  0
SECTION
  2
OBJECTS
  0
DICTIONARY
  5
C
100
AcDbDictionary
280
0
281
1
  3
ACAD_GROUP
350
D
  3
ACAD_MLINESTYLE
350
17
  3
ACAD_LAYOUT
350
1A
  3
ACAD_PLOTSETTINGS
350
19
  3
ACAD_PLOTSTYLENAME
350
E
  0
DICTIONARY
  5
D
102
{ACAD_REACTORS
330
C
102
}
100
AcDbDictionary
280
0
281
1
  0
ACDBDICTIONARYWDFLT
  5
E
102
{ACAD_REACTORS
330
C
102
}
100
AcDbDictionary
281
1
  3
Normal
350
F
100
AcDbDictionaryWithDefault
340
F
  0
DICTIONARY
  5
17
102
{ACAD_REACTORS
330
C
102
}
100
AcDbDictionary
280
0
281
1
  3
Standard
350
18
  0
DICTIONARY
  5
19
102
{ACAD_REACTORS
330
C
102
}
100
AcDbDictionary
281
1
  0
DICTIONARY
  5
1A
102
{ACAD_REACTORS
330
C
102
}
100
AcDbDictionary
281
1
  3
Model
350
267
  3
Layout1
350
268
  0
ACDBPLACEHOLDER
  5
F
102
{ACAD_REACTORS
330
E
102
}
  0
MLINESTYLE
  5
18
102
{ACAD_REACTORS
330
17
102
}
100
AcDbMlineStyle
  2
STANDARD
 70
0
  3

 62
256
 51
90.0
 52
90.0
 71
2
 49
0.5
 62
256
  6
BYLAYER
 49
-0.5
 62
256
  6
BYLAYER
  0
LAYOUT
  5
267
102
{ACAD_REACTORS
330
1A
102
}
100
AcDbPlotSettings
  1

  2
none_device
  4
ANSI_A_(11.00_x_8.50_Inches)
  6

 40
0.0
 41
0.0
 42
0.0
 43
0.0
 44
279.4
 45
215.9
 46
0.0
 47
0.0
 48
0.0
 49
0.0
140
0.0
141
0.0
142
1.0
143
1.0
 70
1024
 72
0
 73
0
 74
0
  7

 75
0
147
1.0
148
0.0
149
0.0
100
AcDbLayout
  1
Model
 70
0
 71
0
 10
0.0
 20
0.0
 11
11.0
 21
8.5
 12
0.0
 22
0.0
 32
0.0
 14
0.0
 24
0.0
 34
0.0
 15
0.0
 25
0.0
 35
0.0
146
0.0
 13
0.0
 23
0.0
 33
0.0
 16
1.0
 26
0.0
 36
0.0
 17
0.0
 27
1.0
 37
0.0
 76
0
330
209
345
0
346
0
  0
LAYOUT
  5
268
102
{ACAD_REACTORS
330
1A
102
}
100
AcDbPlotSettings
  1

  2
none_device
  4
ANSI_A_(11.00_x_8.50_Inches)
  6

 40
0.0
 41
0.0
 42
0.0
 43
0.0
 44
279.4
 45
215.9
 46
0.0
 47
0.0
 48
0.0
 49
0.0
140
0.0
141
0.0
142
1.0
143
1.0
 70
0
 72
0
 73
0
 74
0
  7

 75
0
147
1.0
148
0.0
149
0.0
100
AcDbLayout
  1
Layout1
 70
0
 71
1
 10
0.0
 20
0.0
 11
11.0
 21
8.5
 12
0.0
 22
0.0
 32
0.0
 14
0.0
 24
0.0
 34
0.0
 15
0.0
 25
0.0
 35
0.0
146
0.0
 13
0.0
 23
0.0
 33
0.0
 16
1.0
 26
0.0
 36
0.0
 17
0.0
 27
1.0
 37
0.0
 76
0
330
20A
345
0
346
0
  0
ENDSEC
  0
EOF
