999
DXF file: 3170-5811_top.dxf
999
Pro/ENGINEER 2018400 by Parametric Technology Corporation
  0
SECTION
  2
HEADER
  9
$ACADVER
  1
AC1027
  9
$DWGCODEPAGE
  3
ANSI_1252
  9
$EXTMAX
 10
11.0
 20
8.5
 30
0.0
  9
$EXTMIN
 10
0.0
 20
0.0
 30
0.0
  9
$LIMMIN
 10
0.0
 20
0.0
  9
$LIMMAX
 10
11.0
 20
8.5
  9
$VIEWCTR
 10
5.5
 20
4.25
  9
$VIEWSIZE
 40
8.5
  9
$CLAYER
  8
0
  9
$LTSCALE
 40
0.605
  9
$CELTYPE
  6
BYLAYER
  9
$DIMSCALE
 40
1.0
  9
$DIMASZ
 40
0.1
  9
$DIMEXO
 40
0.0625
  9
$DIMDLI
 40
0.418
  9
$DIMEXE
 40
0.125
  9
$DIMCEN
 40
0.099
  9
$DIMLFAC
 40
1.0
  9
$DIMBLK
  1
_FILLED
  9
$DIMALT
 70
1
  9
$DIMALTD
 70
1
  9
$DIMALTTD
 70
2
  9
$DIMALTF
 40
25.4
  9
$DIMTXT
 40
0.08
  9
$DIMTOL
 70
1
  9
$DIMLIM
 70
0
  9
$DIMTFAC
 40
1.0
  9
$DIMTP
 40
0.01
  9
$DIMTM
 40
0.01
  9
$DIMGAP
 40
0.09
  9
$DIMDSEP
 70
46
  9
$AUNITS
 70
0
  9
$PDMODE
 70
3
  9
$PDSIZE
 40
0.3125
  9
$HANDSEED
  5
29E
  9
$TILEMODE
 70
1
  9
$MEASUREMENT
 70
0
  9
$INSUNITS
 70
1
  0
ENDSEC
  0
SECTION
  2
CLASSES
  0
CLASS
  1
ACDBDICTIONARYWDFLT
  2
AcDbDictionaryWithDefault
  3
AutoCAD 2000
 90
0
 91
1
280
0
281
0
  0
CLASS
  1
ACDBPLACEHOLDER
  2
AcDbPlaceHolder
  3
AutoCAD 2000
 90
0
 91
1
280
0
281
0
  0
CLASS
  1
LAYOUT
  2
AcDbLayout
  3
AutoCAD 2000
 90
0
 91
0
280
0
281
0
  0
ENDSEC
  0
SECTION
  2
TABLES
  0
TABLE
  2
VPORT
  5
8
100
AcDbSymbolTable
 70
2
  0
VPORT
  5
1F4
100
AcDbSymbolTableRecord
100
AcDbViewportTableRecord
  2
*ACTIVE
 70
0
 10
0.0
 20
0.0
 11
1.0
 21
1.0
 12
5.5
 22
4.25
 13
0.0
 23
0.0
 14
1.0
 24
1.0
 15
0.0
 25
0.0
 16
0.0
 26
0.0
 36
1.0
 17
0.0
 27
0.0
 37
0.0
 40
8.5
 41
1.2941176471
 42
50.0
 43
0.0
 44
0.0
 50
0.0
 51
0.0
 71
0
 72
100
 73
1
 74
1
 75
0
 76
0
 77
0
 78
0
  0
ENDTAB
  0
TABLE
  2
LTYPE
  5
5
100
AcDbSymbolTable
 70
6
  0
LTYPE
  5
14
100
AcDbSymbolTableRecord
100
AcDbLinetypeTableRecord
  2
BYBLOCK
 70
0
  3

 72
65
 73
0
 40
0.0
  0
LTYPE
  5
15
100
AcDbSymbolTableRecord
100
AcDbLinetypeTableRecord
  2
BYLAYER
 70
0
  3

 72
65
 73
0
 40
0.0
  0
LTYPE
  5
16
100
AcDbSymbolTableRecord
100
AcDbLinetypeTableRecord
  2
CONTINUOUS
 70
64
  3
Solid line
 72
65
 73
0
 40
0.0
  0
LTYPE
  5
1F5
100
AcDbSymbolTableRecord
100
AcDbLinetypeTableRecord
  2
CENTER
 70
64
  3
____ _ ____ _ ____ _ ____ _ ____ _ ____ _ ____
 72
65
 73
4
 40
0.6
 49
0.375
 74
0
 49
-0.075
 74
0
 49
0.075
 74
0
 49
-0.075
 74
0
  0
LTYPE
  5
1F6
100
AcDbSymbolTableRecord
100
AcDbLinetypeTableRecord
  2
HIDDEN
 70
64
  3
- - - - - - - - - - - - - - - - - - - -
 72
65
 73
2
 40
0.2
 49
0.1
 74
0
 49
-0.1
 74
0
  0
LTYPE
  5
1F7
100
AcDbSymbolTableRecord
100
AcDbLinetypeTableRecord
  2
PHANTOM
 70
64
  3
_____ _ _ _____ _ _ _____ _ _ _____
 72
65
 73
6
 40
0.8
 49
0.45
 74
0
 49
-0.05
 74
0
 49
0.1
 74
0
 49
-0.05
 74
0
 49
0.1
 74
0
 49
-0.05
 74
0
  0
LTYPE
  5
1F8
100
AcDbSymbolTableRecord
100
AcDbLinetypeTableRecord
  2
DOT
 70
64
  3
. . . . . . . . . . . . . . . . . . . .
 72
65
 73
2
 40
0.2
 49
0.1
 74
0
 49
-0.1
 74
0
  0
LTYPE
  5
1F9
100
AcDbSymbolTableRecord
100
AcDbLinetypeTableRecord
  2
DASHED
 70
64
  3
- - - - - - - - - - - - - - - - - - - -
 72
65
 73
2
 40
0.2
 49
0.1
 74
0
 49
-0.1
 74
0
  0
ENDTAB
  0
TABLE
  2
LAYER
  5
2
100
AcDbSymbolTable
 70
36
  0
LAYER
  5
10
100
AcDbSymbolTableRecord
100
AcDbLayerTableRecord
  2
0
 70
0
 62
7
  6
CONTINUOUS
370
-3
390
F
  0
LAYER
  5
1FA
100
AcDbSymbolTableRecord
100
AcDbLayerTableRecord
  2
DEFAULT_1
 70
0
 62
7
  6
CENTER
370
-3
390
F
  0
LAYER
  5
1FB
100
AcDbSymbolTableRecord
100
AcDbLayerTableRecord
  2
DEFAULT_2
 70
0
 62
8
  6
HIDDEN
370
-3
390
F
  0
LAYER
  5
1FC
100
AcDbSymbolTableRecord
100
AcDbLayerTableRecord
  2
DEFAULT_3
 70
0
 62
7
  6
PHANTOM
370
-3
390
F
  0
LAYER
  5
1FD
100
AcDbSymbolTableRecord
100
AcDbLayerTableRecord
  2
DEFAULT_COORDINATE_SYSTEM
 70
0
 62
7
  6
CONTINUOUS
370
-3
390
F
  0
LAYER
  5
1FE
100
AcDbSymbolTableRecord
100
AcDbLayerTableRecord
  2
DEFAULT_DATUM_AXES
 70
0
 62
7
  6
CONTINUOUS
370
-3
390
F
  0
LAYER
  5
1FF
100
AcDbSymbolTableRecord
100
AcDbLayerTableRecord
  2
DEFAULT_DATUM_PLANES
 70
0
 62
7
  6
CONTINUOUS
370
-3
390
F
  0
ENDTAB
  0
TABLE
  2
STYLE
  5
3
100
AcDbSymbolTable
 70
1
  0
STYLE
  5
11
100
AcDbSymbolTableRecord
100
AcDbTextStyleTableRecord
  2
STANDARD
 70
0
 40
0.0
 41
0.8
 50
0.0
 71
0
 42
0.2
  3
txt
  4

  0
STYLE
  5
200
100
AcDbSymbolTableRecord
100
AcDbTextStyleTableRecord
  2
TEXTSTYLE_1
 70
0
 40
0.0
 41
0.8
 50
0.0
 71
0
 42
0.2
  3
gdt
  4

  0
ENDTAB
  0
TABLE
  2
VIEW
  5
6
100
AcDbSymbolTable
 70
0
  0
ENDTAB
  0
TABLE
  2
UCS
  5
7
100
AcDbSymbolTable
 70
0
  0
ENDTAB
  0
TABLE
  2
APPID
  5
9
100
AcDbSymbolTable
 70
1
  0
APPID
  5
201
100
AcDbSymbolTableRecord
100
AcDbRegAppTableRecord
  2
ACAD
 70
0
  0
ENDTAB
  0
TABLE
  2
BLOCK_RECORD
  5
1
100
AcDbSymbolTable
 70
0
  0
BLOCK_RECORD
  5
202
100
AcDbSymbolTableRecord
100
AcDbBlockTableRecord
  2
*Model_Space
  0
BLOCK_RECORD
  5
203
100
AcDbSymbolTableRecord
100
AcDbBlockTableRecord
  2
*Paper_Space
  0
BLOCK_RECORD
  5
204
100
AcDbSymbolTableRecord
100
AcDbBlockTableRecord
  2
_FILLED
  0
ENDTAB
  0
TABLE
  2
DIMSTYLE
  5
A
100
AcDbSymbolTable
 70
1
100
AcDbDimStyleTable
 71
0
  0
DIMSTYLE
105
205
100
AcDbSymbolTableRecord
100
AcDbDimStyleTableRecord
  2
STANDARD
 70
0
  3

  4

 40
1.0
 41
0.1
 42
0.0625
 43
0.38
 44
0.125
 45
0.0
 46
0.0
 47
0.01
 48
0.01
140
0.08
141
0.09
142
0.0
143
25.4
144
1.0
145
0.0
146
1.0
147
0.09
 71
1.0
 72
0.0
 73
1
 74
1
 75
0
 76
0
 77
0
 78
4
 79
1
170
1
171
1
172
0
173
0
174
0
175
0
176
0
177
0
178
0
270
2
179
2
271
2
272
2
273
2
274
2
275
0
280
0
281
0
282
0
283
1
284
4
285
0
286
0
287
3
288
0
340
11
278
46
341
204
342
204
343
204
344
204
  0
ENDTAB
  0
ENDSEC
  0
SECTION
  2
BLOCKS
  0
BLOCK
  5
20
100
AcDbEntity
  8
0
100
AcDbBlockBegin
  2
*Model_Space
 70
0
 10
0.0
 20
0.0
 30
0.0
  3
*Model_Space
  1

  0
ENDBLK
  5
21
100
AcDbEntity
  8
0
100
AcDbBlockEnd
  0
BLOCK
  5
1C
100
AcDbEntity
  8
0
100
AcDbBlockBegin
  2
*Paper_Space
 70
0
 10
0.0
 20
0.0
 30
0.0
  3
*Paper_Space
  1

  0
ENDBLK
  5
1D
100
AcDbEntity
  8
0
100
AcDbBlockEnd
  0
BLOCK
  5
206
100
AcDbEntity
  8
0
100
AcDbBlockBegin
  2
_FILLED
 70
64
 10
0.0
 20
0.0
  3
_FILLED
  1

  0
SOLID
  5
207
100
AcDbEntity
  8
0
  6
BYBLOCK
 62
0
100
AcDbTrace
 10
0.0
 20
0.0
 11
-1.0
 21
0.2
 12
-1.0
 22
-0.2
 13
-1.0
 23
-0.2
  0
ENDBLK
  5
208
100
AcDbEntity
  8
0
  6
BYBLOCK
 62
0
100
AcDbBlockEnd
  0
ENDSEC
  0
SECTION
  2
ENTITIES
  0
MTEXT
  5
209
100
AcDbEntity
  8
0
100
AcDbMText
 62
2
  6
CONTINUOUS
  7
STANDARD
 71
3
 72
1
 10
4.9004658385
 20
4.028738354
 30
0.0
 11
1.0
 21
0.0
 31
0.0
 73
2
 44
0.9
  1
SCALE  .500
 40
0.08
 41
0.704
  0
LINE
  5
20A
100
AcDbEntity
  8
0
100
AcDbLine
 62
7
  6
CONTINUOUS
 10
0.0
 20
0.0
 11
0.0
 21
8.5
  0
LINE
  5
20B
100
AcDbEntity
  8
0
100
AcDbLine
 62
7
  6
CONTINUOUS
 10
0.0
 20
0.0
 11
11.0
 21
0.0
  0
LINE
  5
20C
100
AcDbEntity
  8
0
100
AcDbLine
 62
7
  6
CONTINUOUS
 10
0.0
 20
8.5
 11
11.0
 21
8.5
  0
LINE
  5
20D
100
AcDbEntity
  8
0
100
AcDbLine
 62
7
  6
CONTINUOUS
 10
11.0
 20
0.0
 11
11.0
 21
8.5
  0
LINE
  5
20E
100
AcDbEntity
  8
0
100
AcDbLine
 62
7
  6
CONTINUOUS
 10
2.8459658385
 20
4.591238354
 11
2.8459658385
 21
4.681238354
  0
LINE
  5
20F
100
AcDbEntity
  8
0
100
AcDbLine
 62
7
  6
CONTINUOUS
 10
2.9009658385
 20
4.526238354
 11
2.9009658385
 21
4.495238354
  0
LINE
  5
210
100
AcDbEntity
  8
0
100
AcDbLine
 62
7
  6
CONTINUOUS
 10
2.9009658385
 20
4.746238354
 11
2.9009658385
 21
4.777238354
  0
LINE
  5
211
100
AcDbEntity
  8
0
100
AcDbLine
 62
7
  6
CONTINUOUS
 10
2.9309658385
 20
4.746238354
 11
2.9309658385
 21
4.777238354
  0
LINE
  5
212
100
AcDbEntity
  8
0
100
AcDbLine
 62
7
  6
CONTINUOUS
 10
2.9481408414
 20
4.495238354
 11
2.9481408414
 21
4.526238354
  0
LINE
  5
213
100
AcDbEntity
  8
0
100
AcDbLine
 62
7
  6
CONTINUOUS
 10
3.2209658385
 20
4.201238354
 11
3.2209658385
 21
5.071238354
  0
LINE
  5
214
100
AcDbEntity
  8
0
100
AcDbLine
 62
7
  6
CONTINUOUS
 10
3.2834658385
 20
4.138738354
 11
3.2834658385
 21
5.133738354
  0
LINE
  5
215
100
AcDbEntity
  8
0
100
AcDbLine
 62
7
  6
CONTINUOUS
 10
3.2209658385
 20
5.071238354
 11
3.2834658385
 21
5.133738354
  0
LINE
  5
216
100
AcDbEntity
  8
0
100
AcDbLine
 62
7
  6
CONTINUOUS
 10
3.2209658385
 20
4.201238354
 11
3.2834658385
 21
4.138738354
  0
LINE
  5
217
100
AcDbEntity
  8
0
100
AcDbLine
 62
7
  6
CONTINUOUS
 10
3.9929658385
 20
5.133738354
 11
3.9929658385
 21
4.698738354
  0
LINE
  5
218
100
AcDbEntity
  8
0
100
AcDbLine
 62
7
  6
CONTINUOUS
 10
3.9929658385
 20
4.573738354
 11
3.9929658385
 21
4.138738354
  0
LINE
  5
219
100
AcDbEntity
  8
0
100
AcDbLine
 62
7
  6
CONTINUOUS
 10
4.0709658385
 20
5.055738354
 11
4.0709658385
 21
4.698738354
  0
LINE
  5
21A
100
AcDbEntity
  8
0
100
AcDbLine
 62
7
  6
CONTINUOUS
 10
4.0709658385
 20
4.573738354
 11
4.0709658385
 21
4.216738354
  0
LINE
  5
21B
100
AcDbEntity
  8
0
100
AcDbLine
 62
7
  6
CONTINUOUS
 10
4.0759658385
 20
4.9550511236
 11
4.0759658385
 21
4.86958589
  0
LINE
  5
21C
100
AcDbEntity
  8
0
100
AcDbLine
 62
7
  6
CONTINUOUS
 10
4.0759658385
 20
4.8520545266
 11
4.0759658385
 21
4.8389060291
  0
LINE
  5
21D
100
AcDbEntity
  8
0
100
AcDbLine
 62
7
  6
CONTINUOUS
 10
4.0759658385
 20
4.8262958978
 11
4.0759658385
 21
4.698738354
  0
LINE
  5
21E
100
AcDbEntity
  8
0
100
AcDbLine
 62
7
  6
CONTINUOUS
 10
4.0759658385
 20
4.573738354
 11
4.0759658385
 21
4.4378768745
  0
LINE
  5
21F
100
AcDbEntity
  8
0
100
AcDbLine
 62
7
  6
CONTINUOUS
 10
4.0759658385
 20
4.4203455424
 11
4.0759658385
 21
4.3414545575
  0
LINE
  5
220
100
AcDbEntity
  8
0
100
AcDbLine
 62
7
  6
CONTINUOUS
 10
4.4874658385
 20
4.698738354
 11
4.4874658385
 21
4.573738354
  0
LWPOLYLINE
  5
221
100
AcDbEntity
  8
0
100
AcDbPolyline
 62
7
  6
CONTINUOUS
 90
32
 70
0
 10
6.4874658385
 20
4.1757646343
 10
6.4975024201
 20
4.1758762054
 10
6.5088070004
 20
4.1762695189
 10
6.5201440376
 20
4.1769498144
 10
6.5315063245
 20
4.1779204796
 10
6.5428877237
 20
4.1791847755
 10
6.5542787459
 20
4.1807443091
 10
6.5656638218
 20
4.1825987879
 10
6.5770280471
 20
4.1847478806
 10
6.5883590794
 20
4.187191743
 10
6.5996500252
 20
4.1899318305
 10
6.6108922794
 20
4.19296859
 10
6.6220712937
 20
4.19629973
 10
6.6331837663
 20
4.1999252529
 10
6.644229046
 20
4.2038459018
 10
6.6551929243
 20
4.2080581254
 10
6.6660635147
 20
4.2125592095
 10
6.6768351632
 20
4.2173487313
 10
6.6875001513
 20
4.222425374
 10
6.6980499443
 20
4.2277869858
 10
6.7084739881
 20
4.2334289272
 10
6.7187620067
 20
4.2393461741
 10
6.7289031417
 20
4.2455331955
 10
6.7388877011
 20
4.251984944
 10
6.7487080197
 20
4.2586974416
 10
6.758351095
 20
4.2656623215
 10
6.7678140998
 20
4.2728780866
 10
6.7771052143
 20
4.2803528774
 10
6.7862157434
 20
4.2880826546
 10
6.795136157
 20
4.2960602892
 10
6.8038683426
 20
4.3042862715
 10
6.8126023194
 20
4.3129558106
  0
LINE
  5
222
100
AcDbEntity
  8
0
100
AcDbLine
 62
7
  6
CONTINUOUS
 10
5.9949658385
 20
4.123738354
 11
6.9799658385
 21
4.123738354
  0
LINE
  5
223
100
AcDbEntity
  8
0
100
AcDbLine
 62
7
  6
CONTINUOUS
 10
3.2834658385
 20
4.138738354
 11
3.9929658385
 21
4.138738354
  0
LINE
  5
224
100
AcDbEntity
  8
0
100
AcDbLine
 62
7
  6
CONTINUOUS
 10
5.9749658385
 20
4.143738354
 11
6.9999658385
 21
4.143738354
  0
LINE
  5
225
100
AcDbEntity
  8
0
100
AcDbLine
 62
7
  6
CONTINUOUS
 10
6.0287026806
 20
4.1533486232
 11
6.9462289964
 21
4.1533485777
  0
LINE
  5
226
100
AcDbEntity
  8
0
100
AcDbLine
 62
7
  6
CONTINUOUS
 10
6.0287026806
 20
4.157416627
 11
6.9462289964
 21
4.1574165494
  0
LINE
  5
227
100
AcDbEntity
  8
0
100
AcDbLine
 62
7
  6
CONTINUOUS
 10
6.9762289964
 20
4.2441867908
 11
6.9662289964
 21
4.2441867908
  0
LINE
  5
228
100
AcDbEntity
  8
0
100
AcDbLine
 62
7
  6
CONTINUOUS
 10
5.9987026806
 20
4.2441868113
 11
6.0087026806
 21
4.2441868113
  0
LINE
  5
229
100
AcDbEntity
  8
0
100
AcDbLine
 62
7
  6
CONTINUOUS
 10
4.0709658385
 20
4.3414545575
 11
4.0759658385
 21
4.3414545575
  0
LINE
  5
22A
100
AcDbEntity
  8
0
100
AcDbLine
 62
7
  6
CONTINUOUS
 10
4.0709658385
 20
4.354603055
 11
4.0759658385
 21
4.354603055
  0
LINE
  5
22B
100
AcDbEntity
  8
0
100
AcDbLine
 62
7
  6
CONTINUOUS
 10
4.0709658385
 20
4.4203455424
 11
4.0759658385
 21
4.4203455424
  0
LINE
  5
22C
100
AcDbEntity
  8
0
100
AcDbLine
 62
7
  6
CONTINUOUS
 10
4.0709658385
 20
4.4378768745
 11
4.0759658385
 21
4.4378768745
  0
LINE
  5
22D
100
AcDbEntity
  8
0
100
AcDbLine
 62
7
  6
CONTINUOUS
 10
3.2209658385
 20
4.495238354
 11
2.9009658385
 21
4.495238354
  0
LINE
  5
22E
100
AcDbEntity
  8
0
100
AcDbLine
 62
7
  6
CONTINUOUS
 10
4.0709658385
 20
4.5167678531
 11
4.0759658385
 21
4.5167678531
  0
LINE
  5
22F
100
AcDbEntity
  8
0
100
AcDbLine
 62
7
  6
CONTINUOUS
 10
3.2209658385
 20
4.526238354
 11
2.9009658385
 21
4.526238354
  0
LINE
  5
230
100
AcDbEntity
  8
0
100
AcDbLine
 62
7
  6
CONTINUOUS
 10
4.0709658385
 20
4.5342991915
 11
4.0759658385
 21
4.5342991915
  0
LINE
  5
231
100
AcDbEntity
  8
0
100
AcDbLine
 62
7
  6
CONTINUOUS
 10
4.0709658385
 20
4.5364905994
 11
4.0759658385
 21
4.5364905994
  0
LINE
  5
232
100
AcDbEntity
  8
0
100
AcDbLine
 62
7
  6
CONTINUOUS
 10
4.0709658385
 20
4.5408734402
 11
4.0759658385
 21
4.5408734402
  0
LINE
  5
233
100
AcDbEntity
  8
0
100
AcDbLine
 62
7
  6
CONTINUOUS
 10
4.0709658385
 20
4.5496390969
 11
4.0759658385
 21
4.5496390969
  0
LINE
  5
234
100
AcDbEntity
  8
0
100
AcDbLine
 62
7
  6
CONTINUOUS
 10
4.0709658385
 20
4.558404766
 11
4.0759658385
 21
4.558404766
  0
LINE
  5
235
100
AcDbEntity
  8
0
100
AcDbLine
 62
7
  6
CONTINUOUS
 10
4.0709658385
 20
4.5693618556
 11
4.0759658385
 21
4.5693618556
  0
LINE
  5
236
100
AcDbEntity
  8
0
100
AcDbLine
 62
7
  6
CONTINUOUS
 10
3.9874658385
 20
4.573738354
 11
4.7853730178
 21
4.573738354
  0
LINE
  5
237
100
AcDbEntity
  8
0
100
AcDbLine
 62
7
  6
CONTINUOUS
 10
5.6240055813
 20
4.573738354
 11
5.9749658385
 21
4.573738354
  0
LINE
  5
238
100
AcDbEntity
  8
0
100
AcDbLine
 62
7
  6
CONTINUOUS
 10
3.2209658385
 20
4.591238354
 11
2.8459658385
 21
4.591238354
  0
LINE
  5
239
100
AcDbEntity
  8
0
100
AcDbLine
 62
7
  6
CONTINUOUS
 10
3.2209658385
 20
4.681238354
 11
2.8459658385
 21
4.681238354
  0
LINE
  5
23A
100
AcDbEntity
  8
0
100
AcDbLine
 62
7
  6
CONTINUOUS
 10
3.9874658385
 20
4.698738354
 11
4.7853730178
 21
4.698738354
  0
LINE
  5
23B
100
AcDbEntity
  8
0
100
AcDbLine
 62
7
  6
CONTINUOUS
 10
5.6240055813
 20
4.698738354
 11
5.9749658385
 21
4.698738354
  0
LINE
  5
23C
100
AcDbEntity
  8
0
100
AcDbLine
 62
7
  6
CONTINUOUS
 10
4.0709658385
 20
4.7205695768
 11
4.0759658385
 21
4.7205695768
  0
LINE
  5
23D
100
AcDbEntity
  8
0
100
AcDbLine
 62
7
  6
CONTINUOUS
 10
4.0709658385
 20
4.73810089
 11
4.0759658385
 21
4.73810089
  0
LINE
  5
23E
100
AcDbEntity
  8
0
100
AcDbLine
 62
7
  6
CONTINUOUS
 10
2.9009658385
 20
4.746238354
 11
3.2209658385
 21
4.746238354
  0
LINE
  5
23F
100
AcDbEntity
  8
0
100
AcDbLine
 62
7
  6
CONTINUOUS
 10
2.9009658385
 20
4.777238354
 11
3.2209658385
 21
4.777238354
  0
LINE
  5
240
100
AcDbEntity
  8
0
100
AcDbLine
 62
7
  6
CONTINUOUS
 10
4.0709658385
 20
4.790694905
 11
4.0759658385
 21
4.790694905
  0
LINE
  5
241
100
AcDbEntity
  8
0
100
AcDbLine
 62
7
  6
CONTINUOUS
 10
4.0709658385
 20
4.8016519696
 11
4.0759658385
 21
4.8016519696
  0
LINE
  5
242
100
AcDbEntity
  8
0
100
AcDbLine
 62
7
  6
CONTINUOUS
 10
4.0709658385
 20
4.8104176513
 11
4.0759658385
 21
4.8104176513
  0
LINE
  5
243
100
AcDbEntity
  8
0
100
AcDbLine
 62
7
  6
CONTINUOUS
 10
4.0709658385
 20
4.8169919
 11
4.0759658385
 21
4.8169919
  0
LINE
  5
244
100
AcDbEntity
  8
0
100
AcDbLine
 62
7
  6
CONTINUOUS
 10
4.0709658385
 20
4.8191832828
 11
4.0759658385
 21
4.8191832828
  0
LINE
  5
245
100
AcDbEntity
  8
0
100
AcDbLine
 62
7
  6
CONTINUOUS
 10
4.0709658385
 20
4.8213747158
 11
4.0759658385
 21
4.8213747158
  0
LINE
  5
246
100
AcDbEntity
  8
0
100
AcDbLine
 62
7
  6
CONTINUOUS
 10
4.0709658385
 20
4.8246771581
 11
4.0759658385
 21
4.8246771581
  0
LINE
  5
247
100
AcDbEntity
  8
0
100
AcDbLine
 62
7
  6
CONTINUOUS
 10
4.0709658385
 20
4.8262958978
 11
4.0759658385
 21
4.8262958978
  0
LINE
  5
248
100
AcDbEntity
  8
0
100
AcDbLine
 62
7
  6
CONTINUOUS
 10
4.0709658385
 20
4.8389060291
 11
4.0759658385
 21
4.8389060291
  0
LINE
  5
249
100
AcDbEntity
  8
0
100
AcDbLine
 62
7
  6
CONTINUOUS
 10
4.0709658385
 20
4.8520545266
 11
4.0759658385
 21
4.8520545266
  0
LINE
  5
24A
100
AcDbEntity
  8
0
100
AcDbLine
 62
7
  6
CONTINUOUS
 10
4.0709658385
 20
4.86958589
 11
4.0759658385
 21
4.86958589
  0
LINE
  5
24B
100
AcDbEntity
  8
0
100
AcDbLine
 62
7
  6
CONTINUOUS
 10
4.0709658385
 20
4.8717772728
 11
4.0759658385
 21
4.8717772728
  0
LINE
  5
24C
100
AcDbEntity
  8
0
100
AcDbLine
 62
7
  6
CONTINUOUS
 10
4.0709658385
 20
4.8761601387
 11
4.0759658385
 21
4.8761601387
  0
LINE
  5
24D
100
AcDbEntity
  8
0
100
AcDbLine
 62
7
  6
CONTINUOUS
 10
4.0709658385
 20
4.8849257703
 11
4.0759658385
 21
4.8849257703
  0
LINE
  5
24E
100
AcDbEntity
  8
0
100
AcDbLine
 62
7
  6
CONTINUOUS
 10
4.0709658385
 20
4.893691452
 11
4.0759658385
 21
4.893691452
  0
LINE
  5
24F
100
AcDbEntity
  8
0
100
AcDbLine
 62
7
  6
CONTINUOUS
 10
4.0709658385
 20
4.9046485165
 11
4.0759658385
 21
4.9046485165
  0
LINE
  5
250
100
AcDbEntity
  8
0
100
AcDbLine
 62
7
  6
CONTINUOUS
 10
4.0709658385
 20
4.9243712627
 11
4.0759658385
 21
4.9243712627
  0
LINE
  5
251
100
AcDbEntity
  8
0
100
AcDbLine
 62
7
  6
CONTINUOUS
 10
4.0709658385
 20
4.9353283774
 11
4.0759658385
 21
4.9353283774
  0
LWPOLYLINE
  5
252
100
AcDbEntity
  8
0
100
AcDbPolyline
 62
7
  6
CONTINUOUS
 90
32
 70
0
 10
6.4874658385
 20
5.0967120738
 10
6.4774222259
 20
5.0966003592
 10
6.4661135291
 20
5.0962066967
 10
6.4547724137
 20
5.095525827
 10
6.4434065124
 20
5.0945543919
 10
6.4320217749
 20
5.093289147
 10
6.4206271257
 20
5.0917284631
 10
6.4092386622
 20
5.0898727217
 10
6.3978717088
 20
5.0877223443
 10
6.3865379656
 20
5.0852770396
 10
6.3752446665
 20
5.0825354058
 10
6.3640006505
 20
5.0794971146
 10
6.352819609
 20
5.0761642544
 10
6.341705
 20
5.0725368458
 10
6.3306579103
 20
5.0686142696
 10
6.3196921231
 20
5.064399937
 10
6.3088198095
 20
5.0598966976
 10
6.2980468842
 20
5.0551051102
 10
6.2873805946
 20
5.0500262782
 10
6.2768297037
 20
5.0446624295
 10
6.266404902
 20
5.0390183024
 10
6.2561158676
 20
5.0330986178
 10
6.2459734597
 20
5.0269088802
 10
6.2359876632
 20
5.0204542848
 10
6.2261660162
 20
5.0137387
 10
6.2165215227
 20
5.0067705013
 10
6.2070573065
 20
4.9995514134
 10
6.1977654996
 20
4.9920735575
 10
6.1886549239
 20
4.9843411002
 10
6.1797349574
 20
4.9763609441
 10
6.1710037418
 20
4.9681327228
 10
6.1623399914
 20
4.9595314086
  0
LINE
  5
253
100
AcDbEntity
  8
0
100
AcDbLine
 62
7
  6
CONTINUOUS
 10
4.0709658385
 20
4.944094009
 11
4.0759658385
 21
4.944094009
  0
LINE
  5
254
100
AcDbEntity
  8
0
100
AcDbLine
 62
7
  6
CONTINUOUS
 10
4.0709658385
 20
4.9528596907
 11
4.0759658385
 21
4.9528596907
  0
LINE
  5
255
100
AcDbEntity
  8
0
100
AcDbLine
 62
7
  6
CONTINUOUS
 10
4.0709658385
 20
4.9550511236
 11
4.0759658385
 21
4.9550511236
  0
LINE
  5
256
100
AcDbEntity
  8
0
100
AcDbLine
 62
7
  6
CONTINUOUS
 10
6.9762289964
 20
5.0282899365
 11
6.9662289964
 21
5.0282899365
  0
LINE
  5
257
100
AcDbEntity
  8
0
100
AcDbLine
 62
7
  6
CONTINUOUS
 10
5.9987026806
 20
5.0282899395
 11
6.0087026806
 21
5.0282899395
  0
LINE
  5
258
100
AcDbEntity
  8
0
100
AcDbLine
 62
7
  6
CONTINUOUS
 10
6.9462289964
 20
5.1150601493
 11
6.0287026806
 21
5.1150601123
  0
LINE
  5
259
100
AcDbEntity
  8
0
100
AcDbLine
 62
7
  6
CONTINUOUS
 10
6.9462289964
 20
5.1191281466
 11
6.0287026806
 21
5.1191281179
  0
LINE
  5
25A
100
AcDbEntity
  8
0
100
AcDbLine
 62
7
  6
CONTINUOUS
 10
5.9749658385
 20
5.128738354
 11
6.9999658385
 21
5.1287383541
  0
LINE
  5
25B
100
AcDbEntity
  8
0
100
AcDbLine
 62
7
  6
CONTINUOUS
 10
3.9929658385
 20
5.133738354
 11
3.2834658385
 21
5.133738354
  0
LINE
  5
25C
100
AcDbEntity
  8
0
100
AcDbLine
 62
7
  6
CONTINUOUS
 10
6.9799658385
 20
5.148738354
 11
5.9949658385
 21
5.148738354
  0
LINE
  5
25D
100
AcDbEntity
  8
0
100
AcDbLine
 62
7
  6
CONTINUOUS
 10
6.1623426837
 20
4.9595341524
 11
6.1623398311
 21
4.9595312451
  0
LWPOLYLINE
  5
25E
100
AcDbEntity
  8
0
100
AcDbPolyline
 62
7
  6
CONTINUOUS
 90
32
 70
0
 10
6.1622074217
 20
4.3130800645
 10
6.1710816175
 20
4.3042685523
 10
6.1798168467
 20
4.2960407103
 10
6.1887404259
 20
4.2880613425
 10
6.1978541047
 20
4.2803300553
 10
6.2071483689
 20
4.272853966
 10
6.216614586
 20
4.26563707
 10
6.2262608536
 20
4.2586712899
 10
6.2360843712
 20
4.2519580914
 10
6.2460722129
 20
4.2455057751
 10
6.2562166611
 20
4.2393183468
 10
6.2665080114
 20
4.2334008577
 10
6.276935396
 20
4.227758843
 10
6.2874884736
 20
4.2223973601
 10
6.2981566912
 20
4.2173210384
 10
6.3089315329
 20
4.212532009
 10
6.3198052469
 20
4.2080315946
 10
6.3307721761
 20
4.2038202103
 10
6.3418204707
 20
4.1999005492
 10
6.352935979
 20
4.1962761467
 10
6.3641180687
 20
4.1929462554
 10
6.3753634464
 20
4.1899108716
 10
6.3866575724
 20
4.1871722849
 10
6.3979917835
 20
4.1847300598
 10
6.4093591097
 20
4.1825827501
 10
6.4207472129
 20
4.1807301964
 10
6.4321411505
 20
4.1791727374
 10
6.4435253335
 20
4.1779106687
 10
6.454890381
 20
4.1769423559
 10
6.466230197
 20
4.1762645312
 10
6.4775375712
 20
4.1758738087
 10
6.4874658385
 20
4.1757646343
  0
LINE
  5
25F
100
AcDbEntity
  8
0
100
AcDbLine
 62
7
  6
CONTINUOUS
 10
6.162207451
 20
4.3130800346
 11
6.1622104607
 21
4.3130769647
  0
LINE
  5
260
100
AcDbEntity
  8
0
100
AcDbLine
 62
7
  6
CONTINUOUS
 10
5.9749658385
 20
5.128738354
 11
5.9749658385
 21
4.143738354
  0
LINE
  5
261
100
AcDbEntity
  8
0
100
AcDbLine
 62
7
  6
CONTINUOUS
 10
5.9949658385
 20
4.123738354
 11
5.9949658385
 21
5.148738354
  0
LINE
  5
262
100
AcDbEntity
  8
0
100
AcDbLine
 62
7
  6
CONTINUOUS
 10
5.9987026806
 20
5.0282899395
 11
5.9987026806
 21
4.2441868113
  0
LINE
  5
263
100
AcDbEntity
  8
0
100
AcDbLine
 62
7
  6
CONTINUOUS
 10
6.0087026806
 20
5.0282899395
 11
6.0087026806
 21
4.2441868113
  0
LINE
  5
264
100
AcDbEntity
  8
0
100
AcDbLine
 62
7
  6
CONTINUOUS
 10
6.0287026806
 20
4.1533486232
 11
6.0287026806
 21
4.5257443985
  0
LINE
  5
265
100
AcDbEntity
  8
0
100
AcDbLine
 62
7
  6
CONTINUOUS
 10
6.0287026806
 20
4.7467302034
 11
6.0287026806
 21
5.1191281179
  0
LINE
  5
266
100
AcDbEntity
  8
0
100
AcDbLine
 62
7
  6
CONTINUOUS
 10
6.4874658385
 20
5.1051591934
 11
6.4874658385
 21
5.073738354
  0
LINE
  5
267
100
AcDbEntity
  8
0
100
AcDbLine
 62
7
  6
CONTINUOUS
 10
6.4874658385
 20
4.1673175147
 11
6.4874658385
 21
4.198738354
  0
LINE
  5
268
100
AcDbEntity
  8
0
100
AcDbLine
 62
7
  6
CONTINUOUS
 10
6.8125991643
 20
4.312952595
 11
6.812602468
 21
4.3129559623
  0
LWPOLYLINE
  5
269
100
AcDbEntity
  8
0
100
AcDbPolyline
 62
7
  6
CONTINUOUS
 90
32
 70
0
 10
6.8126996136
 20
4.9594214468
 10
6.8038872463
 20
4.9681721101
 10
6.7951532536
 20
4.9764008529
 10
6.786230451
 20
4.9843814212
 10
6.777117109
 20
4.9921140928
 10
6.767822572
 20
4.9995919993
 10
6.7583555975
 20
5.0068110177
 10
6.7487084029
 20
5.0137789595
 10
6.7388840824
 20
5.0204941319
 10
6.7288955641
 20
5.0269482252
 10
6.7187504478
 20
5.0331373375
 10
6.7084587333
 20
5.0390562685
 10
6.6980312842
 20
5.0446995125
 10
6.6874778391
 20
5.0500623174
 10
6.6768090826
 20
5.0551399594
 10
6.6660337567
 20
5.0599302332
 10
6.6551591389
 20
5.0644320305
 10
6.6441911441
 20
5.0686448006
 10
6.6331419063
 20
5.0725657147
 10
6.6220251477
 20
5.076191378
 10
6.6108419387
 20
5.0795224137
 10
6.5995957256
 20
5.0825588038
 10
6.5883001841
 20
5.0852984631
 10
6.5769642108
 20
5.087741709
 10
6.5655951214
 20
5.0898899327
 10
6.5542046098
 20
5.0917434286
 10
6.5428080357
 20
5.0933017683
 10
6.5314215128
 20
5.0945645671
 10
6.5200538511
 20
5.0955334827
 10
6.508710956
 20
5.0962117657
 10
6.4974004604
 20
5.0966027723
 10
6.4874658385
 20
5.0967120738
  0
LINE
  5
26A
100
AcDbEntity
  8
0
100
AcDbLine
 62
7
  6
CONTINUOUS
 10
6.8126996168
 20
4.9594214435
 11
6.8126973223
 21
4.9594237836
  0
LINE
  5
26B
100
AcDbEntity
  8
0
100
AcDbLine
 62
7
  6
CONTINUOUS
 10
6.9462289964
 20
5.1191281466
 11
6.9462289964
 21
4.7467305852
  0
LINE
  5
26C
100
AcDbEntity
  8
0
100
AcDbLine
 62
7
  6
CONTINUOUS
 10
6.9462289964
 20
4.1533485777
 11
6.9462289964
 21
4.5257446749
  0
LINE
  5
26D
100
AcDbEntity
  8
0
100
AcDbLine
 62
7
  6
CONTINUOUS
 10
6.9662289964
 20
5.0282899365
 11
6.9662289964
 21
4.2441867908
  0
LINE
  5
26E
100
AcDbEntity
  8
0
100
AcDbLine
 62
7
  6
CONTINUOUS
 10
6.9762289964
 20
4.2441867908
 11
6.9762289964
 21
5.0282899365
  0
LINE
  5
26F
100
AcDbEntity
  8
0
100
AcDbLine
 62
7
  6
CONTINUOUS
 10
6.9799658385
 20
4.123738354
 11
6.9799658385
 21
5.148738354
  0
LINE
  5
270
100
AcDbEntity
  8
0
100
AcDbLine
 62
7
  6
CONTINUOUS
 10
6.9999658385
 20
4.143738354
 11
6.9999658385
 21
5.128738354
  0
ARC
  5
271
100
AcDbEntity
  8
0
100
AcDbCircle
 62
7
  6
CONTINUOUS
 10
6.8236425158
 20
4.6362376659
 40
0.8025794466
100
AcDbArc
 50
172.0868838255
 51
187.9131726335
  0
ARC
  5
272
100
AcDbEntity
  8
0
100
AcDbCircle
 62
7
  6
CONTINUOUS
 10
6.151289448
 20
4.6362376562
 40
0.8025791647
100
AcDbArc
 50
352.0868505341
 51
7.913149466
  0
CIRCLE
  5
273
100
AcDbEntity
  8
0
100
AcDbCircle
 62
7
  6
CONTINUOUS
 10
6.4874658385
 20
4.636238354
 40
0.4375
  0
CIRCLE
  5
274
100
AcDbEntity
  8
0
100
AcDbCircle
 62
7
  6
CONTINUOUS
 10
6.4874658385
 20
4.636238354
 40
0.4175
  0
CIRCLE
  5
275
100
AcDbEntity
  8
0
100
AcDbCircle
 62
7
  6
CONTINUOUS
 10
6.4874658385
 20
4.636238354
 40
0.235
  0
CIRCLE
  5
276
100
AcDbEntity
  8
0
100
AcDbCircle
 62
7
  6
CONTINUOUS
 10
6.4874658385
 20
4.636238354
 40
0.225
  0
CIRCLE
  5
277
100
AcDbEntity
  8
0
100
AcDbCircle
 62
7
  6
CONTINUOUS
 10
6.4874658385
 20
4.636238354
 40
0.205
  0
CIRCLE
  5
278
100
AcDbEntity
  8
0
100
AcDbCircle
 62
7
  6
CONTINUOUS
 10
6.4874658385
 20
4.636238354
 40
0.1837949243
  0
ARC
  5
279
100
AcDbEntity
  8
0
100
AcDbCircle
 62
7
  6
CONTINUOUS
 10
3.9929658385
 20
4.216738354
 40
0.078
100
AcDbArc
 50
270.0
 51
360.0
  0
ARC
  5
27A
100
AcDbEntity
  8
0
100
AcDbCircle
 62
7
  6
CONTINUOUS
 10
3.9929658385
 20
5.055738354
 40
0.078
100
AcDbArc
 50
0.0
 51
90.0
  0
ARC
  5
27B
100
AcDbEntity
  8
0
100
AcDbCircle
 62
7
  6
CONTINUOUS
 10
3.9874658385
 20
4.636238354
 40
0.0625
100
AcDbArc
 50
90.0
 51
270.0
  0
ARC
  5
27C
100
AcDbEntity
  8
0
100
AcDbCircle
 62
7
  6
CONTINUOUS
 10
2.8459658385
 20
4.636238354
 40
0.045
100
AcDbArc
 50
90.0
 51
270.0
  0
ARC
  5
27D
100
AcDbEntity
  8
0
100
AcDbCircle
 62
7
  6
CONTINUOUS
 10
5.9949658385
 20
4.143738354
 40
0.02
100
AcDbArc
 50
180.0
 51
270.0
  0
ARC
  5
27E
100
AcDbEntity
  8
0
100
AcDbCircle
 62
7
  6
CONTINUOUS
 10
6.9799658385
 20
4.143738354
 40
0.02
100
AcDbArc
 50
270.0
 51
360.0
  0
ARC
  5
27F
100
AcDbEntity
  8
0
100
AcDbCircle
 62
7
  6
CONTINUOUS
 10
6.9799658385
 20
5.128738354
 40
0.02
100
AcDbArc
 50
0.0
 51
90.0
  0
ARC
  5
280
100
AcDbEntity
  8
0
100
AcDbCircle
 62
7
  6
CONTINUOUS
 10
5.9949658385
 20
5.128738354
 40
0.02
100
AcDbArc
 50
90.0
 51
180.0
  0
SPLINE
  5
281
100
AcDbEntity
  8
0
100
AcDbSpline
 62
7
  6
CONTINUOUS
 70
0
 71
3
 72
37
 73
33
 74
0
 42
0.0000001
 43
0.0000001
 44
0.0000000001
 40
0.0
 40
0.0
 40
0.0
 40
0.0
 40
0.0628692135
 40
0.0942894869
 40
0.1256857187
 40
0.157053785
 40
0.1883894561
 40
0.2509437274
 40
0.313365387
 40
0.3445394983
 40
0.3756903143
 40
0.4068230773
 40
0.4379427368
 40
0.469054018
 40
0.5001621147
 40
0.5312721715
 40
0.562388587
 40
0.5935152578
 40
0.6246559051
 40
0.655813819
 40
0.6869901617
 40
0.7181864201
 40
0.749405852
 40
0.7806507701
 40
0.8119201702
 40
0.8432111268
 40
0.8588654964
 40
0.8745256693
 40
0.9058631198
 40
0.9372261626
 40
0.9686089569
 40
1.0
 40
1.0
 40
1.0
 40
1.0
 10
6.4874658348
 20
4.1673175146
 30
0.0
 10
6.5006295363
 20
4.1673175987
 30
0.0
 10
6.5203845511
 20
4.168112268
 30
0.0
 10
6.546571371
 20
4.1707691057
 30
0.0
 10
6.566100256
 20
4.1735534931
 30
0.0
 10
6.5854823743
 20
4.1771251457
 30
0.0
 10
6.6110644927
 20
4.1829326674
 30
0.0
 10
6.6425094266
 20
4.1921524176
 30
0.0
 10
6.6730497187
 20
4.2039384245
 30
0.0
 10
6.6967840482
 20
4.2148590001
 30
0.0
 10
6.714207123
 20
4.2237804829
 30
0.0
 10
6.7312305641
 20
4.2334189476
 30
0.0
 10
6.747827508
 20
4.2437591186
 30
0.0
 10
6.7639702251
 20
4.2547859009
 30
0.0
 10
6.7796301795
 20
4.266484851
 30
0.0
 10
6.7947833855
 20
4.2788347293
 30
0.0
 10
6.809407437
 20
4.2918126655
 30
0.0
 10
6.8234794147
 20
4.3053964498
 30
0.0
 10
6.8369760807
 20
4.3195640165
 30
0.0
 10
6.8498737611
 20
4.3342928243
 30
0.0
 10
6.8621471544
 20
4.3495608307
 30
0.0
 10
6.8737679326
 20
4.3653473097
 30
0.0
 10
6.8847188632
 20
4.3816226958
 30
0.0
 10
6.8949945348
 20
4.398350365
 30
0.0
 10
6.9045845271
 20
4.4154973944
 30
0.0
 10
6.9119757435
 20
4.430117389
 30
0.0
 10
6.9175115512
 20
4.4420005792
 30
0.0
 10
6.9227948011
 20
4.454008822
 30
0.0
 10
6.928922546
 20
4.4692345779
 30
0.0
 10
6.935512801
 20
4.4878047664
 30
0.0
 10
6.9413348441
 20
4.5066415526
 30
0.0
 10
6.9446880664
 20
4.5193551283
 30
0.0
 10
6.9462289964
 20
4.5257446749
 30
0.0
  0
SPLINE
  5
282
100
AcDbEntity
  8
0
100
AcDbSpline
 62
7
  6
CONTINUOUS
 70
0
 71
3
 72
37
 73
33
 74
0
 42
0.0000001
 43
0.0000001
 44
0.0000000001
 40
0.0
 40
0.0
 40
0.0
 40
0.0
 40
0.0313910328
 40
0.0627738213
 40
0.0941368529
 40
0.125474282
 40
0.1411344433
 40
0.1567888042
 40
0.1880797516
 40
0.2193491401
 40
0.2505940286
 40
0.2818134322
 40
0.3130096828
 40
0.3441860213
 40
0.3753439093
 40
0.4064845262
 40
0.4376111826
 40
0.4687275864
 40
0.4998376208
 40
0.530945693
 40
0.562056964
 40
0.593176614
 40
0.6243093572
 40
0.6554601537
 40
0.6866342479
 40
0.7490558824
 40
0.8116102585
 40
0.8429459843
 40
0.8743140892
 40
0.9057103625
 40
0.9371306944
 40
1.0
 40
1.0
 40
1.0
 40
1.0
 10
6.0287026806
 20
4.5257443985
 30
0.0
 10
6.0302434435
 20
4.5193548167
 30
0.0
 10
6.033596532
 20
4.5066412093
 30
0.0
 10
6.0394186728
 20
4.4878044671
 30
0.0
 10
6.0460089792
 20
4.4692343155
 30
0.0
 10
6.0521367429
 20
4.4540085843
 30
0.0
 10
6.0574200482
 20
4.4420003811
 30
0.0
 10
6.0629559555
 20
4.4301172501
 30
0.0
 10
6.0703472889
 20
4.4154973303
 30
0.0
 10
6.0799373161
 20
4.3983503448
 30
0.0
 10
6.0902128943
 20
4.3816226461
 30
0.0
 10
6.1011637673
 20
4.3653472463
 30
0.0
 10
6.1127845515
 20
4.3495607928
 30
0.0
 10
6.1250578936
 20
4.3342927672
 30
0.0
 10
6.1379555351
 20
4.3195639518
 30
0.0
 10
6.1514522313
 20
4.3053964445
 30
0.0
 10
6.1655242459
 20
4.2918127288
 30
0.0
 10
6.1801482643
 20
4.2788347855
 30
0.0
 10
6.1953013993
 20
4.2664848521
 30
0.0
 10
6.2109613432
 20
4.2547859199
 30
0.0
 10
6.2271040705
 20
4.2437591838
 30
0.0
 10
6.2437010232
 20
4.2334190582
 30
0.0
 10
6.2607244799
 20
4.2237806581
 30
0.0
 10
6.2781475719
 20
4.2148592526
 30
0.0
 10
6.3018819181
 20
4.203938775
 30
0.0
 10
6.3324221232
 20
4.1921525708
 30
0.0
 10
6.3638670236
 20
4.1829326214
 30
0.0
 10
6.3894491959
 20
4.177125195
 30
0.0
 10
6.40883134
 20
4.1735535811
 30
0.0
 10
6.4283602362
 20
4.1707691326
 30
0.0
 10
6.454547078
 20
4.1681122107
 30
0.0
 10
6.4743021196
 20
4.1673175959
 30
0.0
 10
6.4874658348
 20
4.1673175146
 30
0.0
  0
SPLINE
  5
283
100
AcDbEntity
  8
0
100
AcDbSpline
 62
7
  6
CONTINUOUS
 70
0
 71
3
 72
27
 73
23
 74
0
 42
0.0000001
 43
0.0000001
 44
0.0000000001
 40
0.0
 40
0.0
 40
0.0
 40
0.0
 40
0.1249799892
 40
0.2499585825
 40
0.3124515097
 40
0.3749446519
 40
0.4374376264
 40
0.4999314429
 40
0.5624254141
 40
0.6249189598
 40
0.6874116662
 40
0.7499018958
 40
0.781157759
 40
0.7967876122
 40
0.8124213141
 40
0.8436800567
 40
0.8749469155
 40
0.890585175
 40
0.9062342912
 40
0.9374966689
 40
0.9687561004
 40
1.0
 40
1.0
 40
1.0
 40
1.0
 10
6.9762289964
 20
5.0282899365
 30
0.0
 10
6.9762289962
 20
5.0325341324
 30
0.0
 10
6.9761015434
 20
5.0410231439
 30
0.0
 10
6.9755600644
 20
5.0516230208
 30
0.0
 10
6.974841627
 20
5.0600818617
 30
0.0
 10
6.9741406506
 20
5.0664105645
 30
0.0
 10
6.9732542886
 20
5.0727162479
 30
0.0
 10
6.9721535162
 20
5.0789884981
 30
0.0
 10
6.9708001302
 20
5.0852117471
 30
0.0
 10
6.9691440103
 20
5.0913625209
 30
0.0
 10
6.9671172196
 20
5.0974025363
 30
0.0
 10
6.9650387156
 20
5.1022931339
 30
0.0
 10
6.9633185303
 20
5.1055875528
 30
0.0
 10
6.9622462778
 20
5.1074204423
 30
0.0
 10
6.9611113716
 20
5.1092152987
 30
0.0
 10
6.9595625915
 20
5.1113746741
 30
0.0
 10
6.9578146775
 20
5.113379849
 30
0.0
 10
6.956277101
 20
5.1148478255
 30
0.0
 10
6.9546429565
 20
5.1162067622
 30
0.0
 10
6.9524051259
 20
5.1176619743
 30
0.0
 10
6.9494218457
 20
5.1188440348
 30
0.0
 10
6.9472900081
 20
5.1191283768
 30
0.0
 10
6.9462289964
 20
5.1191281466
 30
0.0
  0
SPLINE
  5
284
100
AcDbEntity
  8
0
100
AcDbSpline
 62
7
  6
CONTINUOUS
 70
0
 71
3
 72
28
 73
24
 74
0
 42
0.0000001
 43
0.0000001
 44
0.0000000001
 40
0.0
 40
0.0
 40
0.0
 40
0.0
 40
0.0312437843
 40
0.0625034797
 40
0.0781483359
 40
0.0937956474
 40
0.1094450639
 40
0.1250829338
 40
0.1563486524
 40
0.1876061842
 40
0.2032392202
 40
0.2188685144
 40
0.250123213
 40
0.3126113583
 40
0.3751018851
 40
0.4375933534
 40
0.5000851942
 40
0.5625769229
 40
0.6250678121
 40
0.6875588637
 40
0.7500497137
 40
0.8750241573
 40
1.0
 40
1.0
 40
1.0
 40
1.0
 10
6.0287026806
 20
5.1191281179
 30
0.0
 10
6.0276416375
 20
5.1191287022
 30
0.0
 10
6.0255104451
 20
5.1188411992
 30
0.0
 10
6.0230223558
 20
5.1178576305
 30
0.0
 10
6.021183167
 20
5.1167899529
 30
0.0
 10
6.019879745
 20
5.1158686401
 30
0.0
 10
6.0186530417
 20
5.114848743
 30
0.0
 10
6.0171157918
 20
5.1133805865
 30
0.0
 10
6.0153683922
 20
5.1113748874
 30
0.0
 10
6.0138195861
 20
5.1092155936
 30
0.0
 10
6.0126847029
 20
5.107420729
 30
0.0
 10
6.0116125853
 20
5.1055877723
 30
0.0
 10
6.0098927454
 20
5.1022931798
 30
0.0
 10
6.0078143458
 20
5.0974025605
 30
0.0
 10
6.0057875841
 20
5.091362536
 30
0.0
 10
6.004131444
 20
5.0852117734
 30
0.0
 10
6.0027780404
 20
5.0789885278
 30
0.0
 10
6.0016773473
 20
5.0727162647
 30
0.0
 10
6.0007910053
 20
5.0664105789
 30
0.0
 10
6.0000900541
 20
5.0600818726
 30
0.0
 10
5.9993716566
 20
5.0516230272
 30
0.0
 10
5.9988301462
 20
5.0410231503
 30
0.0
 10
5.9987026804
 20
5.0325341364
 30
0.0
 10
5.9987026806
 20
5.0282899395
 30
0.0
  0
SPLINE
  5
285
100
AcDbEntity
  8
0
100
AcDbSpline
 62
7
  6
CONTINUOUS
 70
0
 71
3
 72
27
 73
23
 74
0
 42
0.0000001
 43
0.0000001
 44
0.0000000001
 40
0.0
 40
0.0
 40
0.0
 40
0.0
 40
0.1249799859
 40
0.2499585764
 40
0.3124515035
 40
0.3749446398
 40
0.4374376139
 40
0.4999314325
 40
0.562425395
 40
0.6249189451
 40
0.6874116487
 40
0.7499018724
 40
0.7811577233
 40
0.7967875837
 40
0.8124212975
 40
0.8436800342
 40
0.8749468822
 40
0.8905851549
 40
0.9062342896
 40
0.9374966549
 40
0.9687560966
 40
1.0
 40
1.0
 40
1.0
 40
1.0
 10
5.9987026806
 20
4.2441868113
 30
0.0
 10
5.9987026795
 20
4.2399426161
 30
0.0
 10
5.998830127
 20
4.2314536054
 30
0.0
 10
5.9993716197
 20
4.220853731
 30
0.0
 10
6.0000900397
 20
4.2123948899
 30
0.0
 10
6.0007910199
 20
4.2060661882
 30
0.0
 10
6.0016773998
 20
4.1997605085
 30
0.0
 10
6.0027781476
 20
4.1934882552
 30
0.0
 10
6.0041315413
 20
4.1872650081
 30
0.0
 10
6.0057876707
 20
4.1811142387
 30
0.0
 10
6.0078144284
 20
4.1750742128
 30
0.0
 10
6.0098929602
 20
4.1701836268
 30
0.0
 10
6.0116131599
 20
4.1668892172
 30
0.0
 10
6.0126854017
 20
4.1650563217
 30
0.0
 10
6.0138202798
 20
4.1632614477
 30
0.0
 10
6.0153690139
 20
4.161102039
 30
0.0
 10
6.0171169331
 20
4.1590968659
 30
0.0
 10
6.0186545294
 20
4.1576289093
 30
0.0
 10
6.0202886931
 20
4.1562699956
 30
0.0
 10
6.0225265518
 20
4.1548148206
 30
0.0
 10
6.0255098427
 20
4.1536328179
 30
0.0
 10
6.027641669
 20
4.1533483956
 30
0.0
 10
6.0287026806
 20
4.1533486232
 30
0.0
  0
SPLINE
  5
286
100
AcDbEntity
  8
0
100
AcDbSpline
 62
7
  6
CONTINUOUS
 70
0
 71
3
 72
28
 73
24
 74
0
 42
0.0000001
 43
0.0000001
 44
0.0000000001
 40
0.0
 40
0.0
 40
0.0
 40
0.0
 40
0.0312437834
 40
0.062503475
 40
0.0781483322
 40
0.0937956392
 40
0.1094450504
 40
0.1250829196
 40
0.1563486348
 40
0.187606171
 40
0.2032392076
 40
0.2188684996
 40
0.2501232003
 40
0.3126113506
 40
0.3751018763
 40
0.4375933443
 40
0.5000851889
 40
0.5625769164
 40
0.6250678057
 40
0.6875588608
 40
0.7500497105
 40
0.8750241556
 40
1.0
 40
1.0
 40
1.0
 40
1.0
 10
6.9462289964
 20
4.1533485777
 30
0.0
 10
6.9472900396
 20
4.1533479935
 30
0.0
 10
6.9494212355
 20
4.1536354853
 30
0.0
 10
6.9519093139
 20
4.1546190885
 30
0.0
 10
6.9537484924
 20
4.1556867826
 30
0.0
 10
6.9550519101
 20
4.1566081011
 30
0.0
 10
6.9562786142
 20
4.1576279967
 30
0.0
 10
6.957815874
 20
4.1590961425
 30
0.0
 10
6.9595632957
 20
4.1611018229
 30
0.0
 10
6.9611121147
 20
4.1632611087
 30
0.0
 10
6.9622469982
 20
4.1650559737
 30
0.0
 10
6.9633191077
 20
4.1668889357
 30
0.0
 10
6.9650389193
 20
4.1701835436
 30
0.0
 10
6.9671173254
 20
4.1750741594
 30
0.0
 10
6.9691441027
 20
4.1811141807
 30
0.0
 10
6.9708002283
 20
4.1872649485
 30
0.0
 10
6.9721536295
 20
4.1934881953
 30
0.0
 10
6.9732543398
 20
4.1997604565
 30
0.0
 10
6.9741406696
 20
4.2060661453
 30
0.0
 10
6.9748416166
 20
4.2123948529
 30
0.0
 10
6.9755600236
 20
4.220853699
 30
0.0
 10
6.9761015292
 20
4.231453578
 30
0.0
 10
6.9762289972
 20
4.2399425932
 30
0.0
 10
6.9762289964
 20
4.2441867908
 30
0.0
  0
SPLINE
  5
287
100
AcDbEntity
  8
0
100
AcDbSpline
 62
7
  6
CONTINUOUS
 70
0
 71
3
 72
18
 73
14
 74
0
 42
0.0000001
 43
0.0000001
 44
0.0000000001
 40
0.0
 40
0.0
 40
0.0
 40
0.0
 40
0.124544161
 40
0.2491910265
 40
0.3739666276
 40
0.4364196862
 40
0.4989094785
 40
0.5614323408
 40
0.6239872257
 40
0.7491862132
 40
0.8118538804
 40
0.8745579499
 40
1.0
 40
1.0
 40
1.0
 40
1.0
 10
6.8126038699
 20
4.3129545374
 30
0.0
 10
6.8198496715
 20
4.3203420261
 30
0.0
 10
6.8338561102
 20
4.3356144724
 30
0.0
 10
6.8532751989
 20
4.3598985028
 30
0.0
 10
6.8680457882
 20
4.3812154084
 30
0.0
 10
6.8789978743
 20
4.398840727
 30
0.0
 10
6.8867788348
 20
4.4123370154
 30
0.0
 10
6.8941069353
 20
4.4260941973
 30
0.0
 10
6.9032541099
 20
4.4447720967
 30
0.0
 10
6.9114317118
 20
4.4639250014
 30
0.0
 10
6.9186299973
 20
4.4834630555
 30
0.0
 10
6.9251791546
 20
4.5032490564
 30
0.0
 10
6.9293420219
 20
4.5183330587
 30
0.0
 10
6.9317695691
 20
4.5284687938
 30
0.0
  0
SPLINE
  5
288
100
AcDbEntity
  8
0
100
AcDbSpline
 62
7
  6
CONTINUOUS
 70
0
 71
3
 72
35
 73
31
 74
0
 42
0.0000001
 43
0.0000001
 44
0.0000000001
 40
0.0
 40
0.0
 40
0.0
 40
0.0
 40
0.0313904195
 40
0.0627736272
 40
0.0941377664
 40
0.1254763098
 40
0.1567898614
 40
0.1880806611
 40
0.2193497742
 40
0.2505957447
 40
0.3129998598
 40
0.3441755616
 40
0.3753335139
 40
0.4064755217
 40
0.4376030381
 40
0.4687195461
 40
0.4998296779
 40
0.5309385229
 40
0.5620506944
 40
0.6242899655
 40
0.6554413215
 40
0.6866161065
 40
0.7178186239
 40
0.7490525333
 40
0.7803198078
 40
0.8116216424
 40
0.8429579464
 40
0.8743261016
 40
0.9371306667
 40
1.0
 40
1.0
 40
1.0
 40
1.0
 10
6.9462289964
 20
4.7467305852
 30
0.0
 10
6.9446878794
 20
4.7531198635
 30
0.0
 10
6.9413360177
 20
4.7658335373
 30
0.0
 10
6.9355164714
 20
4.784671037
 30
0.0
 10
6.9289224445
 20
4.8032404264
 30
0.0
 10
6.9215656688
 20
4.8215052946
 30
0.0
 10
6.9134521242
 20
4.8394302155
 30
0.0
 10
6.9045884534
 20
4.8569798543
 30
0.0
 10
6.8950010638
 20
4.8741289685
 30
0.0
 10
6.8813002798
 20
4.8964153044
 30
0.0
 10
6.8662399362
 20
4.9178208844
 30
0.0
 10
6.8498748152
 20
4.9381832286
 30
0.0
 10
6.836975492
 20
4.9529109938
 30
0.0
 10
6.8234780817
 20
4.9670779416
 30
0.0
 10
6.8094082102
 20
4.9806642001
 30
0.0
 10
6.7947860822
 20
4.9936443398
 30
0.0
 10
6.7796317812
 20
5.0059927083
 30
0.0
 10
6.7639694785
 20
5.0176892753
 30
0.0
 10
6.7424471772
 20
5.0323924933
 30
0.0
 10
6.7200059049
 20
5.045729395
 30
0.0
 10
6.6967847613
 20
5.0576171968
 30
0.0
 10
6.6789883735
 20
5.0658038911
 30
0.0
 10
6.660849832
 20
5.0732458929
 30
0.0
 10
6.6423983976
 20
5.0799315751
 30
0.0
 10
6.623665251
 20
5.0858508835
 30
0.0
 10
6.6046818658
 20
5.090992879
 30
0.0
 10
6.5854813563
 20
5.0953503936
 30
0.0
 10
6.5596316366
 20
5.1001151835
 30
0.0
 10
6.5269547144
 20
5.1041007164
 30
0.0
 10
6.5006293922
 20
5.1051591975
 30
0.0
 10
6.4874658385
 20
5.1051591934
 30
0.0
  0
SPLINE
  5
289
100
AcDbEntity
  8
0
100
AcDbSpline
 62
7
  6
CONTINUOUS
 70
0
 71
3
 72
37
 73
33
 74
0
 42
0.0000001
 43
0.0000001
 44
0.0000000001
 40
0.0
 40
0.0
 40
0.0
 40
0.0
 40
0.0628692009
 40
0.0942894678
 40
0.1256856981
 40
0.1570537602
 40
0.1883894238
 40
0.2509436875
 40
0.3133653461
 40
0.3445394571
 40
0.375690272
 40
0.4068230288
 40
0.4379426796
 40
0.4690539616
 40
0.5001620703
 40
0.5312721288
 40
0.562388529
 40
0.5935151903
 40
0.6246558478
 40
0.6558137685
 40
0.6869901038
 40
0.7181863674
 40
0.7494058112
 40
0.7806507097
 40
0.8119200746
 40
0.8432110603
 40
0.858865466
 40
0.87452567
 40
0.90586311
 40
0.9372260775
 40
0.9686088795
 40
1.0
 40
1.0
 40
1.0
 40
1.0
 10
6.4874658385
 20
5.1051591934
 30
0.0
 10
6.4743021035
 20
5.1051590976
 30
0.0
 10
6.4545470366
 20
5.1043644687
 30
0.0
 10
6.4283601531
 20
5.1017075771
 30
0.0
 10
6.4088312216
 20
5.0989231542
 30
0.0
 10
6.3894490535
 20
5.0953514897
 30
0.0
 10
6.3638668713
 20
5.0895439412
 30
0.0
 10
6.3324218632
 20
5.0803241373
 30
0.0
 10
6.3018814948
 20
5.0685380837
 30
0.0
 10
6.2781471138
 20
5.0576174495
 30
0.0
 10
6.2607240038
 20
5.0486959209
 30
0.0
 10
6.2437005402
 20
5.0390573932
 30
0.0
 10
6.227103588
 20
5.0287171395
 30
0.0
 10
6.2109608488
 20
5.0176902949
 30
0.0
 10
6.1953008148
 20
5.0059913589
 30
0.0
 10
6.1801475134
 20
4.9936415118
 30
0.0
 10
6.1655234718
 20
4.9806634865
 30
0.0
 10
6.1514516338
 20
4.9670794828
 30
0.0
 10
6.1379550777
 20
4.952911739
 30
0.0
 10
6.1250573232
 20
4.9381829262
 30
0.0
 10
6.1127837568
 20
4.9229149896
 30
0.0
 10
6.1011628176
 20
4.9071285588
 30
0.0
 10
6.0902118042
 20
4.8908531617
 30
0.0
 10
6.079936285
 20
4.8741253391
 30
0.0
 10
6.0703468489
 20
4.8569779388
 30
0.0
 10
6.0629559863
 20
4.8423577165
 30
0.0
 10
6.0574200789
 20
4.8304745132
 30
0.0
 10
6.052136465
 20
4.8184663806
 30
0.0
 10
6.0460080795
 20
4.8032408429
 30
0.0
 10
6.0394179477
 20
4.78467055
 30
0.0
 10
6.0335971153
 20
4.7658333259
 30
0.0
 10
6.0302440161
 20
4.7531196874
 30
0.0
 10
6.0287026806
 20
4.7467302034
 30
0.0
  0
SPLINE
  5
28A
100
AcDbEntity
  8
0
100
AcDbSpline
 62
7
  6
CONTINUOUS
 70
0
 71
3
 72
18
 73
14
 74
0
 42
0.0000001
 43
0.0000001
 44
0.0000000001
 40
0.0
 40
0.0
 40
0.0
 40
0.0
 40
0.125441696
 40
0.1881457012
 40
0.2508133549
 40
0.3760122712
 40
0.4385670867
 40
0.5010899225
 40
0.563579754
 40
0.6260329013
 40
0.7508087054
 40
0.8754557124
 40
1.0
 40
1.0
 40
1.0
 40
1.0
 10
6.0431621555
 20
4.5284683245
 30
0.0
 10
6.0455878222
 20
4.5183396604
 30
0.0
 10
6.0497475467
 20
4.5032661828
 30
0.0
 10
6.0562911826
 20
4.4834937453
 30
0.0
 10
6.0634828254
 20
4.4639687756
 30
0.0
 10
6.0716522135
 20
4.4448282362
 30
0.0
 10
6.0807900923
 20
4.4261619886
 30
0.0
 10
6.0881107284
 20
4.4124131847
 30
0.0
 10
6.0958836897
 20
4.3989248491
 30
0.0
 10
6.1068243157
 20
4.3813094616
 30
0.0
 10
6.1215789208
 20
4.3600035388
 30
0.0
 10
6.1409768084
 20
4.3357303671
 30
0.0
 10
6.1549681105
 20
4.3204636953
 30
0.0
 10
6.1622060848
 20
4.3130786471
 30
0.0
  0
SPLINE
  5
28B
100
AcDbEntity
  8
0
100
AcDbSpline
 62
7
  6
CONTINUOUS
 70
0
 71
3
 72
15
 73
11
 74
0
 42
0.0000001
 43
0.0000001
 44
0.0000000001
 40
0.0
 40
0.0
 40
0.0
 40
0.0
 40
0.1249256942
 40
0.2499530496
 40
0.374974461
 40
0.5000001416
 40
0.6250255569
 40
0.7500468675
 40
0.8750743105
 40
1.0
 40
1.0
 40
1.0
 40
1.0
 10
6.0431618767
 20
4.7440051266
 30
0.0
 10
6.0410514317
 20
4.7351958933
 30
0.0
 10
6.0373322894
 20
4.7174451559
 30
0.0
 10
6.0333011773
 20
4.6905409985
 30
0.0
 10
6.0308565163
 20
4.6634377389
 30
0.0
 10
6.0300387796
 20
4.6362367468
 30
0.0
 10
6.0308558557
 20
4.6090357058
 30
0.0
 10
6.0333020131
 20
4.5819325808
 30
0.0
 10
6.0373339355
 20
4.5550285762
 30
0.0
 10
6.041052413
 20
4.5372777257
 30
0.0
 10
6.0431621555
 20
4.5284683245
 30
0.0
  0
SPLINE
  5
28C
100
AcDbEntity
  8
0
100
AcDbSpline
 62
7
  6
CONTINUOUS
 70
0
 71
3
 72
65
 73
61
 74
0
 42
0.0000001
 43
0.0000001
 44
0.0000000001
 40
0.0
 40
0.0
 40
0.0
 40
0.0
 40
0.0313732582
 40
0.0627119431
 40
0.0939924041
 40
0.1096131526
 40
0.1252183332
 40
0.1408094637
 40
0.1563888172
 40
0.1719589666
 40
0.1875224728
 40
0.2030820785
 40
0.2186406079
 40
0.2342006289
 40
0.2497643953
 40
0.2653339524
 40
0.2809111861
 40
0.2964971643
 40
0.3120931451
 40
0.3277002667
 40
0.3433186328
 40
0.3589475871
 40
0.3667666864
 40
0.3745886822
 40
0.3902400742
 40
0.4059017269
 40
0.4215717526
 40
0.4372491131
 40
0.4529332962
 40
0.4686228173
 40
0.4999999929
 40
0.5313771666
 40
0.5470666672
 40
0.5627508521
 40
0.5784282304
 40
0.5940982528
 40
0.6097599006
 40
0.6254113158
 40
0.6332333265
 40
0.6410524333
 40
0.6566813786
 40
0.6722997258
 40
0.6879068494
 40
0.7035028473
 40
0.7190888319
 40
0.7346660559
 40
0.7502356052
 40
0.7657993759
 40
0.7813594035
 40
0.7969179321
 40
0.8124775343
 40
0.8280410407
 40
0.8436111911
 40
0.8591905439
 40
0.8747816747
 40
0.8903868588
 40
0.9060076094
 40
0.9372880737
 40
0.9686267664
 40
1.0
 40
1.0
 40
1.0
 40
1.0
 10
6.4874658385
 20
5.0868661939
 30
0.0
 10
6.4726976024
 20
5.0868661916
 30
0.0
 10
6.4431558119
 20
5.0853940114
 30
0.0
 10
6.3993371677
 20
5.078798019
 30
0.0
 10
6.3635745526
 20
5.0697231487
 30
0.0
 10
6.3356603998
 20
5.060390016
 30
0.0
 10
6.3151205251
 20
5.0523774077
 30
0.0
 10
6.2950178796
 20
5.043372654
 30
0.0
 10
6.2753954772
 20
5.033400645
 30
0.0
 10
6.2562953827
 20
5.0224878031
 30
0.0
 10
6.2377589102
 20
5.0106600938
 30
0.0
 10
6.2198275824
 20
4.9979430314
 30
0.0
 10
6.2025412695
 20
4.9843649057
 30
0.0
 10
6.1859355988
 20
4.9699594426
 30
0.0
 10
6.1700467784
 20
4.9547594783
 30
0.0
 10
6.1549105046
 20
4.9387987771
 30
0.0
 10
6.1405631696
 20
4.9221114709
 30
0.0
 10
6.127040657
 20
4.9047331254
 30
0.0
 10
6.1143812988
 20
4.8866991066
 30
0.0
 10
6.1026090029
 20
4.8680560743
 30
0.0
 10
6.0917416072
 20
4.8488540085
 30
0.0
 10
6.0834678361
 20
4.8324218132
 30
0.0
 10
6.0773388659
 20
4.8190373949
 30
0.0
 10
6.0715406478
 20
4.8054949189
 30
0.0
 10
6.0649199388
 20
4.7882951991
 30
0.0
 10
6.0579884156
 20
4.7672843725
 30
0.0
 10
6.0520818084
 20
4.7459496334
 30
0.0
 10
6.0472269528
 20
4.7243403898
 30
0.0
 10
6.0434430502
 20
4.7025083116
 30
0.0
 10
6.0398270595
 20
4.6731822536
 30
0.0
 10
6.0379952739
 20
4.6362383673
 30
0.0
 10
6.039826456
 20
4.5992944157
 30
0.0
 10
6.0434430801
 20
4.5699684352
 30
0.0
 10
6.0472275043
 20
4.5481364557
 30
0.0
 10
6.0520821069
 20
4.526527161
 30
0.0
 10
6.0579880787
 20
4.505192239
 30
0.0
 10
6.0649195026
 20
4.4841813601
 30
0.0
 10
6.0715405087
 20
4.4669817359
 30
0.0
 10
6.0773388869
 20
4.4534393064
 30
0.0
 10
6.0834678948
 20
4.4400548994
 30
0.0
 10
6.0917415689
 20
4.4236226676
 30
0.0
 10
6.1026089396
 20
4.4044205972
 30
0.0
 10
6.1143813988
 20
4.3857776665
 30
0.0
 10
6.1270408188
 20
4.3677436818
 30
0.0
 10
6.1405631752
 20
4.35036521
 30
0.0
 10
6.154910382
 20
4.3336777958
 30
0.0
 10
6.1700467292
 20
4.3177171678
 30
0.0
 10
6.1859356638
 20
4.302517323
 30
0.0
 10
6.2025413309
 20
4.2881118528
 30
0.0
 10
6.2198275833
 20
4.2745336482
 30
0.0
 10
6.2377588926
 20
4.2618165605
 30
0.0
 10
6.2562953845
 20
4.2499888828
 30
0.0
 10
6.2753954883
 20
4.2390760579
 30
0.0
 10
6.2950178844
 20
4.2291040366
 30
0.0
 10
6.3151205267
 20
4.2200992717
 30
0.0
 10
6.3356604062
 20
4.2120866675
 30
0.0
 10
6.3635745634
 20
4.2027535361
 30
0.0
 10
6.3993371879
 20
4.1936786678
 30
0.0
 10
6.4431558359
 20
4.1870827588
 30
0.0
 10
6.472697614
 20
4.1856105219
 30
0.0
 10
6.4874658385
 20
4.1856105142
 30
0.0
  0
SPLINE
  5
28D
100
AcDbEntity
  8
0
100
AcDbSpline
 62
7
  6
CONTINUOUS
 70
0
 71
3
 72
18
 73
14
 74
0
 42
0.0000001
 43
0.0000001
 44
0.0000000001
 40
0.0
 40
0.0
 40
0.0
 40
0.0
 40
0.12544199
 40
0.1881458232
 40
0.2508132456
 40
0.3760122721
 40
0.4385672583
 40
0.5010901217
 40
0.5635798505
 40
0.6260329056
 40
0.7508087134
 40
0.8754557096
 40
1.0
 40
1.0
 40
1.0
 40
1.0
 10
6.9317697564
 20
4.7440056988
 30
0.0
 10
6.9293430693
 20
4.7541357575
 30
0.0
 10
6.9251835039
 20
4.769211683
 30
0.0
 10
6.9186397003
 20
4.7889873816
 30
0.0
 10
6.9114464202
 20
4.8085150812
 30
0.0
 10
6.9032742293
 20
4.8276578327
 30
0.0
 10
6.8941345999
 20
4.8463267246
 30
0.0
 10
6.8868128938
 20
4.860077626
 30
0.0
 10
6.8790387681
 20
4.8735679856
 30
0.0
 10
6.8680959864
 20
4.8911857026
 30
0.0
 10
6.8533377204
 20
4.9124938557
 30
0.0
 10
6.8339350242
 20
4.9367691737
 30
0.0
 10
6.8199405616
 20
4.9520371749
 30
0.0
 10
6.8127010074
 20
4.9594228568
 30
0.0
  0
SPLINE
  5
28E
100
AcDbEntity
  8
0
100
AcDbSpline
 62
7
  6
CONTINUOUS
 70
0
 71
3
 72
15
 73
11
 74
0
 42
0.0000001
 43
0.0000001
 44
0.0000000001
 40
0.0
 40
0.0
 40
0.0
 40
0.0
 40
0.1249256864
 40
0.249953147
 40
0.3749744821
 40
0.4999999491
 40
0.6250256013
 40
0.7500469662
 40
0.875074306
 40
1.0
 40
1.0
 40
1.0
 40
1.0
 10
6.9317695691
 20
4.5284687938
 30
0.0
 10
6.9338794299
 20
4.5372781707
 30
0.0
 10
6.937597984
 20
4.5550290207
 30
0.0
 10
6.9416297612
 20
4.5819330654
 30
0.0
 10
6.9440757352
 20
4.609036223
 30
0.0
 10
6.9448929112
 20
4.6362372723
 30
0.0
 10
6.9440752566
 20
4.6634382831
 30
0.0
 10
6.941630356
 20
4.6905415299
 30
0.0
 10
6.9375991269
 20
4.7174456727
 30
0.0
 10
6.9338800954
 20
4.7351964359
 30
0.0
 10
6.9317697564
 20
4.7440056988
 30
0.0
  0
SPLINE
  5
28F
100
AcDbEntity
  8
0
100
AcDbSpline
 62
7
  6
CONTINUOUS
 70
0
 71
3
 72
65
 73
61
 74
0
 42
0.0000001
 43
0.0000001
 44
0.0000000001
 40
0.0
 40
0.0
 40
0.0
 40
0.0
 40
0.0313732568
 40
0.062711938
 40
0.0939924001
 40
0.1096131484
 40
0.1252183281
 40
0.1408094572
 40
0.1563888109
 40
0.1719589621
 40
0.1875224687
 40
0.2030820711
 40
0.2186405993
 40
0.2342006262
 40
0.2497643964
 40
0.2653339449
 40
0.2809111671
 40
0.2964971502
 40
0.3120931487
 40
0.3277002749
 40
0.3433186255
 40
0.3589475691
 40
0.3667666709
 40
0.3745886734
 40
0.3902400706
 40
0.4059017076
 40
0.4215717258
 40
0.4372491025
 40
0.4529332924
 40
0.468622801
 40
0.4999999726
 40
0.5313771475
 40
0.5470666674
 40
0.5627508515
 40
0.5784282137
 40
0.5940982422
 40
0.6097599058
 40
0.6254113153
 40
0.6332333186
 40
0.641052422
 40
0.6566813774
 40
0.6722997423
 40
0.6879068647
 40
0.7035028473
 40
0.7190888271
 40
0.7346660615
 40
0.7502356179
 40
0.7657993836
 40
0.7813594053
 40
0.7969179353
 40
0.8124775405
 40
0.8280410462
 40
0.8436111955
 40
0.8591905496
 40
0.874781681
 40
0.8903868626
 40
0.9060076099
 40
0.9372880738
 40
0.968626766
 40
1.0
 40
1.0
 40
1.0
 40
1.0
 10
6.4874658385
 20
4.1856105142
 30
0.0
 10
6.502234074
 20
4.185610516
 30
0.0
 10
6.5317758628
 20
4.1870826954
 30
0.0
 10
6.5755945018
 20
4.1936787075
 30
0.0
 10
6.6113571187
 20
4.2027535614
 30
0.0
 10
6.639271277
 20
4.2120866779
 30
0.0
 10
6.659811154
 20
4.2200992775
 30
0.0
 10
6.6799137965
 20
4.2291040359
 30
0.0
 10
6.6995361952
 20
4.2390760524
 30
0.0
 10
6.7186362981
 20
4.249988881
 30
0.0
 10
6.7371727845
 20
4.2618165684
 30
0.0
 10
6.7551040915
 20
4.2745336592
 30
0.0
 10
6.772390347
 20
4.2881118592
 30
0.0
 10
6.7889960159
 20
4.3025173264
 30
0.0
 10
6.8048849466
 20
4.317717174
 30
0.0
 10
6.8200212896
 20
4.3336778038
 30
0.0
 10
6.8343684976
 20
4.3503652143
 30
0.0
 10
6.8478908582
 20
4.3677436813
 30
0.0
 10
6.8605502833
 20
4.3857776635
 30
0.0
 10
6.872322749
 20
4.4044205937
 30
0.0
 10
6.8831901278
 20
4.4236226619
 30
0.0
 10
6.8914638002
 20
4.4400548933
 30
0.0
 10
6.8975927838
 20
4.4534393039
 30
0.0
 10
6.9033911184
 20
4.4669817363
 30
0.0
 10
6.910012064
 20
4.4841813644
 30
0.0
 10
6.9169435287
 20
4.505192211
 30
0.0
 10
6.9228496357
 20
4.5265270875
 30
0.0
 10
6.9277042677
 20
4.5481363781
 30
0.0
 10
6.9314885833
 20
4.5699683831
 30
0.0
 10
6.9351051068
 20
4.5992943788
 30
0.0
 10
6.9369364136
 20
4.6362383204
 30
0.0
 10
6.9351047096
 20
4.6731822154
 30
0.0
 10
6.9314886577
 20
4.7025082668
 30
0.0
 10
6.9277046772
 20
4.7243403318
 30
0.0
 10
6.9228498294
 20
4.7459495779
 30
0.0
 10
6.9169433057
 20
4.7672843473
 30
0.0
 10
6.9100118174
 20
4.7882952023
 30
0.0
 10
6.9033910763
 20
4.8054949285
 30
0.0
 10
6.8975928321
 20
4.8190374082
 30
0.0
 10
6.8914638426
 20
4.8324218243
 30
0.0
 10
6.8831900542
 20
4.848854013
 30
0.0
 10
6.8723226426
 20
4.86805607
 30
0.0
 10
6.8605503485
 20
4.8866991037
 30
0.0
 10
6.8478910059
 20
4.9047331358
 30
0.0
 10
6.8343685055
 20
4.9221114934
 30
0.0
 10
6.8200211738
 20
4.9387988038
 30
0.0
 10
6.8048848931
 20
4.9547594983
 30
0.0
 10
6.7889960644
 20
4.9699594534
 30
0.0
 10
6.7723903939
 20
4.9843649169
 30
0.0
 10
6.7551040849
 20
4.9979430483
 30
0.0
 10
6.737172757
 20
5.0106601106
 30
0.0
 10
6.7186362786
 20
5.0224878099
 30
0.0
 10
6.699536181
 20
5.033400646
 30
0.0
 10
6.6799137794
 20
5.0433726577
 30
0.0
 10
6.6598111376
 20
5.0523774225
 30
0.0
 10
6.639271267
 20
5.0603900423
 30
0.0
 10
6.6113571148
 20
5.0697231821
 30
0.0
 10
6.5755944833
 20
5.0787980112
 30
0.0
 10
6.5317758435
 20
5.0853939683
 30
0.0
 10
6.5022340632
 20
5.0868661872
 30
0.0
 10
6.4874658385
 20
5.0868661939
 30
0.0
  0
SPLINE
  5
290
100
AcDbEntity
  8
0
100
AcDbSpline
 62
7
  6
CONTINUOUS
 70
0
 71
3
 72
31
 73
27
 74
0
 42
0.0000001
 43
0.0000001
 44
0.0000000001
 40
0.0
 40
0.0
 40
0.0
 40
0.0
 40
0.1250918805
 40
0.250133021
 40
0.31263506
 40
0.3751233276
 40
0.4375976243
 40
0.5000577994
 40
0.562503952
 40
0.6249367201
 40
0.6873573291
 40
0.7185669191
 40
0.7497753186
 40
0.7809843261
 40
0.8121955928
 40
0.8434112742
 40
0.8746356172
 40
0.9058746819
 40
0.9215139585
 40
0.9371695461
 40
0.9528380124
 40
0.9606882635
 40
0.9685478282
 40
0.9764084757
 40
0.9842843093
 40
1.0
 40
1.0
 40
1.0
 40
1.0
 10
6.9662289964
 20
5.0282899364
 30
0.0
 10
6.9662289963
 20
5.0321638177
 30
0.0
 10
6.9661547315
 20
5.0399102566
 30
0.0
 10
6.9658393047
 20
5.0495880641
 30
0.0
 10
6.9654205555
 20
5.0573200564
 30
0.0
 10
6.9650119546
 20
5.0631114149
 30
0.0
 10
6.9644951588
 20
5.0688929156
 30
0.0
 10
6.9638524297
 20
5.0746606039
 30
0.0
 10
6.9630608123
 20
5.0804087171
 30
0.0
 10
6.9620892562
 20
5.0861282031
 30
0.0
 10
6.9610933657
 20
5.0908593656
 30
0.0
 10
6.9601524758
 20
5.0946096305
 30
0.0
 10
6.9593625647
 20
5.0973999593
 30
0.0
 10
6.9584740826
 20
5.1001607659
 30
0.0
 10
6.9574672307
 20
5.1028812386
 30
0.0
 10
6.956314984
 20
5.1055447722
 30
0.0
 10
6.9549792995
 20
5.1081230856
 30
0.0
 10
6.9536653292
 20
5.1101610898
 30
0.0
 10
6.9524508683
 20
5.1116719943
 30
0.0
 10
6.9514420584
 20
5.1127226198
 30
0.0
 10
6.950506537
 20
5.1135009548
 30
0.0
 10
6.9496948216
 20
5.1140368588
 30
0.0
 10
6.9490537426
 20
5.114387783
 30
0.0
 10
6.9483812724
 20
5.1146773057
 30
0.0
 10
6.9474495328
 20
5.1149650098
 30
0.0
 10
6.9467156844
 20
5.1150601612
 30
0.0
 10
6.9462289964
 20
5.1150601667
 30
0.0
  0
SPLINE
  5
291
100
AcDbEntity
  8
0
100
AcDbSpline
 62
7
  6
CONTINUOUS
 70
0
 71
3
 72
33
 73
29
 74
0
 42
0.0000001
 43
0.0000001
 44
0.0000000001
 40
0.0
 40
0.0
 40
0.0
 40
0.0
 40
0.0157160584
 40
0.0235939036
 40
0.0314549765
 40
0.0393141083
 40
0.0471646892
 40
0.0628325966
 40
0.0706675898
 40
0.0784936828
 40
0.0941320352
 40
0.1097614434
 40
0.1253837575
 40
0.1566074288
 40
0.187822321
 40
0.2190327664
 40
0.250241045
 40
0.2814488029
 40
0.3126577381
 40
0.3750769447
 40
0.4375083013
 40
0.4999531196
 40
0.5624119455
 40
0.6248848826
 40
0.687371776
 40
0.7498724393
 40
0.8749108407
 40
1.0
 40
1.0
 40
1.0
 40
1.0
 10
6.9462289964
 20
4.1574164923
 30
0.0
 10
6.9467157042
 20
4.1574164856
 30
0.0
 10
6.9474495738
 20
4.1575123341
 30
0.0
 10
6.9483813532
 20
4.157800138
 30
0.0
 10
6.9490540063
 20
4.1580894077
 30
0.0
 10
6.949695282
 20
4.1584400436
 30
0.0
 10
6.9505070875
 20
4.158975735
 30
0.0
 10
6.9512562063
 20
4.1595986644
 30
0.0
 10
6.9519469679
 20
4.1602802715
 30
0.0
 10
6.9526033028
 20
4.1609940689
 30
0.0
 10
6.9533624815
 20
4.1619389473
 30
0.0
 10
6.9541914804
 20
4.1631322929
 30
0.0
 10
6.9552023411
 20
4.1647830042
 30
0.0
 10
6.9563154827
 20
4.1669323899
 30
0.0
 10
6.9574673541
 20
4.1695957633
 30
0.0
 10
6.9584741234
 20
4.1723163176
 30
0.0
 10
6.9593626083
 20
4.1750770832
 30
0.0
 10
6.960152567
 20
4.1778673909
 30
0.0
 10
6.9610934803
 20
4.1816176316
 30
0.0
 10
6.9620892884
 20
4.1863487887
 30
0.0
 10
6.9630608276
 20
4.1920682473
 30
0.0
 10
6.9638524607
 20
4.1978163319
 30
0.0
 10
6.9644951773
 20
4.2035839966
 30
0.0
 10
6.9650119831
 20
4.2093654701
 30
0.0
 10
6.9654205664
 20
4.215156803
 30
0.0
 10
6.9658393077
 20
4.2228887595
 30
0.0
 10
6.9661547318
 20
4.2325665227
 30
0.0
 10
6.9662289966
 20
4.2403129265
 30
0.0
 10
6.9662289964
 20
4.2441867904
 30
0.0
  0
SPLINE
  5
292
100
AcDbEntity
  8
0
100
AcDbSpline
 62
7
  6
CONTINUOUS
 70
0
 71
3
 72
31
 73
27
 74
0
 42
0.0000001
 43
0.0000001
 44
0.0000000001
 40
0.0
 40
0.0
 40
0.0
 40
0.0
 40
0.1250918846
 40
0.2501330169
 40
0.312635056
 40
0.3751233247
 40
0.4375976174
 40
0.5000577874
 40
0.5625039465
 40
0.6249367127
 40
0.6873573064
 40
0.7185669093
 40
0.7497753287
 40
0.780984329
 40
0.8121955589
 40
0.8434112259
 40
0.8746355966
 40
0.9058747199
 40
0.9215139985
 40
0.9371695868
 40
0.9528380431
 40
0.9606882772
 40
0.9685478221
 40
0.976408467
 40
0.9842843198
 40
1.0
 40
1.0
 40
1.0
 40
1.0
 10
6.0087026806
 20
4.2441868107
 30
0.0
 10
6.0087026803
 20
4.2403129336
 30
0.0
 10
6.0087769427
 20
4.2325665031
 30
0.0
 10
6.009092372
 20
4.2228887061
 30
0.0
 10
6.0095111221
 20
4.2151567225
 30
0.0
 10
6.0099197075
 20
4.2093653691
 30
0.0
 10
6.0104365224
 20
4.2035838767
 30
0.0
 10
6.0110792382
 20
4.1978161935
 30
0.0
 10
6.0118708462
 20
4.1920680849
 30
0.0
 10
6.012842425
 20
4.1863486098
 30
0.0
 10
6.0138382806
 20
4.1816174457
 30
0.0
 10
6.0147791631
 20
4.1778671825
 30
0.0
 10
6.0155690908
 20
4.1750768605
 30
0.0
 10
6.016457598
 20
4.1723160663
 30
0.0
 10
6.0174644224
 20
4.1695955898
 30
0.0
 10
6.0186165901
 20
4.1669320271
 30
0.0
 10
6.019952244
 20
4.1643536943
 30
0.0
 10
6.0212663012
 20
4.1623157436
 30
0.0
 10
6.0224808048
 20
4.1608048747
 30
0.0
 10
6.023489635
 20
4.1597542716
 30
0.0
 10
6.0244251623
 20
4.1589759481
 30
0.0
 10
6.0252368775
 20
4.1584400484
 30
0.0
 10
6.0258779537
 20
4.1580891235
 30
0.0
 10
6.0265504191
 20
4.1577995927
 30
0.0
 10
6.0274821475
 20
4.1575118593
 30
0.0
 10
6.0282159934
 20
4.1574166747
 30
0.0
 10
6.0287026806
 20
4.1574166673
 30
0.0
  0
SPLINE
  5
293
100
AcDbEntity
  8
0
100
AcDbSpline
 62
7
  6
CONTINUOUS
 70
0
 71
3
 72
33
 73
29
 74
0
 42
0.0000001
 43
0.0000001
 44
0.0000000001
 40
0.0
 40
0.0
 40
0.0
 40
0.0
 40
0.0157160553
 40
0.0235939045
 40
0.0314549778
 40
0.0393141056
 40
0.0471646828
 40
0.0628325924
 40
0.0706675956
 40
0.0784937043
 40
0.0941320816
 40
0.1097615039
 40
0.1253838309
 40
0.1566074737
 40
0.1878223349
 40
0.2190327789
 40
0.2502410776
 40
0.2814488464
 40
0.3126577744
 40
0.3750769607
 40
0.437508332
 40
0.4999531344
 40
0.5624119649
 40
0.6248848921
 40
0.6873717899
 40
0.7498724507
 40
0.8749108465
 40
1.0
 40
1.0
 40
1.0
 40
1.0
 10
6.0287026806
 20
5.1150600913
 30
0.0
 10
6.0282159733
 20
5.1150600979
 30
0.0
 10
6.027482105
 20
5.1149642468
 30
0.0
 10
6.0265503255
 20
5.1146764472
 30
0.0
 10
6.0258776698
 20
5.1143871856
 30
0.0
 10
6.0252363893
 20
5.1140365604
 30
0.0
 10
6.0244245748
 20
5.1135008848
 30
0.0
 10
6.0236754433
 20
5.112877972
 30
0.0
 10
6.0229846645
 20
5.1121963824
 30
0.0
 10
6.0223283094
 20
5.1114826028
 30
0.0
 10
6.0215691053
 20
5.1105377435
 30
0.0
 10
6.020740103
 20
5.109344399
 30
0.0
 10
6.0197292736
 20
5.1076936701
 30
0.0
 10
6.0186161968
 20
5.1055442555
 30
0.0
 10
6.0174643429
 20
5.1028808815
 30
0.0
 10
6.0164575386
 20
5.1001603436
 30
0.0
 10
6.015569029
 20
5.0973995874
 30
0.0
 10
6.014779089
 20
5.0946092762
 30
0.0
 10
6.0138382046
 20
5.0908590328
 30
0.0
 10
6.012842377
 20
5.0861278854
 30
0.0
 10
6.0118708349
 20
5.080408433
 30
0.0
 10
6.0110792191
 20
5.0746603515
 30
0.0
 10
6.0104364915
 20
5.0688926943
 30
0.0
 10
6.0099196924
 20
5.0631112256
 30
0.0
 10
6.0095111091
 20
5.0573198985
 30
0.0
 10
6.009092368
 20
5.0495879495
 30
0.0
 10
6.0087769454
 20
5.0399101958
 30
0.0
 10
6.0087026805
 20
5.0321637997
 30
0.0
 10
6.0087026806
 20
5.0282899396
 30
0.0
  0
SPLINE
  5
294
100
AcDbEntity
  8
0
100
AcDbSpline
 62
7
  6
CONTINUOUS
 70
0
 71
3
 72
20
 73
16
 74
0
 42
0.0000001
 43
0.0000001
 44
0.0000000001
 40
0.0
 40
0.0
 40
0.0
 40
0.0
 40
0.1816178476
 40
0.3571017246
 40
0.5206038748
 40
0.6670272416
 40
0.7323232365
 40
0.7916432158
 40
0.8445092346
 40
0.8905013808
 40
0.9292903455
 40
0.9605733606
 40
0.9841578892
 40
0.9930424787
 40
1.0
 40
1.0
 40
1.0
 40
1.0
 10
6.9462289964
 20
4.7467305862
 30
0.0
 10
6.9453612709
 20
4.7465235513
 30
0.0
 10
6.9436531549
 20
4.7461246854
 30
0.0
 10
6.9411573105
 20
4.7455679624
 30
0.0
 10
6.9388245908
 20
4.7450746268
 30
0.0
 10
6.9370165664
 20
4.744716675
 30
0.0
 10
6.9357072554
 20
4.7444755551
 30
0.0
 10
6.9348483025
 20
4.7443265292
 30
0.0
 10
6.9340811449
 20
4.7442033743
 30
0.0
 10
6.9334119062
 20
4.7441070896
 30
0.0
 10
6.932845913
 20
4.7440380556
 30
0.0
 10
6.932387701
 20
4.7439969828
 30
0.0
 10
6.9320744635
 20
4.743983829
 30
0.0
 10
6.9318808628
 20
4.7439907182
 30
0.0
 10
6.9318033486
 20
4.7439993594
 30
0.0
 10
6.9317697625
 20
4.7440056733
 30
0.0
  0
SPLINE
  5
295
100
AcDbEntity
  8
0
100
AcDbSpline
 62
7
  6
CONTINUOUS
 70
0
 71
3
 72
20
 73
16
 74
0
 42
0.0000001
 43
0.0000001
 44
0.0000000001
 40
0.0
 40
0.0
 40
0.0
 40
0.0
 40
0.181617617
 40
0.3571013654
 40
0.5206034708
 40
0.6670268571
 40
0.7323228798
 40
0.7916428959
 40
0.8445089584
 40
0.8905011534
 40
0.9292901706
 40
0.9605732409
 40
0.9841578271
 40
0.9930424468
 40
1.0
 40
1.0
 40
1.0
 40
1.0
 10
6.0287026806
 20
4.5257443976
 30
0.0
 10
6.0295704221
 20
4.5259513749
 30
0.0
 10
6.0312785695
 20
4.5263501271
 30
0.0
 10
6.0337744588
 20
4.5269066833
 30
0.0
 10
6.0361072198
 20
4.5273998624
 30
0.0
 10
6.0379152753
 20
4.5277576924
 30
0.0
 10
6.039224608
 20
4.5279987238
 30
0.0
 10
6.0400835749
 20
4.5281476914
 30
0.0
 10
6.0408507444
 20
4.5282707941
 30
0.0
 10
6.0415199929
 20
4.5283670331
 30
0.0
 10
6.0420859937
 20
4.5284360282
 30
0.0
 10
6.0425442111
 20
4.5284770693
 30
0.0
 10
6.0428574514
 20
4.5284902011
 30
0.0
 10
6.043051053
 20
4.5284832981
 30
0.0
 10
6.0431285671
 20
4.5284746513
 30
0.0
 10
6.043162153
 20
4.5284683349
 30
0.0
  0
SPLINE
  5
296
100
AcDbEntity
  8
0
100
AcDbSpline
 62
7
  6
CONTINUOUS
 70
0
 71
3
 72
20
 73
16
 74
0
 42
0.0000001
 43
0.0000001
 44
0.0000000001
 40
0.0
 40
0.0
 40
0.0
 40
0.0
 40
0.1816177108
 40
0.3571015155
 40
0.5206036441
 40
0.667027024
 40
0.7323230343
 40
0.7916430328
 40
0.8445090736
 40
0.8905012437
 40
0.9292902343
 40
0.9605732781
 40
0.984157841
 40
0.993042452
 40
1.0
 40
1.0
 40
1.0
 40
1.0
 10
6.9462289931
 20
4.5257446942
 30
0.0
 10
6.9453612545
 20
4.5259516809
 30
0.0
 10
6.9436531129
 20
4.5263504521
 30
0.0
 10
6.941157232
 20
4.5269070365
 30
0.0
 10
6.938824479
 20
4.5274002423
 30
0.0
 10
6.9370164298
 20
4.527758093
 30
0.0
 10
6.9357071015
 20
4.5279991393
 30
0.0
 10
6.9348481376
 20
4.5281481167
 30
0.0
 10
6.9340809707
 20
4.5282712279
 30
0.0
 10
6.9334117244
 20
4.5283674743
 30
0.0
 10
6.9328457253
 20
4.5284364754
 30
0.0
 10
6.9323875093
 20
4.5284775211
 30
0.0
 10
6.9320742697
 20
4.5284906557
 30
0.0
 10
6.9318806685
 20
4.5284837542
 30
0.0
 10
6.9318031545
 20
4.5284751079
 30
0.0
 10
6.9317695686
 20
4.5284687917
 30
0.0
  0
SPLINE
  5
297
100
AcDbEntity
  8
0
100
AcDbSpline
 62
7
  6
CONTINUOUS
 70
0
 71
3
 72
20
 73
16
 74
0
 42
0.0000001
 43
0.0000001
 44
0.0000000001
 40
0.0
 40
0.0
 40
0.0
 40
0.0
 40
0.1816179315
 40
0.3571018645
 40
0.5206040437
 40
0.667027413
 40
0.7323234
 40
0.7916433656
 40
0.8445093657
 40
0.8905014887
 40
0.9292904266
 40
0.960573413
 40
0.9841579129
 40
0.9930424895
 40
1.0
 40
1.0
 40
1.0
 40
1.0
 10
6.0287026835
 20
4.7467301939
 30
0.0
 10
6.0295704064
 20
4.7465231496
 30
0.0
 10
6.0312785173
 20
4.746124265
 30
0.0
 10
6.0337743542
 20
4.7455675138
 30
0.0
 10
6.0361070667
 20
4.7450741513
 30
0.0
 10
6.0379150856
 20
4.7447161783
 30
0.0
 10
6.0392243926
 20
4.744475043
 30
0.0
 10
6.0400833429
 20
4.744326007
 30
0.0
 10
6.0408504982
 20
4.7442028432
 30
0.0
 10
6.0415197348
 20
4.7441065507
 30
0.0
 10
6.0420857264
 20
4.7440375102
 30
0.0
 10
6.0425439372
 20
4.7439964324
 30
0.0
 10
6.042857174
 20
4.7439832754
 30
0.0
 10
6.0430507743
 20
4.7439901628
 30
0.0
 10
6.0431282884
 20
4.7439988034
 30
0.0
 10
6.0431618744
 20
4.744005117
 30
0.0
  0
SPLINE
  5
298
100
AcDbEntity
  8
0
100
AcDbSpline
 62
7
  6
CONTINUOUS
 70
0
 71
3
 72
18
 73
14
 74
0
 42
0.0000001
 43
0.0000001
 44
0.0000000001
 40
0.0
 40
0.0
 40
0.0
 40
0.0
 40
0.1245441326
 40
0.2491909462
 40
0.3739665707
 40
0.4364195344
 40
0.4989091926
 40
0.5614320452
 40
0.6239870827
 40
0.7491862242
 40
0.8118536999
 40
0.8745576383
 40
1.0
 40
1.0
 40
1.0
 40
1.0
 10
6.1623384166
 20
4.9595326837
 30
0.0
 10
6.1550919367
 20
4.9521448367
 30
0.0
 10
6.1410840601
 20
4.9368717356
 30
0.0
 10
6.1216626134
 20
4.9125867837
 30
0.0
 10
6.1068901664
 20
4.8912689249
 30
0.0
 10
6.0959371923
 20
4.8736424389
 30
0.0
 10
6.0881560049
 20
4.8601450265
 30
0.0
 10
6.0808277449
 20
4.8463866785
 30
0.0
 10
6.0716799675
 20
4.8277074216
 30
0.0
 10
6.063500417
 20
4.8085537476
 30
0.0
 10
6.0563011741
 20
4.7890144711
 30
0.0
 10
6.0497525177
 20
4.7692267289
 30
0.0
 10
6.045590246
 20
4.7541414508
 30
0.0
 10
6.0431618767
 20
4.7440051266
 30
0.0
  0
ELLIPSE
  5
299
100
AcDbEntity
  8
0
100
AcDbEllipse
 62
7
  6
CONTINUOUS
 10
4.7853730178
 20
4.636238354
 30
0.0
 11
0.0
 21
0.0625
 31
0.0
 40
0.75
 41
-3.1415926536
 42
-0.0
  0
ELLIPSE
  5
29A
100
AcDbEntity
  8
0
100
AcDbEllipse
 62
7
  6
CONTINUOUS
 10
5.6240055813
 20
4.636238354
 30
0.0
 11
0.0
 21
0.0625
 31
0.0
 40
0.5675675676
 41
0.0
 42
6.2831853072
  0
ELLIPSE
  5
29B
100
AcDbEntity
  8
0
100
AcDbEllipse
 62
7
  6
CONTINUOUS
 10
5.6240055813
 20
4.636238354
 30
0.0
 11
0.0
 21
0.03125
 31
0.0
 40
0.5675675676
 41
0.0
 42
6.2831853072
  0
ENDSEC
  0
SECTION
  2
OBJECTS
  0
DICTIONARY
  5
C
100
AcDbDictionary
280
0
281
1
  3
ACAD_GROUP
350
D
  3
ACAD_MLINESTYLE
350
17
  3
ACAD_LAYOUT
350
1A
  3
ACAD_PLOTSETTINGS
350
19
  3
ACAD_PLOTSTYLENAME
350
E
  0
DICTIONARY
  5
D
102
{ACAD_REACTORS
330
C
102
}
100
AcDbDictionary
280
0
281
1
  0
ACDBDICTIONARYWDFLT
  5
E
102
{ACAD_REACTORS
330
C
102
}
100
AcDbDictionary
281
1
  3
Normal
350
F
100
AcDbDictionaryWithDefault
340
F
  0
DICTIONARY
  5
17
102
{ACAD_REACTORS
330
C
102
}
100
AcDbDictionary
280
0
281
1
  3
Standard
350
18
  0
DICTIONARY
  5
19
102
{ACAD_REACTORS
330
C
102
}
100
AcDbDictionary
281
1
  0
DICTIONARY
  5
1A
102
{ACAD_REACTORS
330
C
102
}
100
AcDbDictionary
281
1
  3
Model
350
29C
  3
Layout1
350
29D
  0
ACDBPLACEHOLDER
  5
F
102
{ACAD_REACTORS
330
E
102
}
  0
MLINESTYLE
  5
18
102
{ACAD_REACTORS
330
17
102
}
100
AcDbMlineStyle
  2
STANDARD
 70
0
  3

 62
256
 51
90.0
 52
90.0
 71
2
 49
0.5
 62
256
  6
BYLAYER
 49
-0.5
 62
256
  6
BYLAYER
  0
LAYOUT
  5
29C
102
{ACAD_REACTORS
330
1A
102
}
100
AcDbPlotSettings
  1

  2
none_device
  4
ANSI_A_(11.00_x_8.50_Inches)
  6

 40
0.0
 41
0.0
 42
0.0
 43
0.0
 44
279.4
 45
215.9
 46
0.0
 47
0.0
 48
0.0
 49
0.0
140
0.0
141
0.0
142
1.0
143
1.0
 70
1024
 72
0
 73
0
 74
0
  7

 75
0
147
1.0
148
0.0
149
0.0
100
AcDbLayout
  1
Model
 70
0
 71
0
 10
0.0
 20
0.0
 11
11.0
 21
8.5
 12
0.0
 22
0.0
 32
0.0
 14
0.0
 24
0.0
 34
0.0
 15
0.0
 25
0.0
 35
0.0
146
0.0
 13
0.0
 23
0.0
 33
0.0
 16
1.0
 26
0.0
 36
0.0
 17
0.0
 27
1.0
 37
0.0
 76
0
330
202
345
0
346
0
  0
LAYOUT
  5
29D
102
{ACAD_REACTORS
330
1A
102
}
100
AcDbPlotSettings
  1

  2
none_device
  4
ANSI_A_(11.00_x_8.50_Inches)
  6

 40
0.0
 41
0.0
 42
0.0
 43
0.0
 44
279.4
 45
215.9
 46
0.0
 47
0.0
 48
0.0
 49
0.0
140
0.0
141
0.0
142
1.0
143
1.0
 70
0
 72
0
 73
0
 74
0
  7

 75
0
147
1.0
148
0.0
149
0.0
100
AcDbLayout
  1
Layout1
 70
0
 71
1
 10
0.0
 20
0.0
 11
11.0
 21
8.5
 12
0.0
 22
0.0
 32
0.0
 14
0.0
 24
0.0
 34
0.0
 15
0.0
 25
0.0
 35
0.0
146
0.0
 13
0.0
 23
0.0
 33
0.0
 16
1.0
 26
0.0
 36
0.0
 17
0.0
 27
1.0
 37
0.0
 76
0
330
203
345
0
346
0
  0
ENDSEC
  0
EOF
