999
DXF file: E:\BT Custom\CADOUTPUT\_FRONT.dxf
999
Pro/ENGINEER 2018400 by Parametric Technology Corporation
  0
SECTION
  2
HEADER
  9
$ACADVER
  1
AC1018
  9
$DWGCODEPAGE
  3
ANSI_1252
  9
$EXTMAX
 10
22.0
 20
17.0
 30
0.0
  9
$EXTMIN
 10
0.0
 20
0.0
 30
0.0
  9
$LIMMIN
 10
0.0
 20
0.0
  9
$LIMMAX
 10
22.0
 20
17.0
  9
$VIEWCTR
 10
11.0
 20
8.5
  9
$VIEWSIZE
 40
17.0
  9
$CLAYER
  8
0
  9
$LTSCALE
 40
1.21
  9
$CELTYPE
  6
BYLAYER
  9
$DIMSCALE
 40
1.0
  9
$DIMASZ
 40
0.1
  9
$DIMEXO
 40
0.0625
  9
$DIMDLI
 40
0.836
  9
$DIMEXE
 40
0.125
  9
$DIMCEN
 40
0.198
  9
$DIMLFAC
 40
1.0
  9
$DIMBLK
  1
_FILLED
  9
$DIMALT
 70
1
  9
$DIMALTD
 70
2
  9
$DIMALTTD
 70
2
  9
$DIMALTF
 40
25.4
  9
$DIMTXT
 40
0.08
  9
$DIMTOL
 70
1
  9
$DIMLIM
 70
0
  9
$DIMTFAC
 40
1.0
  9
$DIMTP
 40
0.001
  9
$DIMTM
 40
0.001
  9
$DIMGAP
 40
0.09
  9
$DIMDSEP
 70
46
  9
$AUNITS
 70
0
  9
$PDMODE
 70
3
  9
$PDSIZE
 40
0.06
  9
$HANDSEED
  5
49D
  9
$TILEMODE
 70
1
  9
$MEASUREMENT
 70
0
  9
$INSUNITS
 70
1
  0
ENDSEC
  0
SECTION
  2
CLASSES
  0
CLASS
  1
ACDBDICTIONARYWDFLT
  2
AcDbDictionaryWithDefault
  3
AutoCAD 2000
 90
0
 91
1
280
0
281
0
  0
CLASS
  1
ACDBPLACEHOLDER
  2
AcDbPlaceHolder
  3
AutoCAD 2000
 90
0
 91
1
280
0
281
0
  0
CLASS
  1
LAYOUT
  2
AcDbLayout
  3
AutoCAD 2000
 90
0
 91
0
280
0
281
0
  0
ENDSEC
  0
SECTION
  2
TABLES
  0
TABLE
  2
VPORT
  5
8
100
AcDbSymbolTable
 70
2
  0
VPORT
  5
1F4
100
AcDbSymbolTableRecord
100
AcDbViewportTableRecord
  2
*ACTIVE
 70
0
 10
0.0
 20
0.0
 11
1.0
 21
1.0
 12
11.0
 22
8.5
 13
0.0
 23
0.0
 14
1.0
 24
1.0
 15
0.0
 25
0.0
 16
0.0
 26
0.0
 36
1.0
 17
0.0
 27
0.0
 37
0.0
 40
17.0
 41
1.2941176471
 42
50.0
 43
0.0
 44
0.0
 50
0.0
 51
0.0
 71
0
 72
100
 73
1
 74
1
 75
0
 76
0
 77
0
 78
0
  0
ENDTAB
  0
TABLE
  2
LTYPE
  5
5
100
AcDbSymbolTable
 70
6
  0
LTYPE
  5
14
100
AcDbSymbolTableRecord
100
AcDbLinetypeTableRecord
  2
BYBLOCK
 70
0
  3

 72
65
 73
0
 40
0.0
  0
LTYPE
  5
15
100
AcDbSymbolTableRecord
100
AcDbLinetypeTableRecord
  2
BYLAYER
 70
0
  3

 72
65
 73
0
 40
0.0
  0
LTYPE
  5
16
100
AcDbSymbolTableRecord
100
AcDbLinetypeTableRecord
  2
CONTINUOUS
 70
64
  3
Solid line
 72
65
 73
0
 40
0.0
  0
LTYPE
  5
1F5
100
AcDbSymbolTableRecord
100
AcDbLinetypeTableRecord
  2
CENTER
 70
64
  3
____ _ ____ _ ____ _ ____ _ ____ _ ____ _ ____
 72
65
 73
4
 40
0.6
 49
0.375
 74
0
 49
-0.075
 74
0
 49
0.075
 74
0
 49
-0.075
 74
0
  0
LTYPE
  5
1F6
100
AcDbSymbolTableRecord
100
AcDbLinetypeTableRecord
  2
HIDDEN
 70
64
  3
- - - - - - - - - - - - - - - - - - - -
 72
65
 73
2
 40
0.2
 49
0.1
 74
0
 49
-0.1
 74
0
  0
LTYPE
  5
1F7
100
AcDbSymbolTableRecord
100
AcDbLinetypeTableRecord
  2
PHANTOM
 70
64
  3
_____ _ _ _____ _ _ _____ _ _ _____
 72
65
 73
6
 40
0.8
 49
0.45
 74
0
 49
-0.05
 74
0
 49
0.1
 74
0
 49
-0.05
 74
0
 49
0.1
 74
0
 49
-0.05
 74
0
  0
LTYPE
  5
1F8
100
AcDbSymbolTableRecord
100
AcDbLinetypeTableRecord
  2
DOT
 70
64
  3
. . . . . . . . . . . . . . . . . . . .
 72
65
 73
2
 40
0.2
 49
0.1
 74
0
 49
-0.1
 74
0
  0
LTYPE
  5
1F9
100
AcDbSymbolTableRecord
100
AcDbLinetypeTableRecord
  2
DASHED
 70
64
  3
- - - - - - - - - - - - - - - - - - - -
 72
65
 73
2
 40
0.2
 49
0.1
 74
0
 49
-0.1
 74
0
  0
ENDTAB
  0
TABLE
  2
LAYER
  5
2
100
AcDbSymbolTable
 70
36
  0
LAYER
  5
10
100
AcDbSymbolTableRecord
100
AcDbLayerTableRecord
  2
0
 70
0
 62
7
  6
CONTINUOUS
370
-3
390
F
  0
LAYER
  5
1FA
100
AcDbSymbolTableRecord
100
AcDbLayerTableRecord
  2
DEFAULT_1
 70
0
 62
7
  6
CENTER
370
-3
390
F
  0
LAYER
  5
1FB
100
AcDbSymbolTableRecord
100
AcDbLayerTableRecord
  2
DEFAULT_2
 70
0
 62
8
  6
HIDDEN
370
-3
390
F
  0
LAYER
  5
1FC
100
AcDbSymbolTableRecord
100
AcDbLayerTableRecord
  2
DEFAULT_3
 70
0
 62
7
  6
PHANTOM
370
-3
390
F
  0
LAYER
  5
1FD
100
AcDbSymbolTableRecord
100
AcDbLayerTableRecord
  2
ALL_FEATURES
 70
0
 62
7
  6
CONTINUOUS
370
-3
390
F
  0
LAYER
  5
1FE
100
AcDbSymbolTableRecord
100
AcDbLayerTableRecord
  2
AXES_FEATURES
 70
0
 62
7
  6
CONTINUOUS
370
-3
390
F
  0
LAYER
  5
1FF
100
AcDbSymbolTableRecord
100
AcDbLayerTableRecord
  2
DIMENSIONS
 70
0
 62
7
  6
CONTINUOUS
370
-3
390
F
  0
ENDTAB
  0
TABLE
  2
STYLE
  5
3
100
AcDbSymbolTable
 70
1
  0
STYLE
  5
11
100
AcDbSymbolTableRecord
100
AcDbTextStyleTableRecord
  2
STANDARD
 70
0
 40
0.0
 41
0.8
 50
0.0
 71
0
 42
0.2
  3
txt
  4

  0
STYLE
  5
200
100
AcDbSymbolTableRecord
100
AcDbTextStyleTableRecord
  2
TEXTSTYLE_1
 70
0
 40
0.0
 41
0.8
 50
0.0
 71
0
 42
0.2
  3
gdt
  4

  0
ENDTAB
  0
TABLE
  2
VIEW
  5
6
100
AcDbSymbolTable
 70
0
  0
ENDTAB
  0
TABLE
  2
UCS
  5
7
100
AcDbSymbolTable
 70
0
  0
ENDTAB
  0
TABLE
  2
APPID
  5
9
100
AcDbSymbolTable
 70
1
  0
APPID
  5
201
100
AcDbSymbolTableRecord
100
AcDbRegAppTableRecord
  2
ACAD
 70
0
  0
ENDTAB
  0
TABLE
  2
BLOCK_RECORD
  5
1
100
AcDbSymbolTable
 70
0
  0
BLOCK_RECORD
  5
202
100
AcDbSymbolTableRecord
100
AcDbBlockTableRecord
  2
*Model_Space
  0
BLOCK_RECORD
  5
203
100
AcDbSymbolTableRecord
100
AcDbBlockTableRecord
  2
*Paper_Space
  0
BLOCK_RECORD
  5
204
100
AcDbSymbolTableRecord
100
AcDbBlockTableRecord
  2
_FILLED
  0
ENDTAB
  0
TABLE
  2
DIMSTYLE
  5
A
100
AcDbSymbolTable
 70
1
100
AcDbDimStyleTable
 71
0
  0
DIMSTYLE
105
205
100
AcDbSymbolTableRecord
100
AcDbDimStyleTableRecord
  2
STANDARD
 70
0
  3

  4

 40
1.0
 41
0.1
 42
0.0625
 43
0.38
 44
0.125
 45
0.0
 46
0.0
 47
0.001
 48
0.001
140
0.08
141
0.09
142
0.0
143
25.4
144
1.0
145
0.0
146
1.0
147
0.09
 71
1.0
 72
0.0
 73
1
 74
1
 75
0
 76
0
 77
0
 78
4
 79
1
170
1
171
2
172
0
173
0
174
0
175
0
176
0
177
0
178
0
270
2
179
3
271
3
272
3
273
2
274
2
275
0
280
0
281
0
282
0
283
1
284
4
285
0
286
0
287
3
288
0
340
11
278
46
341
204
342
204
343
204
344
204
  0
ENDTAB
  0
ENDSEC
  0
SECTION
  2
BLOCKS
  0
BLOCK
  5
20
100
AcDbEntity
  8
0
100
AcDbBlockBegin
  2
*Model_Space
 70
0
 10
0.0
 20
0.0
 30
0.0
  3
*Model_Space
  1

  0
ENDBLK
  5
21
100
AcDbEntity
  8
0
100
AcDbBlockEnd
  0
BLOCK
  5
1C
100
AcDbEntity
  8
0
100
AcDbBlockBegin
  2
*Paper_Space
 70
0
 10
0.0
 20
0.0
 30
0.0
  3
*Paper_Space
  1

  0
ENDBLK
  5
1D
100
AcDbEntity
  8
0
100
AcDbBlockEnd
  0
BLOCK
  5
206
100
AcDbEntity
  8
0
100
AcDbBlockBegin
  2
_FILLED
 70
64
 10
0.0
 20
0.0
  3
_FILLED
  1

  0
SOLID
  5
207
100
AcDbEntity
  8
0
  6
BYBLOCK
 62
0
100
AcDbTrace
 10
0.0
 20
0.0
 11
-1.0
 21
0.2
 12
-1.0
 22
-0.2
 13
-1.0
 23
-0.2
  0
ENDBLK
  5
208
100
AcDbEntity
  8
0
  6
BYBLOCK
 62
0
100
AcDbBlockEnd
  0
ENDSEC
  0
SECTION
  2
ENTITIES
  0
LINE
  5
209
100
AcDbEntity
  8
0
100
AcDbLine
 62
7
  6
CONTINUOUS
 10
8.5392336543
 20
0.6139774386
 11
10.7832328216
 21
0.6139774386
  0
LINE
  5
20A
100
AcDbEntity
  8
0
100
AcDbLine
 62
9
  6
CONTINUOUS
 10
10.783280482
 20
1.1745286197
 11
8.5391859938
 21
1.1745286197
  0
LINE
  5
20B
100
AcDbEntity
  8
0
100
AcDbLine
 62
7
  6
CONTINUOUS
 10
8.5692344814
 20
1.2045286197
 11
10.7532319944
 21
1.2045286197
  0
LINE
  5
20C
100
AcDbEntity
  8
0
100
AcDbLine
 62
9
  6
CONTINUOUS
 10
8.6179261513
 20
1.2345286197
 11
10.7045403245
 21
1.2345286197
  0
LINE
  5
20D
100
AcDbEntity
  8
0
100
AcDbLine
 62
9
  6
CONTINUOUS
 10
10.7045403245
 20
1.2532687771
 11
8.6179261513
 21
1.2532687771
  0
LINE
  5
20E
100
AcDbEntity
  8
0
100
AcDbLine
 62
7
  6
CONTINUOUS
 10
8.6479291677
 20
1.2832687771
 11
10.6745373082
 21
1.2832687771
  0
LINE
  5
20F
100
AcDbEntity
  8
0
100
AcDbLine
 62
7
  6
CONTINUOUS
 10
11.9882220579
 20
4.5232687773
 11
11.9962148178
 21
4.5249357208
  0
LINE
  5
210
100
AcDbEntity
  8
0
100
AcDbLine
 62
7
  6
CONTINUOUS
 10
12.5802367307
 20
4.4902296433
 11
13.1602297451
 21
4.4902296433
  0
LINE
  5
211
100
AcDbEntity
  8
0
100
AcDbLine
 62
9
  6
CONTINUOUS
 10
12.5702332379
 20
4.5002296433
 11
13.1702332379
 21
4.5002296433
  0
LINE
  5
212
100
AcDbEntity
  8
0
100
AcDbLine
 62
7
  6
CONTINUOUS
 10
11.9879726107
 20
4.5232687771
 11
11.6462332379
 21
4.5232687771
  0
LINE
  5
213
100
AcDbEntity
  8
0
100
AcDbLine
 62
7
  6
CONTINUOUS
 10
10.7112332379
 20
4.5232687771
 11
11.5562332379
 21
4.5232687771
  0
LINE
  5
214
100
AcDbEntity
  8
0
100
AcDbLine
 62
7
  6
CONTINUOUS
 10
9.1391101371
 20
13.9745108531
 11
9.0878371109
 21
13.9261888158
  0
LINE
  5
215
100
AcDbEntity
  8
0
100
AcDbLine
 62
7
  6
CONTINUOUS
 10
11.6262332379
 20
4.6182687771
 11
11.5862332379
 21
4.6182687771
  0
LINE
  5
216
100
AcDbEntity
  8
0
100
AcDbLine
 62
9
  6
CONTINUOUS
 10
13.1702332379
 20
4.980197911
 11
12.5702332379
 21
4.980197911
  0
LINE
  5
217
100
AcDbEntity
  8
0
100
AcDbLine
 62
7
  6
CONTINUOUS
 10
12.5002332379
 20
4.990197911
 11
13.240176365
 21
4.990197911
  0
LINE
  5
218
100
AcDbEntity
  8
0
100
AcDbLine
 62
9
  6
CONTINUOUS
 10
12.4902332379
 20
5.000197911
 11
13.2501748279
 21
5.000197911
  0
LINE
  5
219
100
AcDbEntity
  8
0
100
AcDbLine
 62
9
  6
CONTINUOUS
 10
13.2502332379
 20
5.0589380685
 11
12.4902964156
 21
5.0589380685
  0
LINE
  5
21A
100
AcDbEntity
  8
0
100
AcDbLine
 62
7
  6
CONTINUOUS
 10
12.4202332379
 20
5.0689380685
 11
13.3201860348
 21
5.0689380685
  0
LINE
  5
21B
100
AcDbEntity
  8
0
100
AcDbLine
 62
9
  6
CONTINUOUS
 10
12.4102332379
 20
5.0789380685
 11
13.3301849858
 21
5.0789380685
  0
LINE
  5
21C
100
AcDbEntity
  8
0
100
AcDbLine
 62
7
  6
CONTINUOUS
 10
12.3762332379
 20
5.1257687771
 11
12.4002332379
 21
5.1257687771
  0
LINE
  5
21D
100
AcDbEntity
  8
0
100
AcDbLine
 62
7
  6
CONTINUOUS
 10
9.0878371109
 20
13.9261888158
 11
9.0109772127
 21
13.7998706544
  0
LINE
  5
21E
100
AcDbEntity
  8
0
100
AcDbLine
 62
9
  6
CONTINUOUS
 10
9.0109772127
 20
13.7998706544
 11
9.0110774785
 21
13.8000349706
  0
LINE
  5
21F
100
AcDbEntity
  8
0
100
AcDbLine
 62
9
  6
CONTINUOUS
 10
12.5147845778
 20
5.4232687772
 11
12.5223473152
 21
5.4232687772
  0
LINE
  5
220
100
AcDbEntity
  8
0
100
AcDbLine
 62
7
  6
CONTINUOUS
 10
12.3762332379
 20
5.7207687771
 11
12.4002332379
 21
5.7207687771
  0
LINE
  5
221
100
AcDbEntity
  8
0
100
AcDbLine
 62
9
  6
CONTINUOUS
 10
13.3302332379
 20
5.7675994858
 11
12.4102332379
 21
5.7675994858
  0
LINE
  5
222
100
AcDbEntity
  8
0
100
AcDbLine
 62
7
  6
CONTINUOUS
 10
13.3202332379
 20
5.7775994858
 11
12.4202332379
 21
5.7775994858
  0
LINE
  5
223
100
AcDbEntity
  8
0
100
AcDbLine
 62
9
  6
CONTINUOUS
 10
12.4902332379
 20
5.7875994858
 11
13.2502332379
 21
5.7875994858
  0
LINE
  5
224
100
AcDbEntity
  8
0
100
AcDbLine
 62
9
  6
CONTINUOUS
 10
13.2502332379
 20
5.8463396433
 11
12.4902332379
 21
5.8463396433
  0
LINE
  5
225
100
AcDbEntity
  8
0
100
AcDbLine
 62
7
  6
CONTINUOUS
 10
13.2402332379
 20
5.8563396433
 11
12.5002332379
 21
5.8563396433
  0
LINE
  5
226
100
AcDbEntity
  8
0
100
AcDbLine
 62
9
  6
CONTINUOUS
 10
12.5702332379
 20
5.8663396433
 11
13.1702332379
 21
5.8663396433
  0
LINE
  5
227
100
AcDbEntity
  8
0
100
AcDbLine
 62
7
  6
CONTINUOUS
 10
11.6262332379
 20
6.2282687771
 11
11.5862332379
 21
6.2282687771
  0
LINE
  5
228
100
AcDbEntity
  8
0
100
AcDbLine
 62
7
  6
CONTINUOUS
 10
12.3562332379
 20
6.2432687771
 11
12.3062332379
 21
6.2432687771
  0
LINE
  5
229
100
AcDbEntity
  8
0
100
AcDbLine
 62
7
  6
CONTINUOUS
 10
12.2862332379
 20
6.3232687771
 11
11.6462332379
 21
6.3232687771
  0
LINE
  5
22A
100
AcDbEntity
  8
0
100
AcDbLine
 62
7
  6
CONTINUOUS
 10
11.5562332379
 20
6.3232687771
 11
10.7112332379
 21
6.3232687771
  0
LINE
  5
22B
100
AcDbEntity
  8
0
100
AcDbLine
 62
7
  6
CONTINUOUS
 10
8.5391859938
 20
1.1745286197
 11
8.5391859938
 21
0.6139774386
  0
LINE
  5
22C
100
AcDbEntity
  8
0
100
AcDbLine
 62
7
  6
CONTINUOUS
 10
8.6162332379
 20
7.5532687771
 11
8.6162332379
 21
7.8632687771
  0
LINE
  5
22D
100
AcDbEntity
  8
0
100
AcDbLine
 62
7
  6
CONTINUOUS
 10
8.6179261513
 20
1.2532687771
 11
8.6179261513
 21
1.2345286197
  0
LINE
  5
22E
100
AcDbEntity
  8
0
100
AcDbLine
 62
7
  6
CONTINUOUS
 10
9.5700323359
 20
11.6202837096
 11
9.568819261
 21
11.6181654405
  0
LINE
  5
22F
100
AcDbEntity
  8
0
100
AcDbLine
 62
7
  6
CONTINUOUS
 10
9.5411319864
 20
11.6289103522
 11
9.5347668244
 21
11.6179236052
  0
LINE
  5
230
100
AcDbEntity
  8
0
100
AcDbLine
 62
7
  6
CONTINUOUS
 10
9.5846223113
 20
11.5941734777
 11
9.6002753282
 21
11.6211917591
  0
LINE
  5
231
100
AcDbEntity
  8
0
100
AcDbLine
 62
7
  6
CONTINUOUS
 10
9.6974989392
 20
11.7890070049
 11
9.7131519561
 21
11.8160252862
  0
LINE
  5
232
100
AcDbEntity
  8
0
100
AcDbLine
 62
7
  6
CONTINUOUS
 10
9.6093145198
 20
11.593104313
 11
9.6249675367
 21
11.6201225943
  0
LINE
  5
233
100
AcDbEntity
  8
0
100
AcDbLine
 62
7
  6
CONTINUOUS
 10
9.7221911477
 20
11.7879378401
 11
9.7378441646
 21
11.8149561215
  0
LINE
  5
234
100
AcDbEntity
  8
0
100
AcDbLine
 62
7
  6
CONTINUOUS
 10
9.769698203
 20
11.8222465546
 11
9.7573375232
 21
11.807948058
  0
LINE
  5
235
100
AcDbEntity
  8
0
100
AcDbLine
 62
7
  6
CONTINUOUS
 10
9.4635918778
 20
11.6060485142
 11
9.5090187021
 21
11.6304220579
  0
LINE
  5
236
100
AcDbEntity
  8
0
100
AcDbLine
 62
7
  6
CONTINUOUS
 10
9.7911726107
 20
11.7818103782
 11
9.8365994349
 21
11.8061839219
  0
LINE
  5
237
100
AcDbEntity
  8
0
100
AcDbLine
 62
7
  6
CONTINUOUS
 10
9.8588745981
 20
11.803081085
 11
9.8134477738
 21
11.7787075413
  0
LINE
  5
238
100
AcDbEntity
  8
0
100
AcDbLine
 62
7
  6
CONTINUOUS
 10
9.5312938652
 20
11.627319221
 11
9.4858670409
 21
11.6029456772
  0
LINE
  5
239
100
AcDbEntity
  8
0
100
AcDbLine
 62
7
  6
CONTINUOUS
 10
8.6962332379
 20
7.9032687771
 11
8.6962332379
 21
7.9432687771
  0
LINE
  5
23A
100
AcDbEntity
  8
0
100
AcDbLine
 62
7
  6
CONTINUOUS
 10
8.7112332379
 20
7.5032687771
 11
8.7112332379
 21
1.2832687771
  0
LINE
  5
23B
100
AcDbEntity
  8
0
100
AcDbLine
 62
7
  6
CONTINUOUS
 10
8.9862332379
 20
13.7135474727
 11
8.9862332379
 21
11.8300724364
  0
LINE
  5
23C
100
AcDbEntity
  8
0
100
AcDbLine
 62
7
  6
CONTINUOUS
 10
9.0212332379
 20
7.9632687771
 11
9.0212332379
 21
8.0532687771
  0
LINE
  5
23D
100
AcDbEntity
  8
0
100
AcDbLine
 62
7
  6
CONTINUOUS
 10
9.0912332379
 20
17.3443994882
 11
9.0912332379
 21
13.9293894807
  0
LINE
  5
23E
100
AcDbEntity
  8
0
100
AcDbLine
 62
7
  6
CONTINUOUS
 10
9.0912332379
 20
8.0982687771
 11
9.0912332379
 21
11.6644467309
  0
LINE
  5
23F
100
AcDbEntity
  8
0
100
AcDbLine
 62
7
  6
CONTINUOUS
 10
9.1012332379
 20
8.0982687771
 11
9.1012332379
 21
8.0832687771
  0
LINE
  5
240
100
AcDbEntity
  8
0
100
AcDbLine
 62
7
  6
CONTINUOUS
 10
9.3320499734
 20
11.7867719039
 11
9.3347676849
 21
11.7969445111
  0
LINE
  5
241
100
AcDbEntity
  8
0
100
AcDbLine
 62
7
  6
CONTINUOUS
 10
9.8024247131
 20
11.8173050849
 11
9.8012000407
 21
11.8136877627
  0
LINE
  5
242
100
AcDbEntity
  8
0
100
AcDbLine
 62
7
  6
CONTINUOUS
 10
9.7524341399
 20
11.8158063303
 11
9.7536472149
 21
11.8179117689
  0
LINE
  5
243
100
AcDbEntity
  8
0
100
AcDbLine
 62
7
  6
CONTINUOUS
 10
9.6509572143
 20
11.6128925984
 11
9.6573223763
 21
11.6238793454
  0
LINE
  5
244
100
AcDbEntity
  8
0
100
AcDbLine
 62
9
  6
CONTINUOUS
 10
10.321929796
 20
11.7812697185
 11
10.3219567621
 21
11.7813140704
  0
LINE
  5
245
100
AcDbEntity
  8
0
100
AcDbLine
 62
7
  6
CONTINUOUS
 10
10.2795126375
 20
11.711557715
 11
10.321929796
 21
11.7812697185
  0
LINE
  5
246
100
AcDbEntity
  8
0
100
AcDbLine
 62
9
  6
CONTINUOUS
 10
10.6112332379
 20
7.5032687771
 11
8.7112332379
 21
7.5032687771
  0
LINE
  5
247
100
AcDbEntity
  8
0
100
AcDbLine
 62
7
  6
CONTINUOUS
 10
8.6362332379
 20
7.5332687771
 11
10.6862332379
 21
7.5332687771
  0
LINE
  5
248
100
AcDbEntity
  8
0
100
AcDbLine
 62
7
  6
CONTINUOUS
 10
9.3982332379
 20
11.7598301518
 11
9.3982332379
 21
11.7400880704
  0
LINE
  5
249
100
AcDbEntity
  8
0
100
AcDbLine
 62
7
  6
CONTINUOUS
 10
9.6612332379
 20
11.8269430529
 11
9.6612332379
 21
11.8121093429
  0
LINE
  5
24A
100
AcDbEntity
  8
0
100
AcDbLine
 62
7
  6
CONTINUOUS
 10
9.6612332379
 20
11.6350278885
 11
9.6612332379
 21
11.6420648524
  0
LINE
  5
24B
100
AcDbEntity
  8
0
100
AcDbLine
 62
9
  6
CONTINUOUS
 10
10.3219567621
 20
11.7813140704
 11
10.3310082287
 21
11.8113152862
  0
LINE
  5
24C
100
AcDbEntity
  8
0
100
AcDbLine
 62
9
  6
CONTINUOUS
 10
10.2880082287
 20
11.7396743373
 11
10.2795126375
 21
11.711557715
  0
LINE
  5
24D
100
AcDbEntity
  8
0
100
AcDbLine
 62
9
  6
CONTINUOUS
 10
8.6162332379
 20
7.5532687771
 11
10.7062332379
 21
7.5532687771
  0
LINE
  5
24E
100
AcDbEntity
  8
0
100
AcDbLine
 62
9
  6
CONTINUOUS
 10
10.7062332379
 20
7.8632687771
 11
8.6162332379
 21
7.8632687771
  0
LINE
  5
24F
100
AcDbEntity
  8
0
100
AcDbLine
 62
7
  6
CONTINUOUS
 10
10.6862332379
 20
7.8832687771
 11
8.6362332379
 21
7.8832687771
  0
LINE
  5
250
100
AcDbEntity
  8
0
100
AcDbLine
 62
9
  6
CONTINUOUS
 10
8.6962332379
 20
7.9032687771
 11
10.6262223095
 21
7.9032687771
  0
LINE
  5
251
100
AcDbEntity
  8
0
100
AcDbLine
 62
9
  6
CONTINUOUS
 10
10.6262332379
 20
7.9432687771
 11
8.6962332379
 21
7.9432687771
  0
LINE
  5
252
100
AcDbEntity
  8
0
100
AcDbLine
 62
7
  6
CONTINUOUS
 10
10.6062332379
 20
7.9632687771
 11
8.7162332379
 21
7.9632687771
  0
LINE
  5
253
100
AcDbEntity
  8
0
100
AcDbLine
 62
9
  6
CONTINUOUS
 10
10.3012332379
 20
8.0532687771
 11
9.0212402169
 21
8.0532687771
  0
LINE
  5
254
100
AcDbEntity
  8
0
100
AcDbLine
 62
7
  6
CONTINUOUS
 10
10.2712332379
 20
8.0832687771
 11
9.0512398898
 21
8.0832687771
  0
LINE
  5
255
100
AcDbEntity
  8
0
100
AcDbLine
 62
7
  6
CONTINUOUS
 10
9.0912365044
 20
8.0982687771
 11
10.2312299714
 21
8.0982687771
  0
LINE
  5
256
100
AcDbEntity
  8
0
100
AcDbLine
 62
9
  6
CONTINUOUS
 10
8.9914582472
 20
11.8113152862
 11
9.0005101424
 21
11.7813133648
  0
LINE
  5
257
100
AcDbEntity
  8
0
100
AcDbLine
 62
7
  6
CONTINUOUS
 10
9.9242332379
 20
11.7598301518
 11
9.9242332379
 21
11.7400880704
  0
LINE
  5
258
100
AcDbEntity
  8
0
100
AcDbLine
 62
7
  6
CONTINUOUS
 10
10.2212332379
 20
8.0982687771
 11
10.2212332379
 21
8.0832687771
  0
LINE
  5
259
100
AcDbEntity
  8
0
100
AcDbLine
 62
7
  6
CONTINUOUS
 10
10.2312332379
 20
17.3443994882
 11
10.2312332379
 21
13.9293894778
  0
LINE
  5
25A
100
AcDbEntity
  8
0
100
AcDbLine
 62
7
  6
CONTINUOUS
 10
10.2312332379
 20
8.0982687771
 11
10.2312332379
 21
11.6644528792
  0
LINE
  5
25B
100
AcDbEntity
  8
0
100
AcDbLine
 62
7
  6
CONTINUOUS
 10
10.3012332379
 20
7.9632687771
 11
10.3012332379
 21
8.0532687771
  0
LINE
  5
25C
100
AcDbEntity
  8
0
100
AcDbLine
 62
7
  6
CONTINUOUS
 10
10.3362332379
 20
13.7135474727
 11
10.3362332379
 21
11.8300724364
  0
LINE
  5
25D
100
AcDbEntity
  8
0
100
AcDbLine
 62
9
  6
CONTINUOUS
 10
13.1702332379
 20
8.7282296433
 11
12.5702332379
 21
8.7282296433
  0
LINE
  5
25E
100
AcDbEntity
  8
0
100
AcDbLine
 62
7
  6
CONTINUOUS
 10
13.1602332379
 20
8.7382296433
 11
12.5802380292
 21
8.7382296433
  0
LINE
  5
25F
100
AcDbEntity
  8
0
100
AcDbLine
 62
7
  6
CONTINUOUS
 10
9.5212664351
 20
11.8136877627
 11
9.520040122
 21
11.8173043143
  0
LINE
  5
260
100
AcDbEntity
  8
0
100
AcDbLine
 62
9
  6
CONTINUOUS
 10
9.0429538384
 20
11.711557715
 11
9.0344582472
 21
11.7396743373
  0
LINE
  5
261
100
AcDbEntity
  8
0
100
AcDbLine
 62
7
  6
CONTINUOUS
 10
10.6112332379
 20
1.2832687771
 11
10.6112332379
 21
4.4232687771
  0
LINE
  5
262
100
AcDbEntity
  8
0
100
AcDbLine
 62
7
  6
CONTINUOUS
 10
10.6112332379
 20
6.4232687771
 11
10.6112332379
 21
7.5032687771
  0
LINE
  5
263
100
AcDbEntity
  8
0
100
AcDbLine
 62
7
  6
CONTINUOUS
 10
10.6262332379
 20
7.9032687771
 11
10.6262332379
 21
7.9432687771
  0
LINE
  5
264
100
AcDbEntity
  8
0
100
AcDbLine
 62
7
  6
CONTINUOUS
 10
10.7045403245
 20
1.2532687771
 11
10.7045403245
 21
1.2345286197
  0
LINE
  5
265
100
AcDbEntity
  8
0
100
AcDbLine
 62
7
  6
CONTINUOUS
 10
10.7062332379
 20
7.5532687771
 11
10.7062332379
 21
7.8632687771
  0
LINE
  5
266
100
AcDbEntity
  8
0
100
AcDbLine
 62
7
  6
CONTINUOUS
 10
10.783280482
 20
1.1745286197
 11
10.783280482
 21
0.6139774386
  0
LINE
  5
267
100
AcDbEntity
  8
0
100
AcDbLine
 62
7
  6
CONTINUOUS
 10
9.0429538384
 20
11.711557715
 11
9.0005366798
 21
11.7812697185
  0
LINE
  5
268
100
AcDbEntity
  8
0
100
AcDbLine
 62
9
  6
CONTINUOUS
 10
9.0005101424
 20
11.7813133648
 11
9.0005366798
 21
11.7812697185
  0
LINE
  5
269
100
AcDbEntity
  8
0
100
AcDbLine
 62
7
  6
CONTINUOUS
 10
9.6651440996
 20
11.6238793454
 11
9.6715092615
 21
11.6128925984
  0
LINE
  5
26A
100
AcDbEntity
  8
0
100
AcDbLine
 62
7
  6
CONTINUOUS
 10
9.9876987909
 20
11.7969445111
 11
9.9904169071
 21
11.786771838
  0
LINE
  5
26B
100
AcDbEntity
  8
0
100
AcDbLine
 62
9
  6
CONTINUOUS
 10
11.5562332379
 20
4.5232687771
 11
11.5562332379
 21
6.3232687771
  0
LINE
  5
26C
100
AcDbEntity
  8
0
100
AcDbLine
 62
7
  6
CONTINUOUS
 10
11.5862332379
 20
4.5532687771
 11
11.5862332379
 21
6.2932687771
  0
LINE
  5
26D
100
AcDbEntity
  8
0
100
AcDbLine
 62
7
  6
CONTINUOUS
 10
9.5527682729
 20
11.8222465546
 11
9.5651289527
 21
11.807948058
  0
LINE
  5
26E
100
AcDbEntity
  8
0
100
AcDbLine
 62
7
  6
CONTINUOUS
 10
9.7131519561
 20
11.593104313
 11
9.6974989392
 21
11.6201225943
  0
LINE
  5
26F
100
AcDbEntity
  8
0
100
AcDbLine
 62
7
  6
CONTINUOUS
 10
9.6002753282
 20
11.7879378401
 11
9.5846223113
 21
11.8149561215
  0
LINE
  5
270
100
AcDbEntity
  8
0
100
AcDbLine
 62
7
  6
CONTINUOUS
 10
9.6093145198
 20
11.8160252862
 11
9.6249675367
 21
11.7890070049
  0
LINE
  5
271
100
AcDbEntity
  8
0
100
AcDbLine
 62
7
  6
CONTINUOUS
 10
9.7221911477
 20
11.6211917591
 11
9.7378441646
 21
11.5941734777
  0
LINE
  5
272
100
AcDbEntity
  8
0
100
AcDbLine
 62
7
  6
CONTINUOUS
 10
9.7876996514
 20
11.6179236052
 11
9.7813344894
 21
11.6289103522
  0
LINE
  5
273
100
AcDbEntity
  8
0
100
AcDbLine
 62
7
  6
CONTINUOUS
 10
9.568819261
 20
11.8179117689
 11
9.570033143
 21
11.815805827
  0
LINE
  5
274
100
AcDbEntity
  8
0
100
AcDbLine
 62
7
  6
CONTINUOUS
 10
9.7536472149
 20
11.6181654405
 11
9.7524333329
 21
11.620283227
  0
LINE
  5
275
100
AcDbEntity
  8
0
100
AcDbLine
 62
7
  6
CONTINUOUS
 10
11.6262332379
 20
6.3032659686
 11
11.6262332379
 21
4.5432715857
  0
LINE
  5
276
100
AcDbEntity
  8
0
100
AcDbLine
 62
9
  6
CONTINUOUS
 10
11.6462332379
 20
6.3232687771
 11
11.6462332379
 21
4.5232687771
  0
LINE
  5
277
100
AcDbEntity
  8
0
100
AcDbLine
 62
9
  6
CONTINUOUS
 10
12.2862332379
 20
4.6376961306
 11
12.2862332379
 21
6.3232687771
  0
LINE
  5
278
100
AcDbEntity
  8
0
100
AcDbLine
 62
7
  6
CONTINUOUS
 10
12.3062332379
 20
4.6551534974
 11
12.3062332379
 21
6.3032687771
  0
LINE
  5
279
100
AcDbEntity
  8
0
100
AcDbLine
 62
9
  6
CONTINUOUS
 10
12.3562332379
 20
4.7410143754
 11
12.3562332379
 21
6.2432687771
  0
LINE
  5
27A
100
AcDbEntity
  8
0
100
AcDbLine
 62
7
  6
CONTINUOUS
 10
12.3762332379
 20
4.7576544233
 11
12.3762332379
 21
6.223265931
  0
LINE
  5
27B
100
AcDbEntity
  8
0
100
AcDbLine
 62
7
  6
CONTINUOUS
 10
12.4102332379
 20
5.7675994858
 11
12.4102332379
 21
5.7307687771
  0
LINE
  5
27C
100
AcDbEntity
  8
0
100
AcDbLine
 62
7
  6
CONTINUOUS
 10
12.4102332379
 20
5.1157687771
 11
12.4102332379
 21
5.0789380685
  0
LINE
  5
27D
100
AcDbEntity
  8
0
100
AcDbLine
 62
7
  6
CONTINUOUS
 10
12.4902332379
 20
5.8463396433
 11
12.4902332379
 21
5.7875994858
  0
LINE
  5
27E
100
AcDbEntity
  8
0
100
AcDbLine
 62
7
  6
CONTINUOUS
 10
12.4902332379
 20
5.0589380685
 11
12.4902332379
 21
5.000197911
  0
LINE
  5
27F
100
AcDbEntity
  8
0
100
AcDbLine
 62
7
  6
CONTINUOUS
 10
12.5702332379
 20
8.7282296433
 11
12.5702332379
 21
5.8663396433
  0
LINE
  5
280
100
AcDbEntity
  8
0
100
AcDbLine
 62
7
  6
CONTINUOUS
 10
12.5702332379
 20
4.980197911
 11
12.5702332379
 21
4.5002296433
  0
LINE
  5
281
100
AcDbEntity
  8
0
100
AcDbLine
 62
7
  6
CONTINUOUS
 10
9.8365994349
 20
11.6029456772
 11
9.7911726107
 21
11.627319221
  0
LINE
  5
282
100
AcDbEntity
  8
0
100
AcDbLine
 62
7
  6
CONTINUOUS
 10
9.5090187021
 20
11.7787075413
 11
9.4635918778
 21
11.803081085
  0
LINE
  5
283
100
AcDbEntity
  8
0
100
AcDbLine
 62
7
  6
CONTINUOUS
 10
9.4858670409
 20
11.8061839219
 11
9.5312938652
 21
11.7818103782
  0
LINE
  5
284
100
AcDbEntity
  8
0
100
AcDbLine
 62
7
  6
CONTINUOUS
 10
9.8134477738
 20
11.6304220579
 11
9.8588745981
 21
11.6060485142
  0
LINE
  5
285
100
AcDbEntity
  8
0
100
AcDbLine
 62
9
  6
CONTINUOUS
 10
10.3113495842
 20
13.8000993061
 11
10.3114892632
 21
13.7998706544
  0
LINE
  5
286
100
AcDbEntity
  8
0
100
AcDbLine
 62
7
  6
CONTINUOUS
 10
10.234629365
 20
13.9261888158
 11
10.3114892632
 21
13.7998706544
  0
LINE
  5
287
100
AcDbEntity
  8
0
100
AcDbLine
 62
7
  6
CONTINUOUS
 10
13.1702332379
 20
8.7282296433
 11
13.1702332379
 21
5.8663396433
  0
LINE
  5
288
100
AcDbEntity
  8
0
100
AcDbLine
 62
7
  6
CONTINUOUS
 10
13.1702332379
 20
4.980197911
 11
13.1702332379
 21
4.5002296433
  0
LINE
  5
289
100
AcDbEntity
  8
0
100
AcDbLine
 62
7
  6
CONTINUOUS
 10
13.2502332379
 20
5.8463396433
 11
13.2502332379
 21
5.7875994858
  0
LINE
  5
28A
100
AcDbEntity
  8
0
100
AcDbLine
 62
7
  6
CONTINUOUS
 10
13.2502332379
 20
5.0589380685
 11
13.2502332379
 21
5.000197911
  0
LINE
  5
28B
100
AcDbEntity
  8
0
100
AcDbLine
 62
7
  6
CONTINUOUS
 10
13.3302332379
 20
5.7675994858
 11
13.3302332379
 21
5.0789380685
  0
LINE
  5
28C
100
AcDbEntity
  8
0
100
AcDbLine
 62
7
  6
CONTINUOUS
 10
9.2535256875
 20
11.7187585166
 11
9.3523549465
 21
11.7144792412
  0
LINE
  5
28D
100
AcDbEntity
  8
0
100
AcDbLine
 62
7
  6
CONTINUOUS
 10
9.9662006677
 20
11.6878999174
 11
10.0650299268
 21
11.6836206421
  0
LINE
  5
28E
100
AcDbEntity
  8
0
100
AcDbLine
 62
7
  6
CONTINUOUS
 10
9.2574365491
 20
11.7255089571
 11
9.3562658081
 21
11.7212296817
  0
LINE
  5
28F
100
AcDbEntity
  8
0
100
AcDbLine
 62
7
  6
CONTINUOUS
 10
9.9701115294
 20
11.694650358
 11
10.0689407884
 21
11.6903710826
  0
LINE
  5
290
100
AcDbEntity
  8
0
100
AcDbLine
 62
7
  6
CONTINUOUS
 10
10.1021134976
 20
11.7306126593
 11
10.0926339293
 21
11.7310231216
  0
LINE
  5
291
100
AcDbEntity
  8
0
100
AcDbLine
 62
7
  6
CONTINUOUS
 10
10.0215926318
 20
11.6505329276
 11
9.9324374692
 21
11.6629518684
  0
LINE
  5
292
100
AcDbEntity
  8
0
100
AcDbLine
 62
7
  6
CONTINUOUS
 10
9.3786792441
 20
11.7400880704
 11
9.2895240815
 21
11.7525070112
  0
LINE
  5
293
100
AcDbEntity
  8
0
100
AcDbLine
 62
7
  6
CONTINUOUS
 10
9.300873844
 20
11.7585966716
 11
9.3900290066
 21
11.7461777308
  0
LINE
  5
294
100
AcDbEntity
  8
0
100
AcDbLine
 62
7
  6
CONTINUOUS
 10
9.9437872317
 20
11.6690415288
 11
10.0329423943
 21
11.656622588
  0
LINE
  5
295
100
AcDbEntity
  8
0
100
AcDbLine
 62
7
  6
CONTINUOUS
 10
9.9428808486
 20
11.6227342292
 11
9.872126911
 21
11.642077183
  0
LINE
  5
296
100
AcDbEntity
  8
0
100
AcDbLine
 62
7
  6
CONTINUOUS
 10
9.4326618953
 20
11.7622196343
 11
9.3619079577
 21
11.7815625881
  0
LINE
  5
297
100
AcDbEntity
  8
0
100
AcDbLine
 62
7
  6
CONTINUOUS
 10
9.3795856272
 20
11.7863953699
 11
9.4503395649
 21
11.7670524161
  0
LINE
  5
298
100
AcDbEntity
  8
0
100
AcDbLine
 62
7
  6
CONTINUOUS
 10
9.8898045805
 20
11.6469099649
 11
9.9605585182
 21
11.6275670111
  0
LINE
  5
299
100
AcDbEntity
  8
0
100
AcDbLine
 62
7
  6
CONTINUOUS
 10
9.9605585182
 20
11.7815625881
 11
9.8898045805
 21
11.7622196343
  0
LINE
  5
29A
100
AcDbEntity
  8
0
100
AcDbLine
 62
7
  6
CONTINUOUS
 10
9.4503395649
 20
11.642077183
 11
9.3795856272
 21
11.6227342292
  0
LINE
  5
29B
100
AcDbEntity
  8
0
100
AcDbLine
 62
7
  6
CONTINUOUS
 10
9.3619079577
 20
11.6275670111
 11
9.4326618953
 21
11.6469099649
  0
LINE
  5
29C
100
AcDbEntity
  8
0
100
AcDbLine
 62
7
  6
CONTINUOUS
 10
9.872126911
 20
11.7670524161
 11
9.9428808486
 21
11.7863953699
  0
LINE
  5
29D
100
AcDbEntity
  8
0
100
AcDbLine
 62
7
  6
CONTINUOUS
 10
10.0329423943
 20
11.7525070112
 11
9.9437872317
 21
11.7400880704
  0
LINE
  5
29E
100
AcDbEntity
  8
0
100
AcDbLine
 62
7
  6
CONTINUOUS
 10
9.3900290066
 20
11.6629518684
 11
9.300873844
 21
11.6505329276
  0
LINE
  5
29F
100
AcDbEntity
  8
0
100
AcDbLine
 62
7
  6
CONTINUOUS
 10
9.2895240815
 20
11.656622588
 11
9.3786792441
 21
11.6690415288
  0
LINE
  5
2A0
100
AcDbEntity
  8
0
100
AcDbLine
 62
7
  6
CONTINUOUS
 10
9.9324374692
 20
11.7461777308
 11
10.0215926318
 21
11.7585966716
  0
LINE
  5
2A1
100
AcDbEntity
  8
0
100
AcDbLine
 62
7
  6
CONTINUOUS
 10
10.0689407884
 20
11.7187585166
 11
9.9701115294
 21
11.7144792412
  0
LINE
  5
2A2
100
AcDbEntity
  8
0
100
AcDbLine
 62
7
  6
CONTINUOUS
 10
9.3562658081
 20
11.6878999174
 11
9.2574365491
 21
11.6836206421
  0
LINE
  5
2A3
100
AcDbEntity
  8
0
100
AcDbLine
 62
7
  6
CONTINUOUS
 10
9.2535256875
 20
11.6903710826
 11
9.3523549465
 21
11.694650358
  0
LINE
  5
2A4
100
AcDbEntity
  8
0
100
AcDbLine
 62
7
  6
CONTINUOUS
 10
9.9662006677
 20
11.7212296817
 11
10.0650299268
 21
11.7255089571
  0
LINE
  5
2A5
100
AcDbEntity
  8
0
100
AcDbLine
 62
7
  6
CONTINUOUS
 10
9.2298325466
 20
11.7310231216
 11
9.2203529783
 21
11.7306126593
  0
LINE
  5
2A6
100
AcDbEntity
  8
0
100
AcDbLine
 62
7
  6
CONTINUOUS
 10
10.234629365
 20
13.9261888158
 11
10.1833562
 21
13.9745109397
  0
LINE
  5
2A7
100
AcDbEntity
  8
0
100
AcDbLine
 62
7
  6
CONTINUOUS
 10
11.9962148178
 20
4.5249357208
 11
12.0088766377
 21
4.5304201512
  0
LINE
  5
2A8
100
AcDbEntity
  8
0
100
AcDbLine
 62
7
  6
CONTINUOUS
 10
12.0088766377
 20
4.5304201512
 11
12.048904953
 21
4.5473993356
  0
LINE
  5
2A9
100
AcDbEntity
  8
0
100
AcDbLine
 62
7
  6
CONTINUOUS
 10
12.048904953
 20
4.5473993356
 11
12.1156651904
 21
4.5744004604
  0
LINE
  5
2AA
100
AcDbEntity
  8
0
100
AcDbLine
 62
7
  6
CONTINUOUS
 10
12.1156651904
 20
4.5744004604
 11
12.2078455061
 21
4.6085662671
  0
LINE
  5
2AB
100
AcDbEntity
  8
0
100
AcDbLine
 62
7
  6
CONTINUOUS
 10
12.3062332379
 20
4.7197029952
 11
12.3482224417
 21
4.7340307095
  0
LINE
  5
2AC
100
AcDbEntity
  8
0
100
AcDbLine
 62
7
  6
CONTINUOUS
 10
12.206284762
 20
4.6080213784
 11
12.2920157624
 21
4.6360074814
  0
LINE
  5
2AD
100
AcDbEntity
  8
0
100
AcDbLine
 62
7
  6
CONTINUOUS
 10
12.3464117957
 20
4.7334434364
 11
12.3623133918
 21
4.7386010318
  0
LINE
  5
2AE
100
AcDbEntity
  8
0
100
AcDbLine
 62
7
  6
CONTINUOUS
 10
12.3623278169
 20
4.7386056422
 11
12.3622921681
 21
4.7385944731
  0
LINE
  5
2AF
100
AcDbEntity
  8
0
100
AcDbLine
 62
7
  6
CONTINUOUS
 10
12.2920182069
 20
4.6360082249
 11
12.2919906465
 21
4.6360000351
  0
ARC
  5
2B0
100
AcDbEntity
  8
0
100
AcDbCircle
 62
7
  6
CONTINUOUS
 10
10.7112781292
 20
4.4232241352
 40
0.1000469602
100
AcDbArc
 50
90.0257091088
 51
179.9744338906
  0
ARC
  5
2B1
100
AcDbEntity
  8
0
100
AcDbCircle
 62
7
  6
CONTINUOUS
 10
10.7112780955
 20
6.4233133326
 40
0.1000469434
100
AcDbArc
 50
180.0255166221
 51
269.9743101728
  0
ARC
  5
2B2
100
AcDbEntity
  8
0
100
AcDbCircle
 62
7
  6
CONTINUOUS
 10
10.2712332379
 20
8.0532687771
 40
0.03
100
AcDbArc
 50
0.0
 51
90.0
  0
ARC
  5
2B3
100
AcDbEntity
  8
0
100
AcDbCircle
 62
7
  6
CONTINUOUS
 10
9.0512332379
 20
8.0532687771
 40
0.03
100
AcDbArc
 50
90.0
 51
180.0
  0
ARC
  5
2B4
100
AcDbEntity
  8
0
100
AcDbCircle
 62
7
  6
CONTINUOUS
 10
8.7412332379
 20
7.5032687771
 40
0.03
100
AcDbArc
 50
90.0
 51
180.0
  0
ARC
  5
2B5
100
AcDbEntity
  8
0
100
AcDbCircle
 62
7
  6
CONTINUOUS
 10
10.5812332379
 20
7.5032687771
 40
0.03
100
AcDbArc
 50
0.0
 51
90.0
  0
ARC
  5
2B6
100
AcDbEntity
  8
0
100
AcDbCircle
 62
7
  6
CONTINUOUS
 10
10.7345403245
 20
1.2345286197
 40
0.03
100
AcDbArc
 50
180.0
 51
270.0
  0
ARC
  5
2B7
100
AcDbEntity
  8
0
100
AcDbCircle
 62
7
  6
CONTINUOUS
 10
8.5691859938
 20
1.1745286197
 40
0.03
100
AcDbArc
 50
90.0
 51
180.0
  0
ARC
  5
2B8
100
AcDbEntity
  8
0
100
AcDbCircle
 62
7
  6
CONTINUOUS
 10
10.753280482
 20
1.1745286197
 40
0.03
100
AcDbArc
 50
0.0
 51
90.0
  0
ARC
  5
2B9
100
AcDbEntity
  8
0
100
AcDbCircle
 62
7
  6
CONTINUOUS
 10
8.5879261513
 20
1.2345286197
 40
0.03
100
AcDbArc
 50
270.0
 51
360.0
  0
ARC
  5
2BA
100
AcDbEntity
  8
0
100
AcDbCircle
 62
7
  6
CONTINUOUS
 10
8.6479261513
 20
1.2532687771
 40
0.03
100
AcDbArc
 50
90.0
 51
180.0
  0
ARC
  5
2BB
100
AcDbEntity
  8
0
100
AcDbCircle
 62
7
  6
CONTINUOUS
 10
10.6745403245
 20
1.2532687771
 40
0.03
100
AcDbArc
 50
0.0
 51
90.0
  0
ARC
  5
2BC
100
AcDbEntity
  8
0
100
AcDbCircle
 62
7
  6
CONTINUOUS
 10
8.7162332379
 20
7.9432687771
 40
0.02
100
AcDbArc
 50
90.0
 51
180.0
  0
ARC
  5
2BD
100
AcDbEntity
  8
0
100
AcDbCircle
 62
7
  6
CONTINUOUS
 10
10.6062332379
 20
7.9432687771
 40
0.02
100
AcDbArc
 50
0.0
 51
90.0
  0
ARC
  5
2BE
100
AcDbEntity
  8
0
100
AcDbCircle
 62
7
  6
CONTINUOUS
 10
8.6762332379
 20
7.9032687771
 40
0.02
100
AcDbArc
 50
270.0
 51
360.0
  0
ARC
  5
2BF
100
AcDbEntity
  8
0
100
AcDbCircle
 62
7
  6
CONTINUOUS
 10
8.6362332379
 20
7.8632687771
 40
0.02
100
AcDbArc
 50
90.0
 51
180.0
  0
ARC
  5
2C0
100
AcDbEntity
  8
0
100
AcDbCircle
 62
7
  6
CONTINUOUS
 10
10.6862332379
 20
7.8632687771
 40
0.02
100
AcDbArc
 50
0.0
 51
90.0
  0
ARC
  5
2C1
100
AcDbEntity
  8
0
100
AcDbCircle
 62
7
  6
CONTINUOUS
 10
10.6862332379
 20
7.5532687771
 40
0.02
100
AcDbArc
 50
270.0
 51
360.0
  0
ARC
  5
2C2
100
AcDbEntity
  8
0
100
AcDbCircle
 62
7
  6
CONTINUOUS
 10
8.6362332379
 20
7.5532687771
 40
0.02
100
AcDbArc
 50
180.0
 51
270.0
  0
ARC
  5
2C3
100
AcDbEntity
  8
0
100
AcDbCircle
 62
7
  6
CONTINUOUS
 10
10.6462332379
 20
7.9032687771
 40
0.02
100
AcDbArc
 50
180.0
 51
270.0
  0
ARC
  5
2C4
100
AcDbEntity
  8
0
100
AcDbCircle
 62
7
  6
CONTINUOUS
 10
9.2963075118
 20
11.6886211101
 40
0.0910040636
100
AcDbArc
 50
131.8044658485
 51
135.3319090785
  0
ARC
  5
2C5
100
AcDbEntity
  8
0
100
AcDbCircle
 62
7
  6
CONTINUOUS
 10
9.1399009478
 20
11.7705941953
 40
0.1135079205
100
AcDbArc
 50
211.339556917
 51
216.8680852532
  0
ARC
  5
2C6
100
AcDbEntity
  8
0
100
AcDbCircle
 62
7
  6
CONTINUOUS
 10
9.2985949548
 20
11.7644140196
 40
0.0887672158
100
AcDbArc
 50
224.4505732718
 51
227.6146117391
  0
ARC
  5
2C7
100
AcDbEntity
  8
0
100
AcDbCircle
 62
7
  6
CONTINUOUS
 10
9.0739110336
 20
11.8300493749
 40
0.0876777987
100
AcDbArc
 50
179.9849297135
 51
193.1579439832
  0
ARC
  5
2C8
100
AcDbEntity
  8
0
100
AcDbCircle
 62
7
  6
CONTINUOUS
 10
9.2597314224
 20
11.7350652885
 40
0.0397243777
100
AcDbArc
 50
198.5325111582
 51
202.4604141785
  0
ARC
  5
2C9
100
AcDbEntity
  8
0
100
AcDbCircle
 62
7
  6
CONTINUOUS
 10
9.2533596159
 20
11.7334279295
 40
0.0331264829
100
AcDbArc
 50
181.6303446106
 51
186.2381341247
  0
ARC
  5
2CA
100
AcDbEntity
  8
0
100
AcDbCircle
 62
7
  6
CONTINUOUS
 10
9.5125842496
 20
11.1998598998
 40
0.6293700341
100
AcDbArc
 50
105.0907012869
 51
105.9480677068
  0
ARC
  5
2CB
100
AcDbEntity
  8
0
100
AcDbCircle
 62
7
  6
CONTINUOUS
 10
9.5029515704
 20
11.2338331147
 40
0.5940576817
100
AcDbArc
 50
105.9550847773
 51
106.3068167373
  0
ARC
  5
2CC
100
AcDbEntity
  8
0
100
AcDbCircle
 62
7
  6
CONTINUOUS
 10
9.4973984426
 20
11.2528103513
 40
0.5742846512
100
AcDbArc
 50
106.3066880026
 51
106.8395501096
  0
ARC
  5
2CD
100
AcDbEntity
  8
0
100
AcDbCircle
 62
7
  6
CONTINUOUS
 10
9.4892175512
 20
11.2798879842
 40
0.5459981707
100
AcDbArc
 50
106.8410292703
 51
107.5090700843
  0
ARC
  5
2CE
100
AcDbEntity
  8
0
100
AcDbCircle
 62
7
  6
CONTINUOUS
 10
9.4820958823
 20
11.302595784
 40
0.5221998375
100
AcDbArc
 50
107.5134674508
 51
107.765055582
  0
ARC
  5
2CF
100
AcDbEntity
  8
0
100
AcDbCircle
 62
7
  6
CONTINUOUS
 10
9.4727513904
 20
11.3315820045
 40
0.4917446685
100
AcDbArc
 50
107.7586719045
 51
109.147230085
  0
ARC
  5
2D0
100
AcDbEntity
  8
0
100
AcDbCircle
 62
7
  6
CONTINUOUS
 10
9.4530022671
 20
11.3887188934
 40
0.431291018
100
AcDbArc
 50
109.1584069595
 51
110.8569729469
  0
ARC
  5
2D1
100
AcDbEntity
  8
0
100
AcDbCircle
 62
7
  6
CONTINUOUS
 10
9.4369310707
 20
11.4314703017
 40
0.3856191427
100
AcDbArc
 50
110.8871305445
 51
111.5994444983
  0
ARC
  5
2D2
100
AcDbEntity
  8
0
100
AcDbCircle
 62
7
  6
CONTINUOUS
 10
9.4270182792
 20
11.4565335203
 40
0.3586668094
100
AcDbArc
 50
111.6009532015
 51
112.665685649
  0
ARC
  5
2D3
100
AcDbEntity
  8
0
100
AcDbCircle
 62
7
  6
CONTINUOUS
 10
9.4151665408
 20
11.4850334568
 40
0.3278008451
100
AcDbArc
 50
112.6737489988
 51
113.7622664351
  0
ARC
  5
2D4
100
AcDbEntity
  8
0
100
AcDbCircle
 62
7
  6
CONTINUOUS
 10
9.4060364821
 20
11.5059161654
 40
0.3050095789
100
AcDbArc
 50
113.7732506395
 51
114.2410033799
  0
ARC
  5
2D5
100
AcDbEntity
  8
0
100
AcDbCircle
 62
7
  6
CONTINUOUS
 10
9.4012176292
 20
11.5166155647
 40
0.293275079
100
AcDbArc
 50
114.2407992885
 51
114.7421142787
  0
ARC
  5
2D6
100
AcDbEntity
  8
0
100
AcDbCircle
 62
7
  6
CONTINUOUS
 10
9.3970712733
 20
11.5256230753
 40
0.2833590568
100
AcDbArc
 50
114.7429700817
 51
115.0967783926
  0
ARC
  5
2D7
100
AcDbEntity
  8
0
100
AcDbCircle
 62
7
  6
CONTINUOUS
 10
9.3917492388
 20
11.5369608044
 40
0.2708343599
100
AcDbArc
 50
115.0945117264
 51
116.0955034914
  0
ARC
  5
2D8
100
AcDbEntity
  8
0
100
AcDbCircle
 62
7
  6
CONTINUOUS
 10
9.3848003863
 20
11.5512316866
 40
0.2549616415
100
AcDbArc
 50
116.1037762573
 51
116.5506992105
  0
ARC
  5
2D9
100
AcDbEntity
  8
0
100
AcDbCircle
 62
7
  6
CONTINUOUS
 10
9.450149382
 20
11.619742937
 40
0.1399676096
100
AcDbArc
 50
119.0134460215
 51
120.7050779211
  0
ARC
  5
2DA
100
AcDbEntity
  8
0
100
AcDbCircle
 62
7
  6
CONTINUOUS
 10
9.463591198
 20
11.7110513703
 40
0.0563999103
100
AcDbArc
 50
129.7409047142
 51
132.5698261699
  0
ARC
  5
2DB
100
AcDbEntity
  8
0
100
AcDbCircle
 62
7
  6
CONTINUOUS
 10
9.3809937163
 20
11.7021432809
 40
0.0311826082
100
AcDbArc
 50
152.0914360594
 51
156.6963590498
  0
ARC
  5
2DC
100
AcDbEntity
  8
0
100
AcDbCircle
 62
7
  6
CONTINUOUS
 10
9.6611131694
 20
10.2280851804
 40
1.614485761
100
AcDbArc
 50
90.9142303928
 51
91.8848371638
  0
ARC
  5
2DD
100
AcDbEntity
  8
0
100
AcDbCircle
 62
7
  6
CONTINUOUS
 10
9.6601892298
 20
10.256879074
 40
1.5856770574
100
AcDbArc
 50
91.8856903112
 51
92.7830012169
  0
ARC
  5
2DE
100
AcDbEntity
  8
0
100
AcDbCircle
 62
7
  6
CONTINUOUS
 10
9.6584159955
 20
10.2946617503
 40
1.5478528472
100
AcDbArc
 50
92.7853456737
 51
93.3624654794
  0
ARC
  5
2DF
100
AcDbEntity
  8
0
100
AcDbCircle
 62
7
  6
CONTINUOUS
 10
9.6569786574
 20
10.3198161431
 40
1.5226574557
100
AcDbArc
 50
93.3639895298
 51
93.5136347259
  0
ARC
  5
2E0
100
AcDbEntity
  8
0
100
AcDbCircle
 62
7
  6
CONTINUOUS
 10
9.6559000627
 20
10.3372581921
 40
1.5051820907
100
AcDbArc
 50
93.5133449432
 51
93.9550969051
  0
ARC
  5
2E1
100
AcDbEntity
  8
0
100
AcDbCircle
 62
7
  6
CONTINUOUS
 10
9.6542976752
 20
10.3608351997
 40
1.4815507099
100
AcDbArc
 50
93.9561660058
 51
94.0967402703
  0
ARC
  5
2E2
100
AcDbEntity
  8
0
100
AcDbCircle
 62
7
  6
CONTINUOUS
 10
9.6533433093
 20
10.3740914903
 40
1.4682601106
100
AcDbArc
 50
94.0965494982
 51
94.3925777858
  0
ARC
  5
2E3
100
AcDbEntity
  8
0
100
AcDbCircle
 62
7
  6
CONTINUOUS
 10
9.6520208829
 20
10.3912927374
 40
1.4510081046
100
AcDbArc
 50
94.3925343174
 51
94.6965851394
  0
ARC
  5
2E4
100
AcDbEntity
  8
0
100
AcDbCircle
 62
7
  6
CONTINUOUS
 10
9.6596482942
 20
10.3679077772
 40
1.4489919975
100
AcDbArc
 50
91.9906894904
 51
92.967991037
  0
ARC
  5
2E5
100
AcDbEntity
  8
0
100
AcDbCircle
 62
7
  6
CONTINUOUS
 10
9.6498139659
 20
10.4180069244
 40
1.4242029164
100
AcDbArc
 50
94.6960954218
 51
95.348765682
  0
ARC
  5
2E6
100
AcDbEntity
  8
0
100
AcDbCircle
 62
7
  6
CONTINUOUS
 10
9.6428709134
 20
10.491465146
 40
1.3504173363
100
AcDbArc
 50
95.3459998173
 51
96.8579772053
  0
ARC
  5
2E7
100
AcDbEntity
  8
0
100
AcDbCircle
 62
7
  6
CONTINUOUS
 10
9.6314943288
 20
10.5890280559
 40
1.252194058
100
AcDbArc
 50
96.8742056537
 51
97.5714102253
  0
ARC
  5
2E8
100
AcDbEntity
  8
0
100
AcDbCircle
 62
7
  6
CONTINUOUS
 10
9.6253350407
 20
10.6359963054
 40
1.2048237495
100
AcDbArc
 50
97.5753588334
 51
97.827582544
  0
ARC
  5
2E9
100
AcDbEntity
  8
0
100
AcDbCircle
 62
7
  6
CONTINUOUS
 10
9.6214882222
 20
10.6639409107
 40
1.1766156133
100
AcDbArc
 50
97.8273327666
 51
98.2777289056
  0
ARC
  5
2EA
100
AcDbEntity
  8
0
100
AcDbCircle
 62
7
  6
CONTINUOUS
 10
9.6150390835
 20
10.7083994576
 40
1.1316917508
100
AcDbArc
 50
98.2786815207
 51
98.8341478808
  0
ARC
  5
2EB
100
AcDbEntity
  8
0
100
AcDbCircle
 62
7
  6
CONTINUOUS
 10
9.6602855102
 20
10.6876772931
 40
1.1018958632
100
AcDbArc
 50
91.8367592872
 51
93.1219212401
  0
ARC
  5
2EC
100
AcDbEntity
  8
0
100
AcDbCircle
 62
7
  6
CONTINUOUS
 10
9.6246222585
 20
10.7285570897
 40
1.0865231705
100
AcDbArc
 50
97.3370343605
 51
98.5230360536
  0
ARC
  5
2ED
100
AcDbEntity
  8
0
100
AcDbCircle
 62
7
  6
CONTINUOUS
 10
9.6068872318
 20
10.7610426385
 40
1.078421156
100
AcDbArc
 50
98.8357161877
 51
99.56699523
  0
ARC
  5
2EE
100
AcDbEntity
  8
0
100
AcDbCircle
 62
7
  6
CONTINUOUS
 10
9.6006118053
 20
10.7988036543
 40
1.0401423459
100
AcDbArc
 50
99.5718295315
 51
99.6935926146
  0
ARC
  5
2EF
100
AcDbEntity
  8
0
100
AcDbCircle
 62
7
  6
CONTINUOUS
 10
9.5981112128
 20
10.8134077959
 40
1.0253256702
100
AcDbArc
 50
99.6932653263
 51
99.9503758857
  0
ARC
  5
2F0
100
AcDbEntity
  8
0
100
AcDbCircle
 62
7
  6
CONTINUOUS
 10
9.5938717826
 20
10.8375512325
 40
1.0008128514
100
AcDbArc
 50
99.9501588766
 51
100.3941154684
  0
ARC
  5
2F1
100
AcDbEntity
  8
0
100
AcDbCircle
 62
7
  6
CONTINUOUS
 10
9.5889557531
 20
10.8645149481
 40
0.9734046698
100
AcDbArc
 50
100.3958451392
 51
100.5775776075
  0
ARC
  5
2F2
100
AcDbEntity
  8
0
100
AcDbCircle
 62
7
  6
CONTINUOUS
 10
9.5815877853
 20
10.9036771813
 40
0.9335553984
100
AcDbArc
 50
100.5742704764
 51
101.5938940566
  0
ARC
  5
2F3
100
AcDbEntity
  8
0
100
AcDbCircle
 62
7
  6
CONTINUOUS
 10
9.6612177434
 20
10.9096781017
 40
0.8909961749
100
AcDbArc
 50
88.727923061
 51
89.9990036188
  0
ARC
  5
2F4
100
AcDbEntity
  8
0
100
AcDbCircle
 62
7
  6
CONTINUOUS
 10
9.5692330024
 20
10.9646607735
 40
0.8713331036
100
AcDbArc
 50
101.6039800106
 51
102.121546927
  0
ARC
  5
2F5
100
AcDbEntity
  8
0
100
AcDbCircle
 62
7
  6
CONTINUOUS
 10
9.6354153648
 20
10.9528178543
 40
0.8355057698
100
AcDbArc
 50
97.158865056
 51
98.701205358
  0
ARC
  5
2F6
100
AcDbEntity
  8
0
100
AcDbCircle
 62
7
  6
CONTINUOUS
 10
9.5626234409
 20
10.9956081428
 40
0.8396878101
100
AcDbArc
 50
102.1240255756
 51
102.3695709379
  0
ARC
  5
2F7
100
AcDbEntity
  8
0
100
AcDbCircle
 62
7
  6
CONTINUOUS
 10
9.5557247579
 20
11.0269507364
 40
0.8075949857
100
AcDbArc
 50
102.3678374071
 51
103.1376592531
  0
ARC
  5
2F8
100
AcDbEntity
  8
0
100
AcDbCircle
 62
7
  6
CONTINUOUS
 10
9.6500527716
 20
11.0090202455
 40
0.7958734523
100
AcDbArc
 50
95.7118779823
 51
96.0925904114
  0
ARC
  5
2F9
100
AcDbEntity
  8
0
100
AcDbCircle
 62
7
  6
CONTINUOUS
 10
9.6521977855
 20
11.0419171191
 40
0.7584290206
100
AcDbArc
 50
95.117087606
 51
96.1237170939
  0
ARC
  5
2FA
100
AcDbEntity
  8
0
100
AcDbCircle
 62
7
  6
CONTINUOUS
 10
9.6459090994
 20
11.0467087822
 40
0.7579580115
100
AcDbArc
 50
96.0835059997
 51
97.2381082826
  0
ARC
  5
2FB
100
AcDbEntity
  8
0
100
AcDbCircle
 62
7
  6
CONTINUOUS
 10
9.5398012666
 20
11.0951750883
 40
0.7375370113
100
AcDbArc
 50
103.1376661068
 51
104.4755095341
  0
ARC
  5
2FC
100
AcDbEntity
  8
0
100
AcDbCircle
 62
7
  6
CONTINUOUS
 10
9.6449977816
 20
11.1080447422
 40
0.691910673
100
AcDbArc
 50
96.1150461022
 51
98.5482681914
  0
ARC
  5
2FD
100
AcDbEntity
  8
0
100
AcDbCircle
 62
7
  6
CONTINUOUS
 10
9.5231152407
 20
11.1607337593
 40
0.6698886263
100
AcDbArc
 50
104.4952779928
 51
105.0891124368
  0
ARC
  5
2FE
100
AcDbEntity
  8
0
100
AcDbCircle
 62
7
  6
CONTINUOUS
 10
9.5248008895
 20
11.2204696991
 40
0.5842596489
100
AcDbArc
 50
104.3914748212
 51
106.1887350257
  0
ARC
  5
2FF
100
AcDbEntity
  8
0
100
AcDbCircle
 62
7
  6
CONTINUOUS
 10
9.5616237015
 20
11.3252422642
 40
0.4556098873
100
AcDbArc
 50
104.1376997683
 51
106.4425100785
  0
ARC
  5
300
100
AcDbEntity
  8
0
100
AcDbCircle
 62
7
  6
CONTINUOUS
 10
9.549768316
 20
11.5393687051
 40
0.2494534885
100
AcDbArc
 50
108.6709114365
 51
110.0744931237
  0
ARC
  5
301
100
AcDbEntity
  8
0
100
AcDbCircle
 62
7
  6
CONTINUOUS
 10
9.5419044846
 20
11.5611272803
 40
0.2263176297
100
AcDbArc
 50
110.0953455455
 51
110.6010652722
  0
ARC
  5
302
100
AcDbEntity
  8
0
100
AcDbCircle
 62
7
  6
CONTINUOUS
 10
9.5448147986
 20
11.7143859808
 40
0.0855549308
100
AcDbArc
 50
265.8157546792
 51
267.5328737453
  0
ARC
  5
303
100
AcDbEntity
  8
0
100
AcDbCircle
 62
7
  6
CONTINUOUS
 10
9.6612177158
 20
13.2215983053
 40
1.6223360372
100
AcDbArc
 50
270.3808765891
 51
270.9074818892
  0
ARC
  5
304
100
AcDbEntity
  8
0
100
AcDbCircle
 62
7
  6
CONTINUOUS
 10
9.6611763507
 20
13.2171046863
 40
1.6178419756
100
AcDbArc
 50
268.7148566007
 51
269.091796028
  0
ARC
  5
305
100
AcDbEntity
  8
0
100
AcDbCircle
 62
7
  6
CONTINUOUS
 10
9.6557135726
 20
13.1017728511
 40
1.5023725582
100
AcDbArc
 50
266.0119454879
 51
266.5716750387
  0
ARC
  5
306
100
AcDbEntity
  8
0
100
AcDbCircle
 62
7
  6
CONTINUOUS
 10
9.653938234
 20
13.0761719014
 40
1.4767101273
100
AcDbArc
 50
265.7686361473
 51
266.0115781448
  0
ARC
  5
307
100
AcDbEntity
  8
0
100
AcDbCircle
 62
7
  6
CONTINUOUS
 10
9.6599278769
 20
13.0476787449
 40
1.4554547365
100
AcDbArc
 50
267.0341787993
 51
268.0071406734
  0
ARC
  5
308
100
AcDbEntity
  8
0
100
AcDbCircle
 62
7
  6
CONTINUOUS
 10
9.6520688108
 20
13.0512076767
 40
1.4516760156
100
AcDbArc
 50
265.2893044332
 51
265.7695188335
  0
ARC
  5
309
100
AcDbEntity
  8
0
100
AcDbCircle
 62
7
  6
CONTINUOUS
 10
9.6506154419
 20
13.033488801
 40
1.4338976357
100
AcDbArc
 50
265.1029791481
 51
265.2890369074
  0
ARC
  5
30A
100
AcDbEntity
  8
0
100
AcDbCircle
 62
7
  6
CONTINUOUS
 10
9.6503180736
 20
13.0300883737
 40
1.4168844077
100
AcDbArc
 50
264.7919079564
 51
265.3221591441
  0
ARC
  5
30B
100
AcDbEntity
  8
0
100
AcDbCircle
 62
7
  6
CONTINUOUS
 10
9.6486321863
 20
13.0106351352
 40
1.4109580911
100
AcDbArc
 50
264.6628790706
 51
265.1039988229
  0
ARC
  5
30C
100
AcDbEntity
  8
0
100
AcDbCircle
 62
7
  6
CONTINUOUS
 10
9.6468251584
 20
12.9912303301
 40
1.3914693309
100
AcDbArc
 50
264.470390027
 51
264.6626420032
  0
ARC
  5
30D
100
AcDbEntity
  8
0
100
AcDbCircle
 62
7
  6
CONTINUOUS
 10
9.6473867199
 20
12.9975328937
 40
1.3841972421
100
AcDbArc
 50
264.5209319852
 51
264.7904213644
  0
ARC
  5
30E
100
AcDbEntity
  8
0
100
AcDbCircle
 62
7
  6
CONTINUOUS
 10
9.6430152747
 20
12.9527358615
 40
1.3527868765
100
AcDbArc
 50
263.7465370868
 51
264.4738978431
  0
ARC
  5
30F
100
AcDbEntity
  8
0
100
AcDbCircle
 62
7
  6
CONTINUOUS
 10
9.610966699
 20
12.7068640247
 40
1.1048107271
100
AcDbArc
 50
261.0019182088
 51
261.4332005806
  0
ARC
  5
310
100
AcDbEntity
  8
0
100
AcDbCircle
 62
7
  6
CONTINUOUS
 10
9.6267464805
 20
12.6958222282
 40
1.1019193129
100
AcDbArc
 50
261.4852497116
 51
262.6546798743
  0
ARC
  5
311
100
AcDbEntity
  8
0
100
AcDbCircle
 62
7
  6
CONTINUOUS
 10
9.6600059029
 20
12.7149948171
 40
1.0954327324
100
AcDbArc
 50
266.8742873262
 51
268.1670321465
  0
ARC
  5
312
100
AcDbEntity
  8
0
100
AcDbCircle
 62
7
  6
CONTINUOUS
 10
9.5993726662
 20
12.6352362521
 40
1.0322511431
100
AcDbArc
 50
259.7540700915
 51
261.0157206922
  0
ARC
  5
313
100
AcDbEntity
  8
0
100
AcDbCircle
 62
7
  6
CONTINUOUS
 10
9.5892450187
 20
12.5788432695
 40
0.9749560011
100
AcDbArc
 50
259.3883982714
 51
259.7502690086
  0
ARC
  5
314
100
AcDbEntity
  8
0
100
AcDbCircle
 62
7
  6
CONTINUOUS
 10
9.5854538735
 20
12.5586011326
 40
0.9543619027
100
AcDbArc
 50
259.1575863799
 51
259.3883209532
  0
ARC
  5
315
100
AcDbEntity
  8
0
100
AcDbCircle
 62
7
  6
CONTINUOUS
 10
9.5744780544
 20
12.5023035732
 40
0.8970047283
100
AcDbArc
 50
258.0638077547
 51
259.169712165
  0
ARC
  5
316
100
AcDbEntity
  8
0
100
AcDbCircle
 62
7
  6
CONTINUOUS
 10
9.6332909566
 20
12.441060689
 40
0.8201088851
100
AcDbArc
 50
261.2843156436
 51
262.8556139424
  0
ARC
  5
317
100
AcDbEntity
  8
0
100
AcDbCircle
 62
7
  6
CONTINUOUS
 10
9.6518326959
 20
12.475508797
 40
0.8136478597
100
AcDbArc
 50
264.0436029462
 51
264.8822800107
  0
ARC
  5
318
100
AcDbEntity
  8
0
100
AcDbCircle
 62
7
  6
CONTINUOUS
 10
9.5288904863
 20
12.203619098
 40
0.5997659308
100
AcDbArc
 50
253.8344998892
 51
255.5852902637
  0
ARC
  5
319
100
AcDbEntity
  8
0
100
AcDbCircle
 62
7
  6
CONTINUOUS
 10
9.4951045669
 20
12.180529113
 40
0.5654909228
100
AcDbArc
 50
252.2380600596
 51
254.7943732789
  0
ARC
  5
31A
100
AcDbEntity
  8
0
100
AcDbCircle
 62
7
  6
CONTINUOUS
 10
9.4616689182
 20
12.0772132076
 40
0.4568999978
100
AcDbArc
 50
249.763899028
 51
252.2786914009
  0
ARC
  5
31B
100
AcDbEntity
  8
0
100
AcDbCircle
 62
7
  6
CONTINUOUS
 10
9.5575337462
 20
12.0689268256
 40
0.4401036353
100
AcDbArc
 50
253.5168812505
 51
255.9029089025
  0
ARC
  5
31C
100
AcDbEntity
  8
0
100
AcDbCircle
 62
7
  6
CONTINUOUS
 10
9.443449805
 20
12.0274163108
 40
0.4038750226
100
AcDbArc
 50
249.0859783653
 51
249.7455022118
  0
ARC
  5
31D
100
AcDbEntity
  8
0
100
AcDbCircle
 62
7
  6
CONTINUOUS
 10
9.4346090069
 20
12.0043807991
 40
0.3792012881
100
AcDbArc
 50
248.2755665559
 51
249.0913320746
  0
ARC
  5
31E
100
AcDbEntity
  8
0
100
AcDbCircle
 62
7
  6
CONTINUOUS
 10
9.4285171451
 20
11.9890682705
 40
0.3627214752
100
AcDbArc
 50
247.8987641965
 51
248.2742020506
  0
ARC
  5
31F
100
AcDbEntity
  8
0
100
AcDbCircle
 62
7
  6
CONTINUOUS
 10
9.4207838516
 20
11.9701354654
 40
0.3422702382
100
AcDbArc
 50
247.0222555771
 51
247.9057440826
  0
ARC
  5
320
100
AcDbEntity
  8
0
100
AcDbCircle
 62
7
  6
CONTINUOUS
 10
9.4033839843
 20
11.9297641016
 40
0.2983097423
100
AcDbArc
 50
244.7450255229
 51
247.0720760387
  0
ARC
  5
321
100
AcDbEntity
  8
0
100
AcDbCircle
 62
7
  6
CONTINUOUS
 10
9.4594796888
 20
11.8708095128
 40
0.1593361444
100
AcDbArc
 50
240.7826161865
 51
243.1048393192
  0
ARC
  5
322
100
AcDbEntity
  8
0
100
AcDbCircle
 62
7
  6
CONTINUOUS
 10
9.4491808592
 20
11.8521683091
 40
0.1380395196
100
AcDbArc
 50
239.3369308507
 51
240.7366776708
  0
ARC
  5
323
100
AcDbEntity
  8
0
100
AcDbCircle
 62
7
  6
CONTINUOUS
 10
9.4407308404
 20
11.837917874
 40
0.1214721505
100
AcDbArc
 50
236.7118459601
 51
239.3373968453
  0
ARC
  5
324
100
AcDbEntity
  8
0
100
AcDbCircle
 62
7
  6
CONTINUOUS
 10
9.4325780771
 20
11.8253231463
 40
0.1064693555
100
AcDbArc
 50
235.3658510838
 51
236.6593492678
  0
ARC
  5
325
100
AcDbEntity
  8
0
100
AcDbCircle
 62
7
  6
CONTINUOUS
 10
9.4279872477
 20
11.8186567037
 40
0.0983750965
100
AcDbArc
 50
234.231951819
 51
235.35918623
  0
ARC
  5
326
100
AcDbEntity
  8
0
100
AcDbCircle
 62
7
  6
CONTINUOUS
 10
9.4231808027
 20
11.8120010815
 40
0.0901653998
100
AcDbArc
 50
231.9414619719
 51
234.2380868551
  0
ARC
  5
327
100
AcDbEntity
  8
0
100
AcDbCircle
 62
7
  6
CONTINUOUS
 10
9.4339188912
 20
11.7333995749
 40
0.0186827843
100
AcDbArc
 50
168.7987259062
 51
179.9313681995
  0
ARC
  5
328
100
AcDbEntity
  8
0
100
AcDbCircle
 62
7
  6
CONTINUOUS
 10
9.6612470051
 20
10.2207974512
 40
1.6217746551
100
AcDbArc
 50
90.1381507493
 51
90.914599709
  0
ARC
  5
329
100
AcDbEntity
  8
0
100
AcDbCircle
 62
7
  6
CONTINUOUS
 10
9.6612351849
 20
10.221388463
 40
1.6211836513
100
AcDbArc
 50
89.0841543832
 51
89.6513417854
  0
ARC
  5
32A
100
AcDbEntity
  8
0
100
AcDbCircle
 62
7
  6
CONTINUOUS
 10
9.6612391198
 20
10.2222514504
 40
1.6203206559
100
AcDbArc
 50
89.6512952289
 51
89.8624474983
  0
ARC
  5
32B
100
AcDbEntity
  8
0
100
AcDbCircle
 62
7
  6
CONTINUOUS
 10
9.6612429786
 20
10.2224366717
 40
1.6201354296
100
AcDbArc
 50
89.9862878243
 51
90.1381481318
  0
ARC
  5
32C
100
AcDbEntity
  8
0
100
AcDbCircle
 62
7
  6
CONTINUOUS
 10
9.6612428112
 20
10.2236075606
 40
1.6189645408
100
AcDbArc
 50
89.8624629195
 51
89.9862719845
  0
ARC
  5
32D
100
AcDbEntity
  8
0
100
AcDbCircle
 62
7
  6
CONTINUOUS
 10
9.6614443916
 20
10.2320540416
 40
1.6105160917
100
AcDbArc
 50
88.111909914
 51
89.0855312863
  0
ARC
  5
32E
100
AcDbEntity
  8
0
100
AcDbCircle
 62
7
  6
CONTINUOUS
 10
9.6625253052
 20
10.263160287
 40
1.579391122
100
AcDbArc
 50
87.211913166
 51
88.113921698
  0
ARC
  5
32F
100
AcDbEntity
  8
0
100
AcDbCircle
 62
7
  6
CONTINUOUS
 10
9.6642404571
 20
10.2982012335
 40
1.5443082259
100
AcDbArc
 50
86.674650836
 51
87.2122343388
  0
ARC
  5
330
100
AcDbEntity
  8
0
100
AcDbCircle
 62
7
  6
CONTINUOUS
 10
9.665364335
 20
10.3176971516
 40
1.5247799428
100
AcDbArc
 50
86.4815114207
 51
86.6743168187
  0
ARC
  5
331
100
AcDbEntity
  8
0
100
AcDbCircle
 62
7
  6
CONTINUOUS
 10
9.6668522144
 20
10.3414735815
 40
1.5009570184
100
AcDbArc
 50
86.0396071247
 51
86.4825001155
  0
ARC
  5
332
100
AcDbEntity
  8
0
100
AcDbCircle
 62
7
  6
CONTINUOUS
 10
9.6684531221
 20
10.3646262405
 40
1.4777490775
100
AcDbArc
 50
85.7686959496
 51
86.0395297034
  0
ARC
  5
333
100
AcDbEntity
  8
0
100
AcDbCircle
 62
7
  6
CONTINUOUS
 10
9.6695204922
 20
10.379133814
 40
1.4632022932
100
AcDbArc
 50
85.6119018717
 51
85.7684628591
  0
ARC
  5
334
100
AcDbEntity
  8
0
100
AcDbCircle
 62
7
  6
CONTINUOUS
 10
9.662538599
 20
10.3614508545
 40
1.4554547363
100
AcDbArc
 50
87.0341787992
 51
88.0071406734
  0
ARC
  5
335
100
AcDbEntity
  8
0
100
AcDbCircle
 62
7
  6
CONTINUOUS
 10
9.6703136737
 20
10.3894484018
 40
1.4528572531
100
AcDbArc
 50
85.4050160328
 51
85.6119676364
  0
ARC
  5
336
100
AcDbEntity
  8
0
100
AcDbCircle
 62
7
  6
CONTINUOUS
 10
9.6733600451
 20
10.4260410231
 40
1.416138052
100
AcDbArc
 50
84.6502718894
 51
85.3096653925
  0
ARC
  5
337
100
AcDbEntity
  8
0
100
AcDbCircle
 62
7
  6
CONTINUOUS
 10
9.6817639105
 20
10.5118286289
 40
1.3299406427
100
AcDbArc
 50
83.125912651
 51
84.6661634537
  0
ARC
  5
338
100
AcDbEntity
  8
0
100
AcDbCircle
 62
7
  6
CONTINUOUS
 10
9.6922203377
 20
10.598919765
 40
1.2422240483
100
AcDbArc
 50
82.4240210455
 51
83.1239529499
  0
ARC
  5
339
100
AcDbEntity
  8
0
100
AcDbCircle
 62
7
  6
CONTINUOUS
 10
9.6978711546
 20
10.6414741421
 40
1.1992961243
100
AcDbArc
 50
82.0891693881
 51
82.4235952125
  0
ARC
  5
33A
100
AcDbEntity
  8
0
100
AcDbCircle
 62
7
  6
CONTINUOUS
 10
9.7023290754
 20
10.6734054425
 40
1.1670551478
100
AcDbArc
 50
81.7114971157
 51
82.0901873648
  0
ARC
  5
33B
100
AcDbEntity
  8
0
100
AcDbCircle
 62
7
  6
CONTINUOUS
 10
9.7098529072
 20
10.7244331003
 40
1.1154758731
100
AcDbArc
 50
81.0030193569
 51
81.7160796874
  0
ARC
  5
33C
100
AcDbEntity
  8
0
100
AcDbCircle
 62
7
  6
CONTINUOUS
 10
9.6957199953
 20
10.7133073709
 40
1.101919313
100
AcDbArc
 50
81.4852497117
 51
82.6546798743
  0
ARC
  5
33D
100
AcDbEntity
  8
0
100
AcDbCircle
 62
7
  6
CONTINUOUS
 10
9.6624605729
 20
10.6941347821
 40
1.0954327325
100
AcDbArc
 50
86.8742873262
 51
88.1670321464
  0
ARC
  5
33E
100
AcDbEntity
  8
0
100
AcDbCircle
 62
7
  6
CONTINUOUS
 10
9.7180507496
 20
10.7760770945
 40
1.0631852784
100
AcDbArc
 50
80.4390985565
 51
81.004138579
  0
ARC
  5
33F
100
AcDbEntity
  8
0
100
AcDbCircle
 62
7
  6
CONTINUOUS
 10
9.721911395
 20
10.7990931274
 40
1.03984771
100
AcDbArc
 50
80.3084522065
 51
80.4382253056
  0
ARC
  5
340
100
AcDbEntity
  8
0
100
AcDbCircle
 62
7
  6
CONTINUOUS
 10
9.7244072194
 20
10.8136762737
 40
1.0250525329
100
AcDbArc
 50
80.0583119905
 51
80.308743983
  0
ARC
  5
341
100
AcDbEntity
  8
0
100
AcDbCircle
 62
7
  6
CONTINUOUS
 10
9.7296428928
 20
10.843388516
 40
0.9948825337
100
AcDbArc
 50
79.6074938976
 51
80.0598876751
  0
ARC
  5
342
100
AcDbEntity
  8
0
100
AcDbCircle
 62
7
  6
CONTINUOUS
 10
9.7331869342
 20
10.8627654057
 40
0.9751842091
100
AcDbArc
 50
79.4768951597
 51
79.6069354359
  0
ARC
  5
343
100
AcDbEntity
  8
0
100
AcDbCircle
 62
7
  6
CONTINUOUS
 10
9.66124188
 20
10.8545882095
 40
0.9507335852
100
AcDbArc
 50
89.2884566447
 51
90.7118636407
  0
ARC
  5
344
100
AcDbEntity
  8
0
100
AcDbCircle
 62
7
  6
CONTINUOUS
 10
9.7430560011
 20
10.9148631862
 40
0.9221602552
100
AcDbArc
 50
78.4037129405
 51
79.4885983566
  0
ARC
  5
345
100
AcDbEntity
  8
0
100
AcDbCircle
 62
7
  6
CONTINUOUS
 10
9.6612486871
 20
10.9096244828
 40
0.8910497938
100
AcDbArc
 50
90.0009934035
 51
91.2714873273
  0
ARC
  5
346
100
AcDbEntity
  8
0
100
AcDbCircle
 62
7
  6
CONTINUOUS
 10
9.7546122713
 20
10.9712604968
 40
0.8645911337
100
AcDbArc
 50
77.866920594
 51
78.4026336119
  0
ARC
  5
347
100
AcDbEntity
  8
0
100
AcDbCircle
 62
7
  6
CONTINUOUS
 10
9.7598856282
 20
10.9958335549
 40
0.8394586171
100
AcDbArc
 50
77.6314088183
 51
77.8662872529
  0
ARC
  5
348
100
AcDbEntity
  8
0
100
AcDbCircle
 62
7
  6
CONTINUOUS
 10
9.6891755193
 20
10.9680689102
 40
0.8201088851
100
AcDbArc
 50
81.2843156436
 51
82.8556139424
  0
ARC
  5
349
100
AcDbEntity
  8
0
100
AcDbCircle
 62
7
  6
CONTINUOUS
 10
9.6720946493
 20
11.0059346807
 40
0.7989754983
100
AcDbArc
 50
83.9071308616
 51
84.353550545
  0
ARC
  5
34A
100
AcDbEntity
  8
0
100
AcDbCircle
 62
7
  6
CONTINUOUS
 10
9.7688142058
 20
11.0361332749
 40
0.7981817644
100
AcDbArc
 50
76.8469099822
 51
77.6378081256
  0
ARC
  5
34B
100
AcDbEntity
  8
0
100
AcDbCircle
 62
7
  6
CONTINUOUS
 10
9.7752412366
 20
11.0637644411
 40
0.769812993
100
AcDbArc
 50
76.6963038721
 51
76.8447401906
  0
ARC
  5
34C
100
AcDbEntity
  8
0
100
AcDbCircle
 62
7
  6
CONTINUOUS
 10
9.6755318755
 20
11.0379086474
 40
0.7668173195
100
AcDbArc
 50
82.7710906157
 51
83.9089303115
  0
ARC
  5
34D
100
AcDbEntity
  8
0
100
AcDbCircle
 62
7
  6
CONTINUOUS
 10
9.6707860123
 20
11.0471241084
 40
0.7531965583
100
AcDbArc
 50
83.9474674475
 51
84.8611750124
  0
ARC
  5
34E
100
AcDbEntity
  8
0
100
AcDbCircle
 62
7
  6
CONTINUOUS
 10
9.7874368955
 20
11.1144476286
 40
0.7176835937
100
AcDbArc
 50
75.4895888946
 51
76.7127130851
  0
ARC
  5
34F
100
AcDbEntity
  8
0
100
AcDbCircle
 62
7
  6
CONTINUOUS
 10
9.6796531263
 20
11.1251889739
 40
0.6746321587
100
AcDbArc
 50
81.4118569913
 51
83.9972787369
  0
ARC
  5
350
100
AcDbEntity
  8
0
100
AcDbCircle
 62
7
  6
CONTINUOUS
 10
9.7935759896
 20
11.2055105011
 40
0.5997659308
100
AcDbArc
 50
73.8344998893
 51
75.5852902638
  0
ARC
  5
351
100
AcDbEntity
  8
0
100
AcDbCircle
 62
7
  6
CONTINUOUS
 10
9.7649327297
 20
11.3402027736
 40
0.4401036353
100
AcDbArc
 50
73.5168812506
 51
75.9029089025
  0
ARC
  5
352
100
AcDbEntity
  8
0
100
AcDbCircle
 62
7
  6
CONTINUOUS
 10
9.7744511065
 20
11.544338612
 40
0.2441835348
100
AcDbArc
 50
69.895926568
 51
71.3341157444
  0
ARC
  5
353
100
AcDbEntity
  8
0
100
AcDbCircle
 62
7
  6
CONTINUOUS
 10
9.7819838611
 20
11.5649296859
 40
0.2222578718
100
AcDbArc
 50
69.1060093583
 51
69.894917471
  0
ARC
  5
354
100
AcDbEntity
  8
0
100
AcDbCircle
 62
7
  6
CONTINUOUS
 10
9.6612590861
 20
11.7137634435
 40
0.0899680188
100
AcDbArc
 50
267.5283669082
 51
272.4749251142
  0
ARC
  5
355
100
AcDbEntity
  8
0
100
AcDbCircle
 62
7
  6
CONTINUOUS
 10
9.8025257944
 20
11.1727120171
 40
0.6574971023
100
AcDbArc
 50
74.7307563777
 51
75.4903825548
  0
ARC
  5
356
100
AcDbEntity
  8
0
100
AcDbCircle
 62
7
  6
CONTINUOUS
 10
9.8128701993
 20
11.2105127363
 40
0.6183065363
100
AcDbArc
 50
74.075331853
 51
74.7330006425
  0
ARC
  5
357
100
AcDbEntity
  8
0
100
AcDbCircle
 62
7
  6
CONTINUOUS
 10
9.8192885697
 20
11.2330302177
 40
0.594892173
100
AcDbArc
 50
73.7107185153
 51
74.0747404464
  0
ARC
  5
358
100
AcDbEntity
  8
0
100
AcDbCircle
 62
7
  6
CONTINUOUS
 10
9.8261712297
 20
11.256508207
 40
0.5704261451
100
AcDbArc
 50
73.1739106113
 51
73.7128379254
  0
ARC
  5
359
100
AcDbEntity
  8
0
100
AcDbCircle
 62
7
  6
CONTINUOUS
 10
9.8346894493
 20
11.2845502339
 40
0.5411189113
100
AcDbArc
 50
72.4974267202
 51
73.1777515822
  0
ARC
  5
35A
100
AcDbEntity
  8
0
100
AcDbCircle
 62
7
  6
CONTINUOUS
 10
9.8403275692
 20
11.3024653162
 40
0.5223375789
100
AcDbArc
 50
72.2399631484
 51
72.4962374297
  0
ARC
  5
35B
100
AcDbEntity
  8
0
100
AcDbCircle
 62
7
  6
CONTINUOUS
 10
9.8527204031
 20
11.3405999139
 40
0.4822402151
100
AcDbArc
 50
70.8510900284
 51
72.2601589387
  0
ARC
  5
35C
100
AcDbEntity
  8
0
100
AcDbCircle
 62
7
  6
CONTINUOUS
 10
9.8729283672
 20
11.3982521139
 40
0.4211492871
100
AcDbArc
 50
69.1265138152
 51
70.8753759561
  0
ARC
  5
35D
100
AcDbEntity
  8
0
100
AcDbCircle
 62
7
  6
CONTINUOUS
 10
9.8869030273
 20
11.4350018647
 40
0.3818321937
100
AcDbArc
 50
68.3948491137
 51
69.1210145418
  0
ARC
  5
35E
100
AcDbEntity
  8
0
100
AcDbCircle
 62
7
  6
CONTINUOUS
 10
9.8975838323
 20
11.4617942706
 40
0.3529893783
100
AcDbArc
 50
67.3012394252
 51
68.4054363129
  0
ARC
  5
35F
100
AcDbEntity
  8
0
100
AcDbCircle
 62
7
  6
CONTINUOUS
 10
9.9093517086
 20
11.4898159835
 40
0.32259699
100
AcDbArc
 50
66.2195923951
 51
67.3089162144
  0
ARC
  5
360
100
AcDbEntity
  8
0
100
AcDbCircle
 62
7
  6
CONTINUOUS
 10
9.9166350364
 20
11.5063762754
 40
0.304505833
100
AcDbArc
 50
65.7162663517
 51
66.2172045715
  0
ARC
  5
361
100
AcDbEntity
  8
0
100
AcDbCircle
 62
7
  6
CONTINUOUS
 10
9.9215976094
 20
11.5173758186
 40
0.2924386428
100
AcDbArc
 50
65.216831075
 51
65.7162391653
  0
ARC
  5
362
100
AcDbEntity
  8
0
100
AcDbCircle
 62
7
  6
CONTINUOUS
 10
9.9263557395
 20
11.5276823368
 40
0.2810868094
100
AcDbArc
 50
64.7281504036
 51
65.2167429052
  0
ARC
  5
363
100
AcDbEntity
  8
0
100
AcDbCircle
 62
7
  6
CONTINUOUS
 10
9.9327658657
 20
11.5412107028
 40
0.2661166414
100
AcDbArc
 50
63.9135989108
 51
64.732711566
  0
ARC
  5
364
100
AcDbEntity
  8
0
100
AcDbCircle
 62
7
  6
CONTINUOUS
 10
9.9375894639
 20
11.5510710319
 40
0.2551397031
100
AcDbArc
 50
63.4569711979
 51
63.9127869996
  0
ARC
  5
365
100
AcDbEntity
  8
0
100
AcDbCircle
 62
7
  6
CONTINUOUS
 10
9.8570383055
 20
11.5912472097
 40
0.172303512
100
AcDbArc
 50
62.5674247875
 51
64.0494638276
  0
ARC
  5
366
100
AcDbEntity
  8
0
100
AcDbCircle
 62
7
  6
CONTINUOUS
 10
9.8595096185
 20
11.7117498029
 40
0.0554567767
100
AcDbArc
 50
48.0508170326
 51
49.4735703069
  0
ARC
  5
367
100
AcDbEntity
  8
0
100
AcDbCircle
 62
7
  6
CONTINUOUS
 10
9.9350037843
 20
11.6983678208
 40
0.0386769986
100
AcDbArc
 50
32.2201028584
 51
36.2348990027
  0
ARC
  5
368
100
AcDbEntity
  8
0
100
AcDbCircle
 62
7
  6
CONTINUOUS
 10
9.7452405542
 20
12.5159839807
 40
0.9109575209
100
AcDbArc
 50
280.8419205293
 51
281.9260968125
  0
ARC
  5
369
100
AcDbEntity
  8
0
100
AcDbCircle
 62
7
  6
CONTINUOUS
 10
9.6870511111
 20
12.4563117447
 40
0.8355057696
100
AcDbArc
 50
277.1588650559
 51
278.7012053582
  0
ARC
  5
36A
100
AcDbEntity
  8
0
100
AcDbCircle
 62
7
  6
CONTINUOUS
 10
9.6712294982
 20
12.4693927633
 40
0.8075029837
100
AcDbArc
 50
275.1398632497
 51
275.9572983091
  0
ARC
  5
36B
100
AcDbEntity
  8
0
100
AcDbCircle
 62
7
  6
CONTINUOUS
 10
9.7261088902
 20
12.1310965715
 40
0.4645836501
100
AcDbArc
 50
281.3432273032
 51
284.1481258181
  0
ARC
  5
36C
100
AcDbEntity
  8
0
100
AcDbCircle
 62
7
  6
CONTINUOUS
 10
9.7608427744
 20
12.083887335
 40
0.4556098873
100
AcDbArc
 50
284.1376997683
 51
286.4425100787
  0
ARC
  5
36D
100
AcDbEntity
  8
0
100
AcDbCircle
 62
7
  6
CONTINUOUS
 10
9.6612210232
 20
13.2207385574
 40
1.6214762863
100
AcDbArc
 50
270.0441585645
 51
270.3809616702
  0
ARC
  5
36E
100
AcDbEntity
  8
0
100
AcDbCircle
 62
7
  6
CONTINUOUS
 10
9.6612314352
 20
13.2204644739
 40
1.6212022143
100
AcDbArc
 50
269.0917315876
 51
269.6186189104
  0
ARC
  5
36F
100
AcDbEntity
  8
0
100
AcDbCircle
 62
7
  6
CONTINUOUS
 10
9.6612260948
 20
13.2193543126
 40
1.620092042
100
AcDbArc
 50
269.6185464357
 51
269.9383374728
  0
ARC
  5
370
100
AcDbEntity
  8
0
100
AcDbCircle
 62
7
  6
CONTINUOUS
 10
9.6612779931
 20
13.2178960384
 40
1.6186332799
100
AcDbArc
 50
270.9074240595
 51
271.28224353
  0
ARC
  5
371
100
AcDbEntity
  8
0
100
AcDbCircle
 62
7
  6
CONTINUOUS
 10
9.6612347635
 20
13.2253945834
 40
1.6125347181
100
AcDbArc
 50
269.9999992313
 51
270.3650708116
  0
ARC
  5
372
100
AcDbEntity
  8
0
100
AcDbCircle
 62
7
  6
CONTINUOUS
 10
9.6663695181
 20
13.1075399905
 40
1.5081524021
100
AcDbArc
 50
273.4200593164
 51
273.9805690663
  0
ARC
  5
373
100
AcDbEntity
  8
0
100
AcDbCircle
 62
7
  6
CONTINUOUS
 10
9.6682375556
 20
13.08002917
 40
1.4805782722
100
AcDbArc
 50
273.9823576791
 51
274.0967680744
  0
ARC
  5
374
100
AcDbEntity
  8
0
100
AcDbCircle
 62
7
  6
CONTINUOUS
 10
9.6697428321
 20
13.0592821985
 40
1.4597767745
100
AcDbArc
 50
274.0960128264
 51
274.8078764216
  0
ARC
  5
375
100
AcDbEntity
  8
0
100
AcDbCircle
 62
7
  6
CONTINUOUS
 10
9.6628181817
 20
13.0412218219
 40
1.4489919974
100
AcDbArc
 50
271.9906894904
 51
272.967991037
  0
ARC
  5
376
100
AcDbEntity
  8
0
100
AcDbCircle
 62
7
  6
CONTINUOUS
 10
9.6716237611
 20
13.0364102905
 40
1.4232280523
100
AcDbArc
 50
274.6781356213
 51
274.9426750941
  0
ARC
  5
377
100
AcDbEntity
  8
0
100
AcDbCircle
 62
7
  6
CONTINUOUS
 10
9.6730111171
 20
13.0198168815
 40
1.4201763925
100
AcDbArc
 50
274.8099337229
 51
275.3368698343
  0
ARC
  5
378
100
AcDbEntity
  8
0
100
AcDbCircle
 62
7
  6
CONTINUOUS
 10
9.6755896603
 20
12.9918171931
 40
1.3920582481
100
AcDbArc
 50
275.3383895307
 51
275.5303702832
  0
ARC
  5
379
100
AcDbEntity
  8
0
100
AcDbCircle
 62
7
  6
CONTINUOUS
 10
9.6744513335
 20
13.0041668028
 40
1.390860845
100
AcDbArc
 50
274.941068873
 51
275.4787438855
  0
ARC
  5
37A
100
AcDbEntity
  8
0
100
AcDbCircle
 62
7
  6
CONTINUOUS
 10
9.6784712473
 20
12.9623125168
 40
1.3624132005
100
AcDbArc
 50
275.5293311499
 51
276.2504181298
  0
ARC
  5
37B
100
AcDbEntity
  8
0
100
AcDbCircle
 62
7
  6
CONTINUOUS
 10
9.7099012719
 20
12.7171905249
 40
1.1152601416
100
AcDbArc
 50
278.5453816696
 51
278.8367267149
  0
ARC
  5
37C
100
AcDbEntity
  8
0
100
AcDbCircle
 62
7
  6
CONTINUOUS
 10
9.6621809657
 20
12.7214523059
 40
1.101895863
100
AcDbArc
 50
271.8367592871
 51
273.1219212402
  0
ARC
  5
37D
100
AcDbEntity
  8
0
100
AcDbCircle
 62
7
  6
CONTINUOUS
 10
9.6978442173
 20
12.6805725094
 40
1.0865231704
100
AcDbArc
 50
277.3370343604
 51
278.5230360536
  0
ARC
  5
37E
100
AcDbEntity
  8
0
100
AcDbCircle
 62
7
  6
CONTINUOUS
 10
9.7190061267
 20
12.6592689905
 40
1.0566274528
100
AcDbArc
 50
278.8313628789
 51
280.2352599325
  0
ARC
  5
37F
100
AcDbEntity
  8
0
100
AcDbCircle
 62
7
  6
CONTINUOUS
 10
9.732335662
 20
12.5836596325
 40
0.9798528299
100
AcDbArc
 50
280.2538336192
 51
280.6138014286
  0
ARC
  5
380
100
AcDbEntity
  8
0
100
AcDbCircle
 62
7
  6
CONTINUOUS
 10
9.7369931233
 20
12.5587206561
 40
0.9544826853
100
AcDbArc
 50
280.6147430415
 51
280.8456090503
  0
ARC
  5
381
100
AcDbEntity
  8
0
100
AcDbCircle
 62
7
  6
CONTINUOUS
 10
9.7976655863
 20
12.1886599001
 40
0.5842596489
100
AcDbArc
 50
284.3914748213
 51
286.1887350257
  0
ARC
  5
382
100
AcDbEntity
  8
0
100
AcDbCircle
 62
7
  6
CONTINUOUS
 10
9.8566381694
 20
12.089363683
 40
0.469739101
100
AcDbArc
 50
287.9170553117
 51
290.198008305
  0
ARC
  5
383
100
AcDbEntity
  8
0
100
AcDbCircle
 62
7
  6
CONTINUOUS
 10
9.8776830895
 20
12.0309817404
 40
0.4076814707
100
AcDbArc
 50
290.2551396894
 51
290.9101871724
  0
ARC
  5
384
100
AcDbEntity
  8
0
100
AcDbCircle
 62
7
  6
CONTINUOUS
 10
9.8861947068
 20
12.0086577455
 40
0.3837898804
100
AcDbArc
 50
290.9126465984
 51
291.6985587318
  0
ARC
  5
385
100
AcDbEntity
  8
0
100
AcDbCircle
 62
7
  6
CONTINUOUS
 10
9.8937887345
 20
11.9894774719
 40
0.3631609972
100
AcDbArc
 50
291.7041542848
 51
292.0883452046
  0
ARC
  5
386
100
AcDbEntity
  8
0
100
AcDbCircle
 62
7
  6
CONTINUOUS
 10
9.8999784657
 20
11.9742508056
 40
0.3467243296
100
AcDbArc
 50
292.086748021
 51
292.9594078511
  0
ARC
  5
387
100
AcDbEntity
  8
0
100
AcDbCircle
 62
7
  6
CONTINUOUS
 10
9.9145401469
 20
11.9399712409
 40
0.3094801404
100
AcDbArc
 50
292.9526704887
 51
295.0509600536
  0
ARC
  5
388
100
AcDbEntity
  8
0
100
AcDbCircle
 62
7
  6
CONTINUOUS
 10
9.838552554
 20
11.9212912498
 40
0.2154269175
100
AcDbArc
 50
292.394085305
 51
295.0415038917
  0
ARC
  5
389
100
AcDbEntity
  8
0
100
AcDbCircle
 62
7
  6
CONTINUOUS
 10
9.8533301081
 20
11.8897651863
 40
0.1806093006
100
AcDbArc
 50
295.0274499965
 51
297.0440435553
  0
ARC
  5
38A
100
AcDbEntity
  8
0
100
AcDbCircle
 62
7
  6
CONTINUOUS
 10
9.8643857996
 20
11.8682209634
 40
0.1563940404
100
AcDbArc
 50
297.025283837
 51
298.9141143703
  0
ARC
  5
38B
100
AcDbEntity
  8
0
100
AcDbCircle
 62
7
  6
CONTINUOUS
 10
9.8699097562
 20
11.8581706635
 40
0.144925736
100
AcDbArc
 50
298.9235750077
 51
299.4304383379
  0
ARC
  5
38C
100
AcDbEntity
  8
0
100
AcDbCircle
 62
7
  6
CONTINUOUS
 10
9.876168607
 20
11.847201914
 40
0.1322970965
100
AcDbArc
 50
299.4038088345
 51
301.2254053223
  0
ARC
  5
38D
100
AcDbEntity
  8
0
100
AcDbCircle
 62
7
  6
CONTINUOUS
 10
9.8864588069
 20
11.8304534759
 40
0.1126404865
100
AcDbArc
 50
301.1658868964
 51
304.2127651867
  0
ARC
  5
38E
100
AcDbEntity
  8
0
100
AcDbCircle
 62
7
  6
CONTINUOUS
 10
9.8936016426
 20
11.8199063303
 40
0.0999022858
100
AcDbArc
 50
304.2262501065
 51
305.4344968323
  0
ARC
  5
38F
100
AcDbEntity
  8
0
100
AcDbCircle
 62
7
  6
CONTINUOUS
 10
9.9001000053
 20
11.8109001014
 40
0.0887966632
100
AcDbArc
 50
305.3872836023
 51
308.1184507347
  0
ARC
  5
390
100
AcDbEntity
  8
0
100
AcDbCircle
 62
7
  6
CONTINUOUS
 10
10.0097467688
 20
11.6695194372
 40
0.1161936247
100
AcDbArc
 50
51.1393447342
 51
51.7667771091
  0
ARC
  5
391
100
AcDbEntity
  8
0
100
AcDbCircle
 62
7
  6
CONTINUOUS
 10
10.017392221
 20
11.6788404231
 40
0.1041386921
100
AcDbArc
 50
48.129540674
 51
51.1971496841
  0
ARC
  5
392
100
AcDbEntity
  8
0
100
AcDbCircle
 62
7
  6
CONTINUOUS
 10
10.0281759769
 20
11.6907391862
 40
0.0880806499
100
AcDbArc
 50
44.50744739
 51
48.1870259155
  0
ARC
  5
393
100
AcDbEntity
  8
0
100
AcDbCircle
 62
7
  6
CONTINUOUS
 10
10.024215465
 20
11.7119837779
 40
0.0497019896
100
AcDbArc
 50
325.2034589848
 51
328.2954131088
  0
ARC
  5
394
100
AcDbEntity
  8
0
100
AcDbCircle
 62
7
  6
CONTINUOUS
 10
10.1810788934
 20
11.7716016415
 40
0.1153016699
100
AcDbArc
 50
323.1744262446
 51
328.6170878238
  0
ARC
  5
395
100
AcDbEntity
  8
0
100
AcDbCircle
 62
7
  6
CONTINUOUS
 10
10.2485303332
 20
11.8300511719
 40
0.0877029073
100
AcDbArc
 50
346.8438860769
 51
0.0138919941
  0
ARC
  5
396
100
AcDbEntity
  8
0
100
AcDbCircle
 62
7
  6
CONTINUOUS
 10
10.0253635609
 20
11.7628672072
 40
0.0866189132
100
AcDbArc
 50
312.3461410312
 51
315.588673958
  0
ARC
  5
397
100
AcDbEntity
  8
0
100
AcDbCircle
 62
7
  6
CONTINUOUS
 10
10.06910686
 20
11.7334279295
 40
0.033126483
100
AcDbArc
 50
353.799498015
 51
358.3696553892
  0
ARC
  5
398
100
AcDbEntity
  8
0
100
AcDbCircle
 62
7
  6
CONTINUOUS
 10
9.6612332379
 20
17.3611687771
 40
0.57
100
AcDbArc
 50
0.0
 51
180.0
  0
ARC
  5
399
100
AcDbEntity
  8
0
100
AcDbCircle
 62
9
  6
CONTINUOUS
 10
13.3031545072
 20
1.5793376972
 40
3.2242395226
100
AcDbArc
 50
113.4271042838
 51
113.988538136
  0
ARC
  5
39A
100
AcDbEntity
  8
0
100
AcDbCircle
 62
9
  6
CONTINUOUS
 10
12.9610246064
 20
2.9001040996
 40
1.9377285621
100
AcDbArc
 50
109.2382061109
 51
109.7500154686
  0
ARC
  5
39B
100
AcDbEntity
  8
0
100
AcDbCircle
 62
9
  6
CONTINUOUS
 10
12.9173846096
 20
3.0261347501
 40
1.8043566696
100
AcDbArc
 50
108.1193867651
 51
109.2484827341
  0
ARC
  5
39C
100
AcDbEntity
  8
0
100
AcDbCircle
 62
9
  6
CONTINUOUS
 10
11.4482843994
 20
5.0765228805
 40
1.1494865324
100
AcDbArc
 50
32.8383539812
 51
33.5396610688
  0
ARC
  5
39D
100
AcDbEntity
  8
0
100
AcDbCircle
 62
7
  6
CONTINUOUS
 10
11.5562332379
 20
4.5532687771
 40
0.03
100
AcDbArc
 50
270.0
 51
360.0
  0
ARC
  5
39E
100
AcDbEntity
  8
0
100
AcDbCircle
 62
7
  6
CONTINUOUS
 10
11.5562332379
 20
6.2932687771
 40
0.03
100
AcDbArc
 50
0.0
 51
90.0
  0
ARC
  5
39F
100
AcDbEntity
  8
0
100
AcDbCircle
 62
9
  6
CONTINUOUS
 10
12.3562058593
 20
4.7648339593
 40
0.0238199106
100
AcDbArc
 50
270.0658559352
 51
283.3631859531
  0
ARC
  5
3A0
100
AcDbEntity
  8
0
100
AcDbCircle
 62
9
  6
CONTINUOUS
 10
12.2862022995
 20
4.6604574709
 40
0.0227613613
100
AcDbArc
 50
270.0778795128
 51
283.5151836085
  0
ARC
  5
3A1
100
AcDbEntity
  8
0
100
AcDbCircle
 62
7
  6
CONTINUOUS
 10
12.3562332379
 20
6.2232687771
 40
0.02
100
AcDbArc
 50
0.0
 51
90.0
  0
ARC
  5
3A2
100
AcDbEntity
  8
0
100
AcDbCircle
 62
7
  6
CONTINUOUS
 10
12.2862332379
 20
6.3032687771
 40
0.02
100
AcDbArc
 50
0.0
 51
90.0
  0
ARC
  5
3A3
100
AcDbEntity
  8
0
100
AcDbCircle
 62
7
  6
CONTINUOUS
 10
11.6462332379
 20
6.3032687771
 40
0.02
100
AcDbArc
 50
90.0
 51
180.0
  0
ARC
  5
3A4
100
AcDbEntity
  8
0
100
AcDbCircle
 62
7
  6
CONTINUOUS
 10
11.6462332379
 20
4.5432687771
 40
0.02
100
AcDbArc
 50
180.0
 51
270.0
  0
ARC
  5
3A5
100
AcDbEntity
  8
0
100
AcDbCircle
 62
7
  6
CONTINUOUS
 10
12.5802332379
 20
4.5002296433
 40
0.01
100
AcDbArc
 50
180.0
 51
270.0
  0
ARC
  5
3A6
100
AcDbEntity
  8
0
100
AcDbCircle
 62
7
  6
CONTINUOUS
 10
13.1602332379
 20
4.5002296433
 40
0.01
100
AcDbArc
 50
270.0
 51
360.0
  0
ARC
  5
3A7
100
AcDbEntity
  8
0
100
AcDbCircle
 62
7
  6
CONTINUOUS
 10
13.1802332379
 20
4.980197911
 40
0.01
100
AcDbArc
 50
90.0
 51
180.0
  0
ARC
  5
3A8
100
AcDbEntity
  8
0
100
AcDbCircle
 62
7
  6
CONTINUOUS
 10
12.5602332379
 20
4.980197911
 40
0.01
100
AcDbArc
 50
0.0
 51
90.0
  0
ARC
  5
3A9
100
AcDbEntity
  8
0
100
AcDbCircle
 62
7
  6
CONTINUOUS
 10
13.1602332379
 20
8.7282296433
 40
0.01
100
AcDbArc
 50
0.0
 51
90.0
  0
ARC
  5
3AA
100
AcDbEntity
  8
0
100
AcDbCircle
 62
7
  6
CONTINUOUS
 10
12.5802332379
 20
8.7282296433
 40
0.01
100
AcDbArc
 50
90.0
 51
180.0
  0
ARC
  5
3AB
100
AcDbEntity
  8
0
100
AcDbCircle
 62
7
  6
CONTINUOUS
 10
12.4202332379
 20
5.0789380685
 40
0.01
100
AcDbArc
 50
180.0
 51
270.0
  0
ARC
  5
3AC
100
AcDbEntity
  8
0
100
AcDbCircle
 62
7
  6
CONTINUOUS
 10
12.5602332379
 20
5.8663396433
 40
0.01
100
AcDbArc
 50
270.0
 51
360.0
  0
ARC
  5
3AD
100
AcDbEntity
  8
0
100
AcDbCircle
 62
7
  6
CONTINUOUS
 10
13.3202332379
 20
5.0789380685
 40
0.01
100
AcDbArc
 50
270.0
 51
360.0
  0
ARC
  5
3AE
100
AcDbEntity
  8
0
100
AcDbCircle
 62
7
  6
CONTINUOUS
 10
13.1802332379
 20
5.8663396433
 40
0.01
100
AcDbArc
 50
180.0
 51
270.0
  0
ARC
  5
3AF
100
AcDbEntity
  8
0
100
AcDbCircle
 62
7
  6
CONTINUOUS
 10
13.3202332379
 20
5.7675994858
 40
0.01
100
AcDbArc
 50
0.0
 51
90.0
  0
ARC
  5
3B0
100
AcDbEntity
  8
0
100
AcDbCircle
 62
7
  6
CONTINUOUS
 10
12.4202332379
 20
5.7675994858
 40
0.01
100
AcDbArc
 50
90.0
 51
180.0
  0
ARC
  5
3B1
100
AcDbEntity
  8
0
100
AcDbCircle
 62
7
  6
CONTINUOUS
 10
12.4802332379
 20
5.7875994858
 40
0.01
100
AcDbArc
 50
270.0
 51
360.0
  0
ARC
  5
3B2
100
AcDbEntity
  8
0
100
AcDbCircle
 62
7
  6
CONTINUOUS
 10
12.5002332379
 20
5.8463396433
 40
0.01
100
AcDbArc
 50
90.0
 51
180.0
  0
ARC
  5
3B3
100
AcDbEntity
  8
0
100
AcDbCircle
 62
7
  6
CONTINUOUS
 10
13.2402332379
 20
5.8463396433
 40
0.01
100
AcDbArc
 50
0.0
 51
90.0
  0
ARC
  5
3B4
100
AcDbEntity
  8
0
100
AcDbCircle
 62
7
  6
CONTINUOUS
 10
13.2602332379
 20
5.7875994858
 40
0.01
100
AcDbArc
 50
180.0
 51
270.0
  0
ARC
  5
3B5
100
AcDbEntity
  8
0
100
AcDbCircle
 62
7
  6
CONTINUOUS
 10
13.2602332379
 20
5.0589380685
 40
0.01
100
AcDbArc
 50
90.0
 51
180.0
  0
ARC
  5
3B6
100
AcDbEntity
  8
0
100
AcDbCircle
 62
7
  6
CONTINUOUS
 10
12.4802332379
 20
5.0589380685
 40
0.01
100
AcDbArc
 50
0.0
 51
90.0
  0
ARC
  5
3B7
100
AcDbEntity
  8
0
100
AcDbCircle
 62
7
  6
CONTINUOUS
 10
12.5002332379
 20
5.000197911
 40
0.01
100
AcDbArc
 50
180.0
 51
270.0
  0
ARC
  5
3B8
100
AcDbEntity
  8
0
100
AcDbCircle
 62
7
  6
CONTINUOUS
 10
13.2402332379
 20
5.000197911
 40
0.01
100
AcDbArc
 50
270.0
 51
360.0
  0
SPLINE
  5
3B9
100
AcDbEntity
  8
0
100
AcDbSpline
 62
7
  6
CONTINUOUS
 70
0
 71
3
 72
9
 73
5
 74
0
 42
0.0000001
 43
0.0000001
 44
0.0000000001
 40
0.0
 40
0.0
 40
0.0
 40
0.0
 40
0.2471296158
 40
1.0
 40
1.0
 40
1.0
 40
1.0
 10
10.1062332379
 20
11.720917187
 30
0.0
 10
10.1062332379
 20
11.721713113
 30
0.0
 10
10.1061168829
 20
11.7249332301
 30
0.0
 10
10.1055263708
 20
11.7281322765
 30
0.0
 10
10.1048533092
 20
11.7304617467
 30
0.0
  0
LINE
  5
3BA
100
AcDbEntity
  8
0
100
AcDbLine
 62
7
  6
CONTINUOUS
 10
10.1048533092
 20
11.7304617467
 11
10.1032602988
 21
11.7349279136
  0
SPLINE
  5
3BB
100
AcDbEntity
  8
0
100
AcDbSpline
 62
7
  6
CONTINUOUS
 70
0
 71
3
 72
9
 73
5
 74
0
 42
0.0000001
 43
0.0000001
 44
0.0000000001
 40
0.0
 40
0.0
 40
0.0
 40
0.0
 40
0.2298113752
 40
1.0
 40
1.0
 40
1.0
 40
1.0
 10
10.1032602988
 20
11.7349279136
 30
0.0
 10
10.1026168254
 20
11.7364433469
 30
0.0
 10
10.0994275215
 20
11.7428735067
 30
0.0
 10
10.0948575869
 20
11.7485470834
 30
0.0
 10
10.0909915148
 20
11.7524838951
 30
0.0
  0
SPLINE
  5
3BC
100
AcDbEntity
  8
0
100
AcDbSpline
 62
7
  6
CONTINUOUS
 70
0
 71
3
 72
9
 73
5
 74
0
 42
0.0000001
 43
0.0000001
 44
0.0000000001
 40
0.0
 40
0.0
 40
0.0
 40
0.0
 40
0.2396328317
 40
1.0
 40
1.0
 40
1.0
 40
1.0
 10
10.0816548167
 20
11.7607893177
 30
0.0
 10
10.0807902934
 20
11.7614704867
 30
0.0
 10
10.0771429019
 20
11.7642625649
 30
0.0
 10
10.0733482004
 20
11.7668599538
 30
0.0
 10
10.0704059051
 20
11.7687413081
 30
0.0
  0
SPLINE
  5
3BD
100
AcDbEntity
  8
0
100
AcDbSpline
 62
7
  6
CONTINUOUS
 70
0
 71
3
 72
9
 73
5
 74
0
 42
0.0000001
 43
0.0000001
 44
0.0000000001
 40
0.0
 40
0.0
 40
0.0
 40
0.0
 40
0.2369716986
 40
1.0
 40
1.0
 40
1.0
 40
1.0
 10
10.0704059051
 20
11.7687413081
 30
0.0
 10
10.0689698381
 20
11.769659554
 30
0.0
 10
10.0628498956
 20
11.773440705
 30
0.0
 10
10.0565136187
 20
11.7768660156
 30
0.0
 10
10.0516036864
 20
11.7793187595
 30
0.0
  0
LINE
  5
3BE
100
AcDbEntity
  8
0
100
AcDbLine
 62
7
  6
CONTINUOUS
 10
9.7891581943
 20
11.837436705
 11
9.7867044796
 21
11.8376360203
  0
SPLINE
  5
3BF
100
AcDbEntity
  8
0
100
AcDbSpline
 62
7
  6
CONTINUOUS
 70
0
 71
3
 72
9
 73
5
 74
0
 42
0.0000001
 43
0.0000001
 44
0.0000000001
 40
0.0
 40
0.0
 40
0.0
 40
0.0
 40
0.2631573745
 40
1.0
 40
1.0
 40
1.0
 40
1.0
 10
9.2708352001
 20
11.7793048656
 30
0.0
 10
9.2691421051
 20
11.7784588029
 30
0.0
 10
9.2627454316
 20
11.7751709839
 30
0.0
 10
9.2565003946
 20
11.7715810971
 30
0.0
 10
9.2520359814
 20
11.7687253791
 30
0.0
  0
SPLINE
  5
3C0
100
AcDbEntity
  8
0
100
AcDbSpline
 62
7
  6
CONTINUOUS
 70
0
 71
3
 72
9
 73
5
 74
0
 42
0.0000001
 43
0.0000001
 44
0.0000000001
 40
0.0
 40
0.0
 40
0.0
 40
0.0
 40
0.2664765886
 40
1.0
 40
1.0
 40
1.0
 40
1.0
 10
9.2520359814
 20
11.7687253791
 30
0.0
 10
9.2505031497
 20
11.767744884
 30
0.0
 10
9.2448132668
 20
11.7639710527
 30
0.0
 10
9.2393772605
 20
11.7597981511
 30
0.0
 10
9.2356450608
 20
11.7564577273
 30
0.0
  0
LINE
  5
3C1
100
AcDbEntity
  8
0
100
AcDbLine
 62
7
  6
CONTINUOUS
 10
9.2315862319
 20
11.7525968518
 11
9.2271483953
 21
11.7476898277
  0
SPLINE
  5
3C2
100
AcDbEntity
  8
0
100
AcDbSpline
 62
7
  6
CONTINUOUS
 70
0
 71
3
 72
9
 73
5
 74
0
 42
0.0000001
 43
0.0000001
 44
0.0000000001
 40
0.0
 40
0.0
 40
0.0
 40
0.0
 40
0.2659407514
 40
1.0
 40
1.0
 40
1.0
 40
1.0
 10
9.2271483953
 20
11.7476898277
 30
0.0
 10
9.2262988477
 20
11.746658803
 30
0.0
 10
9.2232214338
 20
11.7426899011
 30
0.0
 10
9.2206423233
 20
11.7383123665
 30
0.0
 10
9.2192019571
 20
11.7349177931
 30
0.0
  0
LINE
  5
3C3
100
AcDbEntity
  8
0
100
AcDbLine
 62
7
  6
CONTINUOUS
 10
9.2192019571
 20
11.7349177931
 11
9.2176111712
 21
11.7304547104
  0
SPLINE
  5
3C4
100
AcDbEntity
  8
0
100
AcDbSpline
 62
7
  6
CONTINUOUS
 70
0
 71
3
 72
9
 73
5
 74
0
 42
0.0000001
 43
0.0000001
 44
0.0000000001
 40
0.0
 40
0.0
 40
0.0
 40
0.0
 40
0.254613748
 40
1.0
 40
1.0
 40
1.0
 40
1.0
 10
9.2176111712
 20
11.7304547104
 30
0.0
 10
9.2173838785
 20
11.729667489
 30
0.0
 10
9.2165927354
 20
11.7265475199
 30
0.0
 10
9.2162332379
 20
11.7233159293
 30
0.0
 10
9.2162332379
 20
11.720917187
 30
0.0
  0
SPLINE
  5
3C5
100
AcDbEntity
  8
0
100
AcDbSpline
 62
7
  6
CONTINUOUS
 70
0
 71
3
 72
11
 73
7
 74
0
 42
0.0000001
 43
0.0000001
 44
0.0000000001
 40
0.0
 40
0.0
 40
0.0
 40
0.0
 40
0.2184711242
 40
0.4509608625
 40
0.7087971254
 40
1.0
 40
1.0
 40
1.0
 40
1.0
 10
9.9072303555
 20
11.7334219537
 30
0.0
 10
9.9072301578
 20
11.7350906171
 30
0.0
 10
9.9067431781
 20
11.7385500572
 30
0.0
 10
9.9046273167
 20
11.7435848654
 30
0.0
 10
9.9011883135
 20
11.7485065619
 30
0.0
 10
9.8982348723
 20
11.7515080745
 30
0.0
 10
9.8965808782
 20
11.7529951152
 30
0.0
  0
SPLINE
  5
3C6
100
AcDbEntity
  8
0
100
AcDbSpline
 62
7
  6
CONTINUOUS
 70
0
 71
3
 72
9
 73
5
 74
0
 42
0.0000001
 43
0.0000001
 44
0.0000000001
 40
0.0
 40
0.0
 40
0.0
 40
0.0
 40
0.2391250616
 40
1.0
 40
1.0
 40
1.0
 40
1.0
 10
9.8955453623
 20
11.7539028485
 30
0.0
 10
9.8950919312
 20
11.7542905897
 30
0.0
 10
9.8931704478
 20
11.7558824777
 30
0.0
 10
9.8911556612
 20
11.7573602206
 30
0.0
 10
9.8895873402
 20
11.7584298643
 30
0.0
  0
SPLINE
  5
3C7
100
AcDbEntity
  8
0
100
AcDbSpline
 62
7
  6
CONTINUOUS
 70
0
 71
3
 72
9
 73
5
 74
0
 42
0.0000001
 43
0.0000001
 44
0.0000000001
 40
0.0
 40
0.0
 40
0.0
 40
0.0
 40
0.2357427209
 40
1.0
 40
1.0
 40
1.0
 40
1.0
 10
9.8526017866
 20
11.7756783402
 30
0.0
 10
9.8503708696
 20
11.776432955
 30
0.0
 10
9.8408644562
 20
11.7795064272
 30
0.0
 10
9.8312092511
 20
11.7821092306
 30
0.0
 10
9.8237865008
 20
11.7838969065
 30
0.0
  0
SPLINE
  5
3C8
100
AcDbEntity
  8
0
100
AcDbSpline
 62
7
  6
CONTINUOUS
 70
0
 71
3
 72
9
 73
5
 74
0
 42
0.0000001
 43
0.0000001
 44
0.0000000001
 40
0.0
 40
0.0
 40
0.0
 40
0.0
 40
0.4807320172
 40
1.0
 40
1.0
 40
1.0
 40
1.0
 10
9.9242301563
 20
11.7334219541
 30
0.0
 10
9.9242299179
 20
11.7314089985
 30
0.0
 10
9.9235578847
 20
11.727201986
 30
0.0
 10
9.9217342537
 20
11.7233771465
 30
0.0
 10
9.9205971069
 20
11.7215238932
 30
0.0
  0
SPLINE
  5
3C9
100
AcDbEntity
  8
0
100
AcDbSpline
 62
7
  6
CONTINUOUS
 70
0
 71
3
 72
11
 73
7
 74
0
 42
0.0000001
 43
0.0000001
 44
0.0000000001
 40
0.0
 40
0.0
 40
0.0
 40
0.0
 40
0.1873632739
 40
0.4142237919
 40
0.6848650747
 40
1.0
 40
1.0
 40
1.0
 40
1.0
 10
9.9205971069
 20
11.7215238932
 30
0.0
 10
9.9187912127
 20
11.7185807554
 30
0.0
 10
9.9137140542
 20
11.7127418343
 30
0.0
 10
9.9035932791
 20
11.7051191684
 30
0.0
 10
9.8904497065
 20
11.6978623538
 30
0.0
 10
9.8804979955
 20
11.6936376038
 30
0.0
 10
9.8750722023
 20
11.6915660971
 30
0.0
  0
LINE
  5
3CA
100
AcDbEntity
  8
0
100
AcDbLine
 62
7
  6
CONTINUOUS
 10
9.8750722023
 20
11.6915660971
 11
9.8615079977
 21
11.6868224959
  0
SPLINE
  5
3CB
100
AcDbEntity
  8
0
100
AcDbSpline
 62
7
  6
CONTINUOUS
 70
0
 71
3
 72
9
 73
5
 74
0
 42
0.0000001
 43
0.0000001
 44
0.0000000001
 40
0.0
 40
0.0
 40
0.0
 40
0.0
 40
0.2399561518
 40
1.0
 40
1.0
 40
1.0
 40
1.0
 10
9.8615079977
 20
11.6868224959
 30
0.0
 10
9.8597783845
 20
11.686267264
 30
0.0
 10
9.8525496447
 20
11.6840180204
 30
0.0
 10
9.8452454333
 20
11.68201426
 30
0.0
 10
9.8396668737
 20
11.680605115
 30
0.0
  0
SPLINE
  5
3CC
100
AcDbEntity
  8
0
100
AcDbSpline
 62
7
  6
CONTINUOUS
 70
0
 71
3
 72
9
 73
5
 74
0
 42
0.0000001
 43
0.0000001
 44
0.0000000001
 40
0.0
 40
0.0
 40
0.0
 40
0.0
 40
0.4830857955
 40
1.0
 40
1.0
 40
1.0
 40
1.0
 10
9.8174859537
 20
11.6755878446
 30
0.0
 10
9.8075167813
 20
11.6735741031
 30
0.0
 10
9.7867595757
 20
11.6699936978
 30
0.0
 10
9.7658619194
 20
11.6673804354
 30
0.0
 10
9.7550379977
 20
11.6662506812
 30
0.0
  0
SPLINE
  5
3CD
100
AcDbEntity
  8
0
100
AcDbSpline
 62
7
  6
CONTINUOUS
 70
0
 71
3
 72
9
 73
5
 74
0
 42
0.0000001
 43
0.0000001
 44
0.0000000001
 40
0.0
 40
0.0
 40
0.0
 40
0.0
 40
0.494769718
 40
1.0
 40
1.0
 40
1.0
 40
1.0
 10
9.7435714827
 20
11.665136768
 30
0.0
 10
9.7300303121
 20
11.6639177988
 30
0.0
 10
9.7025988902
 20
11.6621218524
 30
0.0
 10
9.6751166122
 20
11.661522113
 30
0.0
 10
9.6612332379
 20
11.661522113
 30
0.0
  0
SPLINE
  5
3CE
100
AcDbEntity
  8
0
100
AcDbSpline
 62
7
  6
CONTINUOUS
 70
0
 71
3
 72
11
 73
7
 74
0
 42
0.0000001
 43
0.0000001
 44
0.0000000001
 40
0.0
 40
0.0
 40
0.0
 40
0.0
 40
0.2424591824
 40
0.5000000028
 40
0.7575408216
 40
1.0
 40
1.0
 40
1.0
 40
1.0
 10
12.4002332379
 20
5.7207687771
 30
0.0
 10
12.4014924613
 20
5.7207687771
 30
0.0
 10
12.4040945101
 20
5.7213333258
 30
0.0
 10
12.4075220339
 20
5.7234799812
 30
0.0
 10
12.4096686893
 20
5.7269075051
 30
0.0
 10
12.4102332379
 20
5.7295095538
 30
0.0
 10
12.4102332379
 20
5.7307687771
 30
0.0
  0
SPLINE
  5
3CF
100
AcDbEntity
  8
0
100
AcDbSpline
 62
7
  6
CONTINUOUS
 70
0
 71
3
 72
11
 73
7
 74
0
 42
0.0000001
 43
0.0000001
 44
0.0000000001
 40
0.0
 40
0.0
 40
0.0
 40
0.0
 40
0.2424591823
 40
0.5000000027
 40
0.7575408215
 40
1.0
 40
1.0
 40
1.0
 40
1.0
 10
12.4002332379
 20
5.1257687771
 30
0.0
 10
12.4014924613
 20
5.1257687771
 30
0.0
 10
12.4040945101
 20
5.1252042285
 30
0.0
 10
12.4075220339
 20
5.1230575731
 30
0.0
 10
12.4096686893
 20
5.1196300492
 30
0.0
 10
12.4102332379
 20
5.1170280005
 30
0.0
 10
12.4102332379
 20
5.1157687771
 30
0.0
  0
SPLINE
  5
3D0
100
AcDbEntity
  8
0
100
AcDbSpline
 62
7
  6
CONTINUOUS
 70
0
 71
3
 72
9
 73
5
 74
0
 42
0.0000001
 43
0.0000001
 44
0.0000000001
 40
0.0
 40
0.0
 40
0.0
 40
0.0
 40
0.500641517
 40
1.0
 40
1.0
 40
1.0
 40
1.0
 10
12.3622745994
 20
4.7386001781
 30
0.0
 10
12.3646090166
 20
4.7393388562
 30
0.0
 10
12.3690437812
 20
4.7416851057
 30
0.0
 10
12.3723095102
 20
4.7454985998
 30
0.0
 10
12.3735302526
 20
4.7476138415
 30
0.0
  0
SPLINE
  5
3D1
100
AcDbEntity
  8
0
100
AcDbSpline
 62
7
  6
CONTINUOUS
 70
0
 71
3
 72
9
 73
5
 74
0
 42
0.0000001
 43
0.0000001
 44
0.0000000001
 40
0.0
 40
0.0
 40
0.0
 40
0.0
 40
0.2519236465
 40
1.0
 40
1.0
 40
1.0
 40
1.0
 10
12.3735302526
 20
4.7476138415
 30
0.0
 10
12.3739694742
 20
4.7483749027
 30
0.0
 10
12.3755087709
 20
4.7515089774
 30
0.0
 10
12.3762332377
 20
4.7550451327
 30
0.0
 10
12.3762332379
 20
4.7576544213
 30
0.0
  0
SPLINE
  5
3D2
100
AcDbEntity
  8
0
100
AcDbSpline
 62
7
  6
CONTINUOUS
 70
0
 71
3
 72
9
 73
5
 74
0
 42
0.0000001
 43
0.0000001
 44
0.0000000001
 40
0.0
 40
0.0
 40
0.0
 40
0.0
 40
0.5006369376
 40
1.0
 40
1.0
 40
1.0
 40
1.0
 10
12.2919789179
 20
4.6360076084
 30
0.0
 10
12.2943743662
 20
4.636726048
 30
0.0
 10
12.2989363853
 20
4.6390722665
 30
0.0
 10
12.3022891785
 20
4.6429602871
 30
0.0
 10
12.3035352227
 20
4.6451212856
 30
0.0
  0
SPLINE
  5
3D3
100
AcDbEntity
  8
0
100
AcDbSpline
 62
7
  6
CONTINUOUS
 70
0
 71
3
 72
9
 73
5
 74
0
 42
0.0000001
 43
0.0000001
 44
0.0000000001
 40
0.0
 40
0.0
 40
0.0
 40
0.0
 40
0.2518936477
 40
1.0
 40
1.0
 40
1.0
 40
1.0
 10
12.3035352227
 20
4.6451212856
 30
0.0
 10
12.3039736934
 20
4.6458817198
 30
0.0
 10
12.3055105969
 20
4.6490133843
 30
0.0
 10
12.3062332379
 20
4.6525463238
 30
0.0
 10
12.3062332379
 20
4.6551533006
 30
0.0
  0
LINE
  5
3D4
100
AcDbEntity
  8
0
100
AcDbLine
 62
7
  6
CONTINUOUS
 10
9.6509572143
 20
11.6128925984
 11
9.6578076211
 21
11.6128689567
  0
LINE
  5
3D5
100
AcDbEntity
  8
0
100
AcDbLine
 62
7
  6
CONTINUOUS
 10
9.6578076211
 20
11.6128689567
 11
9.6612332379
 21
11.6128598633
  0
LINE
  5
3D6
100
AcDbEntity
  8
0
100
AcDbLine
 62
7
  6
CONTINUOUS
 10
9.8999181623
 20
11.8214153464
 11
9.8958564687
 21
11.8223145304
  0
LINE
  5
3D7
100
AcDbEntity
  8
0
100
AcDbLine
 62
7
  6
CONTINUOUS
 10
9.9701115294
 20
11.7144792412
 11
9.9677247629
 21
11.7189893576
  0
SPLINE
  5
3D8
100
AcDbEntity
  8
0
100
AcDbSpline
 62
7
  6
CONTINUOUS
 70
0
 71
3
 72
9
 73
5
 74
0
 42
0.0000001
 43
0.0000001
 44
0.0000000001
 40
0.0
 40
0.0
 40
0.0
 40
0.0
 40
0.2444889042
 40
1.0
 40
1.0
 40
1.0
 40
1.0
 10
10.1020389811
 20
11.7298440058
 30
0.0
 10
10.1019482648
 20
11.7290089176
 30
0.0
 10
10.1014491995
 20
11.725607633
 30
0.0
 10
10.1004372882
 20
11.7222878283
 30
0.0
 10
10.0994460872
 20
11.7198887874
 30
0.0
  0
SPLINE
  5
3D9
100
AcDbEntity
  8
0
100
AcDbSpline
 62
7
  6
CONTINUOUS
 70
0
 71
3
 72
9
 73
5
 74
0
 42
0.0000001
 43
0.0000001
 44
0.0000000001
 40
0.0
 40
0.0
 40
0.0
 40
0.0
 40
0.2384604688
 40
1.0
 40
1.0
 40
1.0
 40
1.0
 10
10.0994460872
 20
11.7198887874
 30
0.0
 10
10.0990731177
 20
11.7189860756
 30
0.0
 10
10.0973736645
 20
11.7152565982
 30
0.0
 10
10.0951637261
 20
11.7117703946
 30
0.0
 10
10.0932955414
 20
11.709272484
 30
0.0
  0
SPLINE
  5
3DA
100
AcDbEntity
  8
0
100
AcDbSpline
 62
7
  6
CONTINUOUS
 70
0
 71
3
 72
9
 73
5
 74
0
 42
0.0000001
 43
0.0000001
 44
0.0000000001
 40
0.0
 40
0.0
 40
0.0
 40
0.0
 40
0.2408049703
 40
1.0
 40
1.0
 40
1.0
 40
1.0
 10
10.0932955414
 20
11.709272484
 30
0.0
 10
10.0928495511
 20
11.7086761598
 30
0.0
 10
10.0909516398
 20
11.7062341611
 30
0.0
 10
10.0888807712
 20
11.7039285135
 30
0.0
 10
10.0872384267
 20
11.7022508966
 30
0.0
  0
SPLINE
  5
3DB
100
AcDbEntity
  8
0
100
AcDbSpline
 62
7
  6
CONTINUOUS
 70
0
 71
3
 72
9
 73
5
 74
0
 42
0.0000001
 43
0.0000001
 44
0.0000000001
 40
0.0
 40
0.0
 40
0.0
 40
0.0
 40
0.25953739
 40
1.0
 40
1.0
 40
1.0
 40
1.0
 10
9.2352280492
 20
11.7022508966
 30
0.0
 10
9.2346666111
 20
11.7028243926
 30
0.0
 10
9.2325363003
 20
11.7050657849
 30
0.0
 10
9.2305423026
 20
11.7074388565
 30
0.0
 10
9.2291709345
 20
11.709272484
 30
0.0
  0
SPLINE
  5
3DC
100
AcDbEntity
  8
0
100
AcDbSpline
 62
7
  6
CONTINUOUS
 70
0
 71
3
 72
9
 73
5
 74
0
 42
0.0000001
 43
0.0000001
 44
0.0000000001
 40
0.0
 40
0.0
 40
0.0
 40
0.0
 40
0.2628975073
 40
1.0
 40
1.0
 40
1.0
 40
1.0
 10
9.2291709345
 20
11.709272484
 30
0.0
 10
9.2285260644
 20
11.7101347263
 30
0.0
 10
9.2261616599
 20
11.7134783226
 30
0.0
 10
9.22417316
 20
11.7170986919
 30
0.0
 10
9.2230203887
 20
11.7198887874
 30
0.0
  0
SPLINE
  5
3DD
100
AcDbEntity
  8
0
100
AcDbSpline
 62
7
  6
CONTINUOUS
 70
0
 71
3
 72
9
 73
5
 74
0
 42
0.0000001
 43
0.0000001
 44
0.0000000001
 40
0.0
 40
0.0
 40
0.0
 40
0.0
 40
0.2546357305
 40
1.0
 40
1.0
 40
1.0
 40
1.0
 10
9.2220670137
 20
11.7224391847
 30
0.0
 10
9.2218631428
 20
11.7230485494
 30
0.0
 10
9.2211228291
 20
11.7254612338
 30
0.0
 10
9.2206342289
 20
11.7279524093
 30
0.0
 10
9.2204298735
 20
11.729822175
 30
0.0
  0
LINE
  5
3DE
100
AcDbEntity
  8
0
100
AcDbLine
 62
7
  6
CONTINUOUS
 10
9.9437872317
 20
11.7400880704
 11
9.9364193042
 21
11.7441758116
  0
SPLINE
  5
3DF
100
AcDbEntity
  8
0
100
AcDbSpline
 62
7
  6
CONTINUOUS
 70
0
 71
3
 72
9
 73
5
 74
0
 42
0.0000001
 43
0.0000001
 44
0.0000000001
 40
0.0
 40
0.0
 40
0.0
 40
0.0
 40
0.2419768525
 40
1.0
 40
1.0
 40
1.0
 40
1.0
 10
10.0329423943
 20
11.656622588
 30
0.0
 10
10.0320434144
 20
11.6561016577
 30
0.0
 10
10.0283096703
 20
11.6539810025
 30
0.0
 10
10.0245056216
 20
11.6519849361
 30
0.0
 10
10.0215926318
 20
11.6505329276
 30
0.0
  0
SPLINE
  5
3E0
100
AcDbEntity
  8
0
100
AcDbSpline
 62
7
  6
CONTINUOUS
 70
0
 71
3
 72
9
 73
5
 74
0
 42
0.0000001
 43
0.0000001
 44
0.0000000001
 40
0.0
 40
0.0
 40
0.0
 40
0.0
 40
0.5051854579
 40
1.0
 40
1.0
 40
1.0
 40
1.0
 10
9.6612332379
 20
11.661522113
 30
0.0
 10
9.6474116767
 20
11.661522113
 30
0.0
 10
9.6200493552
 20
11.6621165725
 30
0.0
 10
9.5927372246
 20
11.6638965928
 30
0.0
 10
9.5792534026
 20
11.6651045239
 30
0.0
  0
SPLINE
  5
3E1
100
AcDbEntity
  8
0
100
AcDbSpline
 62
7
  6
CONTINUOUS
 70
0
 71
3
 72
9
 73
5
 74
0
 42
0.0000001
 43
0.0000001
 44
0.0000000001
 40
0.0
 40
0.0
 40
0.0
 40
0.0
 40
0.516537313
 40
1.0
 40
1.0
 40
1.0
 40
1.0
 10
9.5673991662
 20
11.6662536959
 30
0.0
 10
9.5567584602
 20
11.6673647193
 30
0.0
 10
9.5361989203
 20
11.6699293238
 30
0.0
 10
9.5157743845
 20
11.6734274784
 30
0.0
 10
9.5059554414
 20
11.6753918335
 30
0.0
  0
SPLINE
  5
3E2
100
AcDbEntity
  8
0
100
AcDbSpline
 62
7
  6
CONTINUOUS
 70
0
 71
3
 72
9
 73
5
 74
0
 42
0.0000001
 43
0.0000001
 44
0.0000000001
 40
0.0
 40
0.0
 40
0.0
 40
0.0
 40
0.2576975193
 40
1.0
 40
1.0
 40
1.0
 40
1.0
 10
9.5059554414
 20
11.6753918335
 30
0.0
 10
9.5039490246
 20
11.6757932326
 30
0.0
 10
9.496172201
 20
11.6773957855
 30
0.0
 10
9.4884325476
 20
11.679180998
 30
0.0
 10
9.482718265
 20
11.6806255457
 30
0.0
  0
SPLINE
  5
3E3
100
AcDbEntity
  8
0
100
AcDbSpline
 62
7
  6
CONTINUOUS
 70
0
 71
3
 72
9
 73
5
 74
0
 42
0.0000001
 43
0.0000001
 44
0.0000000001
 40
0.0
 40
0.0
 40
0.0
 40
0.0
 40
0.2598869033
 40
1.0
 40
1.0
 40
1.0
 40
1.0
 10
9.482718265
 20
11.6806255457
 30
0.0
 10
9.4808159768
 20
11.6811064365
 30
0.0
 10
9.473509524
 20
11.6830082493
 30
0.0
 10
9.4662569266
 20
11.685120724
 30
0.0
 10
9.4609366534
 20
11.6868290296
 30
0.0
  0
LINE
  5
3E4
100
AcDbEntity
  8
0
100
AcDbLine
 62
7
  6
CONTINUOUS
 10
9.4609366534
 20
11.6868290296
 11
9.4485232641
 21
11.6911381596
  0
SPLINE
  5
3E5
100
AcDbEntity
  8
0
100
AcDbSpline
 62
7
  6
CONTINUOUS
 70
0
 71
3
 72
11
 73
7
 74
0
 42
0.0000001
 43
0.0000001
 44
0.0000000001
 40
0.0
 40
0.0
 40
0.0
 40
0.0
 40
0.3166638391
 40
0.587793588
 40
0.814050619
 40
1.0
 40
1.0
 40
1.0
 40
1.0
 10
9.4485232641
 20
11.6911381596
 30
0.0
 10
9.4429031053
 20
11.6932509693
 30
0.0
 10
9.4326080555
 20
11.6975627975
 30
0.0
 10
9.4190348126
 20
11.7049951721
 30
0.0
 10
9.4086396648
 20
11.7128156453
 30
0.0
 10
9.4034719199
 20
11.7188303035
 30
0.0
 10
9.4016667685
 20
11.7218588746
 30
0.0
  0
SPLINE
  5
3E6
100
AcDbEntity
  8
0
100
AcDbSpline
 62
7
  6
CONTINUOUS
 70
0
 71
3
 72
9
 73
5
 74
0
 42
0.0000001
 43
0.0000001
 44
0.0000000001
 40
0.0
 40
0.0
 40
0.0
 40
0.0
 40
0.5183075487
 40
1.0
 40
1.0
 40
1.0
 40
1.0
 10
9.4016667685
 20
11.7218588746
 30
0.0
 10
9.4005899416
 20
11.7236655081
 30
0.0
 10
9.3988670764
 20
11.7273909268
 30
0.0
 10
9.3982360879
 20
11.7314673246
 30
0.0
 10
9.3982363195
 20
11.7334219537
 30
0.0
  0
SPLINE
  5
3E7
100
AcDbEntity
  8
0
100
AcDbSpline
 62
7
  6
CONTINUOUS
 70
0
 71
3
 72
9
 73
5
 74
0
 42
0.0000001
 43
0.0000001
 44
0.0000000001
 40
0.0
 40
0.0
 40
0.0
 40
0.0
 40
0.2639513428
 40
1.0
 40
1.0
 40
1.0
 40
1.0
 10
9.4986707984
 20
11.7838947459
 30
0.0
 10
9.4961121767
 20
11.7832785055
 30
0.0
 10
9.4864416775
 20
11.7808512079
 30
0.0
 10
9.4768626696
 20
11.7780444995
 30
0.0
 10
9.4699102572
 20
11.7756941869
 30
0.0
  0
SPLINE
  5
3E8
100
AcDbEntity
  8
0
100
AcDbSpline
 62
7
  6
CONTINUOUS
 70
0
 71
3
 72
11
 73
7
 74
0
 42
0.0000001
 43
0.0000001
 44
0.0000000001
 40
0.0
 40
0.0
 40
0.0
 40
0.0
 40
0.2849057899
 40
0.5432554005
 40
0.7795755467
 40
1.0
 40
1.0
 40
1.0
 40
1.0
 10
9.4254373229
 20
11.7525872789
 30
0.0
 10
9.4241304912
 20
11.7513847263
 30
0.0
 10
9.4217517859
 20
11.7489619619
 30
0.0
 10
9.4188156735
 20
11.7450693179
 30
0.0
 10
9.4167117509
 20
11.7411163264
 30
0.0
 10
9.4158580425
 20
11.7383768136
 30
0.0
 10
9.4155919983
 20
11.7370288209
 30
0.0
  0
SPLINE
  5
3E9
100
AcDbEntity
  8
0
100
AcDbSpline
 62
7
  6
CONTINUOUS
 70
0
 71
3
 72
9
 73
5
 74
0
 42
0.0000001
 43
0.0000001
 44
0.0000000001
 40
0.0
 40
0.0
 40
0.0
 40
0.0
 40
0.2580566118
 40
1.0
 40
1.0
 40
1.0
 40
1.0
 10
9.300873844
 20
11.6505329276
 30
0.0
 10
9.2998821681
 20
11.6510272382
 30
0.0
 10
9.2960530708
 20
11.6529701217
 30
0.0
 10
9.2922805006
 20
11.655025331
 30
0.0
 10
9.2895240815
 20
11.656622588
 30
0.0
  0
LINE
  5
3EA
100
AcDbEntity
  8
0
100
AcDbLine
 62
7
  6
CONTINUOUS
 10
9.3562658081
 20
11.7212296817
 11
9.3534377802
 21
11.7167386718
  0
LINE
  5
3EB
100
AcDbEntity
  8
0
100
AcDbLine
 62
7
  6
CONTINUOUS
 10
9.3900290066
 20
11.7461777308
 11
9.3822630114
 21
11.7421454387
  0
SPLINE
  5
3EC
100
AcDbEntity
  8
0
100
AcDbSpline
 62
7
  6
CONTINUOUS
 70
0
 71
3
 72
11
 73
7
 74
0
 42
0.0000001
 43
0.0000001
 44
0.0000000001
 40
0.0
 40
0.0
 40
0.0
 40
0.0
 40
0.2408360827
 40
0.4864695949
 40
0.7385783416
 40
1.0
 40
1.0
 40
1.0
 40
1.0
 10
9.0111126189
 20
13.7999701988
 30
0.0
 10
9.007297692
 20
13.7937378558
 30
0.0
 10
9.0003238495
 20
13.7806794433
 30
0.0
 10
8.9924143409
 20
13.759640154
 30
0.0
 10
8.9873763479
 20
13.7370862995
 30
0.0
 10
8.9862332379
 20
13.7214793032
 30
0.0
 10
8.9862332379
 20
13.7135474727
 30
0.0
  0
SPLINE
  5
3ED
100
AcDbEntity
  8
0
100
AcDbSpline
 62
7
  6
CONTINUOUS
 70
0
 71
3
 72
11
 73
7
 74
0
 42
0.0000001
 43
0.0000001
 44
0.0000000001
 40
0.0
 40
0.0
 40
0.0
 40
0.0
 40
0.2625341599
 40
0.5146932538
 40
0.7598176472
 40
1.0
 40
1.0
 40
1.0
 40
1.0
 10
10.3362332379
 20
13.7135474727
 30
0.0
 10
10.3362332379
 20
13.7215223618
 30
0.0
 10
10.3350884302
 20
13.7371836198
 30
0.0
 10
10.3300236588
 20
13.7597804852
 30
0.0
 10
10.3220913546
 20
13.7808030085
 30
0.0
 10
10.3151126653
 20
13.7938382408
 30
0.0
 10
10.3112961449
 20
13.8000563264
 30
0.0
  0
SPLINE
  5
3EE
100
AcDbEntity
  8
0
100
AcDbSpline
 62
7
  6
CONTINUOUS
 70
0
 71
3
 72
9
 73
5
 74
0
 42
0.0000001
 43
0.0000001
 44
0.0000000001
 40
0.0
 40
0.0
 40
0.0
 40
0.0
 40
0.4986900303
 40
1.0
 40
1.0
 40
1.0
 40
1.0
 10
10.3219578513
 20
11.7813175186
 30
0.0
 10
10.3246556441
 20
11.7857591656
 30
0.0
 10
10.329468274
 20
11.7950482774
 30
0.0
 10
10.3327437259
 20
11.8050022684
 30
0.0
 10
10.3339313483
 20
11.8100895443
 30
0.0
  0
SPLINE
  5
3EF
100
AcDbEntity
  8
0
100
AcDbSpline
 62
7
  6
CONTINUOUS
 70
0
 71
3
 72
9
 73
5
 74
0
 42
0.0000001
 43
0.0000001
 44
0.0000000001
 40
0.0
 40
0.0
 40
0.0
 40
0.0
 40
0.5013051902
 40
1.0
 40
1.0
 40
1.0
 40
1.0
 10
8.9885351056
 20
11.8100907352
 30
0.0
 10
8.9897227869
 20
11.805003184
 30
0.0
 10
8.9929983875
 20
11.7950485536
 30
0.0
 10
8.9978111545
 20
11.7857587644
 30
0.0
 10
9.0005091002
 20
11.7813167664
 30
0.0
  0
SPLINE
  5
3F0
100
AcDbEntity
  8
0
100
AcDbSpline
 62
7
  6
CONTINUOUS
 70
0
 71
3
 72
31
 73
27
 74
0
 42
0.0000001
 43
0.0000001
 44
0.0000000001
 40
0.0
 40
0.0
 40
0.0
 40
0.0
 40
0.0190104118
 40
0.0392203135
 40
0.0608838021
 40
0.0842391185
 40
0.1095333393
 40
0.1369450684
 40
0.1664711323
 40
0.1979897871
 40
0.2664169129
 40
0.3407872177
 40
0.4193284255
 40
0.5000003538
 40
0.5806722382
 40
0.6592132394
 40
0.7335832577
 40
0.8020098927
 40
0.8335282768
 40
0.8630540504
 40
0.8904655455
 40
0.9157596806
 40
0.939115174
 40
0.9607792252
 40
0.9809897571
 40
1.0
 40
1.0
 40
1.0
 40
1.0
 10
9.0490924571
 20
11.7024923154
 30
0.0
 10
9.0539752462
 20
11.6959658997
 30
0.0
 10
9.0654387295
 20
11.6835153264
 30
0.0
 10
9.0859541729
 20
11.6672637606
 30
0.0
 10
9.1097517227
 20
11.6524803038
 30
0.0
 10
9.1367404107
 20
11.6389708539
 30
0.0
 10
9.166931481
 20
11.6265789157
 30
0.0
 10
9.2002905561
 20
11.6151167455
 30
0.0
 10
9.2367246443
 20
11.6045368798
 30
0.0
 10
9.2906547449
 20
11.5913228688
 30
0.0
 10
9.3642094692
 20
11.5777151137
 30
0.0
 10
9.4584343116
 20
11.5660489029
 30
0.0
 10
9.5583717847
 20
11.5589094732
 30
0.0
 10
9.6612334524
 20
11.5565086351
 30
0.0
 10
9.7640950356
 20
11.5589094219
 30
0.0
 10
9.8640322691
 20
11.5660489823
 30
0.0
 10
9.9582566918
 20
11.5777151053
 30
0.0
 10
10.0318110048
 20
11.5913226144
 30
0.0
 10
10.0857406768
 20
11.604536485
 30
0.0
 10
10.1221744323
 20
11.615116273
 30
0.0
 10
10.1555332826
 20
11.6265782829
 30
0.0
 10
10.1857243695
 20
11.6389700185
 30
0.0
 10
10.2127133742
 20
11.6524794617
 30
0.0
 10
10.236511468
 20
11.6672631761
 30
0.0
 10
10.2570271578
 20
11.683515133
 30
0.0
 10
10.2684908943
 20
11.6959657201
 30
0.0
 10
10.27337372
 20
11.702492018
 30
0.0
  0
SPLINE
  5
3F1
100
AcDbEntity
  8
0
100
AcDbSpline
 62
9
  6
CONTINUOUS
 70
0
 71
3
 72
90
 73
86
 74
0
 42
0.0000001
 43
0.0000001
 44
0.0000000001
 40
0.0
 40
0.0
 40
0.0
 40
0.0
 40
0.0000143117
 40
0.0000565642
 40
0.000126714
 40
0.0002247171
 40
0.0003505294
 40
0.000504107
 40
0.0008943816
 40
0.0013951886
 40
0.0020061752
 40
0.002726812
 40
0.0035561223
 40
0.0055365768
 40
0.0079391654
 40
0.010754694
 40
0.0139711575
 40
0.0175759499
 40
0.0215562343
 40
0.02589785
 40
0.0305861668
 40
0.0409444904
 40
0.0525151885
 40
0.0651842637
 40
0.0788444838
 40
0.0933937502
 40
0.1087417289
 40
0.1248031376
 40
0.1415047824
 40
0.1765625539
 40
0.2134580248
 40
0.2518263038
 40
0.2913764278
 40
0.3318745402
 40
0.3524197198
 40
0.3731351603
 40
0.3940018005
 40
0.4150035081
 40
0.4361248136
 40
0.4573462264
 40
0.4679911982
 40
0.4786535879
 40
0.4893262344
 40
0.5000054014
 40
0.5106840974
 40
0.5213562576
 40
0.5426528732
 40
0.5638734038
 40
0.5849951912
 40
0.6059970914
 40
0.6268637723
 40
0.6475794097
 40
0.6681247366
 40
0.7086230139
 40
0.7481730818
 40
0.7865415667
 40
0.8234372243
 40
0.8584950837
 40
0.8751968323
 40
0.8912583029
 40
0.9066062978
 40
0.9211555505
 40
0.9348157477
 40
0.9474848056
 40
0.9590554843
 40
0.9694138064
 40
0.9741021339
 40
0.9784437636
 40
0.9824240605
 40
0.986028859
 40
0.9892453239
 40
0.9920608539
 40
0.9944634405
 40
0.9964438877
 40
0.9972731955
 40
0.9979938323
 40
0.9986048202
 40
0.9991056264
 40
0.999495899
 40
0.9996494753
 40
0.9997752864
 40
0.9998732882
 40
0.999943437
 40
0.9999856887
 40
1.0
 40
1.0
 40
1.0
 40
1.0
 10
10.6112332379
 20
6.4232687771
 30
0.0
 10
10.6112302598
 20
6.4232575685
 30
0.0
 10
10.6111899214
 20
6.4232281271
 30
0.0
 10
10.6111332743
 20
6.4231449293
 30
0.0
 10
10.6110164465
 20
6.4230185229
 30
0.0
 10
10.610863709
 20
6.4228365647
 30
0.0
 10
10.610663306
 20
6.4226052109
 30
0.0
 10
10.6103098186
 20
6.4221936297
 30
0.0
 10
10.6097571957
 20
6.4215522405
 30
0.0
 10
10.6089630179
 20
6.4206298588
 30
0.0
 10
10.6079938191
 20
6.4195048392
 30
0.0
 10
10.6068508404
 20
6.4181781862
 30
0.0
 10
10.604983498
 20
6.4160107814
 30
0.0
 10
10.6022268546
 20
6.4128104977
 30
0.0
 10
10.5984208879
 20
6.4083897449
 30
0.0
 10
10.5939630926
 20
6.4032085095
 30
0.0
 10
10.5888719043
 20
6.3972870677
 30
0.0
 10
10.5831677065
 20
6.390647916
 30
0.0
 10
10.5768720113
 20
6.3833148845
 30
0.0
 10
10.5700075037
 20
6.375312959
 30
0.0
 10
10.5597828153
 20
6.3633839134
 30
0.0
 10
10.5457567692
 20
6.3469975849
 30
0.0
 10
10.5275497014
 20
6.325677185
 30
0.0
 10
10.507638113
 20
6.3022938377
 30
0.0
 10
10.4862025822
 20
6.2770380026
 30
0.0
 10
10.4634116085
 20
6.2500853007
 30
0.0
 10
10.4394258646
 20
6.2215947752
 30
0.0
 10
10.4143906012
 20
6.1917079507
 30
0.0
 10
10.3792221383
 20
6.1494745357
 30
0.0
 10
10.3335300702
 20
6.0940345573
 30
0.0
 10
10.277298599
 20
6.0245323321
 30
0.0
 10
10.2196939074
 20
5.9514651227
 30
0.0
 10
10.1616611606
 20
5.8750351425
 30
0.0
 10
10.1141253352
 20
5.8087907
 30
0.0
 10
10.0772497908
 20
5.7537403057
 30
0.0
 10
10.0504005189
 20
5.7111422326
 30
0.0
 10
10.0249498079
 20
5.6672586629
 30
0.0
 10
10.0015049224
 20
5.6218877451
 30
0.0
 10
9.9808969924
 20
5.5748265861
 30
0.0
 10
9.9671549489
 20
5.5340597917
 30
0.0
 10
9.9589484991
 20
5.500568102
 30
0.0
 10
9.9543801521
 20
5.4750396751
 30
0.0
 10
9.9515466674
 20
5.4492303896
 30
0.0
 10
9.9505938196
 20
5.4232687965
 30
0.0
 10
9.951536386
 20
5.3973062
 30
0.0
 10
9.9553181824
 20
5.3629279138
 30
0.0
 10
9.9643932194
 20
5.3206627461
 30
0.0
 10
9.9808917849
 20
5.2717162027
 30
0.0
 10
10.0015049128
 20
5.224652756
 30
0.0
 10
10.0249521578
 20
5.1792837773
 30
0.0
 10
10.0504011134
 20
5.1353985055
 30
0.0
 10
10.0772476896
 20
5.0927984273
 30
0.0
 10
10.1141235194
 20
5.0377476703
 30
0.0
 10
10.1616599422
 20
4.9715034191
 30
0.0
 10
10.2196934366
 20
4.8950736878
 30
0.0
 10
10.2772978533
 20
4.8220059187
 30
0.0
 10
10.3335296965
 20
4.7525034902
 30
0.0
 10
10.3792219106
 20
4.697063236
 30
0.0
 10
10.4143905162
 20
4.6548296722
 30
0.0
 10
10.4394258979
 20
4.6249427545
 30
0.0
 10
10.4634116798
 20
4.5964521929
 30
0.0
 10
10.4862026328
 20
4.5694994951
 30
0.0
 10
10.5076381118
 20
4.5442436733
 30
0.0
 10
10.5275496636
 20
4.5208603582
 30
0.0
 10
10.545756771
 20
4.4995400328
 30
0.0
 10
10.5597828415
 20
4.4831537361
 30
0.0
 10
10.570007519
 20
4.4712246563
 30
0.0
 10
10.5768720226
 20
4.4632226877
 30
0.0
 10
10.5831677143
 20
4.4558896185
 30
0.0
 10
10.5888719147
 20
4.4492504477
 30
0.0
 10
10.5939631076
 20
4.4433290003
 30
0.0
 10
10.5984209072
 20
4.4381477676
 30
0.0
 10
10.6022268734
 20
4.4337270229
 30
0.0
 10
10.6049835138
 20
4.4305267492
 30
0.0
 10
10.6068508532
 20
4.4283593523
 30
0.0
 10
10.6079938326
 20
4.4270327012
 30
0.0
 10
10.6089630324
 20
4.425907682
 30
0.0
 10
10.6097572093
 20
4.4249853009
 30
0.0
 10
10.6103098289
 20
4.4243439135
 30
0.0
 10
10.610663314
 20
4.4239323348
 30
0.0
 10
10.6108637132
 20
4.4237009827
 30
0.0
 10
10.6110164522
 20
4.4235190272
 30
0.0
 10
10.6111332702
 20
4.4233926208
 30
0.0
 10
10.6111899304
 20
4.4233094278
 30
0.0
 10
10.6112302534
 20
4.4232799837
 30
0.0
 10
10.6112332379
 20
4.4232687771
 30
0.0
  0
SPLINE
  5
3F2
100
AcDbEntity
  8
0
100
AcDbSpline
 62
7
  6
CONTINUOUS
 70
0
 71
3
 72
9
 73
5
 74
0
 42
0.0000001
 43
0.0000001
 44
0.0000000001
 40
0.0
 40
0.0
 40
0.0
 40
0.0
 40
0.25866686
 40
1.0
 40
1.0
 40
1.0
 40
1.0
 10
10.0650299268
 20
11.7255089571
 30
0.0
 10
10.0654136992
 20
11.7249559663
 30
0.0
 10
10.0668560742
 20
11.7227900504
 30
0.0
 10
10.0681262292
 20
11.7205072339
 30
0.0
 10
10.0689407884
 20
11.7187585166
 30
0.0
  0
SPLINE
  5
3F3
100
AcDbEntity
  8
0
100
AcDbSpline
 62
9
  6
CONTINUOUS
 70
0
 71
3
 72
14
 73
10
 74
0
 42
0.0000001
 43
0.0000001
 44
0.0000000001
 40
0.0
 40
0.0
 40
0.0
 40
0.0
 40
0.1540650999
 40
0.3033899267
 40
0.4461062595
 40
0.5804105101
 40
0.704732147
 40
0.817542432
 40
1.0
 40
1.0
 40
1.0
 40
1.0
 10
12.2862332379
 20
4.6376961306
 30
0.0
 10
12.272391768
 20
4.6332120131
 30
0.0
 10
12.2451713948
 20
4.6242675231
 30
0.0
 10
12.2052971514
 20
4.6106646607
 30
0.0
 10
12.1673812421
 20
4.5971108703
 30
0.0
 10
12.1319478387
 20
4.5836487972
 30
0.0
 10
12.0993669788
 20
4.5706476381
 30
0.0
 10
12.0627366121
 20
4.5555340184
 30
0.0
 10
12.0370656064
 20
4.544642953
 30
0.0
 10
12.021254915
 20
4.5377923503
 30
0.0
  0
LINE
  5
3F4
100
AcDbEntity
  8
0
100
AcDbLine
 62
9
  6
CONTINUOUS
 10
11.9923274107
 20
4.5250893537
 11
11.9882333296
 21
4.5232772381
  0
SPLINE
  5
3F5
100
AcDbEntity
  8
0
100
AcDbSpline
 62
9
  6
CONTINUOUS
 70
0
 71
3
 72
40
 73
36
 74
0
 42
0.0000001
 43
0.0000001
 44
0.0000000001
 40
0.0
 40
0.0
 40
0.0
 40
0.0
 40
0.0062077776
 40
0.0126050894
 40
0.0193527828
 40
0.0265854956
 40
0.0428865853
 40
0.0620964042
 40
0.0844663598
 40
0.110069302
 40
0.1388312505
 40
0.1706094067
 40
0.2051922505
 40
0.2423180671
 40
0.2816960266
 40
0.3229900215
 40
0.3658497376
 40
0.4098997942
 40
0.4999956428
 40
0.5900913878
 40
0.6769924051
 40
0.718287627
 40
0.7576670428
 40
0.7947946526
 40
0.8293802538
 40
0.8611604883
 40
0.8899249129
 40
0.9155298254
 40
0.9379011662
 40
0.9571123265
 40
0.9734141685
 40
0.9806470697
 40
0.9873948645
 40
0.9937922158
 40
1.0
 40
1.0
 40
1.0
 40
1.0
 10
9.0682332379
 20
11.720917187
 30
0.0
 10
9.0682332379
 20
11.7235751257
 30
0.0
 10
9.0687298376
 20
11.7289838732
 30
0.0
 10
9.0709323719
 20
11.7370106758
 30
0.0
 10
9.0745706714
 20
11.7449781096
 30
0.0
 10
9.0815866004
 20
11.7559244292
 30
0.0
 10
9.0942806177
 20
11.7693178752
 30
0.0
 10
9.1142130447
 20
11.7841681659
 30
0.0
 10
9.1392767626
 20
11.798400598
 30
0.0
 10
9.1692750783
 20
11.811887157
 30
0.0
 10
9.2039495376
 20
11.8245358106
 30
0.0
 10
9.2429905342
 20
11.8362052702
 30
0.0
 10
9.2860328864
 20
11.8467885675
 30
0.0
 10
9.3326712597
 20
11.8561852658
 30
0.0
 10
9.3824626251
 20
11.864292465
 30
0.0
 10
9.4349306
 20
11.871044298
 30
0.0
 10
9.4895731105
 20
11.8763611853
 30
0.0
 10
9.5651933656
 20
11.8815144403
 30
0.0
 10
9.6612236336
 20
11.8840513781
 30
0.0
 10
9.7755925155
 20
11.8810257158
 30
0.0
 10
9.8688086875
 20
11.8734502956
 30
0.0
 10
9.9399828739
 20
11.864295935
 30
0.0
 10
9.9897764523
 20
11.8561886848
 30
0.0
 10
10.036417312
 20
11.8467917201
 30
0.0
 10
10.0794627733
 20
11.8362090751
 30
0.0
 10
10.1185067508
 20
11.8245386473
 30
0.0
 10
10.1531841351
 20
11.8118899214
 30
0.0
 10
10.1831851012
 20
11.7984030981
 30
0.0
 10
10.2082505971
 20
11.7841697384
 30
0.0
 10
10.22818459
 20
11.7693190436
 30
0.0
 10
10.2408793434
 20
11.7559249187
 30
0.0
 10
10.2478955969
 20
11.7449782799
 30
0.0
 10
10.2515340236
 20
11.7370107477
 30
0.0
 10
10.2537366253
 20
11.7289838963
 30
0.0
 10
10.2542332379
 20
11.7235751285
 30
0.0
 10
10.2542332379
 20
11.720917187
 30
0.0
  0
SPLINE
  5
3F6
100
AcDbEntity
  8
0
100
AcDbSpline
 62
9
  6
CONTINUOUS
 70
0
 71
3
 72
40
 73
36
 74
0
 42
0.0000001
 43
0.0000001
 44
0.0000000001
 40
0.0
 40
0.0
 40
0.0
 40
0.0
 40
0.0062077776
 40
0.0126050894
 40
0.0193527828
 40
0.0265854956
 40
0.0428865853
 40
0.0620964042
 40
0.0844663598
 40
0.110069302
 40
0.1388312505
 40
0.1706094067
 40
0.2051922505
 40
0.2423180671
 40
0.2816960266
 40
0.3229900215
 40
0.3658497376
 40
0.4098997942
 40
0.4999956428
 40
0.5900913878
 40
0.6769924051
 40
0.718287627
 40
0.7576670428
 40
0.7947946526
 40
0.8293802538
 40
0.8611604883
 40
0.8899249129
 40
0.9155298254
 40
0.9379011662
 40
0.9571123265
 40
0.9734141685
 40
0.9806470697
 40
0.9873948645
 40
0.9937922158
 40
1.0
 40
1.0
 40
1.0
 40
1.0
 10
10.2542332379
 20
11.720917187
 30
0.0
 10
10.2542332379
 20
11.7182592483
 30
0.0
 10
10.2537366383
 20
11.7128505009
 30
0.0
 10
10.2515341039
 20
11.7048236982
 30
0.0
 10
10.2478958044
 20
11.6968562644
 30
0.0
 10
10.2408798755
 20
11.6859099448
 30
0.0
 10
10.2281858582
 20
11.6725164988
 30
0.0
 10
10.2082534312
 20
11.6576662081
 30
0.0
 10
10.1831897133
 20
11.643433776
 30
0.0
 10
10.1531913975
 20
11.629947217
 30
0.0
 10
10.1185169383
 20
11.6172985634
 30
0.0
 10
10.0794759416
 20
11.6056291038
 30
0.0
 10
10.0364335895
 20
11.5950458065
 30
0.0
 10
9.9897952161
 20
11.5856491082
 30
0.0
 10
9.9400038508
 20
11.577541909
 30
0.0
 10
9.8875358759
 20
11.570790076
 30
0.0
 10
9.8328933653
 20
11.5654731887
 30
0.0
 10
9.7572731102
 20
11.5603199337
 30
0.0
 10
9.6612428422
 20
11.557782996
 30
0.0
 10
9.5468739604
 20
11.5608086582
 30
0.0
 10
9.4536577884
 20
11.5683840784
 30
0.0
 10
9.3824836019
 20
11.577538439
 30
0.0
 10
9.3326900235
 20
11.5856456892
 30
0.0
 10
9.2860491639
 20
11.5950426539
 30
0.0
 10
9.2430037026
 20
11.6056252989
 30
0.0
 10
9.2039597251
 20
11.6172957267
 30
0.0
 10
9.1692823407
 20
11.6299444526
 30
0.0
 10
9.1392813747
 20
11.6434312759
 30
0.0
 10
9.1142158788
 20
11.6576646356
 30
0.0
 10
9.0942818858
 20
11.6725153304
 30
0.0
 10
9.0815871324
 20
11.6859094553
 30
0.0
 10
9.0745708789
 20
11.6968560941
 30
0.0
 10
9.0709324523
 20
11.7048236263
 30
0.0
 10
9.0687298505
 20
11.7128504777
 30
0.0
 10
9.0682332379
 20
11.7182592455
 30
0.0
 10
9.0682332379
 20
11.720917187
 30
0.0
  0
SPLINE
  5
3F7
100
AcDbEntity
  8
0
100
AcDbSpline
 62
9
  6
CONTINUOUS
 70
0
 71
3
 72
27
 73
23
 74
0
 42
0.0000001
 43
0.0000001
 44
0.0000000001
 40
0.0
 40
0.0
 40
0.0
 40
0.0
 40
0.1843231448
 40
0.2747300009
 40
0.3629208924
 40
0.5296583369
 40
0.6073586102
 40
0.6805237598
 40
0.7484441717
 40
0.8102236845
 40
0.8649062521
 40
0.9115150997
 40
0.9314875056
 40
0.9491004595
 40
0.964260801
 40
0.9768751783
 40
0.9868500612
 40
0.9940917523
 40
0.9966583287
 40
0.9985063999
 40
0.9996242114
 40
1.0
 40
1.0
 40
1.0
 40
1.0
 10
12.5147845414
 20
5.4232687771
 30
0.0
 10
12.5147845129
 20
5.4033943353
 30
0.0
 10
12.5118888285
 20
5.3737142464
 30
0.0
 10
12.5036089845
 20
5.3354535471
 30
0.0
 10
12.4932465859
 20
5.2996593456
 30
0.0
 10
12.4801005811
 20
5.2662006533
 30
0.0
 10
12.4653716137
 20
5.2352798178
 30
0.0
 10
12.4544542716
 20
5.2143624339
 30
0.0
 10
12.4438192496
 20
5.1952460135
 30
0.0
 10
12.4337581982
 20
5.1780971067
 30
0.0
 10
12.4245688915
 20
5.1631055211
 30
0.0
 10
12.417564231
 20
5.1520645216
 30
0.0
 10
12.4126401248
 20
5.144437837
 30
0.0
 10
12.4095328112
 20
5.1396744714
 30
0.0
 10
12.4068403479
 20
5.1355878091
 30
0.0
 10
12.4045857299
 20
5.1321989645
 30
0.0
 10
12.402793565
 20
5.1295280285
 30
0.0
 10
12.4015960837
 20
5.1277627091
 30
0.0
 10
12.400889846
 20
5.1267231434
 30
0.0
 10
12.4005496356
 20
5.1262329797
 30
0.0
 10
12.400351138
 20
5.1259324645
 30
0.0
 10
12.4002538164
 20
5.1258036601
 30
0.0
 10
12.4002332016
 20
5.1257687771
 30
0.0
  0
SPLINE
  5
3F8
100
AcDbEntity
  8
0
100
AcDbSpline
 62
9
  6
CONTINUOUS
 70
0
 71
3
 72
15
 73
11
 74
0
 42
0.0000001
 43
0.0000001
 44
0.0000000001
 40
0.0
 40
0.0
 40
0.0
 40
0.0
 40
0.0867039054
 40
0.1727231299
 40
0.3400808102
 40
0.4980288264
 40
0.643031547
 40
0.7711621548
 40
0.877449359
 40
1.0
 40
1.0
 40
1.0
 40
1.0
 10
12.5223473152
 20
5.4232687771
 30
0.0
 10
12.5223473025
 20
5.4137577808
 30
0.0
 10
12.5215987196
 20
5.3948020952
 30
0.0
 10
12.5172625381
 20
5.3577197584
 30
0.0
 10
12.5072220499
 20
5.3135827565
 30
0.0
 10
12.4900982706
 20
5.2648357218
 30
0.0
 10
12.470763837
 20
5.2216388409
 30
0.0
 10
12.4515513827
 20
5.1846995969
 30
0.0
 10
12.4320886516
 20
5.1507136311
 30
0.0
 10
12.4188955932
 20
5.1293515996
 30
0.0
 10
12.4116682438
 20
5.1180164647
 30
0.0
  0
LINE
  5
3F9
100
AcDbEntity
  8
0
100
AcDbLine
 62
9
  6
CONTINUOUS
 10
12.4116682438
 20
5.1180164647
 11
12.4102332379
 21
5.115768777
  0
SPLINE
  5
3FA
100
AcDbEntity
  8
0
100
AcDbSpline
 62
9
  6
CONTINUOUS
 70
0
 71
3
 72
15
 73
11
 74
0
 42
0.0000001
 43
0.0000001
 44
0.0000000001
 40
0.0
 40
0.0
 40
0.0
 40
0.0
 40
0.0866933876
 40
0.1727021842
 40
0.3400411513
 40
0.4979744224
 40
0.6429678779
 40
0.7710963827
 40
0.8773913191
 40
1.0
 40
1.0
 40
1.0
 40
1.0
 10
12.5223473152
 20
5.4232687771
 30
0.0
 10
12.5223472991
 20
5.4327783255
 30
0.0
 10
12.5215990011
 20
5.4517311263
 30
0.0
 10
12.5172640205
 20
5.48880805
 30
0.0
 10
12.5072263358
 20
5.5329392613
 30
0.0
 10
12.4901065587
 20
5.5816810378
 30
0.0
 10
12.4707753816
 20
5.6248746355
 30
0.0
 10
12.4515650199
 20
5.6618130599
 30
0.0
 10
12.4321005397
 20
5.695804696
 30
0.0
 10
12.418903789
 20
5.7171720118
 30
0.0
 10
12.411673685
 20
5.7285124476
 30
0.0
  0
LINE
  5
3FB
100
AcDbEntity
  8
0
100
AcDbLine
 62
9
  6
CONTINUOUS
 10
12.411673685
 20
5.7285124476
 11
12.4102332379
 21
5.7307687774
  0
SPLINE
  5
3FC
100
AcDbEntity
  8
0
100
AcDbSpline
 62
9
  6
CONTINUOUS
 70
0
 71
3
 72
9
 73
5
 74
0
 42
0.0000001
 43
0.0000001
 44
0.0000000001
 40
0.0
 40
0.0
 40
0.0
 40
0.0
 40
0.247358144
 40
1.0
 40
1.0
 40
1.0
 40
1.0
 10
10.3310082287
 20
11.8113152862
 30
0.0
 10
10.3310082287
 20
11.8124673187
 30
0.0
 10
10.3308466644
 20
11.8171238643
 30
0.0
 10
10.3300273115
 20
11.8217527257
 30
0.0
 10
10.3290897873
 20
11.8251303392
 30
0.0
  0
SPLINE
  5
3FD
100
AcDbEntity
  8
0
100
AcDbSpline
 62
9
  6
CONTINUOUS
 70
0
 71
3
 72
41
 73
37
 74
0
 42
0.0000001
 43
0.0000001
 44
0.0000000001
 40
0.0
 40
0.0
 40
0.0
 40
0.0
 40
0.0130869508
 40
0.0203365566
 40
0.0281659713
 40
0.0366381846
 40
0.0457963793
 40
0.0662688871
 40
0.0897189739
 40
0.1161321767
 40
0.1454070878
 40
0.1773949562
 40
0.2118835288
 40
0.2486353317
 40
0.2873809262
 40
0.3278191748
 40
0.3696393143
 40
0.4125073538
 40
0.5
 40
0.5874926462
 40
0.6303606857
 40
0.6721808252
 40
0.7126190738
 40
0.7513646683
 40
0.7881164712
 40
0.8226050438
 40
0.8545929122
 40
0.8838678233
 40
0.9102810261
 40
0.9337311129
 40
0.9542036207
 40
0.9633618154
 40
0.9718340287
 40
0.9796634434
 40
0.9869130492
 40
1.0
 40
1.0
 40
1.0
 40
1.0
 10
10.3290897873
 20
11.8251303392
 30
0.0
 10
10.3274296646
 20
11.8311112548
 30
0.0
 10
10.3232575102
 20
11.8399977496
 30
0.0
 10
10.3154539583
 20
11.8508525659
 30
0.0
 10
10.3079747527
 20
11.8591807926
 30
0.0
 10
10.299093646
 20
11.8673825677
 30
0.0
 10
10.2848759024
 20
11.8785639335
 30
0.0
 10
10.263518281
 20
11.8920182087
 30
0.0
 10
10.2336210681
 20
11.9069030004
 30
0.0
 10
10.1987920288
 20
11.9209789892
 30
0.0
 10
10.159318693
 20
11.9341283109
 30
0.0
 10
10.115525546
 20
11.9462188889
 30
0.0
 10
10.067789689
 20
11.9571614641
 30
0.0
 10
10.0165196531
 20
11.9668478732
 30
0.0
 10
9.9621592161
 20
11.975192234
 30
0.0
 10
9.9051801048
 20
11.9821292771
 30
0.0
 10
9.8460766171
 20
11.9875834977
 30
0.0
 10
9.7645749892
 20
11.9928635058
 30
0.0
 10
9.6612332379
 20
11.9954629903
 30
0.0
 10
9.5578914866
 20
11.9928635058
 30
0.0
 10
9.4763898587
 20
11.9875834977
 30
0.0
 10
9.417286371
 20
11.9821292771
 30
0.0
 10
9.3603072598
 20
11.975192234
 30
0.0
 10
9.3059468228
 20
11.9668478732
 30
0.0
 10
9.2546767869
 20
11.9571614641
 30
0.0
 10
9.2069409298
 20
11.9462188889
 30
0.0
 10
9.1631477829
 20
11.9341283109
 30
0.0
 10
9.1236744471
 20
11.9209789892
 30
0.0
 10
9.0888454078
 20
11.9069030004
 30
0.0
 10
9.0589481948
 20
11.8920182087
 30
0.0
 10
9.0375905735
 20
11.8785639335
 30
0.0
 10
9.0233728298
 20
11.8673825677
 30
0.0
 10
9.0144917231
 20
11.8591807926
 30
0.0
 10
9.0070125175
 20
11.8508525659
 30
0.0
 10
8.9992089656
 20
11.8399977496
 30
0.0
 10
8.9950368112
 20
11.8311112548
 30
0.0
 10
8.9933766885
 20
11.8251303392
 30
0.0
  0
SPLINE
  5
3FE
100
AcDbEntity
  8
0
100
AcDbSpline
 62
9
  6
CONTINUOUS
 70
0
 71
3
 72
9
 73
5
 74
0
 42
0.0000001
 43
0.0000001
 44
0.0000000001
 40
0.0
 40
0.0
 40
0.0
 40
0.0
 40
0.2542623593
 40
1.0
 40
1.0
 40
1.0
 40
1.0
 10
8.9933766885
 20
11.8251303392
 30
0.0
 10
8.9930599792
 20
11.823989332
 30
0.0
 10
8.9919571075
 20
11.819463754
 30
0.0
 10
8.9914582472
 20
11.8147883225
 30
0.0
 10
8.9914582472
 20
11.8113152862
 30
0.0
  0
SPLINE
  5
3FF
100
AcDbEntity
  8
0
100
AcDbSpline
 62
9
  6
CONTINUOUS
 70
0
 71
3
 72
43
 73
39
 74
0
 42
0.0000001
 43
0.0000001
 44
0.0000000001
 40
0.0
 40
0.0
 40
0.0
 40
0.0
 40
0.0062075123
 40
0.012604427
 40
0.0193516058
 40
0.0265837418
 40
0.0428837145
 40
0.0521111519
 40
0.0621056304
 40
0.0844743404
 40
0.1100758371
 40
0.1388366427
 40
0.1706150581
 40
0.2051988483
 40
0.2423253781
 40
0.2817036004
 40
0.3229973709
 40
0.3658563523
 40
0.4099056828
 40
0.5
 40
0.5900943172
 40
0.6341436477
 40
0.6770026291
 40
0.7182963996
 40
0.7576746219
 40
0.7948011517
 40
0.8293849419
 40
0.8611633573
 40
0.8899241629
 40
0.9155256596
 40
0.9378943696
 40
0.9478888481
 40
0.9571162855
 40
0.9734162582
 40
0.9806483942
 40
0.987395573
 40
0.9937924877
 40
1.0
 40
1.0
 40
1.0
 40
1.0
 10
8.9862332379
 20
11.8300724364
 30
0.0
 10
8.9862332379
 20
11.8330978974
 30
0.0
 10
8.9867983869
 20
11.8392544808
 30
0.0
 10
8.9893051006
 20
11.8483910404
 30
0.0
 10
8.9934461661
 20
11.8574602258
 30
0.0
 10
9.0014313443
 20
11.8699186452
 30
0.0
 10
9.0125094915
 20
11.8816122392
 30
0.0
 10
9.0258866624
 20
11.8926084975
 30
0.0
 10
9.0424747767
 20
11.9042931268
 30
0.0
 10
9.0670998034
 20
11.9182678343
 30
0.0
 10
9.1012420665
 20
11.9336211214
 30
0.0
 10
9.1407126819
 20
11.9480189428
 30
0.0
 10
9.1851536835
 20
11.9613023998
 30
0.0
 10
9.2341507245
 20
11.9733498702
 30
0.0
 10
9.2872410511
 20
11.9840468085
 30
0.0
 10
9.3439200741
 20
11.9932752064
 30
0.0
 10
9.4036452409
 20
12.0009606148
 30
0.0
 10
9.4658451367
 20
12.0070128135
 30
0.0
 10
9.5519242638
 20
12.0128783641
 30
0.0
 10
9.6612332379
 20
12.0157639389
 30
0.0
 10
9.770542212
 20
12.0128783641
 30
0.0
 10
9.8566213392
 20
12.0070128135
 30
0.0
 10
9.9188212349
 20
12.0009606148
 30
0.0
 10
9.9785464018
 20
11.9932752064
 30
0.0
 10
10.0352254248
 20
11.9840468085
 30
0.0
 10
10.0883157514
 20
11.9733498702
 30
0.0
 10
10.1373127923
 20
11.9613023998
 30
0.0
 10
10.1817537939
 20
11.9480189428
 30
0.0
 10
10.2212244094
 20
11.9336211214
 30
0.0
 10
10.2553666725
 20
11.9182678343
 30
0.0
 10
10.2799916991
 20
11.9042931268
 30
0.0
 10
10.2965798135
 20
11.8926084975
 30
0.0
 10
10.3099569844
 20
11.8816122392
 30
0.0
 10
10.3210351316
 20
11.8699186452
 30
0.0
 10
10.3290203098
 20
11.8574602258
 30
0.0
 10
10.3331613753
 20
11.8483910404
 30
0.0
 10
10.3356680889
 20
11.8392544808
 30
0.0
 10
10.3362332379
 20
11.8330978974
 30
0.0
 10
10.3362332379
 20
11.8300724364
 30
0.0
  0
SPLINE
  5
400
100
AcDbEntity
  8
0
100
AcDbSpline
 62
7
  6
CONTINUOUS
 70
0
 71
3
 72
9
 73
5
 74
0
 42
0.0000001
 43
0.0000001
 44
0.0000000001
 40
0.0
 40
0.0
 40
0.0
 40
0.0
 40
0.4862242445
 40
1.0
 40
1.0
 40
1.0
 40
1.0
 10
9.2162332379
 20
11.720917187
 30
0.0
 10
9.2162332379
 20
11.718142751
 30
0.0
 10
9.2169724886
 20
11.712416904
 30
0.0
 10
9.2190423999
 20
11.7070447979
 30
0.0
 10
9.2203548366
 20
11.7044233355
 30
0.0
  0
SPLINE
  5
401
100
AcDbEntity
  8
0
100
AcDbSpline
 62
7
  6
CONTINUOUS
 70
0
 71
3
 72
9
 73
5
 74
0
 42
0.0000001
 43
0.0000001
 44
0.0000000001
 40
0.0
 40
0.0
 40
0.0
 40
0.0
 40
0.2313818547
 40
1.0
 40
1.0
 40
1.0
 40
1.0
 10
9.2203548366
 20
11.7044233355
 30
0.0
 10
9.2210268292
 20
11.7030810969
 30
0.0
 10
9.2242190161
 20
11.6974238208
 30
0.0
 10
9.2284367357
 20
11.6923891762
 30
0.0
 10
9.2319599683
 20
11.6888607058
 30
0.0
  0
LINE
  5
402
100
AcDbEntity
  8
0
100
AcDbLine
 62
7
  6
CONTINUOUS
 10
9.2319599683
 20
11.6888607058
 11
9.2370210568
 21
11.6841676169
  0
SPLINE
  5
403
100
AcDbEntity
  8
0
100
AcDbSpline
 62
7
  6
CONTINUOUS
 70
0
 71
3
 72
9
 73
5
 74
0
 42
0.0000001
 43
0.0000001
 44
0.0000000001
 40
0.0
 40
0.0
 40
0.0
 40
0.0
 40
0.2383238881
 40
1.0
 40
1.0
 40
1.0
 40
1.0
 10
9.2370210568
 20
11.6841676169
 30
0.0
 10
9.2379029628
 20
11.6834068055
 30
0.0
 10
9.2416575238
 20
11.6802772966
 30
0.0
 10
9.2456106556
 20
11.6773896878
 30
0.0
 10
9.2486947128
 20
11.6753051895
 30
0.0
  0
SPLINE
  5
404
100
AcDbEntity
  8
0
100
AcDbSpline
 62
7
  6
CONTINUOUS
 70
0
 71
3
 72
9
 73
5
 74
0
 42
0.0000001
 43
0.0000001
 44
0.0000000001
 40
0.0
 40
0.0
 40
0.0
 40
0.0
 40
0.4747235548
 40
1.0
 40
1.0
 40
1.0
 40
1.0
 10
9.2486947128
 20
11.6753051895
 30
0.0
 10
9.2528162958
 20
11.672519433
 30
0.0
 10
9.2617863737
 20
11.6670736862
 30
0.0
 10
9.2711333558
 20
11.6623174441
 30
0.0
 10
9.2761109489
 20
11.6599673692
 30
0.0
  0
LINE
  5
405
100
AcDbEntity
  8
0
100
AcDbLine
 62
7
  6
CONTINUOUS
 10
9.6594825292
 20
11.5992632088
 11
9.6624707149
 21
11.5992627527
  0
SPLINE
  5
406
100
AcDbEntity
  8
0
100
AcDbSpline
 62
7
  6
CONTINUOUS
 70
0
 71
3
 72
9
 73
5
 74
0
 42
0.0000001
 43
0.0000001
 44
0.0000000001
 40
0.0
 40
0.0
 40
0.0
 40
0.0
 40
0.2577905359
 40
1.0
 40
1.0
 40
1.0
 40
1.0
 10
9.9737373399
 20
11.634308331
 30
0.0
 10
9.9761088247
 20
11.6349479076
 30
0.0
 10
9.9852938356
 20
11.6374812067
 30
0.0
 10
9.9944205616
 20
11.6402278793
 30
0.0
 10
10.0011486437
 20
11.64240558
 30
0.0
  0
SPLINE
  5
407
100
AcDbEntity
  8
0
100
AcDbSpline
 62
7
  6
CONTINUOUS
 70
0
 71
3
 72
9
 73
5
 74
0
 42
0.0000001
 43
0.0000001
 44
0.0000000001
 40
0.0
 40
0.0
 40
0.0
 40
0.0
 40
0.5258549804
 40
1.0
 40
1.0
 40
1.0
 40
1.0
 10
10.0455815226
 20
11.6596034198
 30
0.0
 10
10.0507103077
 20
11.6620056578
 30
0.0
 10
10.0603298208
 20
11.6668687152
 30
0.0
 10
10.0695559803
 20
11.6724552527
 30
0.0
 10
10.0737864774
 20
11.6753153244
 30
0.0
  0
SPLINE
  5
408
100
AcDbEntity
  8
0
100
AcDbSpline
 62
7
  6
CONTINUOUS
 70
0
 71
3
 72
9
 73
5
 74
0
 42
0.0000001
 43
0.0000001
 44
0.0000000001
 40
0.0
 40
0.0
 40
0.0
 40
0.0
 40
0.5249161592
 40
1.0
 40
1.0
 40
1.0
 40
1.0
 10
10.0737864774
 20
11.6753153244
 30
0.0
 10
10.0769859898
 20
11.6774783882
 30
0.0
 10
10.0829286544
 20
11.6818328222
 30
0.0
 10
10.0884263114
 20
11.686748275
 30
0.0
 10
10.0908802439
 20
11.6892375222
 30
0.0
  0
LINE
  5
409
100
AcDbEntity
  8
0
100
AcDbLine
 62
7
  6
CONTINUOUS
 10
10.0908802439
 20
11.6892375222
 11
10.095268364
 21
11.6940842808
  0
SPLINE
  5
40A
100
AcDbEntity
  8
0
100
AcDbSpline
 62
7
  6
CONTINUOUS
 70
0
 71
3
 72
9
 73
5
 74
0
 42
0.0000001
 43
0.0000001
 44
0.0000000001
 40
0.0
 40
0.0
 40
0.0
 40
0.0
 40
0.2630514771
 40
1.0
 40
1.0
 40
1.0
 40
1.0
 10
10.095268364
 20
11.6940842808
 30
0.0
 10
10.0959594592
 20
11.6949210232
 30
0.0
 10
10.0985090281
 20
11.6981640124
 30
0.0
 10
10.1007319763
 20
11.701673301
 30
0.0
 10
10.1020952654
 20
11.7043908639
 30
0.0
  0
SPLINE
  5
40B
100
AcDbEntity
  8
0
100
AcDbSpline
 62
7
  6
CONTINUOUS
 70
0
 71
3
 72
9
 73
5
 74
0
 42
0.0000001
 43
0.0000001
 44
0.0000000001
 40
0.0
 40
0.0
 40
0.0
 40
0.0
 40
0.513827572
 40
1.0
 40
1.0
 40
1.0
 40
1.0
 10
10.1020952654
 20
11.7043908639
 30
0.0
 10
10.1034127216
 20
11.7070170643
 30
0.0
 10
10.1054908519
 20
11.7123991922
 30
0.0
 10
10.1062332379
 20
11.7181371907
 30
0.0
 10
10.1062332379
 20
11.720917187
 30
0.0
  0
SPLINE
  5
40C
100
AcDbEntity
  8
0
100
AcDbSpline
 62
7
  6
CONTINUOUS
 70
0
 71
3
 72
18
 73
14
 74
0
 42
0.0000001
 43
0.0000001
 44
0.0000000001
 40
0.0
 40
0.0
 40
0.0
 40
0.0
 40
0.153498091
 40
0.3042783554
 40
0.4490662087
 40
0.5183845457
 40
0.5852295155
 40
0.7103227411
 40
0.8221583101
 40
0.8725619547
 40
0.9190700164
 40
0.9615617852
 40
1.0
 40
1.0
 40
1.0
 40
1.0
 10
9.6612332379
 20
14.0678263128
 30
0.0
 10
9.6886250024
 20
14.0678263128
 30
0.0
 10
9.7429297891
 20
14.0667527619
 30
0.0
 10
9.8229444309
 20
14.0619876286
 30
0.0
 10
9.887743731
 20
14.0553506604
 30
0.0
 10
9.9374098081
 20
14.0484696794
 30
0.0
 10
9.9834168074
 20
14.0409004891
 30
0.0
 10
10.0365449675
 20
14.0299843172
 30
0.0
 10
10.0860473982
 20
14.0164129933
 30
0.0
 10
10.1212632449
 20
14.004231747
 30
0.0
 10
10.1443542787
 20
13.9949436528
 30
0.0
 10
10.1649314551
 20
13.9852285502
 30
0.0
 10
10.1775368755
 20
13.9781430769
 30
0.0
 10
10.1833555624
 20
13.9745108634
 30
0.0
  0
LINE
  5
40D
100
AcDbEntity
  8
0
100
AcDbLine
 62
9
  6
CONTINUOUS
 10
12.4002331951
 20
5.7207687771
 11
12.4063855192
 21
5.7116303771
  0
SPLINE
  5
40E
100
AcDbEntity
  8
0
100
AcDbSpline
 62
9
  6
CONTINUOUS
 70
0
 71
3
 72
15
 73
11
 74
0
 42
0.0000001
 43
0.0000001
 44
0.0000000001
 40
0.0
 40
0.0
 40
0.0
 40
0.0
 40
0.0773900161
 40
0.174691201
 40
0.2881246726
 40
0.4143099712
 40
0.5507702491
 40
0.6956795662
 40
0.8463904206
 40
1.0
 40
1.0
 40
1.0
 40
1.0
 10
12.414087345
 20
5.6998558239
 30
0.0
 10
12.418264365
 20
5.6933897582
 30
0.0
 10
12.4275728071
 20
5.6787155354
 30
0.0
 10
12.4423030196
 20
5.6541264226
 30
0.0
 10
12.4585623536
 20
5.624813104
 30
0.0
 10
12.4752214628
 20
5.5912976662
 30
0.0
 10
12.4907584308
 20
5.5538086225
 30
0.0
 10
12.5036428578
 20
5.5127340111
 30
0.0
 10
12.5125063621
 20
5.4688483845
 30
0.0
 10
12.5147845071
 20
5.4385481326
 30
0.0
 10
12.514784535
 20
5.4232687771
 30
0.0
  0
SPLINE
  5
40F
100
AcDbEntity
  8
0
100
AcDbSpline
 62
9
  6
CONTINUOUS
 70
0
 71
3
 72
55
 73
51
 74
0
 42
0.0000001
 43
0.0000001
 44
0.0000000001
 40
0.0
 40
0.0
 40
0.0
 40
0.0
 40
0.0002252103
 40
0.0008923936
 40
0.0019943658
 40
0.0035239431
 40
0.0078371775
 40
0.0137746266
 40
0.0212693895
 40
0.0302168399
 40
0.0405029265
 40
0.052013607
 40
0.0782778912
 40
0.1082239837
 40
0.1411317469
 40
0.1764413541
 40
0.2136618861
 40
0.2524152873
 40
0.2923640605
 40
0.3332172481
 40
0.374709695
 40
0.4165414964
 40
0.4375023497
 40
0.4584034993
 40
0.4792639562
 40
0.5000010438
 40
0.5207382944
 40
0.5415993534
 40
0.5625014965
 40
0.5834632711
 40
0.6252957829
 40
0.6667878868
 40
0.707640549
 40
0.7475888424
 40
0.7863418114
 40
0.823561927
 40
0.8588710857
 40
0.8917782953
 40
0.9217236902
 40
0.9479872542
 40
0.9594976156
 40
0.9697834332
 40
0.97873068
 40
0.9862253204
 40
0.9921627346
 40
0.996475992
 40
0.9980055904
 40
0.9991075837
 40
0.9997747832
 40
1.0
 40
1.0
 40
1.0
 40
1.0
 10
10.7112326798
 20
4.5232696201
 30
0.0
 10
10.7111020988
 20
4.5233890145
 30
0.0
 10
10.7105968724
 20
4.5238752452
 30
0.0
 10
10.7094534302
 20
4.5249464582
 30
0.0
 10
10.7075721909
 20
4.5267290788
 30
0.0
 10
10.7036058508
 20
4.5304757616
 30
0.0
 10
10.6968837208
 20
4.5368374424
 30
0.0
 10
10.6867598107
 20
4.5464226857
 30
0.0
 10
10.6739987378
 20
4.558518194
 30
0.0
 10
10.6587691746
 20
4.5729757439
 30
0.0
 10
10.6412677787
 20
4.5896228034
 30
0.0
 10
10.6139381568
 20
4.6156774001
 30
0.0
 10
10.5755037853
 20
4.6524683899
 30
0.0
 10
10.5251039922
 20
4.7010694612
 30
0.0
 10
10.4698398221
 20
4.7548629472
 30
0.0
 10
10.4108721376
 20
4.813043095
 30
0.0
 10
10.3491732487
 20
4.874990727
 30
0.0
 10
10.2857260524
 20
4.9403323879
 30
0.0
 10
10.2214141337
 20
5.0088003884
 30
0.0
 10
10.1576921225
 20
5.0807380426
 30
0.0
 10
10.0960652326
 20
5.1564090691
 30
0.0
 10
10.0491104712
 20
5.2237576516
 30
0.0
 10
10.0171332046
 20
5.2812949897
 30
0.0
 10
9.9976836543
 20
5.3267049841
 30
0.0
 10
9.9847048965
 20
5.3742495344
 30
0.0
 10
9.9797668437
 20
5.4232702811
 30
0.0
 10
9.9847084918
 20
5.4722911196
 30
0.0
 10
9.9976901468
 20
5.5198362262
 30
0.0
 10
10.0171409672
 20
5.5652477527
 30
0.0
 10
10.0491188898
 20
5.6227871129
 30
0.0
 10
10.0960753499
 20
5.6901357574
 30
0.0
 10
10.1577011292
 20
5.7658074618
 30
0.0
 10
10.2214219105
 20
5.8377448191
 30
0.0
 10
10.2857328441
 20
5.9062121935
 30
0.0
 10
10.3491793389
 20
5.9715530836
 30
0.0
 10
10.4108776144
 20
6.0334998879
 30
0.0
 10
10.4698445447
 20
6.0916792129
 30
0.0
 10
10.5251077646
 20
6.1454717605
 30
0.0
 10
10.5755064564
 20
6.1940717426
 30
0.0
 10
10.6139398546
 20
6.230861776
 30
0.0
 10
10.6412687361
 20
6.2569156596
 30
0.0
 10
10.6587696818
 20
6.27356229
 30
0.0
 10
10.6739989053
 20
6.2880195186
 30
0.0
 10
10.6867597713
 20
6.300114833
 30
0.0
 10
10.696883605
 20
6.3097000033
 30
0.0
 10
10.7036057395
 20
6.31606169
 30
0.0
 10
10.7075721183
 20
6.3198084063
 30
0.0
 10
10.709453389
 20
6.3215910606
 30
0.0
 10
10.7105968602
 20
6.3226622929
 30
0.0
 10
10.7111020955
 20
6.3231485403
 30
0.0
 10
10.7112326819
 20
6.3232679362
 30
0.0
  0
SPLINE
  5
410
100
AcDbEntity
  8
0
100
AcDbSpline
 62
7
  6
CONTINUOUS
 70
0
 71
3
 72
11
 73
7
 74
0
 42
0.0000001
 43
0.0000001
 44
0.0000000001
 40
0.0
 40
0.0
 40
0.0
 40
0.0
 40
0.2164781997
 40
0.4501322743
 40
0.7093376027
 40
1.0
 40
1.0
 40
1.0
 40
1.0
 10
9.9070702052
 20
11.7358147291
 30
0.0
 10
9.9068630654
 20
11.7342496355
 30
0.0
 10
9.9060124565
 20
11.731041149
 30
0.0
 10
9.9036006568
 20
11.7264274783
 30
0.0
 10
9.9000668575
 20
11.7219054945
 30
0.0
 10
9.8971564041
 20
11.7191282304
 30
0.0
 10
9.8955453623
 20
11.717750585
 30
0.0
  0
SPLINE
  5
411
100
AcDbEntity
  8
0
100
AcDbSpline
 62
7
  6
CONTINUOUS
 70
0
 71
3
 72
18
 73
14
 74
0
 42
0.0000001
 43
0.0000001
 44
0.0000000001
 40
0.0
 40
0.0
 40
0.0
 40
0.0
 40
0.034245556
 40
0.0729771414
 40
0.1162729094
 40
0.1641163379
 40
0.2729094048
 40
0.3975774151
 40
0.4651458298
 40
0.5357398644
 40
0.6845045813
 40
0.8406397708
 40
1.0
 40
1.0
 40
1.0
 40
1.0
 10
9.8955453623
 20
11.717750585
 30
0.0
 10
9.8934447892
 20
11.7159543279
 30
0.0
 10
9.8886954039
 20
11.7124431058
 30
0.0
 10
9.880611841
 20
11.7076555133
 30
0.0
 10
9.8711845967
 20
11.7030520564
 30
0.0
 10
9.8562416464
 20
11.6969387854
 30
0.0
 10
9.8345439462
 20
11.6901301115
 30
0.0
 10
9.8108546027
 20
11.6846606094
 30
0.0
 10
9.789985605
 20
11.6808450118
 30
0.0
 10
9.767092866
 20
11.6773376375
 30
0.0
 10
9.7369629562
 20
11.6739546063
 30
0.0
 10
9.6995609466
 20
11.6715297284
 30
0.0
 10
9.6740947629
 20
11.670979157
 30
0.0
 10
9.6612332379
 20
11.670979157
 30
0.0
  0
SPLINE
  5
412
100
AcDbEntity
  8
0
100
AcDbSpline
 62
7
  6
CONTINUOUS
 70
0
 71
3
 72
20
 73
16
 74
0
 42
0.0000001
 43
0.0000001
 44
0.0000000001
 40
0.0
 40
0.0
 40
0.0
 40
0.0
 40
0.0124370584
 40
0.0252387619
 40
0.0531210973
 40
0.0857009224
 40
0.1241246125
 40
0.168877843
 40
0.2200664247
 40
0.2776041166
 40
0.3411811428
 40
0.4845481912
 40
0.64587742
 40
0.8199222385
 40
1.0
 40
1.0
 40
1.0
 40
1.0
 10
9.4152361203
 20
11.733421954
 30
0.0
 10
9.4152362512
 20
11.7323175919
 30
0.0
 10
9.4154427949
 20
11.7300715769
 30
0.0
 10
9.4166975656
 20
11.7255028862
 30
0.0
 10
9.4199594391
 20
11.7197599674
 30
0.0
 10
9.4260381058
 20
11.7133482489
 30
0.0
 10
9.434309917
 20
11.7071848123
 30
0.0
 10
9.4447050275
 20
11.701284578
 30
0.0
 10
9.4571456965
 20
11.6956827555
 30
0.0
 10
9.4715310096
 20
11.690440038
 30
0.0
 10
9.4940440109
 20
11.6837163686
 30
0.0
 10
9.5260378664
 20
11.6767361605
 30
0.0
 10
9.5681470749
 20
11.6707117964
 30
0.0
 10
9.6137920481
 20
11.6670084902
 30
0.0
 10
9.6452430373
 20
11.6661696313
 30
0.0
 10
9.6612332379
 20
11.6661696313
 30
0.0
  0
SPLINE
  5
413
100
AcDbEntity
  8
0
100
AcDbSpline
 62
7
  6
CONTINUOUS
 70
0
 71
3
 72
11
 73
7
 74
0
 42
0.0000001
 43
0.0000001
 44
0.0000000001
 40
0.0
 40
0.0
 40
0.0
 40
0.0
 40
0.2161712257
 40
0.447491088
 40
0.7059964312
 40
1.0
 40
1.0
 40
1.0
 40
1.0
 10
9.3982363195
 20
11.7334219537
 30
0.0
 10
9.3982365412
 20
11.735292838
 30
0.0
 10
9.3988123584
 20
11.7391838381
 30
0.0
 10
9.4013038351
 20
11.7448257597
 30
0.0
 10
9.4053423724
 20
11.7503273552
 30
0.0
 10
9.4087949625
 20
11.7536645075
 30
0.0
 10
9.4107288123
 20
11.7553181948
 30
0.0
  0
SPLINE
  5
414
100
AcDbEntity
  8
0
100
AcDbSpline
 62
7
  6
CONTINUOUS
 70
0
 71
3
 72
9
 73
5
 74
0
 42
0.0000001
 43
0.0000001
 44
0.0000000001
 40
0.0
 40
0.0
 40
0.0
 40
0.0
 40
0.2393559368
 40
1.0
 40
1.0
 40
1.0
 40
1.0
 10
9.4107288123
 20
11.7553181948
 30
0.0
 10
9.4112026979
 20
11.7557234273
 30
0.0
 10
9.4132083293
 20
11.7573862162
 30
0.0
 10
9.415309387
 20
11.7589324061
 30
0.0
 10
9.4169439869
 20
11.7600523823
 30
0.0
  0
LINE
  5
415
100
AcDbEntity
  8
0
100
AcDbLine
 62
7
  6
CONTINUOUS
 10
9.4169439869
 20
11.7600523823
 11
9.4236793428
 21
11.7642704368
  0
SPLINE
  5
416
100
AcDbEntity
  8
0
100
AcDbSpline
 62
7
  6
CONTINUOUS
 70
0
 71
3
 72
9
 73
5
 74
0
 42
0.0000001
 43
0.0000001
 44
0.0000000001
 40
0.0
 40
0.0
 40
0.0
 40
0.0
 40
0.2409773765
 40
1.0
 40
1.0
 40
1.0
 40
1.0
 10
9.468760267
 20
11.7824159258
 30
0.0
 10
9.4705156742
 20
11.782931174
 30
0.0
 10
9.4778171245
 20
11.7850115316
 30
0.0
 10
9.485180891
 20
11.7868709082
 30
0.0
 10
9.490793199
 20
11.7881774495
 30
0.0
  0
SPLINE
  5
417
100
AcDbEntity
  8
0
100
AcDbSpline
 62
7
  6
CONTINUOUS
 70
0
 71
3
 72
9
 73
5
 74
0
 42
0.0000001
 43
0.0000001
 44
0.0000000001
 40
0.0
 40
0.0
 40
0.0
 40
0.0
 40
0.2609676596
 40
1.0
 40
1.0
 40
1.0
 40
1.0
 10
9.4020614135
 20
11.7220197958
 30
0.0
 10
9.4007654035
 20
11.7225540616
 30
0.0
 10
9.39581717
 20
11.7246441687
 30
0.0
 10
9.3909423698
 20
11.726911058
 30
0.0
 10
9.3874024886
 20
11.7287078445
 30
0.0
  0
SPLINE
  5
418
100
AcDbEntity
  8
0
100
AcDbSpline
 62
9
  6
CONTINUOUS
 70
0
 71
3
 72
23
 73
19
 74
0
 42
0.0000001
 43
0.0000001
 44
0.0000000001
 40
0.0
 40
0.0
 40
0.0
 40
0.0
 40
0.0124357481
 40
0.025234973
 40
0.0387253583
 40
0.0531815132
 40
0.0857689566
 40
0.1241922713
 40
0.1689331049
 40
0.220134103
 40
0.2776635987
 40
0.3412171987
 40
0.4103974083
 40
0.4846580345
 40
0.5633962623
 40
0.6459719473
 40
0.8198597329
 40
1.0
 40
1.0
 40
1.0
 40
1.0
 10
10.2312332379
 20
14.1910133229
 30
0.0
 10
10.2312332379
 20
14.1935723086
 30
0.0
 10
10.2307565783
 20
14.1987764288
 30
0.0
 10
10.2286388269
 20
14.2064960421
 30
0.0
 10
10.2251406966
 20
14.2141518897
 30
0.0
 10
10.218395826
 20
14.2246657122
 30
0.0
 10
10.2061954461
 20
14.2375345141
 30
0.0
 10
10.1870361127
 20
14.2518048509
 30
0.0
 10
10.1629481571
 20
14.2654906198
 30
0.0
 10
10.1341143614
 20
14.278457485
 30
0.0
 10
10.1007833089
 20
14.2906093846
 30
0.0
 10
10.0632551455
 20
14.3018328348
 30
0.0
 10
10.0218768844
 20
14.3120013213
 30
0.0
 10
9.9770466712
 20
14.3210331587
 30
0.0
 10
9.9291920178
 20
14.3288322664
 30
0.0
 10
9.8607676727
 20
14.3376291943
 30
0.0
 10
9.7711661661
 20
14.3449082711
 30
0.0
 10
9.6983018865
 20
14.3468418753
 30
0.0
 10
9.6612332379
 20
14.3468418753
 30
0.0
  0
SPLINE
  5
419
100
AcDbEntity
  8
0
100
AcDbSpline
 62
9
  6
CONTINUOUS
 70
0
 71
3
 72
11
 73
7
 74
0
 42
0.0000001
 43
0.0000001
 44
0.0000000001
 40
0.0
 40
0.0
 40
0.0
 40
0.0
 40
0.2362232183
 40
0.4804089011
 40
0.734824865
 40
1.0
 40
1.0
 40
1.0
 40
1.0
 10
12.3062332379
 20
4.6551533006
 30
0.0
 10
12.306233238
 20
4.6532636431
 30
0.0
 10
12.305478346
 20
4.6493900459
 30
0.0
 10
12.3023441647
 20
4.6442822077
 30
0.0
 10
12.2975203337
 20
4.6403618236
 30
0.0
 10
12.2935844847
 20
4.6388210331
 30
0.0
 10
12.2915216987
 20
4.6383264167
 30
0.0
  0
SPLINE
  5
41A
100
AcDbEntity
  8
0
100
AcDbSpline
 62
7
  6
CONTINUOUS
 70
0
 71
3
 72
18
 73
14
 74
0
 42
0.0000001
 43
0.0000001
 44
0.0000000001
 40
0.0
 40
0.0
 40
0.0
 40
0.0
 40
0.0384381904
 40
0.0809299376
 40
0.1274379814
 40
0.1778416121
 40
0.2896771644
 40
0.4147703885
 40
0.4816153626
 40
0.5509337068
 40
0.695721582
 40
0.8465018758
 40
1.0
 40
1.0
 40
1.0
 40
1.0
 10
9.1391107746
 20
13.9745107767
 30
0.0
 10
9.1449294569
 20
13.9781429933
 30
0.0
 10
9.1575348696
 20
13.9852284728
 30
0.0
 10
9.1781120374
 20
13.9949435836
 30
0.0
 10
9.2012030659
 20
14.0042316857
 30
0.0
 10
9.2364189115
 20
14.0164129433
 30
0.0
 10
9.2859213491
 20
14.0299842801
 30
0.0
 10
9.3390495216
 20
14.040900462
 30
0.0
 10
9.385056536
 20
14.0484696596
 30
0.0
 10
9.4347226337
 20
14.0553506477
 30
0.0
 10
9.4995219636
 20
14.0619876226
 30
0.0
 10
9.5795366447
 20
14.0667527608
 30
0.0
 10
9.6338414592
 20
14.0678263128
 30
0.0
 10
9.6612332379
 20
14.0678263128
 30
0.0
  0
SPLINE
  5
41B
100
AcDbEntity
  8
0
100
AcDbSpline
 62
7
  6
CONTINUOUS
 70
0
 71
3
 72
9
 73
5
 74
0
 42
0.0000001
 43
0.0000001
 44
0.0000000001
 40
0.0
 40
0.0
 40
0.0
 40
0.0
 40
0.2580566118
 40
1.0
 40
1.0
 40
1.0
 40
1.0
 10
10.0215926318
 20
11.7585966716
 30
0.0
 10
10.0225843077
 20
11.7581023609
 30
0.0
 10
10.0264134051
 20
11.7561594775
 30
0.0
 10
10.0301859753
 20
11.7541042682
 30
0.0
 10
10.0329423943
 20
11.7525070112
 30
0.0
  0
LINE
  5
41C
100
AcDbEntity
  8
0
100
AcDbLine
 62
7
  6
CONTINUOUS
 10
10.0689407884
 20
11.6903710826
 11
10.0665003789
 21
11.6858634061
  0
SPLINE
  5
41D
100
AcDbEntity
  8
0
100
AcDbSpline
 62
7
  6
CONTINUOUS
 70
0
 71
3
 72
9
 73
5
 74
0
 42
0.0000001
 43
0.0000001
 44
0.0000000001
 40
0.0
 40
0.0
 40
0.0
 40
0.0
 40
0.2615695754
 40
1.0
 40
1.0
 40
1.0
 40
1.0
 10
9.9662006677
 20
11.6878999174
 30
0.0
 10
9.9666026041
 20
11.6884496518
 30
0.0
 10
9.9680873542
 20
11.6905880995
 30
0.0
 10
9.969352868
 20
11.6928838669
 30
0.0
 10
9.9701115294
 20
11.694650358
 30
0.0
  0
SPLINE
  5
41E
100
AcDbEntity
  8
0
100
AcDbSpline
 62
7
  6
CONTINUOUS
 70
0
 71
3
 72
9
 73
5
 74
0
 42
0.0000001
 43
0.0000001
 44
0.0000000001
 40
0.0
 40
0.0
 40
0.0
 40
0.0
 40
0.2606535856
 40
1.0
 40
1.0
 40
1.0
 40
1.0
 10
9.9324374692
 20
11.6629518684
 30
0.0
 10
9.9334437159
 20
11.6634420048
 30
0.0
 10
9.9372867603
 20
11.6653577074
 30
0.0
 10
9.9410582146
 20
11.6674191991
 30
0.0
 10
9.9437872317
 20
11.6690415288
 30
0.0
  0
SPLINE
  5
41F
100
AcDbEntity
  8
0
100
AcDbSpline
 62
7
  6
CONTINUOUS
 70
0
 71
3
 72
9
 73
5
 74
0
 42
0.0000001
 43
0.0000001
 44
0.0000000001
 40
0.0
 40
0.0
 40
0.0
 40
0.0
 40
0.2595437583
 40
1.0
 40
1.0
 40
1.0
 40
1.0
 10
9.831687444
 20
11.788174167
 30
0.0
 10
9.8337280777
 20
11.7876990599
 30
0.0
 10
9.8415777298
 20
11.7858147453
 30
0.0
 10
9.8493755521
 20
11.7837106658
 30
0.0
 10
9.855103857
 20
11.782002872
 30
0.0
  0
SPLINE
  5
420
100
AcDbEntity
  8
0
100
AcDbSpline
 62
7
  6
CONTINUOUS
 70
0
 71
3
 72
9
 73
5
 74
0
 42
0.0000001
 43
0.0000001
 44
0.0000000001
 40
0.0
 40
0.0
 40
0.0
 40
0.0
 40
0.2688032209
 40
1.0
 40
1.0
 40
1.0
 40
1.0
 10
9.8987772925
 20
11.7642764219
 30
0.0
 10
9.8999354547
 20
11.7636101773
 30
0.0
 10
9.9042000512
 20
11.7610582275
 30
0.0
 10
9.9082885924
 20
11.7581951734
 30
0.0
 10
9.9110826589
 20
11.7558707692
 30
0.0
  0
SPLINE
  5
421
100
AcDbEntity
  8
0
100
AcDbSpline
 62
7
  6
CONTINUOUS
 70
0
 71
3
 72
9
 73
5
 74
0
 42
0.0000001
 43
0.0000001
 44
0.0000000001
 40
0.0
 40
0.0
 40
0.0
 40
0.0
 40
0.28813316
 40
1.0
 40
1.0
 40
1.0
 40
1.0
 10
9.9110826589
 20
11.7558707692
 30
0.0
 10
9.9126082831
 20
11.7546015913
 30
0.0
 10
9.9176792286
 20
11.7499819489
 30
0.0
 10
9.921880802
 20
11.7440874926
 30
0.0
 10
9.923315814
 20
11.7393991894
 30
0.0
  0
SPLINE
  5
422
100
AcDbEntity
  8
0
100
AcDbSpline
 62
7
  6
CONTINUOUS
 70
0
 71
3
 72
9
 73
5
 74
0
 42
0.0000001
 43
0.0000001
 44
0.0000000001
 40
0.0
 40
0.0
 40
0.0
 40
0.0
 40
0.2549222038
 40
1.0
 40
1.0
 40
1.0
 40
1.0
 10
9.923315814
 20
11.7393991894
 30
0.0
 10
9.9234665091
 20
11.738906856
 30
0.0
 10
9.9239910434
 20
11.7369559927
 30
0.0
 10
9.9242303347
 20
11.7349268269
 30
0.0
 10
9.9242301563
 20
11.7334219541
 30
0.0
  0
SPLINE
  5
423
100
AcDbEntity
  8
0
100
AcDbSpline
 62
7
  6
CONTINUOUS
 70
0
 71
3
 72
20
 73
16
 74
0
 42
0.0000001
 43
0.0000001
 44
0.0000000001
 40
0.0
 40
0.0
 40
0.0
 40
0.0
 40
0.1800825155
 40
0.3541217618
 40
0.5154428767
 40
0.6588078712
 40
0.7223852675
 40
0.7799210557
 40
0.8311121968
 40
0.8758693413
 40
0.9142933616
 40
0.9468752666
 40
0.974760291
 40
0.9875625876
 40
1.0
 40
1.0
 40
1.0
 40
1.0
 10
9.6612332379
 20
11.6661696313
 30
0.0
 10
9.6772238748
 20
11.6661696313
 30
0.0
 10
9.7086748252
 20
11.6670084073
 30
0.0
 10
9.7543190293
 20
11.6707117839
 30
0.0
 10
9.7964269352
 20
11.6767357329
 30
0.0
 10
9.8284199299
 20
11.6837157638
 30
0.0
 10
9.8509329009
 20
11.6904385388
 30
0.0
 10
9.8653181388
 20
11.6956818035
 30
0.0
 10
9.8777592524
 20
11.7012835469
 30
0.0
 10
9.8881554131
 20
11.7071832365
 30
0.0
 10
9.8964273747
 20
11.7133475137
 30
0.0
 10
9.9025062311
 20
11.7197595414
 30
0.0
 10
9.9057691805
 20
11.7255024078
 30
0.0
 10
9.9070242327
 20
11.7300713996
 30
0.0
 10
9.9072304864
 20
11.7323175591
 30
0.0
 10
9.9072303555
 20
11.7334219537
 30
0.0
  0
SPLINE
  5
424
100
AcDbEntity
  8
0
100
AcDbSpline
 62
7
  6
CONTINUOUS
 70
0
 71
3
 72
18
 73
14
 74
0
 42
0.0000001
 43
0.0000001
 44
0.0000000001
 40
0.0
 40
0.0
 40
0.0
 40
0.0
 40
0.1588770807
 40
0.314580415
 40
0.4630232906
 40
0.5335126449
 40
0.6010217477
 40
0.7257263618
 40
0.8347758087
 40
0.8828303427
 40
0.9263882512
 40
0.9654237281
 40
1.0
 40
1.0
 40
1.0
 40
1.0
 10
9.6612332379
 20
11.670979157
 30
0.0
 10
9.6484530777
 20
11.670979157
 30
0.0
 10
9.6231447028
 20
11.6715228781
 30
0.0
 10
9.5859647529
 20
11.6739178176
 30
0.0
 10
9.5560007018
 20
11.677258816
 30
0.0
 10
9.5332183419
 20
11.6807227569
 30
0.0
 10
9.5124230278
 20
11.6844941418
 30
0.0
 10
9.4887834002
 20
11.6899036853
 30
0.0
 10
9.4670993903
 20
11.6966359489
 30
0.0
 10
9.4521233347
 20
11.7026810173
 30
0.0
 10
9.4426430959
 20
11.7072380222
 30
0.0
 10
9.4344852619
 20
11.7119792714
 30
0.0
 10
9.4296719587
 20
11.7154549616
 30
0.0
 10
9.4275337796
 20
11.7172337283
 30
0.0
  0
SPLINE
  5
425
100
AcDbEntity
  8
0
100
AcDbSpline
 62
7
  6
CONTINUOUS
 70
0
 71
3
 72
11
 73
7
 74
0
 42
0.0000001
 43
0.0000001
 44
0.0000000001
 40
0.0
 40
0.0
 40
0.0
 40
0.0
 40
0.2901655552
 40
0.5498439997
 40
0.7840698898
 40
1.0
 40
1.0
 40
1.0
 40
1.0
 10
9.4275337796
 20
11.7172337283
 30
0.0
 10
9.4259367358
 20
11.7185623206
 30
0.0
 10
9.4230356228
 20
11.7212394725
 30
0.0
 10
9.4194488691
 20
11.7255850665
 30
0.0
 10
9.4169017054
 20
11.7300144321
 30
0.0
 10
9.4158913362
 20
11.7331079272
 30
0.0
 10
9.4155919983
 20
11.7346246125
 30
0.0
  0
SPLINE
  5
426
100
AcDbEntity
  8
0
100
AcDbSpline
 62
9
  6
CONTINUOUS
 70
0
 71
3
 72
11
 73
7
 74
0
 42
0.0000001
 43
0.0000001
 44
0.0000000001
 40
0.0
 40
0.0
 40
0.0
 40
0.0
 40
0.2315833575
 40
0.4736527046
 40
0.7297312636
 40
1.0
 40
1.0
 40
1.0
 40
1.0
 10
12.3762332379
 20
4.7576544233
 30
0.0
 10
12.3762332378
 20
4.7558637595
 30
0.0
 10
12.3754789158
 20
4.7521710883
 30
0.0
 10
12.3723701266
 20
4.7473272867
 30
0.0
 10
12.3676074144
 20
4.7436104603
 30
0.0
 10
12.3637445668
 20
4.7421412433
 30
0.0
 10
12.3617111842
 20
4.7416589828
 30
0.0
  0
SPLINE
  5
427
100
AcDbEntity
  8
0
100
AcDbSpline
 62
9
  6
CONTINUOUS
 70
0
 71
3
 72
23
 73
19
 74
0
 42
0.0000001
 43
0.0000001
 44
0.0000000001
 40
0.0
 40
0.0
 40
0.0
 40
0.0
 40
0.1801402671
 40
0.3540280527
 40
0.4366037377
 40
0.5153419655
 40
0.5896025917
 40
0.6587828013
 40
0.7223364013
 40
0.779865897
 40
0.8310668951
 40
0.8758077287
 40
0.9142310434
 40
0.9468184868
 40
0.9612746417
 40
0.974765027
 40
0.9875642519
 40
1.0
 40
1.0
 40
1.0
 40
1.0
 10
9.6612332379
 20
14.3468418753
 30
0.0
 10
9.6241645893
 20
14.3468418753
 30
0.0
 10
9.5513003098
 20
14.3449082711
 30
0.0
 10
9.4616988032
 20
14.3376291943
 30
0.0
 10
9.393274458
 20
14.3288322664
 30
0.0
 10
9.3454198047
 20
14.3210331587
 30
0.0
 10
9.3005895915
 20
14.3120013213
 30
0.0
 10
9.2592113303
 20
14.3018328348
 30
0.0
 10
9.2216831669
 20
14.2906093846
 30
0.0
 10
9.1883521144
 20
14.278457485
 30
0.0
 10
9.1595183188
 20
14.2654906198
 30
0.0
 10
9.1354303632
 20
14.2518048509
 30
0.0
 10
9.1162710298
 20
14.2375345141
 30
0.0
 10
9.1040706499
 20
14.2246657122
 30
0.0
 10
9.0973257793
 20
14.2141518897
 30
0.0
 10
9.093827649
 20
14.2064960421
 30
0.0
 10
9.0917098976
 20
14.1987764288
 30
0.0
 10
9.0912332379
 20
14.1935723086
 30
0.0
 10
9.0912332379
 20
14.1910133229
 30
0.0
  0
SPLINE
  5
428
100
AcDbEntity
  8
0
100
AcDbSpline
 62
7
  6
CONTINUOUS
 70
0
 71
3
 72
9
 73
5
 74
0
 42
0.0000001
 43
0.0000001
 44
0.0000000001
 40
0.0
 40
0.0
 40
0.0
 40
0.0
 40
0.2394050528
 40
1.0
 40
1.0
 40
1.0
 40
1.0
 10
9.3786792441
 20
11.6690415288
 30
0.0
 10
9.3795629252
 20
11.6685162034
 30
0.0
 10
9.3832799782
 20
11.6663655528
 30
0.0
 10
9.3870927221
 20
11.6643821141
 30
0.0
 10
9.3900290066
 20
11.6629518684
 30
0.0
  0
SPLINE
  5
429
100
AcDbEntity
  8
0
100
AcDbSpline
 62
9
  6
CONTINUOUS
 70
0
 71
3
 72
11
 73
7
 74
0
 42
0.0000001
 43
0.0000001
 44
0.0000000001
 40
0.0
 40
0.0
 40
0.0
 40
0.0
 40
0.2172858326
 40
0.4521411248
 40
0.7144628123
 40
1.0
 40
1.0
 40
1.0
 40
1.0
 10
12.3622738363
 20
4.7386033988
 30
0.0
 10
12.3618035768
 20
4.7384581704
 30
0.0
 10
12.3607503204
 20
4.7383649683
 30
0.0
 10
12.3591757438
 20
4.7388380881
 30
0.0
 10
12.3576462134
 20
4.7397562414
 30
0.0
 10
12.3566987858
 20
4.7405650888
 30
0.0
 10
12.3562332406
 20
4.7410140646
 30
0.0
  0
SPLINE
  5
42A
100
AcDbEntity
  8
0
100
AcDbSpline
 62
7
  6
CONTINUOUS
 70
0
 71
3
 72
9
 73
5
 74
0
 42
0.0000001
 43
0.0000001
 44
0.0000000001
 40
0.0
 40
0.0
 40
0.0
 40
0.0
 40
0.25866686
 40
1.0
 40
1.0
 40
1.0
 40
1.0
 10
9.2574365491
 20
11.6836206421
 30
0.0
 10
9.2570527767
 20
11.6841736329
 30
0.0
 10
9.2556104017
 20
11.6863395487
 30
0.0
 10
9.2543402467
 20
11.6886223652
 30
0.0
 10
9.2535256875
 20
11.6903710826
 30
0.0
  0
SPLINE
  5
42B
100
AcDbEntity
  8
0
100
AcDbSpline
 62
7
  6
CONTINUOUS
 70
0
 71
3
 72
9
 73
5
 74
0
 42
0.0000001
 43
0.0000001
 44
0.0000000001
 40
0.0
 40
0.0
 40
0.0
 40
0.0
 40
0.2395223403
 40
1.0
 40
1.0
 40
1.0
 40
1.0
 10
9.3523549465
 20
11.694650358
 30
0.0
 10
9.3526010484
 20
11.6940773266
 30
0.0
 10
9.3537046818
 20
11.6917177773
 30
0.0
 10
9.3550971511
 20
11.689498307
 30
0.0
 10
9.3562658081
 20
11.6878999174
 30
0.0
  0
SPLINE
  5
42C
100
AcDbEntity
  8
0
100
AcDbSpline
 62
7
  6
CONTINUOUS
 70
0
 71
3
 72
9
 73
5
 74
0
 42
0.0000001
 43
0.0000001
 44
0.0000000001
 40
0.0
 40
0.0
 40
0.0
 40
0.0
 40
0.241958166
 40
1.0
 40
1.0
 40
1.0
 40
1.0
 10
9.2535256875
 20
11.7187585166
 30
0.0
 10
9.2537915534
 20
11.7193292847
 30
0.0
 10
9.2549456326
 20
11.7216623582
 30
0.0
 10
9.2563118423
 20
11.7238883283
 30
0.0
 10
9.2574365491
 20
11.7255089571
 30
0.0
  0
SPLINE
  5
42D
100
AcDbEntity
  8
0
100
AcDbSpline
 62
7
  6
CONTINUOUS
 70
0
 71
3
 72
9
 73
5
 74
0
 42
0.0000001
 43
0.0000001
 44
0.0000000001
 40
0.0
 40
0.0
 40
0.0
 40
0.0
 40
0.2419768525
 40
1.0
 40
1.0
 40
1.0
 40
1.0
 10
9.2895240815
 20
11.7525070112
 30
0.0
 10
9.2904230615
 20
11.7530279414
 30
0.0
 10
9.2941568056
 20
11.7551485967
 30
0.0
 10
9.2979608543
 20
11.7571446631
 30
0.0
 10
9.300873844
 20
11.7585966716
 30
0.0
  0
SPLINE
  5
42E
100
AcDbEntity
  8
0
100
AcDbSpline
 62
9
  6
CONTINUOUS
 70
0
 71
3
 72
9
 73
5
 74
0
 42
0.0000001
 43
0.0000001
 44
0.0000000001
 40
0.0
 40
0.0
 40
0.0
 40
0.0
 40
0.2387008781
 40
1.0
 40
1.0
 40
1.0
 40
1.0
 10
10.2346195312
 20
13.926188369
 30
0.0
 10
10.2340005322
 20
13.927206736
 30
0.0
 10
10.2312937162
 20
13.931403757
 30
0.0
 10
10.2281616024
 20
13.9353193969
 30
0.0
 10
10.2256174339
 20
13.938143166
 30
0.0
  0
SPLINE
  5
42F
100
AcDbEntity
  8
0
100
AcDbSpline
 62
9
  6
CONTINUOUS
 70
0
 71
3
 72
9
 73
5
 74
0
 42
0.0000001
 43
0.0000001
 44
0.0000000001
 40
0.0
 40
0.0
 40
0.0
 40
0.0
 40
0.2382203653
 40
1.0
 40
1.0
 40
1.0
 40
1.0
 10
10.2256174339
 20
13.938143166
 30
0.0
 10
10.2247252231
 20
13.9391334296
 30
0.0
 10
10.220893687
 20
13.9432125189
 30
0.0
 10
10.2167449621
 20
13.9469879944
 30
0.0
 10
10.213468328
 20
13.9497140926
 30
0.0
  0
SPLINE
  5
430
100
AcDbEntity
  8
0
100
AcDbSpline
 62
9
  6
CONTINUOUS
 70
0
 71
3
 72
9
 73
5
 74
0
 42
0.0000001
 43
0.0000001
 44
0.0000000001
 40
0.0
 40
0.0
 40
0.0
 40
0.0
 40
0.4681254006
 40
1.0
 40
1.0
 40
1.0
 40
1.0
 10
10.213468328
 20
13.9497140926
 30
0.0
 10
10.2080998593
 20
13.9541805581
 30
0.0
 10
10.1959395314
 20
13.9628952401
 30
0.0
 10
10.1829640812
 20
13.9702979023
 30
0.0
 10
10.175926681
 20
13.9739628867
 30
0.0
  0
SPLINE
  5
431
100
AcDbEntity
  8
0
100
AcDbSpline
 62
9
  6
CONTINUOUS
 70
0
 71
3
 72
32
 73
28
 74
0
 42
0.0000001
 43
0.0000001
 44
0.0000000001
 40
0.0
 40
0.0
 40
0.0
 40
0.0
 40
0.0221801743
 40
0.0466050341
 40
0.0732062923
 40
0.101893051
 40
0.1325363632
 40
0.1649891468
 40
0.2346681812
 40
0.2715290546
 40
0.3094749306
 40
0.3877714561
 40
0.4678211793
 40
0.5478317465
 40
0.6260125301
 40
0.7006242135
 40
0.7700464096
 40
0.8023483474
 40
0.832827774
 40
0.8613383314
 40
0.8877541454
 40
0.9119868173
 40
0.9339700359
 40
0.9536764473
 40
0.9711519295
 40
0.9865156769
 40
1.0
 40
1.0
 40
1.0
 40
1.0
 10
10.175926681
 20
13.9739628867
 30
0.0
 10
10.1685329455
 20
13.9778134459
 30
0.0
 10
10.1526671775
 20
13.9852766514
 30
0.0
 10
10.127077616
 20
13.9954219617
 30
0.0
 10
10.0986785963
 20
14.0050031586
 30
0.0
 10
10.0676366083
 20
14.01395128
 30
0.0
 10
10.0341382524
 20
14.0222204833
 30
0.0
 10
9.98530118
 20
14.0325163268
 30
0.0
 10
9.9337012052
 20
14.0408799982
 30
0.0
 10
9.8798031445
 20
14.0475360764
 30
0.0
 10
9.8225320951
 20
14.0531811672
 30
0.0
 10
9.7488777452
 20
14.05784982
 30
0.0
 10
9.6592845419
 20
14.0596560493
 30
0.0
 10
9.5697374825
 20
14.0576858237
 30
0.0
 10
9.4823960823
 20
14.0519828274
 30
0.0
 10
9.3993656085
 20
14.0426890577
 30
0.0
 10
9.3339305409
 20
14.0319205992
 30
0.0
 10
9.2853323061
 20
14.0215318369
 30
0.0
 10
9.2520391404
 20
14.0132019375
 30
0.0
 10
9.2212190291
 20
14.004196797
 30
0.0
 10
9.1930576077
 20
13.9945640246
 30
0.0
 10
9.1677171528
 20
13.9843723396
 30
0.0
 10
9.1453427635
 20
13.9736824716
 30
0.0
 10
9.1260639914
 20
13.9625459278
 30
0.0
 10
9.1099759857
 20
13.9510205453
 30
0.0
 10
9.0971615909
 20
13.9391569962
 30
0.0
 10
9.0904793256
 20
13.9305191184
 30
0.0
 10
9.0878469446
 20
13.926188369
 30
0.0
  0
SPLINE
  5
432
100
AcDbEntity
  8
0
100
AcDbSpline
 62
9
  6
CONTINUOUS
 70
0
 71
3
 72
43
 73
39
 74
0
 42
0.0000001
 43
0.0000001
 44
0.0000000001
 40
0.0
 40
0.0
 40
0.0
 40
0.0
 40
0.0062075123
 40
0.012604427
 40
0.0193516058
 40
0.0265837418
 40
0.0428837145
 40
0.0521111519
 40
0.0621056304
 40
0.0844743404
 40
0.1100758371
 40
0.1388366427
 40
0.1706150581
 40
0.2051988483
 40
0.2423253781
 40
0.2817036004
 40
0.3229973709
 40
0.3658563523
 40
0.4099056828
 40
0.5
 40
0.5900943172
 40
0.6341436477
 40
0.6770026291
 40
0.7182963996
 40
0.7576746219
 40
0.7948011517
 40
0.8293849419
 40
0.8611633573
 40
0.8899241629
 40
0.9155256596
 40
0.9378943696
 40
0.9478888481
 40
0.9571162855
 40
0.9734162582
 40
0.9806483942
 40
0.987395573
 40
0.9937924877
 40
1.0
 40
1.0
 40
1.0
 40
1.0
 10
9.0344582472
 20
11.7396743373
 30
0.0
 10
9.0344582472
 20
11.7424836458
 30
0.0
 10
9.0349830194
 20
11.7482003755
 30
0.0
 10
9.0373106423
 20
11.7566841785
 30
0.0
 10
9.0411558516
 20
11.7651054209
 30
0.0
 10
9.0485705331
 20
11.7766737552
 30
0.0
 10
9.058857208
 20
11.7875319068
 30
0.0
 10
9.0712786542
 20
11.7977425433
 30
0.0
 10
9.0866816397
 20
11.8085923706
 30
0.0
 10
9.1095473447
 20
11.8215686627
 30
0.0
 10
9.1412503323
 20
11.8358250426
 30
0.0
 10
9.177900991
 20
11.8491942194
 30
0.0
 10
9.2191669293
 20
11.861528647
 30
0.0
 10
9.2646634033
 20
11.8727153924
 30
0.0
 10
9.3139607202
 20
11.8826480938
 30
0.0
 10
9.3665903411
 20
11.8912171738
 30
0.0
 10
9.4220484758
 20
11.8983535023
 30
0.0
 10
9.4798045337
 20
11.903973305
 30
0.0
 10
9.5597337843
 20
11.9094197945
 30
0.0
 10
9.6612332379
 20
11.912099211
 30
0.0
 10
9.7627326916
 20
11.9094197945
 30
0.0
 10
9.8426619422
 20
11.903973305
 30
0.0
 10
9.9004180001
 20
11.8983535023
 30
0.0
 10
9.9558761347
 20
11.8912171738
 30
0.0
 10
10.0085057556
 20
11.8826480938
 30
0.0
 10
10.0578030726
 20
11.8727153924
 30
0.0
 10
10.1032995465
 20
11.861528647
 30
0.0
 10
10.1445654849
 20
11.8491942194
 30
0.0
 10
10.1812161436
 20
11.8358250426
 30
0.0
 10
10.2129191312
 20
11.8215686627
 30
0.0
 10
10.2357848361
 20
11.8085923706
 30
0.0
 10
10.2511878217
 20
11.7977425433
 30
0.0
 10
10.2636092678
 20
11.7875319068
 30
0.0
 10
10.2738959428
 20
11.7766737552
 30
0.0
 10
10.2813106243
 20
11.7651054209
 30
0.0
 10
10.2851558336
 20
11.7566841785
 30
0.0
 10
10.2874834564
 20
11.7482003755
 30
0.0
 10
10.2880082287
 20
11.7424836458
 30
0.0
 10
10.2880082287
 20
11.7396743373
 30
0.0
  0
SPLINE
  5
433
100
AcDbEntity
  8
0
100
AcDbSpline
 62
9
  6
CONTINUOUS
 70
0
 71
3
 72
13
 73
9
 74
0
 42
0.0000001
 43
0.0000001
 44
0.0000000001
 40
0.0
 40
0.0
 40
0.0
 40
0.0
 40
0.1925636846
 40
0.302078449
 40
0.42123198
 40
0.5504274161
 40
0.6899122775
 40
1.0
 40
1.0
 40
1.0
 40
1.0
 10
9.0110885273
 20
13.8000344658
 30
0.0
 10
9.0150886973
 20
13.8065782098
 30
0.0
 10
9.0229017324
 20
13.8159210139
 30
0.0
 10
9.0353835668
 20
13.8271346613
 30
0.0
 10
9.0467574641
 20
13.8357557034
 30
0.0
 10
9.0597039115
 20
13.8441994276
 30
0.0
 10
9.0797470701
 20
13.8556076699
 30
0.0
 10
9.0960010362
 20
13.8632008127
 30
0.0
 10
9.1073734238
 20
13.8680174895
 30
0.0
  0
SPLINE
  5
434
100
AcDbEntity
  8
0
100
AcDbSpline
 62
9
  6
CONTINUOUS
 70
0
 71
3
 72
21
 73
17
 74
0
 42
0.0000001
 43
0.0000001
 44
0.0000000001
 40
0.0
 40
0.0
 40
0.0
 40
0.0
 40
0.046184813
 40
0.0984991326
 40
0.1563548249
 40
0.2190338264
 40
0.2856896114
 40
0.3554050414
 40
0.5
 40
0.6445949586
 40
0.7143103886
 40
0.7809661736
 40
0.8436451751
 40
0.9015008674
 40
0.953815187
 40
1.0
 40
1.0
 40
1.0
 40
1.0
 10
9.1073734238
 20
13.8680174895
 30
0.0
 10
9.1233351567
 20
13.8747779441
 30
0.0
 10
9.1581217888
 20
13.8874514442
 30
0.0
 10
9.2146146573
 20
13.903467719
 30
0.0
 10
9.2779882369
 20
13.9174936416
 30
0.0
 10
9.3472739903
 20
13.9292807475
 30
0.0
 10
9.4214127093
 20
13.9386612198
 30
0.0
 10
9.5264883153
 20
13.9478366829
 30
0.0
 10
9.6612332379
 20
13.9523139057
 30
0.0
 10
9.7959781605
 20
13.9478366829
 30
0.0
 10
9.9010537666
 20
13.9386612198
 30
0.0
 10
9.9751924855
 20
13.9292807475
 30
0.0
 10
10.044478239
 20
13.9174936416
 30
0.0
 10
10.1078518185
 20
13.903467719
 30
0.0
 10
10.1643446871
 20
13.8874514442
 30
0.0
 10
10.1991313191
 20
13.8747779441
 30
0.0
 10
10.2150930521
 20
13.8680174895
 30
0.0
  0
SPLINE
  5
435
100
AcDbEntity
  8
0
100
AcDbSpline
 62
9
  6
CONTINUOUS
 70
0
 71
3
 72
13
 73
9
 74
0
 42
0.0000001
 43
0.0000001
 44
0.0000000001
 40
0.0
 40
0.0
 40
0.0
 40
0.0
 40
0.3100259373
 40
0.4494976499
 40
0.5786912412
 40
0.6978533129
 40
0.8073854488
 40
1.0
 40
1.0
 40
1.0
 40
1.0
 10
10.2150930521
 20
13.8680174895
 30
0.0
 10
10.2264560256
 20
13.8632047999
 30
0.0
 10
10.2426972153
 20
13.8556181825
 30
0.0
 10
10.2627264657
 20
13.8442210527
 30
0.0
 10
10.2756662057
 20
13.8357853478
 30
0.0
 10
10.2870362586
 20
13.8271726012
 30
0.0
 10
10.2995173998
 20
13.8159693938
 30
0.0
 10
10.3073334142
 20
13.8066362118
 30
0.0
 10
10.3113385764
 20
13.800098802
 30
0.0
  0
SPLINE
  5
436
100
AcDbEntity
  8
0
100
AcDbSpline
 62
9
  6
CONTINUOUS
 70
0
 71
3
 72
12
 73
8
 74
0
 42
0.0000001
 43
0.0000001
 44
0.0000000001
 40
0.0
 40
0.0
 40
0.0
 40
0.0
 40
0.1045351729
 40
0.2114905259
 40
0.4402595054
 40
0.7002152896
 40
1.0
 40
1.0
 40
1.0
 40
1.0
 10
10.3362332379
 20
13.7135474727
 30
0.0
 10
10.3362332379
 20
13.7161598382
 30
0.0
 10
10.3358143591
 20
13.721454008
 30
0.0
 10
10.3332775439
 20
13.7321971862
 30
0.0
 10
10.3266993738
 20
13.7457609661
 30
0.0
 10
10.3142197529
 20
13.7611617891
 30
0.0
 10
10.3036408947
 20
13.7704054647
 30
0.0
 10
10.2977167626
 20
13.7749913543
 30
0.0
  0
SPLINE
  5
437
100
AcDbEntity
  8
0
100
AcDbSpline
 62
9
  6
CONTINUOUS
 70
0
 71
3
 72
31
 73
27
 74
0
 42
0.0000001
 43
0.0000001
 44
0.0000000001
 40
0.0
 40
0.0
 40
0.0
 40
0.0
 40
0.0177301679
 40
0.0376482453
 40
0.0597827164
 40
0.0840958103
 40
0.1105195457
 40
0.138963655
 40
0.1693013519
 40
0.2013906596
 40
0.2701906933
 40
0.3439540386
 40
0.4211155431
 40
0.5
 40
0.5788844569
 40
0.6560459614
 40
0.7298093067
 40
0.7986093404
 40
0.8306986481
 40
0.861036345
 40
0.8894804543
 40
0.9159041897
 40
0.9402172836
 40
0.9623517547
 40
0.9822698321
 40
1.0
 40
1.0
 40
1.0
 40
1.0
 10
10.2977167626
 20
13.7749913543
 30
0.0
 10
10.2915844462
 20
13.7797384001
 30
0.0
 10
10.2779335247
 20
13.7890126642
 30
0.0
 10
10.2550288959
 20
13.8016793712
 30
0.0
 10
10.2286414088
 20
13.8138281666
 30
0.0
 10
10.198926225
 20
13.8253994348
 30
0.0
 10
10.1660476056
 20
13.8363226102
 30
0.0
 10
10.1301921547
 20
13.8465226432
 30
0.0
 10
10.0915714623
 20
13.8559493081
 30
0.0
 10
10.0353769642
 20
13.8676815369
 30
0.0
 10
9.9599127876
 20
13.8798276318
 30
0.0
 10
9.8643435546
 20
13.8902822788
 30
0.0
 10
9.7639969314
 20
13.8966580602
 30
0.0
 10
9.6612332379
 20
13.8987982314
 30
0.0
 10
9.5584695445
 20
13.8966580602
 30
0.0
 10
9.4581229213
 20
13.8902822788
 30
0.0
 10
9.3625536883
 20
13.8798276318
 30
0.0
 10
9.2870895117
 20
13.8676815369
 30
0.0
 10
9.2308950136
 20
13.8559493081
 30
0.0
 10
9.1922743211
 20
13.8465226432
 30
0.0
 10
9.1564188702
 20
13.8363226102
 30
0.0
 10
9.1235402509
 20
13.8253994348
 30
0.0
 10
9.093825067
 20
13.8138281666
 30
0.0
 10
9.06743758
 20
13.8016793712
 30
0.0
 10
9.0445329512
 20
13.7890126642
 30
0.0
 10
9.0308820297
 20
13.7797384001
 30
0.0
 10
9.0247497133
 20
13.7749913543
 30
0.0
  0
SPLINE
  5
438
100
AcDbEntity
  8
0
100
AcDbSpline
 62
9
  6
CONTINUOUS
 70
0
 71
3
 72
9
 73
5
 74
0
 42
0.0000001
 43
0.0000001
 44
0.0000000001
 40
0.0
 40
0.0
 40
0.0
 40
0.0
 40
0.2656760239
 40
1.0
 40
1.0
 40
1.0
 40
1.0
 10
9.0247497133
 20
13.7749913543
 30
0.0
 10
9.0229548844
 20
13.7736019716
 30
0.0
 10
9.0162978336
 20
13.7682489444
 30
0.0
 10
9.0100468383
 20
13.7623701318
 30
0.0
 10
9.0058475112
 20
13.7577093045
 30
0.0
  0
SPLINE
  5
439
100
AcDbEntity
  8
0
100
AcDbSpline
 62
9
  6
CONTINUOUS
 70
0
 71
3
 72
11
 73
7
 74
0
 42
0.0000001
 43
0.0000001
 44
0.0000000001
 40
0.0
 40
0.0
 40
0.0
 40
0.0
 40
0.280762552
 40
0.5363391391
 40
0.7732854089
 40
1.0
 40
1.0
 40
1.0
 40
1.0
 10
9.0058475112
 20
13.7577093045
 30
0.0
 10
9.0027545752
 20
13.7542764591
 30
0.0
 10
8.9972374832
 20
13.7473423232
 30
0.0
 10
8.9909395166
 20
13.7362124184
 30
0.0
 10
8.9871046156
 20
13.724933285
 30
0.0
 10
8.9862332379
 20
13.7172786523
 30
0.0
 10
8.9862332379
 20
13.7135474727
 30
0.0
  0
SPLINE
  5
43A
100
AcDbEntity
  8
0
100
AcDbSpline
 62
9
  6
CONTINUOUS
 70
0
 71
3
 72
9
 73
5
 74
0
 42
0.0000001
 43
0.0000001
 44
0.0000000001
 40
0.0
 40
0.0
 40
0.0
 40
0.0
 40
0.4694443017
 40
1.0
 40
1.0
 40
1.0
 40
1.0
 10
12.2919567156
 20
4.6360841488
 30
0.0
 10
12.2910321187
 20
4.6358460719
 30
0.0
 10
12.2888897656
 20
4.6359961768
 30
0.0
 10
12.287080504
 20
4.6370278996
 30
0.0
 10
12.2862332718
 20
4.6376961329
 30
0.0
  0
ELLIPSE
  5
43B
100
AcDbEntity
  8
0
100
AcDbEllipse
 62
7
  6
CONTINUOUS
 10
9.7774236278
 20
11.6356607928
 30
0.0
 11
0.0246129774
 21
0.0167702093
 31
0.0
 40
0.2612927158
 41
1.7087681284
 42
2.9654006138
  0
ELLIPSE
  5
43C
100
AcDbEntity
  8
0
100
AcDbEllipse
 62
7
  6
CONTINUOUS
 10
9.545042848
 20
11.8311831149
 30
0.0
 11
0.0240478314
 21
0.0171501161
 31
0.0
 40
0.3984738029
 41
1.7651561983
 42
2.8647139507
  0
ELLIPSE
  5
43D
100
AcDbEntity
  8
0
100
AcDbEllipse
 62
7
  6
CONTINUOUS
 10
10.0617571847
 20
11.9210378653
 30
0.0
 11
0.6633617622
 21
0.3694151249
 31
0.0
 40
0.0060188508
 41
-1.8849669281
 42
-1.8265783818
  0
ELLIPSE
  5
43E
100
AcDbEntity
  8
0
100
AcDbEllipse
 62
7
  6
CONTINUOUS
 10
9.9790908417
 20
11.8899321735
 30
0.0
 11
0.6157090325
 21
0.3049388509
 31
0.0
 40
0.1299458398
 41
4.6180785119
 42
4.6775192247
  0
ELLIPSE
  5
43F
100
AcDbEntity
  8
0
100
AcDbEllipse
 62
7
  6
CONTINUOUS
 10
9.8653103819
 20
11.8673325655
 30
0.0
 11
0.5634027094
 21
0.2197241602
 31
0.0
 40
0.282729568
 41
4.9028023246
 42
4.9662618661
  0
ELLIPSE
  5
440
100
AcDbEntity
  8
0
100
AcDbEllipse
 62
7
  6
CONTINUOUS
 10
9.7315534294
 20
11.8554512485
 30
0.0
 11
0.5320865851
 21
0.0886870333
 31
0.0
 40
0.4313025445
 41
5.3253377724
 42
5.408536976
  0
ELLIPSE
  5
441
100
AcDbEntity
  8
0
100
AcDbEllipse
 62
7
  6
CONTINUOUS
 10
9.5909130465
 20
11.8554512485
 30
0.0
 11
0.5320865851
 21
-0.0886870333
 31
0.0
 40
0.4313025445
 41
5.8787837274
 42
5.961982931
  0
ELLIPSE
  5
442
100
AcDbEntity
  8
0
100
AcDbEllipse
 62
7
  6
CONTINUOUS
 10
9.8653103819
 20
12.0863257824
 30
0.0
 11
0.465514095
 21
0.5358419238
 31
0.0
 40
0.6035099097
 41
-1.8777138317
 42
-1.8219745958
  0
ELLIPSE
  5
443
100
AcDbEntity
  8
0
100
AcDbEllipse
 62
7
  6
CONTINUOUS
 10
9.9790908417
 20
12.0637261744
 30
0.0
 11
0.5736302527
 21
0.5177717825
 31
0.0
 40
0.4387875903
 41
-1.9779428315
 42
-1.9118541375
  0
ELLIPSE
  5
444
100
AcDbEntity
  8
0
100
AcDbEllipse
 62
7
  6
CONTINUOUS
 10
10.0617571847
 20
12.0326204826
 30
0.0
 11
0.6455332948
 21
0.4959026464
 31
0.0
 40
0.3080767986
 41
-2.1140057916
 42
-2.0366723829
  0
ELLIPSE
  5
445
100
AcDbEntity
  8
0
100
AcDbEllipse
 62
7
  6
CONTINUOUS
 10
10.1052174531
 20
11.9960535488
 30
0.0
 11
0.6842653211
 21
0.4640469236
 31
0.0
 40
0.199112349
 41
-2.2660459712
 42
-2.1828467676
  0
ELLIPSE
  5
446
100
AcDbEntity
  8
0
100
AcDbEllipse
 62
7
  6
CONTINUOUS
 10
9.2172490228
 20
11.9576047992
 30
0.0
 11
0.6892144168
 21
-0.4218057537
 31
0.0
 40
0.0988868305
 41
-0.7923303001
 42
-0.7091310965
  0
ELLIPSE
  5
447
100
AcDbEntity
  8
0
100
AcDbEllipse
 62
7
  6
CONTINUOUS
 10
10.105217453
 20
11.9576047992
 30
0.0
 11
0.6892144168
 21
0.4218057537
 31
0.0
 40
0.0988868305
 41
-2.4324615571
 42
-2.3492623534
  0
ELLIPSE
  5
448
100
AcDbEntity
  8
0
100
AcDbEllipse
 62
7
  6
CONTINUOUS
 10
9.2172490228
 20
11.9960535488
 30
0.0
 11
0.6842653211
 21
-0.4640469236
 31
0.0
 40
0.199112349
 41
-0.958745886
 42
-0.8755466824
  0
ELLIPSE
  5
449
100
AcDbEntity
  8
0
100
AcDbEllipse
 62
7
  6
CONTINUOUS
 10
9.2607092912
 20
12.0326204826
 30
0.0
 11
0.6455332948
 21
-0.4959026464
 31
0.0
 40
0.3080767986
 41
-1.1049202707
 42
-1.027586862
  0
ELLIPSE
  5
44A
100
AcDbEntity
  8
0
100
AcDbEllipse
 62
7
  6
CONTINUOUS
 10
9.3433756341
 20
12.0637261744
 30
0.0
 11
0.5736302527
 21
-0.5177717825
 31
0.0
 40
0.4387875903
 41
-1.2297385161
 42
-1.1636498221
  0
ELLIPSE
  5
44B
100
AcDbEntity
  8
0
100
AcDbEllipse
 62
7
  6
CONTINUOUS
 10
9.4571560939
 20
12.0863257824
 30
0.0
 11
-0.465514095
 21
0.5358419238
 31
0.0
 40
0.6035099097
 41
-4.4660365933
 42
-4.4054714755
  0
ELLIPSE
  5
44C
100
AcDbEntity
  8
0
100
AcDbEllipse
 62
7
  6
CONTINUOUS
 10
9.7315534294
 20
11.8554512485
 30
0.0
 11
0.5320865851
 21
0.0886870333
 31
0.0
 40
0.4313025445
 41
3.4627950297
 42
3.5218271709
  0
ELLIPSE
  5
44D
100
AcDbEntity
  8
0
100
AcDbEllipse
 62
7
  6
CONTINUOUS
 10
9.5909130465
 20
11.8554512485
 30
0.0
 11
0.5320865851
 21
-0.0886870333
 31
0.0
 40
0.4313025445
 41
4.0162409848
 42
4.0994401884
  0
ELLIPSE
  5
44E
100
AcDbEntity
  8
0
100
AcDbEllipse
 62
7
  6
CONTINUOUS
 10
9.4571560939
 20
11.8673325655
 30
0.0
 11
0.5634027094
 21
-0.2197241602
 31
0.0
 40
0.282729568
 41
4.4586136506
 42
4.5219756362
  0
ELLIPSE
  5
44F
100
AcDbEntity
  8
0
100
AcDbEllipse
 62
7
  6
CONTINUOUS
 10
9.3433756341
 20
11.8899321735
 30
0.0
 11
0.6157090325
 21
-0.3049388509
 31
0.0
 40
0.1299458398
 41
4.7474157669
 42
4.8066994489
  0
ELLIPSE
  5
450
100
AcDbEntity
  8
0
100
AcDbEllipse
 62
7
  6
CONTINUOUS
 10
9.2607092912
 20
11.9210378653
 30
0.0
 11
0.6633617622
 21
-0.3694151249
 31
0.0
 40
0.0060188508
 41
4.9684113616
 42
5.0265595817
  0
ELLIPSE
  5
451
100
AcDbEntity
  8
0
100
AcDbEllipse
 62
7
  6
CONTINUOUS
 10
9.6612332379
 20
11.6967772473
 30
0.0
 11
0.3109974968
 21
0.1726467536
 31
0.0
 40
0.0072273801
 41
8.1641287223
 42
8.2810045993
  0
ELLIPSE
  5
452
100
AcDbEntity
  8
0
100
AcDbEllipse
 62
7
  6
CONTINUOUS
 10
9.6612332379
 20
11.6967772473
 30
0.0
 11
0.3103867213
 21
0.1399977487
 31
0.0
 40
0.1394404861
 41
8.419489245
 42
8.536365122
  0
ELLIPSE
  5
453
100
AcDbEntity
  8
0
100
AcDbEllipse
 62
7
  6
CONTINUOUS
 10
9.6612332379
 20
11.6967772473
 30
0.0
 11
0.3100308434
 21
0.094599916
 31
0.0
 40
0.2593360093
 41
2.4343073049
 42
2.5511831819
  0
ELLIPSE
  5
454
100
AcDbEntity
  8
0
100
AcDbEllipse
 62
7
  6
CONTINUOUS
 10
9.6612332379
 20
11.6967772473
 30
0.0
 11
0.3107840466
 21
0.0342512477
 31
0.0
 40
0.338316712
 41
9.0733503598
 42
9.1902262368
  0
ELLIPSE
  5
455
100
AcDbEntity
  8
0
100
AcDbEllipse
 62
7
  6
CONTINUOUS
 10
9.6612332379
 20
11.6967772473
 30
0.0
 11
0.2938280912
 21
0.1192072417
 31
0.0
 40
0.8549143835
 41
-3.7496233576
 42
-3.6727349232
  0
ELLIPSE
  5
456
100
AcDbEntity
  8
0
100
AcDbEllipse
 62
7
  6
CONTINUOUS
 10
9.6612332379
 20
11.6967772473
 30
0.0
 11
0.2818916689
 21
0.1885676735
 31
0.0
 40
0.6966731679
 41
2.1111232922
 42
2.1940455914
  0
ELLIPSE
  5
457
100
AcDbEntity
  8
0
100
AcDbEllipse
 62
7
  6
CONTINUOUS
 10
9.6612332379
 20
11.6967772473
 30
0.0
 11
0.2897707709
 21
0.2082774161
 31
0.0
 40
0.5422247385
 41
1.8274907481
 42
1.9443666251
  0
ELLIPSE
  5
458
100
AcDbEntity
  8
0
100
AcDbEllipse
 62
7
  6
CONTINUOUS
 10
9.6612332379
 20
11.6967772473
 30
0.0
 11
0.2991550223
 21
0.2133474441
 31
0.0
 40
0.3984738029
 41
1.6080765656
 42
1.7249524426
  0
ELLIPSE
  5
459
100
AcDbEntity
  8
0
100
AcDbEllipse
 62
7
  6
CONTINUOUS
 10
9.6612332379
 20
11.6967772473
 30
0.0
 11
0.3100141621
 21
-0.1951151457
 31
0.0
 40
0.1268126365
 41
1.8477235851
 42
1.9645994621
  0
ELLIPSE
  5
45A
100
AcDbEntity
  8
0
100
AcDbEllipse
 62
7
  6
CONTINUOUS
 10
9.6612332379
 20
11.6967772473
 30
0.0
 11
0.3061854394
 21
0.208621404
 31
0.0
 40
0.2612927158
 41
1.3946088631
 42
1.5114847401
  0
ELLIPSE
  5
45B
100
AcDbEntity
  8
0
100
AcDbEllipse
 62
7
  6
CONTINUOUS
 10
9.6612332379
 20
11.6967772473
 30
0.0
 11
0.3061854394
 21
-0.208621404
 31
0.0
 40
0.2612927158
 41
1.6301079135
 42
1.7469837905
  0
ELLIPSE
  5
45C
100
AcDbEntity
  8
0
100
AcDbEllipse
 62
7
  6
CONTINUOUS
 10
9.6612332379
 20
11.6967772473
 30
0.0
 11
0.3100141621
 21
0.1951151457
 31
0.0
 40
0.1268126365
 41
1.1769931915
 42
1.2938690685
  0
ELLIPSE
  5
45D
100
AcDbEntity
  8
0
100
AcDbEllipse
 62
7
  6
CONTINUOUS
 10
9.6612332379
 20
11.6967772473
 30
0.0
 11
0.2991550223
 21
-0.2133474441
 31
0.0
 40
0.3984738029
 41
1.416640211
 42
1.533516088
  0
ELLIPSE
  5
45E
100
AcDbEntity
  8
0
100
AcDbEllipse
 62
7
  6
CONTINUOUS
 10
9.6612332379
 20
11.6967772473
 30
0.0
 11
0.2897707709
 21
-0.2082774161
 31
0.0
 40
0.5422247385
 41
1.1972260285
 42
1.3141019055
  0
ELLIPSE
  5
45F
100
AcDbEntity
  8
0
100
AcDbEllipse
 62
7
  6
CONTINUOUS
 10
9.6612332379
 20
11.6967772473
 30
0.0
 11
0.2818916689
 21
-0.1885676735
 31
0.0
 40
0.6966731679
 41
0.9475470622
 42
1.0368744419
  0
ELLIPSE
  5
460
100
AcDbEntity
  8
0
100
AcDbEllipse
 62
7
  6
CONTINUOUS
 10
9.6612332379
 20
11.6967772473
 30
0.0
 11
-0.2938280912
 21
0.1192072417
 31
0.0
 40
0.8549143835
 41
-2.610450384
 42
-2.5335619496
  0
ELLIPSE
  5
461
100
AcDbEntity
  8
0
100
AcDbEllipse
 62
7
  6
CONTINUOUS
 10
9.6612332379
 20
11.6967772473
 30
0.0
 11
0.3107840466
 21
-0.0342512477
 31
0.0
 40
0.338316712
 41
6.5177370312
 42
6.6346129082
  0
ELLIPSE
  5
462
100
AcDbEntity
  8
0
100
AcDbEllipse
 62
7
  6
CONTINUOUS
 10
9.6612332379
 20
11.6967772473
 30
0.0
 11
0.3100308434
 21
-0.094599916
 31
0.0
 40
0.2593360093
 41
6.8735947789
 42
6.9904706559
  0
ELLIPSE
  5
463
100
AcDbEntity
  8
0
100
AcDbEllipse
 62
7
  6
CONTINUOUS
 10
9.6612332379
 20
11.6967772473
 30
0.0
 11
0.3103867213
 21
-0.1399977487
 31
0.0
 40
0.1394404861
 41
7.171598146
 42
7.288474023
  0
ELLIPSE
  5
464
100
AcDbEntity
  8
0
100
AcDbEllipse
 62
7
  6
CONTINUOUS
 10
9.6612332379
 20
11.6967772473
 30
0.0
 11
0.3109974968
 21
-0.1726467536
 31
0.0
 40
0.0072273801
 41
7.4269586686
 42
7.5438345457
  0
ELLIPSE
  5
465
100
AcDbEntity
  8
0
100
AcDbEllipse
 62
7
  6
CONTINUOUS
 10
9.545042848
 20
11.8311831149
 30
0.0
 11
0.0249207526
 21
-0.0156844972
 31
0.0
 40
0.1268126365
 41
0.3938031353
 42
1.8075198296
  0
ELLIPSE
  5
466
100
AcDbEntity
  8
0
100
AcDbEllipse
 62
7
  6
CONTINUOUS
 10
9.7774236278
 20
11.8311831149
 30
0.0
 11
0.0240478314
 21
-0.0171501161
 31
0.0
 40
0.3984738029
 41
0.2768788775
 42
1.3764364552
  0
ELLIPSE
  5
467
100
AcDbEntity
  8
0
100
AcDbEllipse
 62
7
  6
CONTINUOUS
 10
9.545042848
 20
11.6356607928
 30
0.0
 11
0.0246129774
 21
-0.0167702093
 31
0.0
 40
0.2612927158
 41
0.1761926027
 42
1.4328245253
  0
ELLIPSE
  5
468
100
AcDbEntity
  8
0
100
AcDbEllipse
 62
7
  6
CONTINUOUS
 10
9.7774236278
 20
11.8311831149
 30
0.0
 11
0.0249207526
 21
0.0156844972
 31
0.0
 40
0.1268126365
 41
1.3340728241
 42
2.7477895183
  0
ELLIPSE
  5
469
100
AcDbEntity
  8
0
100
AcDbEllipse
 62
7
  6
CONTINUOUS
 10
9.2172490228
 20
11.9960535488
 30
0.0
 11
0.6842653211
 21
-0.4640469236
 31
0.0
 40
0.199112349
 41
0.9037968566
 42
0.9605015922
  0
ELLIPSE
  5
46A
100
AcDbEntity
  8
0
100
AcDbEllipse
 62
7
  6
CONTINUOUS
 10
10.1052174531
 20
11.9576047992
 30
0.0
 11
0.6892144168
 21
0.4218057537
 31
0.0
 40
0.0988868305
 41
2.0133933892
 42
2.0713802111
  0
ELLIPSE
  5
46B
100
AcDbEntity
  8
0
100
AcDbEllipse
 62
7
  6
CONTINUOUS
 10
9.2607092912
 20
12.0326204826
 30
0.0
 11
0.6455332948
 21
-0.4959026464
 31
0.0
 40
0.3080767986
 41
0.751756677
 42
0.8081790395
  0
ELLIPSE
  5
46C
100
AcDbEntity
  8
0
100
AcDbEllipse
 62
7
  6
CONTINUOUS
 10
9.3433756341
 20
12.0637261744
 30
0.0
 11
0.5736302527
 21
-0.5177717825
 31
0.0
 40
0.4387875903
 41
0.6156937169
 42
0.673206199
  0
ELLIPSE
  5
46D
100
AcDbEntity
  8
0
100
AcDbEllipse
 62
7
  6
CONTINUOUS
 10
9.4571560939
 20
12.0863257824
 30
0.0
 11
-0.465514095
 21
0.5358419238
 31
0.0
 40
0.6035099097
 41
-2.6261279365
 42
-2.5656610053
  0
ELLIPSE
  5
46E
100
AcDbEntity
  8
0
100
AcDbEllipse
 62
7
  6
CONTINUOUS
 10
9.5909130465
 20
12.0982070994
 30
0.0
 11
-0.259978427
 21
0.5845915437
 31
0.0
 40
0.7968339283
 41
-2.5560086056
 42
-2.4890369087
  0
ELLIPSE
  5
46F
100
AcDbEntity
  8
0
100
AcDbEllipse
 62
7
  6
CONTINUOUS
 10
9.7315534294
 20
12.0982070994
 30
0.0
 11
0.259978427
 21
0.5845915437
 31
0.0
 40
0.7968339283
 41
-1.9478331626
 42
-1.864633959
  0
ELLIPSE
  5
470
100
AcDbEntity
  8
0
100
AcDbEllipse
 62
7
  6
CONTINUOUS
 10
9.5909130465
 20
12.0982070994
 30
0.0
 11
-0.259978427
 21
0.5845915437
 31
0.0
 40
0.7968339283
 41
-4.4185513482
 42
-4.3353521446
  0
ELLIPSE
  5
471
100
AcDbEntity
  8
0
100
AcDbEllipse
 62
7
  6
CONTINUOUS
 10
9.545042848
 20
11.8311831149
 30
0.0
 11
0.0249207526
 21
-0.0156844972
 31
0.0
 40
0.1268126365
 41
-1.1769931916
 42
0.0796392939
  0
ELLIPSE
  5
472
100
AcDbEntity
  8
0
100
AcDbEllipse
 62
7
  6
CONTINUOUS
 10
9.7315534294
 20
12.0982070994
 30
0.0
 11
0.259978427
 21
0.5845915437
 31
0.0
 40
0.7968339283
 41
-3.7941428633
 42
-3.7271767016
  0
ELLIPSE
  5
473
100
AcDbEntity
  8
0
100
AcDbEllipse
 62
7
  6
CONTINUOUS
 10
9.8653103819
 20
12.0863257824
 30
0.0
 11
0.465514095
 21
0.5358419238
 31
0.0
 40
0.6035099097
 41
-3.7175461814
 42
-3.6570573707
  0
ELLIPSE
  5
474
100
AcDbEntity
  8
0
100
AcDbEllipse
 62
7
  6
CONTINUOUS
 10
9.9790908417
 20
12.0637261744
 30
0.0
 11
0.5736302527
 21
0.5177717825
 31
0.0
 40
0.4387875903
 41
2.4683935651
 42
2.5258989367
  0
ELLIPSE
  5
475
100
AcDbEntity
  8
0
100
AcDbEllipse
 62
7
  6
CONTINUOUS
 10
10.0617571847
 20
12.0326204826
 30
0.0
 11
0.6455332948
 21
0.4959026464
 31
0.0
 40
0.3080767986
 41
2.3334845795
 42
2.3898359766
  0
ELLIPSE
  5
476
100
AcDbEntity
  8
0
100
AcDbEllipse
 62
7
  6
CONTINUOUS
 10
9.2172490228
 20
11.9576047992
 30
0.0
 11
0.6892144168
 21
-0.4218057537
 31
0.0
 40
0.0988868305
 41
1.0702124425
 42
1.128480033
  0
ELLIPSE
  5
477
100
AcDbEntity
  8
0
100
AcDbEllipse
 62
7
  6
CONTINUOUS
 10
10.105217453
 20
11.9960535488
 30
0.0
 11
0.6842653211
 21
0.4640469236
 31
0.0
 40
0.199112349
 41
2.1812552277
 42
2.237795797
  0
ELLIPSE
  5
478
100
AcDbEntity
  8
0
100
AcDbEllipse
 62
7
  6
CONTINUOUS
 10
9.6612332379
 20
11.8362141217
 30
0.0
 11
0.0246129774
 21
-0.0167702093
 31
0.0
 40
0.2612927158
 41
-1.394608863
 42
1.5899041578
  0
ELLIPSE
  5
479
100
AcDbEntity
  8
0
100
AcDbEllipse
 62
7
  6
CONTINUOUS
 10
9.6612332379
 20
11.8362141217
 30
0.0
 11
0.0246129774
 21
0.0167702093
 31
0.0
 40
0.2612927158
 41
7.8348738029
 42
10.8193868239
  0
ELLIPSE
  5
47A
100
AcDbEntity
  8
0
100
AcDbEllipse
 62
7
  6
CONTINUOUS
 10
9.6612332379
 20
11.6967772473
 30
0.0
 11
0.3100141621
 21
0.1951151457
 31
0.0
 40
0.1268126365
 41
-1.7673160738
 42
-1.6504401968
  0
ELLIPSE
  5
47B
100
AcDbEntity
  8
0
100
AcDbEllipse
 62
7
  6
CONTINUOUS
 10
9.6612332379
 20
11.6967772473
 30
0.0
 11
0.3061854394
 21
-0.208621404
 31
0.0
 40
0.2612927158
 41
-1.7087681284
 42
-1.5918922514
  0
ELLIPSE
  5
47C
100
AcDbEntity
  8
0
100
AcDbEllipse
 62
7
  6
CONTINUOUS
 10
9.6612332379
 20
11.6967772473
 30
0.0
 11
0.2991550223
 21
-0.2133474441
 31
0.0
 40
0.3984738029
 41
-1.922235831
 42
-1.805359954
  0
ELLIPSE
  5
47D
100
AcDbEntity
  8
0
100
AcDbEllipse
 62
7
  6
CONTINUOUS
 10
9.6612332379
 20
11.6967772473
 30
0.0
 11
0.2897707709
 21
-0.2082774161
 31
0.0
 40
0.5422247385
 41
-2.1416500135
 42
-2.0247741365
  0
ELLIPSE
  5
47E
100
AcDbEntity
  8
0
100
AcDbEllipse
 62
7
  6
CONTINUOUS
 10
9.6612332379
 20
11.6967772473
 30
0.0
 11
0.2818916689
 21
-0.1885676735
 31
0.0
 40
0.6966731679
 41
-2.3913289797
 42
-2.2744531027
  0
ELLIPSE
  5
47F
100
AcDbEntity
  8
0
100
AcDbEllipse
 62
7
  6
CONTINUOUS
 10
9.6612332379
 20
11.6967772473
 30
0.0
 11
-0.2938280912
 21
0.1192072417
 31
0.0
 40
0.8549143835
 41
0.3727750387
 42
0.4507347583
  0
ELLIPSE
  5
480
100
AcDbEntity
  8
0
100
AcDbEllipse
 62
7
  6
CONTINUOUS
 10
9.6612332379
 20
11.6967772473
 30
0.0
 11
0.2818916689
 21
0.1885676735
 31
0.0
 40
0.6966731679
 41
-0.8671395509
 42
-0.7502636739
  0
ELLIPSE
  5
481
100
AcDbEntity
  8
0
100
AcDbEllipse
 62
7
  6
CONTINUOUS
 10
9.6612332379
 20
11.6967772473
 30
0.0
 11
0.2897707709
 21
0.2082774161
 31
0.0
 40
0.5422247385
 41
-1.1168185171
 42
-0.9999426401
  0
ELLIPSE
  5
482
100
AcDbEntity
  8
0
100
AcDbEllipse
 62
7
  6
CONTINUOUS
 10
9.6612332379
 20
11.6967772473
 30
0.0
 11
0.2991550223
 21
0.2133474441
 31
0.0
 40
0.3984738029
 41
-1.3362326996
 42
-1.2193568226
  0
ELLIPSE
  5
483
100
AcDbEntity
  8
0
100
AcDbEllipse
 62
7
  6
CONTINUOUS
 10
9.6612332379
 20
11.6967772473
 30
0.0
 11
0.2938280912
 21
0.1192072417
 31
0.0
 40
0.8549143835
 41
-0.4507347583
 42
-0.3790973552
  0
ELLIPSE
  5
484
100
AcDbEntity
  8
0
100
AcDbEllipse
 62
7
  6
CONTINUOUS
 10
9.6612332379
 20
11.6967772473
 30
0.0
 11
0.3061854394
 21
0.208621404
 31
0.0
 40
0.2612927158
 41
-1.5497004022
 42
-1.4328245252
  0
ELLIPSE
  5
485
100
AcDbEntity
  8
0
100
AcDbEllipse
 62
7
  6
CONTINUOUS
 10
9.6612332379
 20
11.6967772473
 30
0.0
 11
0.3100141621
 21
-0.1951151457
 31
0.0
 40
0.1268126365
 41
-1.4911524568
 42
-1.3742765798
  0
ELLIPSE
  5
486
100
AcDbEntity
  8
0
100
AcDbEllipse
 62
7
  6
CONTINUOUS
 10
9.545042848
 20
11.8311831149
 30
0.0
 11
0.0240478314
 21
0.0171501161
 31
0.0
 40
0.3984738029
 41
-3.1043124147
 42
-1.5335160879
  0
ELLIPSE
  5
487
100
AcDbEntity
  8
0
100
AcDbEllipse
 62
7
  6
CONTINUOUS
 10
9.4402259831
 20
11.8165825645
 30
0.0
 11
0.0232934703
 21
0.0167425576
 31
0.0
 40
0.5422247385
 41
8.267755688
 42
11.2522687089
  0
ELLIPSE
  5
488
100
AcDbEntity
  8
0
100
AcDbEllipse
 62
7
  6
CONTINUOUS
 10
9.357042848
 20
11.7938416742
 30
0.0
 11
0.022660102
 21
0.0151581731
 31
0.0
 40
0.6966731679
 41
2.7054923342
 42
4.8010641035
  0
ELLIPSE
  5
489
100
AcDbEntity
  8
0
100
AcDbEllipse
 62
7
  6
CONTINUOUS
 10
9.3036359878
 20
11.7651864806
 30
0.0
 11
0.0236196215
 21
0.0095825757
 31
0.0
 40
0.8549143835
 41
-3.1356144102
 42
-1.2972783998
  0
ELLIPSE
  5
48A
100
AcDbEntity
  8
0
100
AcDbEllipse
 62
7
  6
CONTINUOUS
 10
9.2852332379
 20
11.7334219539
 30
0.0
 11
-0.0236196215
 21
0.0095825757
 31
0.0
 40
0.8549143835
 41
1.2233979171
 42
2.7228380551
  0
ELLIPSE
  5
48B
100
AcDbEntity
  8
0
100
AcDbEllipse
 62
7
  6
CONTINUOUS
 10
9.3036359878
 20
11.7016574271
 30
0.0
 11
0.022660102
 21
-0.0151581731
 31
0.0
 40
0.6966731679
 41
-1.501789944
 42
-0.0023498057
  0
ELLIPSE
  5
48C
100
AcDbEntity
  8
0
100
AcDbEllipse
 62
7
  6
CONTINUOUS
 10
9.357042848
 20
11.6730022335
 30
0.0
 11
0.0232934703
 21
-0.0167425576
 31
0.0
 40
0.5422247385
 41
-1.3842019907
 42
0.3716259424
  0
ELLIPSE
  5
48D
100
AcDbEntity
  8
0
100
AcDbEllipse
 62
7
  6
CONTINUOUS
 10
9.4402259831
 20
11.6502613432
 30
0.0
 11
0.0240478314
 21
-0.0171501161
 31
0.0
 40
0.3984738029
 41
-1.4203904188
 42
0.9269355378
  0
ELLIPSE
  5
48E
100
AcDbEntity
  8
0
100
AcDbEllipse
 62
7
  6
CONTINUOUS
 10
9.545042848
 20
11.6356607928
 30
0.0
 11
0.0246129774
 21
-0.0167702093
 31
0.0
 40
0.2612927158
 41
-1.5516884958
 42
-0.1379718016
  0
ELLIPSE
  5
48F
100
AcDbEntity
  8
0
100
AcDbEllipse
 62
7
  6
CONTINUOUS
 10
9.7774236278
 20
11.8311831149
 30
0.0
 11
0.0249207526
 21
0.0156844972
 31
0.0
 40
0.1268126365
 41
3.0619539226
 42
4.3185858451
  0
ELLIPSE
  5
490
100
AcDbEntity
  8
0
100
AcDbEllipse
 62
7
  6
CONTINUOUS
 10
9.6612332379
 20
11.630629786
 30
0.0
 11
0.0249207526
 21
-0.0156844972
 31
0.0
 40
0.1268126365
 41
-1.3340728241
 42
1.6504401967
  0
ELLIPSE
  5
491
100
AcDbEntity
  8
0
100
AcDbEllipse
 62
7
  6
CONTINUOUS
 10
9.6612332379
 20
11.630629786
 30
0.0
 11
0.0249207526
 21
0.0156844972
 31
0.0
 40
0.1268126365
 41
7.774337764
 42
10.758850785
  0
ELLIPSE
  5
492
100
AcDbEntity
  8
0
100
AcDbEllipse
 62
7
  6
CONTINUOUS
 10
9.7774236278
 20
11.8311831149
 30
0.0
 11
0.0240478314
 21
-0.0171501161
 31
0.0
 40
0.3984738029
 41
-1.6080765657
 42
-0.0372802389
  0
ELLIPSE
  5
493
100
AcDbEntity
  8
0
100
AcDbEllipse
 62
7
  6
CONTINUOUS
 10
9.7774236278
 20
11.6356607928
 30
0.0
 11
0.0246129774
 21
0.0167702093
 31
0.0
 40
0.2612927158
 41
-3.003620852
 42
-1.5899041579
  0
ELLIPSE
  5
494
100
AcDbEntity
  8
0
100
AcDbEllipse
 62
7
  6
CONTINUOUS
 10
9.8822404928
 20
11.6502613432
 30
0.0
 11
0.0240478314
 21
0.0171501161
 31
0.0
 40
0.3984738029
 41
2.3464053315
 42
4.5620239161
  0
ELLIPSE
  5
495
100
AcDbEntity
  8
0
100
AcDbEllipse
 62
7
  6
CONTINUOUS
 10
9.8822404928
 20
11.8165825646
 30
0.0
 11
0.0232934703
 21
-0.0167425576
 31
0.0
 40
0.5422247385
 41
-1.8274907481
 42
1.1570222727
  0
ELLIPSE
  5
496
100
AcDbEntity
  8
0
100
AcDbEllipse
 62
7
  6
CONTINUOUS
 10
9.9654236278
 20
11.6730022335
 30
0.0
 11
0.0232934703
 21
0.0167425576
 31
0.0
 40
0.5422247385
 41
2.7699666015
 42
4.5257432647
  0
ELLIPSE
  5
497
100
AcDbEntity
  8
0
100
AcDbEllipse
 62
7
  6
CONTINUOUS
 10
10.0188304881
 20
11.7016574271
 30
0.0
 11
0.022660102
 21
0.0151581731
 31
0.0
 40
0.6966731679
 41
3.1440798686
 42
4.6434078195
  0
ELLIPSE
  5
498
100
AcDbEntity
  8
0
100
AcDbEllipse
 62
7
  6
CONTINUOUS
 10
9.9654236278
 20
11.7938416742
 30
0.0
 11
0.022660102
 21
-0.0151581731
 31
0.0
 40
0.6966731679
 41
-1.6530002137
 42
0.4361006016
  0
ELLIPSE
  5
499
100
AcDbEntity
  8
0
100
AcDbEllipse
 62
7
  6
CONTINUOUS
 10
10.0372332379
 20
11.7334219539
 30
0.0
 11
0.0236196215
 21
0.0095825757
 31
0.0
 40
0.8549143835
 41
3.5604846612
 42
5.059812612
  0
ELLIPSE
  5
49A
100
AcDbEntity
  8
0
100
AcDbEllipse
 62
7
  6
CONTINUOUS
 10
10.0188304881
 20
11.7651864806
 30
0.0
 11
-0.0236196215
 21
0.0095825757
 31
0.0
 40
0.8549143835
 41
1.2973288707
 42
3.2057730513
  0
ENDSEC
  0
SECTION
  2
OBJECTS
  0
DICTIONARY
  5
C
100
AcDbDictionary
280
0
281
1
  3
ACAD_GROUP
350
D
  3
ACAD_MLINESTYLE
350
17
  3
ACAD_LAYOUT
350
1A
  3
ACAD_PLOTSETTINGS
350
19
  3
ACAD_PLOTSTYLENAME
350
E
  0
DICTIONARY
  5
D
102
{ACAD_REACTORS
330
C
102
}
100
AcDbDictionary
280
0
281
1
  0
ACDBDICTIONARYWDFLT
  5
E
102
{ACAD_REACTORS
330
C
102
}
100
AcDbDictionary
281
1
  3
Normal
350
F
100
AcDbDictionaryWithDefault
340
F
  0
DICTIONARY
  5
17
102
{ACAD_REACTORS
330
C
102
}
100
AcDbDictionary
280
0
281
1
  3
Standard
350
18
  0
DICTIONARY
  5
19
102
{ACAD_REACTORS
330
C
102
}
100
AcDbDictionary
281
1
  0
DICTIONARY
  5
1A
102
{ACAD_REACTORS
330
C
102
}
100
AcDbDictionary
281
1
  3
Model
350
49B
  3
Layout1
350
49C
  0
ACDBPLACEHOLDER
  5
F
102
{ACAD_REACTORS
330
E
102
}
  0
MLINESTYLE
  5
18
102
{ACAD_REACTORS
330
17
102
}
100
AcDbMlineStyle
  2
STANDARD
 70
0
  3

 62
256
 51
90.0
 52
90.0
 71
2
 49
0.5
 62
256
  6
BYLAYER
 49
-0.5
 62
256
  6
BYLAYER
  0
LAYOUT
  5
49B
102
{ACAD_REACTORS
330
1A
102
}
100
AcDbPlotSettings
  1

  2
none_device
  4
ANSI_C_(22.00_x_17.00_Inches)
  6

 40
0.0
 41
0.0
 42
0.0
 43
0.0
 44
558.8
 45
431.8
 46
0.0
 47
0.0
 48
0.0
 49
0.0
140
0.0
141
0.0
142
1.0
143
1.0
 70
1024
 72
0
 73
0
 74
0
  7

 75
0
147
1.0
148
0.0
149
0.0
100
AcDbLayout
  1
Model
 70
0
 71
0
 10
0.0
 20
0.0
 11
22.0
 21
17.0
 12
0.0
 22
0.0
 32
0.0
 14
0.0
 24
0.0
 34
0.0
 15
0.0
 25
0.0
 35
0.0
146
0.0
 13
0.0
 23
0.0
 33
0.0
 16
1.0
 26
0.0
 36
0.0
 17
0.0
 27
1.0
 37
0.0
 76
0
330
202
345
0
346
0
  0
LAYOUT
  5
49C
102
{ACAD_REACTORS
330
1A
102
}
100
AcDbPlotSettings
  1

  2
none_device
  4
ANSI_C_(22.00_x_17.00_Inches)
  6

 40
0.0
 41
0.0
 42
0.0
 43
0.0
 44
558.8
 45
431.8
 46
0.0
 47
0.0
 48
0.0
 49
0.0
140
0.0
141
0.0
142
1.0
143
1.0
 70
0
 72
0
 73
0
 74
0
  7

 75
0
147
1.0
148
0.0
149
0.0
100
AcDbLayout
  1
Layout1
 70
0
 71
1
 10
0.0
 20
0.0
 11
22.0
 21
17.0
 12
0.0
 22
0.0
 32
0.0
 14
0.0
 24
0.0
 34
0.0
 15
0.0
 25
0.0
 35
0.0
146
0.0
 13
0.0
 23
0.0
 33
0.0
 16
1.0
 26
0.0
 36
0.0
 17
0.0
 27
1.0
 37
0.0
 76
0
330
203
345
0
346
0
  0
ENDSEC
  0
EOF
