999
DXF file: E:\BT Custom\CADOUTPUT\_TOP.dxf
999
Pro/ENGINEER 2018400 by Parametric Technology Corporation
  0
SECTION
  2
HEADER
  9
$ACADVER
  1
AC1018
  9
$DWGCODEPAGE
  3
ANSI_1252
  9
$EXTMAX
 10
22.0
 20
17.0
 30
0.0
  9
$EXTMIN
 10
0.0
 20
0.0
 30
0.0
  9
$LIMMIN
 10
0.0
 20
0.0
  9
$LIMMAX
 10
22.0
 20
17.0
  9
$VIEWCTR
 10
11.0
 20
8.5
  9
$VIEWSIZE
 40
17.0
  9
$CLAYER
  8
0
  9
$LTSCALE
 40
1.21
  9
$CELTYPE
  6
BYLAYER
  9
$DIMSCALE
 40
1.0
  9
$DIMASZ
 40
0.1
  9
$DIMEXO
 40
0.0625
  9
$DIMDLI
 40
0.836
  9
$DIMEXE
 40
0.125
  9
$DIMCEN
 40
0.198
  9
$DIMLFAC
 40
1.0
  9
$DIMBLK
  1
_FILLED
  9
$DIMALT
 70
1
  9
$DIMALTD
 70
2
  9
$DIMALTTD
 70
2
  9
$DIMALTF
 40
25.4
  9
$DIMTXT
 40
0.08
  9
$DIMTOL
 70
1
  9
$DIMLIM
 70
0
  9
$DIMTFAC
 40
1.0
  9
$DIMTP
 40
0.001
  9
$DIMTM
 40
0.001
  9
$DIMGAP
 40
0.09
  9
$DIMDSEP
 70
46
  9
$AUNITS
 70
0
  9
$PDMODE
 70
3
  9
$PDSIZE
 40
0.06
  9
$HANDSEED
  5
266
  9
$TILEMODE
 70
1
  9
$MEASUREMENT
 70
0
  9
$INSUNITS
 70
1
  0
ENDSEC
  0
SECTION
  2
CLASSES
  0
CLASS
  1
ACDBDICTIONARYWDFLT
  2
AcDbDictionaryWithDefault
  3
AutoCAD 2000
 90
0
 91
1
280
0
281
0
  0
CLASS
  1
ACDBPLACEHOLDER
  2
AcDbPlaceHolder
  3
AutoCAD 2000
 90
0
 91
1
280
0
281
0
  0
CLASS
  1
LAYOUT
  2
AcDbLayout
  3
AutoCAD 2000
 90
0
 91
0
280
0
281
0
  0
ENDSEC
  0
SECTION
  2
TABLES
  0
TABLE
  2
VPORT
  5
8
100
AcDbSymbolTable
 70
2
  0
VPORT
  5
1F4
100
AcDbSymbolTableRecord
100
AcDbViewportTableRecord
  2
*ACTIVE
 70
0
 10
0.0
 20
0.0
 11
1.0
 21
1.0
 12
11.0
 22
8.5
 13
0.0
 23
0.0
 14
1.0
 24
1.0
 15
0.0
 25
0.0
 16
0.0
 26
0.0
 36
1.0
 17
0.0
 27
0.0
 37
0.0
 40
17.0
 41
1.2941176471
 42
50.0
 43
0.0
 44
0.0
 50
0.0
 51
0.0
 71
0
 72
100
 73
1
 74
1
 75
0
 76
0
 77
0
 78
0
  0
ENDTAB
  0
TABLE
  2
LTYPE
  5
5
100
AcDbSymbolTable
 70
6
  0
LTYPE
  5
14
100
AcDbSymbolTableRecord
100
AcDbLinetypeTableRecord
  2
BYBLOCK
 70
0
  3

 72
65
 73
0
 40
0.0
  0
LTYPE
  5
15
100
AcDbSymbolTableRecord
100
AcDbLinetypeTableRecord
  2
BYLAYER
 70
0
  3

 72
65
 73
0
 40
0.0
  0
LTYPE
  5
16
100
AcDbSymbolTableRecord
100
AcDbLinetypeTableRecord
  2
CONTINUOUS
 70
64
  3
Solid line
 72
65
 73
0
 40
0.0
  0
LTYPE
  5
1F5
100
AcDbSymbolTableRecord
100
AcDbLinetypeTableRecord
  2
CENTER
 70
64
  3
____ _ ____ _ ____ _ ____ _ ____ _ ____ _ ____
 72
65
 73
4
 40
0.6
 49
0.375
 74
0
 49
-0.075
 74
0
 49
0.075
 74
0
 49
-0.075
 74
0
  0
LTYPE
  5
1F6
100
AcDbSymbolTableRecord
100
AcDbLinetypeTableRecord
  2
HIDDEN
 70
64
  3
- - - - - - - - - - - - - - - - - - - -
 72
65
 73
2
 40
0.2
 49
0.1
 74
0
 49
-0.1
 74
0
  0
LTYPE
  5
1F7
100
AcDbSymbolTableRecord
100
AcDbLinetypeTableRecord
  2
PHANTOM
 70
64
  3
_____ _ _ _____ _ _ _____ _ _ _____
 72
65
 73
6
 40
0.8
 49
0.45
 74
0
 49
-0.05
 74
0
 49
0.1
 74
0
 49
-0.05
 74
0
 49
0.1
 74
0
 49
-0.05
 74
0
  0
LTYPE
  5
1F8
100
AcDbSymbolTableRecord
100
AcDbLinetypeTableRecord
  2
DOT
 70
64
  3
. . . . . . . . . . . . . . . . . . . .
 72
65
 73
2
 40
0.2
 49
0.1
 74
0
 49
-0.1
 74
0
  0
LTYPE
  5
1F9
100
AcDbSymbolTableRecord
100
AcDbLinetypeTableRecord
  2
DASHED
 70
64
  3
- - - - - - - - - - - - - - - - - - - -
 72
65
 73
2
 40
0.2
 49
0.1
 74
0
 49
-0.1
 74
0
  0
ENDTAB
  0
TABLE
  2
LAYER
  5
2
100
AcDbSymbolTable
 70
36
  0
LAYER
  5
10
100
AcDbSymbolTableRecord
100
AcDbLayerTableRecord
  2
0
 70
0
 62
7
  6
CONTINUOUS
370
-3
390
F
  0
LAYER
  5
1FA
100
AcDbSymbolTableRecord
100
AcDbLayerTableRecord
  2
DEFAULT_1
 70
0
 62
7
  6
CENTER
370
-3
390
F
  0
LAYER
  5
1FB
100
AcDbSymbolTableRecord
100
AcDbLayerTableRecord
  2
DEFAULT_2
 70
0
 62
8
  6
HIDDEN
370
-3
390
F
  0
LAYER
  5
1FC
100
AcDbSymbolTableRecord
100
AcDbLayerTableRecord
  2
DEFAULT_3
 70
0
 62
7
  6
PHANTOM
370
-3
390
F
  0
LAYER
  5
1FD
100
AcDbSymbolTableRecord
100
AcDbLayerTableRecord
  2
ALL_FEATURES
 70
0
 62
7
  6
CONTINUOUS
370
-3
390
F
  0
LAYER
  5
1FE
100
AcDbSymbolTableRecord
100
AcDbLayerTableRecord
  2
AXES_FEATURES
 70
0
 62
7
  6
CONTINUOUS
370
-3
390
F
  0
LAYER
  5
1FF
100
AcDbSymbolTableRecord
100
AcDbLayerTableRecord
  2
DIMENSIONS
 70
0
 62
7
  6
CONTINUOUS
370
-3
390
F
  0
ENDTAB
  0
TABLE
  2
STYLE
  5
3
100
AcDbSymbolTable
 70
1
  0
STYLE
  5
11
100
AcDbSymbolTableRecord
100
AcDbTextStyleTableRecord
  2
STANDARD
 70
0
 40
0.0
 41
0.8
 50
0.0
 71
0
 42
0.2
  3
txt
  4

  0
STYLE
  5
200
100
AcDbSymbolTableRecord
100
AcDbTextStyleTableRecord
  2
TEXTSTYLE_1
 70
0
 40
0.0
 41
0.8
 50
0.0
 71
0
 42
0.2
  3
gdt
  4

  0
ENDTAB
  0
TABLE
  2
VIEW
  5
6
100
AcDbSymbolTable
 70
0
  0
ENDTAB
  0
TABLE
  2
UCS
  5
7
100
AcDbSymbolTable
 70
0
  0
ENDTAB
  0
TABLE
  2
APPID
  5
9
100
AcDbSymbolTable
 70
1
  0
APPID
  5
201
100
AcDbSymbolTableRecord
100
AcDbRegAppTableRecord
  2
ACAD
 70
0
  0
ENDTAB
  0
TABLE
  2
BLOCK_RECORD
  5
1
100
AcDbSymbolTable
 70
0
  0
BLOCK_RECORD
  5
202
100
AcDbSymbolTableRecord
100
AcDbBlockTableRecord
  2
*Model_Space
  0
BLOCK_RECORD
  5
203
100
AcDbSymbolTableRecord
100
AcDbBlockTableRecord
  2
*Paper_Space
  0
BLOCK_RECORD
  5
204
100
AcDbSymbolTableRecord
100
AcDbBlockTableRecord
  2
_FILLED
  0
ENDTAB
  0
TABLE
  2
DIMSTYLE
  5
A
100
AcDbSymbolTable
 70
1
100
AcDbDimStyleTable
 71
0
  0
DIMSTYLE
105
205
100
AcDbSymbolTableRecord
100
AcDbDimStyleTableRecord
  2
STANDARD
 70
0
  3

  4

 40
1.0
 41
0.1
 42
0.0625
 43
0.38
 44
0.125
 45
0.0
 46
0.0
 47
0.001
 48
0.001
140
0.08
141
0.09
142
0.0
143
25.4
144
1.0
145
0.0
146
1.0
147
0.09
 71
1.0
 72
0.0
 73
1
 74
1
 75
0
 76
0
 77
0
 78
4
 79
1
170
1
171
2
172
0
173
0
174
0
175
0
176
0
177
0
178
0
270
2
179
3
271
3
272
3
273
2
274
2
275
0
280
0
281
0
282
0
283
1
284
4
285
0
286
0
287
3
288
0
340
11
278
46
341
204
342
204
343
204
344
204
  0
ENDTAB
  0
ENDSEC
  0
SECTION
  2
BLOCKS
  0
BLOCK
  5
20
100
AcDbEntity
  8
0
100
AcDbBlockBegin
  2
*Model_Space
 70
0
 10
0.0
 20
0.0
 30
0.0
  3
*Model_Space
  1

  0
ENDBLK
  5
21
100
AcDbEntity
  8
0
100
AcDbBlockEnd
  0
BLOCK
  5
1C
100
AcDbEntity
  8
0
100
AcDbBlockBegin
  2
*Paper_Space
 70
0
 10
0.0
 20
0.0
 30
0.0
  3
*Paper_Space
  1

  0
ENDBLK
  5
1D
100
AcDbEntity
  8
0
100
AcDbBlockEnd
  0
BLOCK
  5
206
100
AcDbEntity
  8
0
100
AcDbBlockBegin
  2
_FILLED
 70
64
 10
0.0
 20
0.0
  3
_FILLED
  1

  0
SOLID
  5
207
100
AcDbEntity
  8
0
  6
BYBLOCK
 62
0
100
AcDbTrace
 10
0.0
 20
0.0
 11
-1.0
 21
0.2
 12
-1.0
 22
-0.2
 13
-1.0
 23
-0.2
  0
ENDBLK
  5
208
100
AcDbEntity
  8
0
  6
BYBLOCK
 62
0
100
AcDbBlockEnd
  0
ENDSEC
  0
SECTION
  2
ENTITIES
  0
LINE
  5
209
100
AcDbEntity
  8
0
100
AcDbLine
 62
7
  6
CONTINUOUS
 10
9.0958592335
 20
3.1666973028
 11
9.0958592335
 21
2.6313941487
  0
LINE
  5
20A
100
AcDbEntity
  8
0
100
AcDbLine
 62
7
  6
CONTINUOUS
 10
9.2008592335
 20
11.8619939986
 11
9.2008592335
 21
3.2230989343
  0
LINE
  5
20B
100
AcDbEntity
  8
0
100
AcDbLine
 62
7
  6
CONTINUOUS
 10
10.3408592335
 20
11.8619939986
 11
10.3408592335
 21
3.2230989343
  0
LINE
  5
20C
100
AcDbEntity
  8
0
100
AcDbLine
 62
7
  6
CONTINUOUS
 10
10.4458592335
 20
3.1666973028
 11
10.4458592335
 21
2.6313941487
  0
LINE
  5
20D
100
AcDbEntity
  8
0
100
AcDbLine
 62
9
  6
CONTINUOUS
 10
11.6658592335
 20
10.9619939986
 11
11.6658592335
 21
12.7619939986
  0
LINE
  5
20E
100
AcDbEntity
  8
0
100
AcDbLine
 62
7
  6
CONTINUOUS
 10
11.6958592335
 20
10.9919939986
 11
11.6958592335
 21
12.7319898993
  0
LINE
  5
20F
100
AcDbEntity
  8
0
100
AcDbLine
 62
7
  6
CONTINUOUS
 10
11.7358592335
 20
12.7419939986
 11
11.7358592335
 21
10.9819939986
  0
LINE
  5
210
100
AcDbEntity
  8
0
100
AcDbLine
 62
9
  6
CONTINUOUS
 10
11.7558592335
 20
12.7619939986
 11
11.7558592335
 21
10.9619939986
  0
LINE
  5
211
100
AcDbEntity
  8
0
100
AcDbLine
 62
9
  6
CONTINUOUS
 10
12.3958592335
 20
10.9619939986
 11
12.3958592335
 21
12.7619939986
  0
LINE
  5
212
100
AcDbEntity
  8
0
100
AcDbLine
 62
7
  6
CONTINUOUS
 10
12.4158592335
 20
10.9825504629
 11
12.4158592335
 21
12.7419839511
  0
LINE
  5
213
100
AcDbEntity
  8
0
100
AcDbLine
 62
9
  6
CONTINUOUS
 10
12.4658592335
 20
11.0419939986
 11
12.4658592335
 21
12.6819939986
  0
LINE
  5
214
100
AcDbEntity
  8
0
100
AcDbLine
 62
7
  6
CONTINUOUS
 10
12.4858592335
 20
11.0620050018
 11
12.4858592335
 21
12.6619829953
  0
LINE
  5
215
100
AcDbEntity
  8
0
100
AcDbLine
 62
7
  6
CONTINUOUS
 10
11.6658592335
 20
10.9619939986
 11
10.3408592335
 21
10.9619939986
  0
LINE
  5
216
100
AcDbEntity
  8
0
100
AcDbLine
 62
7
  6
CONTINUOUS
 10
11.7558592335
 20
10.9619939986
 11
12.3958592335
 21
10.9619939986
  0
LINE
  5
217
100
AcDbEntity
  8
0
100
AcDbLine
 62
7
  6
CONTINUOUS
 10
12.4658592335
 20
11.0419939986
 11
12.4158592335
 21
11.0419939986
  0
LINE
  5
218
100
AcDbEntity
  8
0
100
AcDbLine
 62
7
  6
CONTINUOUS
 10
11.6958592335
 20
11.0569939986
 11
11.7358592335
 21
11.0569939986
  0
LINE
  5
219
100
AcDbEntity
  8
0
100
AcDbLine
 62
7
  6
CONTINUOUS
 10
12.6244105733
 20
11.5644939986
 11
12.4858592335
 21
11.5644939986
  0
LINE
  5
21A
100
AcDbEntity
  8
0
100
AcDbLine
 62
9
  6
CONTINUOUS
 10
10.8208592335
 20
11.861993888
 11
10.8158592215
 21
11.8619938922
  0
LINE
  5
21B
100
AcDbEntity
  8
0
100
AcDbLine
 62
9
  6
CONTINUOUS
 10
12.5098592335
 20
11.8619940007
 11
12.5198592335
 21
11.8619940007
  0
LINE
  5
21C
100
AcDbEntity
  8
0
100
AcDbLine
 62
7
  6
CONTINUOUS
 10
12.4858592335
 20
12.1594939986
 11
12.6244105733
 21
12.1594939986
  0
LINE
  5
21D
100
AcDbEntity
  8
0
100
AcDbLine
 62
7
  6
CONTINUOUS
 10
11.6958592335
 20
12.6669939986
 11
11.7358592335
 21
12.6669939986
  0
LINE
  5
21E
100
AcDbEntity
  8
0
100
AcDbLine
 62
7
  6
CONTINUOUS
 10
12.4658592335
 20
12.6819939986
 11
12.4158592335
 21
12.6819939986
  0
LINE
  5
21F
100
AcDbEntity
  8
0
100
AcDbLine
 62
7
  6
CONTINUOUS
 10
11.6658592335
 20
12.7619939986
 11
10.2903344535
 21
12.7619939986
  0
LINE
  5
220
100
AcDbEntity
  8
0
100
AcDbLine
 62
7
  6
CONTINUOUS
 10
11.7558592335
 20
12.7619939986
 11
12.3958592335
 21
12.7619939986
  0
ARC
  5
221
100
AcDbEntity
  8
0
100
AcDbCircle
 62
7
  6
CONTINUOUS
 10
9.8166598711
 20
3.1666886703
 40
0.6291993624
100
AcDbArc
 50
0.0007860844
 51
1.6294754073
  0
ARC
  5
222
100
AcDbEntity
  8
0
100
AcDbCircle
 62
7
  6
CONTINUOUS
 10
9.7250578594
 20
3.1666886723
 40
0.6291986259
100
AcDbArc
 50
178.3704366148
 51
179.999214093
  0
ARC
  5
223
100
AcDbEntity
  8
0
100
AcDbCircle
 62
9
  6
CONTINUOUS
 10
9.8104024253
 20
3.2192442376
 40
0.5417503912
100
AcDbArc
 50
8.9016077878
 51
9.6032170191
  0
ARC
  5
224
100
AcDbEntity
  8
0
100
AcDbCircle
 62
9
  6
CONTINUOUS
 10
9.7313160416
 20
3.2192442376
 40
0.5417503912
100
AcDbArc
 50
170.396782981
 51
171.0983922123
  0
ARC
  5
225
100
AcDbEntity
  8
0
100
AcDbCircle
 62
9
  6
CONTINUOUS
 10
9.8121849006
 20
3.2194915798
 40
0.5399511125
100
AcDbArc
 50
0.5263306492
 51
8.90494544
  0
ARC
  5
226
100
AcDbEntity
  8
0
100
AcDbCircle
 62
9
  6
CONTINUOUS
 10
9.7281691429
 20
3.2196041308
 40
0.5385857221
100
AcDbArc
 50
171.0844150381
 51
179.4843088727
  0
ARC
  5
227
100
AcDbEntity
  8
0
100
AcDbCircle
 62
9
  6
CONTINUOUS
 10
9.7227062986
 20
3.2197205025
 40
0.5331220559
100
AcDbArc
 50
179.4915309247
 51
179.9999203489
  0
ARC
  5
228
100
AcDbEntity
  8
0
100
AcDbCircle
 62
9
  6
CONTINUOUS
 10
9.8190121684
 20
3.2197205025
 40
0.5331220558
100
AcDbArc
 50
0.0000796511
 51
0.5084690753
  0
ARC
  5
229
100
AcDbEntity
  8
0
100
AcDbCircle
 62
9
  6
CONTINUOUS
 10
9.7294490995
 20
3.3025170438
 40
0.5285898795
100
AcDbArc
 50
180.0128978334
 51
188.5540962442
  0
ARC
  5
22A
100
AcDbEntity
  8
0
100
AcDbCircle
 62
7
  6
CONTINUOUS
 10
9.7708592335
 20
11.8619939986
 40
1.1220472441
100
AcDbArc
 50
300.7117902112
 51
306.5929152634
  0
ARC
  5
22B
100
AcDbEntity
  8
0
100
AcDbCircle
 62
7
  6
CONTINUOUS
 10
9.7708592335
 20
11.8619939986
 40
1.1220472441
100
AcDbArc
 50
53.4070847366
 51
239.2882097888
  0
ARC
  5
22C
100
AcDbEntity
  8
0
100
AcDbCircle
 62
9
  6
CONTINUOUS
 10
9.7708592335
 20
11.8619939986
 40
1.0920472441
100
AcDbArc
 50
301.6588822227
 51
304.2285077525
  0
ARC
  5
22D
100
AcDbEntity
  8
0
100
AcDbCircle
 62
9
  6
CONTINUOUS
 10
9.7708592335
 20
11.8619939986
 40
1.0920472441
100
AcDbArc
 50
55.7177482381
 51
238.3520263533
  0
ARC
  5
22E
100
AcDbEntity
  8
0
100
AcDbCircle
 62
9
  6
CONTINUOUS
 10
9.7708592335
 20
11.8619939986
 40
1.0733070866
100
AcDbArc
 50
302.3091148929
 51
302.4669569619
  0
ARC
  5
22F
100
AcDbEntity
  8
0
100
AcDbCircle
 62
9
  6
CONTINUOUS
 10
9.7708592335
 20
11.8619939986
 40
1.0733070866
100
AcDbArc
 50
57.5383552326
 51
237.6862348813
  0
ARC
  5
230
100
AcDbEntity
  8
0
100
AcDbCircle
 62
7
  6
CONTINUOUS
 10
9.7708592335
 20
11.8619939986
 40
1.045
100
AcDbArc
 50
303.2798760494
 51
236.7201239506
  0
ARC
  5
231
100
AcDbEntity
  8
0
100
AcDbCircle
 62
9
  6
CONTINUOUS
 10
9.7708592335
 20
11.8619939986
 40
1.025
100
AcDbArc
 50
304.0176640778
 51
235.9931916586
  0
ARC
  5
232
100
AcDbEntity
  8
0
100
AcDbCircle
 62
9
  6
CONTINUOUS
 10
9.7708592335
 20
11.8619939986
 40
0.985
100
AcDbArc
 50
305.5291526321
 51
234.4434985252
  0
ARC
  5
233
100
AcDbEntity
  8
0
100
AcDbCircle
 62
7
  6
CONTINUOUS
 10
9.7708592335
 20
11.8619939986
 40
0.965
100
AcDbArc
 50
306.3461678968
 51
233.6501716197
  0
ARC
  5
234
100
AcDbEntity
  8
0
100
AcDbCircle
 62
9
  6
CONTINUOUS
 10
9.7708592335
 20
11.8619939986
 40
0.945
100
AcDbArc
 50
307.2129961063
 51
232.8078999097
  0
ARC
  5
235
100
AcDbEntity
  8
0
100
AcDbCircle
 62
9
  6
CONTINUOUS
 10
9.9597626474
 20
11.8630145441
 40
0.8610966348
100
AcDbArc
 50
344.902354483
 51
359.9320947792
  0
ARC
  5
236
100
AcDbEntity
  8
0
100
AcDbCircle
 62
9
  6
CONTINUOUS
 10
9.9597770465
 20
11.8609757693
 40
0.8610821676
100
AcDbArc
 50
0.0677522334
 51
15.0968047996
  0
ARC
  5
237
100
AcDbEntity
  8
0
100
AcDbCircle
 62
7
  6
CONTINUOUS
 10
9.7708592335
 20
11.8619939986
 40
0.64
100
AcDbArc
 50
333.1331432351
 51
206.7951743581
  0
ARC
  5
238
100
AcDbEntity
  8
0
100
AcDbCircle
 62
9
  6
CONTINUOUS
 10
9.7708592335
 20
11.8619939986
 40
0.61
100
AcDbArc
 50
340.2359184638
 51
199.7596945081
  0
ARC
  5
239
100
AcDbEntity
  8
0
100
AcDbCircle
 62
7
  6
CONTINUOUS
 10
9.7708592335
 20
11.8619939986
 40
0.57
100
AcDbArc
 50
0.0
 51
180.0
  0
ARC
  5
23A
100
AcDbEntity
  8
0
100
AcDbCircle
 62
7
  6
CONTINUOUS
 10
11.6658592335
 20
10.9919939986
 40
0.03
100
AcDbArc
 50
270.0
 51
360.0
  0
ARC
  5
23B
100
AcDbEntity
  8
0
100
AcDbCircle
 62
7
  6
CONTINUOUS
 10
11.7558592335
 20
10.9819939986
 40
0.02
100
AcDbArc
 50
180.0
 51
270.0
  0
ARC
  5
23C
100
AcDbEntity
  8
0
100
AcDbCircle
 62
7
  6
CONTINUOUS
 10
11.6658592335
 20
12.7319939986
 40
0.03
100
AcDbArc
 50
0.0
 51
90.0
  0
ARC
  5
23D
100
AcDbEntity
  8
0
100
AcDbCircle
 62
7
  6
CONTINUOUS
 10
11.7558592335
 20
12.7419939986
 40
0.02
100
AcDbArc
 50
90.0
 51
180.0
  0
ARC
  5
23E
100
AcDbEntity
  8
0
100
AcDbCircle
 62
9
  6
CONTINUOUS
 10
12.9475179201
 20
11.8613693794
 40
0.4376677875
100
AcDbArc
 50
175.1844636266
 51
178.5743484777
  0
ARC
  5
23F
100
AcDbEntity
  8
0
100
AcDbCircle
 62
9
  6
CONTINUOUS
 10
12.9290648504
 20
11.8619641153
 40
0.4192056549
100
AcDbArc
 50
178.5928605772
 51
179.9959156545
  0
ARC
  5
240
100
AcDbEntity
  8
0
100
AcDbCircle
 62
7
  6
CONTINUOUS
 10
12.4658592335
 20
11.0619939986
 40
0.02
100
AcDbArc
 50
270.0
 51
360.0
  0
ARC
  5
241
100
AcDbEntity
  8
0
100
AcDbCircle
 62
7
  6
CONTINUOUS
 10
12.3958592335
 20
10.9819939986
 40
0.02
100
AcDbArc
 50
270.0
 51
360.0
  0
ARC
  5
242
100
AcDbEntity
  8
0
100
AcDbCircle
 62
7
  6
CONTINUOUS
 10
12.4658592335
 20
12.6619939986
 40
0.02
100
AcDbArc
 50
0.0
 51
90.0
  0
ARC
  5
243
100
AcDbEntity
  8
0
100
AcDbCircle
 62
7
  6
CONTINUOUS
 10
12.3958592335
 20
12.7419939986
 40
0.02
100
AcDbArc
 50
0.0
 51
90.0
  0
CIRCLE
  5
244
100
AcDbEntity
  8
0
100
AcDbCircle
 62
7
  6
CONTINUOUS
 10
12.9798592335
 20
11.8619939986
 40
0.46
  0
ARC
  5
245
100
AcDbEntity
  8
0
100
AcDbCircle
 62
7
  6
CONTINUOUS
 10
12.9798592335
 20
11.8619939986
 40
0.46
100
AcDbArc
 50
139.1367915987
 51
175.4727218187
  0
ARC
  5
246
100
AcDbEntity
  8
0
100
AcDbCircle
 62
7
  6
CONTINUOUS
 10
12.9798592335
 20
11.8619939986
 40
0.46
100
AcDbArc
 50
178.4697847425
 51
195.2112134241
  0
CIRCLE
  5
247
100
AcDbEntity
  8
0
100
AcDbCircle
 62
9
  6
CONTINUOUS
 10
12.9798592335
 20
11.8619939986
 40
0.45
  0
ARC
  5
248
100
AcDbEntity
  8
0
100
AcDbCircle
 62
9
  6
CONTINUOUS
 10
12.9384454445
 20
11.8621328817
 40
0.4285862764
100
AcDbArc
 50
180.018566678
 51
184.8654291099
  0
CIRCLE
  5
249
100
AcDbEntity
  8
0
100
AcDbCircle
 62
9
  6
CONTINUOUS
 10
12.9798592335
 20
11.8619939986
 40
0.39
  0
CIRCLE
  5
24A
100
AcDbEntity
  8
0
100
AcDbCircle
 62
7
  6
CONTINUOUS
 10
12.9798592335
 20
11.8619939986
 40
0.38
  0
ARC
  5
24B
100
AcDbEntity
  8
0
100
AcDbCircle
 62
7
  6
CONTINUOUS
 10
12.9798592335
 20
11.8619939986
 40
0.38
100
AcDbArc
 50
171.0416406625
 51
180.0
  0
CIRCLE
  5
24C
100
AcDbEntity
  8
0
100
AcDbCircle
 62
9
  6
CONTINUOUS
 10
12.9798592335
 20
11.8619939986
 40
0.37
  0
ARC
  5
24D
100
AcDbEntity
  8
0
100
AcDbCircle
 62
9
  6
CONTINUOUS
 10
12.9798592335
 20
11.8619939986
 40
0.31
100
AcDbArc
 50
270.0
 51
269.3733384373
  0
ARC
  5
24E
100
AcDbEntity
  8
0
100
AcDbCircle
 62
9
  6
CONTINUOUS
 10
12.9798592335
 20
11.8619939986
 40
0.31
100
AcDbArc
 50
269.3733384373
 51
270.0
  0
CIRCLE
  5
24F
100
AcDbEntity
  8
0
100
AcDbCircle
 62
7
  6
CONTINUOUS
 10
12.9798592335
 20
11.8619939986
 40
0.3
  0
CIRCLE
  5
250
100
AcDbEntity
  8
0
100
AcDbCircle
 62
9
  6
CONTINUOUS
 10
12.9798592335
 20
11.8619939986
 40
0.29
  0
SPLINE
  5
251
100
AcDbEntity
  8
0
100
AcDbSpline
 62
7
  6
CONTINUOUS
 70
0
 71
3
 72
11
 73
7
 74
0
 42
0.0000001
 43
0.0000001
 44
0.0000000001
 40
0.0
 40
0.0
 40
0.0
 40
0.0
 40
0.2493628072
 40
0.4991586446
 40
0.7492690229
 40
1.0
 40
1.0
 40
1.0
 40
1.0
 10
9.0961136971
 20
3.184581453
 30
0.0
 10
9.0969316103
 20
3.2133441208
 30
0.0
 10
9.1025072208
 20
3.2708824
 30
0.0
 10
9.122481514
 20
3.3552670825
 30
0.0
 10
9.1537645569
 20
3.4363124577
 30
0.0
 10
9.1817314329
 20
3.4871211538
 30
0.0
 10
9.197343626
 20
3.5114795173
 30
0.0
  0
SPLINE
  5
252
100
AcDbEntity
  8
0
100
AcDbSpline
 62
7
  6
CONTINUOUS
 70
0
 71
3
 72
11
 73
7
 74
0
 42
0.0000001
 43
0.0000001
 44
0.0000000001
 40
0.0
 40
0.0
 40
0.0
 40
0.0
 40
0.2507301723
 40
0.5008397844
 40
0.7506358228
 40
1.0
 40
1.0
 40
1.0
 40
1.0
 10
10.3443779416
 20
3.5114746646
 30
0.0
 10
10.3599895952
 20
3.4871165415
 30
0.0
 10
10.3879557399
 20
3.436308581
 30
0.0
 10
10.4192377542
 20
3.3552642662
 30
0.0
 10
10.4392115327
 20
3.2708806124
 30
0.0
 10
10.4447869349
 20
3.2133429351
 30
0.0
 10
10.4456047971
 20
3.1845805062
 30
0.0
  0
SPLINE
  5
253
100
AcDbEntity
  8
0
100
AcDbSpline
 62
7
  6
CONTINUOUS
 70
0
 71
3
 72
39
 73
35
 74
0
 42
0.0000001
 43
0.0000001
 44
0.0000000001
 40
0.0
 40
0.0
 40
0.0
 40
0.0
 40
0.0306854255
 40
0.0614403747
 40
0.0922333961
 40
0.1230683214
 40
0.153972661
 40
0.1849693167
 40
0.2160662602
 40
0.2472655862
 40
0.2785698001
 40
0.309976088
 40
0.3414796487
 40
0.3730702435
 40
0.4047341656
 40
0.4364566286
 40
0.4682182753
 40
0.5000006157
 40
0.5317829512
 40
0.5635445583
 40
0.5952669642
 40
0.6269308147
 40
0.65852131
 40
0.6900247698
 40
0.7214309396
 40
0.7527350305
 40
0.7839342356
 40
0.8150310638
 40
0.8460276237
 40
0.8769318705
 40
0.907766705
 40
0.9385596585
 40
0.9693145808
 40
1.0
 40
1.0
 40
1.0
 40
1.0
 10
10.4458592335
 20
2.6313941483
 30
0.0
 10
10.4458592335
 20
2.6100999484
 30
0.0
 10
10.4436658762
 20
2.5674324599
 30
0.0
 10
10.4339183005
 20
2.5040680473
 30
0.0
 10
10.4177579029
 20
2.4419127776
 30
0.0
 10
10.3953413062
 20
2.3816235465
 30
0.0
 10
10.3669209981
 20
2.323763595
 30
0.0
 10
10.3327407864
 20
2.2688958489
 30
0.0
 10
10.2931766293
 20
2.2175173082
 30
0.0
 10
10.2485774328
 20
2.170149479
 30
0.0
 10
10.1993921927
 20
2.1272395267
 30
0.0
 10
10.1461045016
 20
2.089180941
 30
0.0
 10
10.0892083167
 20
2.0563675078
 30
0.0
 10
10.0292761115
 20
2.0290656614
 30
0.0
 10
9.9668627999
 20
2.0075742903
 30
0.0
 10
9.9025783276
 20
1.9920742015
 30
0.0
 10
9.837034898
 20
1.9827056016
 30
0.0
 10
9.7708579446
 20
1.9795892253
 30
0.0
 10
9.7046810474
 20
1.9827059394
 30
0.0
 10
9.639137682
 20
1.992074538
 30
0.0
 10
9.5748534384
 20
2.0075750742
 30
0.0
 10
9.5124402815
 20
2.0290663864
 30
0.0
 10
9.4525083624
 20
2.0563684296
 30
0.0
 10
9.3956125023
 20
2.0891819623
 30
0.0
 10
9.3423250094
 20
2.1272404233
 30
0.0
 10
9.2931401509
 20
2.1701504294
 30
0.0
 10
9.2485411168
 20
2.217518062
 30
0.0
 10
9.2089772119
 20
2.2688965125
 30
0.0
 10
9.1747972081
 20
2.3237641336
 30
0.0
 10
9.1463769868
 20
2.3816239112
 30
0.0
 10
9.1239605035
 20
2.4419129982
 30
0.0
 10
9.1078001393
 20
2.5040681418
 30
0.0
 10
9.0980525875
 20
2.5674324876
 30
0.0
 10
9.0958592335
 20
2.6100999527
 30
0.0
 10
9.0958592335
 20
2.6313941483
 30
0.0
  0
SPLINE
  5
254
100
AcDbEntity
  8
0
100
AcDbSpline
 62
7
  6
CONTINUOUS
 70
0
 71
3
 72
9
 73
5
 74
0
 42
0.0000001
 43
0.0000001
 44
0.0000000001
 40
0.0
 40
0.0
 40
0.0
 40
0.0
 40
0.236699836
 40
1.0
 40
1.0
 40
1.0
 40
1.0
 10
12.6244105733
 20
11.5644939986
 30
0.0
 10
12.6250769678
 20
11.5644939986
 30
0.0
 10
12.6278800663
 20
11.5641655029
 30
0.0
 10
12.6305673408
 20
11.5626617555
 30
0.0
 10
12.6319733108
 20
11.5610365518
 30
0.0
  0
SPLINE
  5
255
100
AcDbEntity
  8
0
100
AcDbSpline
 62
7
  6
CONTINUOUS
 70
0
 71
3
 72
9
 73
5
 74
0
 42
0.0000001
 43
0.0000001
 44
0.0000000001
 40
0.0
 40
0.0
 40
0.0
 40
0.0
 40
0.2366998361
 40
1.0
 40
1.0
 40
1.0
 40
1.0
 10
12.6244105733
 20
12.1594939986
 30
0.0
 10
12.6250769678
 20
12.1594939986
 30
0.0
 10
12.6278800663
 20
12.1598224942
 30
0.0
 10
12.6305673408
 20
12.1613262416
 30
0.0
 10
12.6319733108
 20
12.1629514454
 30
0.0
  0
SPLINE
  5
256
100
AcDbEntity
  8
0
100
AcDbSpline
 62
9
  6
CONTINUOUS
 70
0
 71
3
 72
37
 73
33
 74
0
 42
0.0000001
 43
0.0000001
 44
0.0000000001
 40
0.0
 40
0.0
 40
0.0
 40
0.0
 40
0.0612295216
 40
0.0919649767
 40
0.1227499139
 40
0.1536143759
 40
0.1845835081
 40
0.2156661731
 40
0.2468650922
 40
0.2781827053
 40
0.3096156577
 40
0.341158367
 40
0.3727989984
 40
0.404522155
 40
0.436311002
 40
0.4681438864
 40
0.5
 40
0.5318561136
 40
0.563688998
 40
0.595477845
 40
0.6272010016
 40
0.658841633
 40
0.6903843423
 40
0.7218172947
 40
0.7531349078
 40
0.7843338269
 40
0.8154164919
 40
0.8463856241
 40
0.8772500861
 40
0.9080350233
 40
0.9387704784
 40
1.0
 40
1.0
 40
1.0
 40
1.0
 10
10.3521342242
 20
3.2197212436
 30
0.0
 10
10.3521342242
 20
3.1831773721
 30
0.0
 10
10.3464686642
 20
3.1280786092
 30
0.0
 10
10.3279858625
 20
3.0570996241
 30
0.0
 10
10.3087156324
 20
3.0053288584
 30
0.0
 10
10.2842798605
 20
2.9556433933
 30
0.0
 10
10.2548833615
 20
2.9085108836
 30
0.0
 10
10.2208459058
 20
2.8643625675
 30
0.0
 10
10.1824647847
 20
2.8236469262
 30
0.0
 10
10.1401232462
 20
2.7867516631
 30
0.0
 10
10.0942363555
 20
2.7540174099
 30
0.0
 10
10.0452283171
 20
2.7257867448
 30
0.0
 10
9.9935925328
 20
2.7022918473
 30
0.0
 10
9.9398080729
 20
2.6837933848
 30
0.0
 10
9.884402342
 20
2.6704497196
 30
0.0
 10
9.8279054055
 20
2.6623835138
 30
0.0
 10
9.7708592335
 20
2.6597002939
 30
0.0
 10
9.7138130614
 20
2.6623835138
 30
0.0
 10
9.6573161249
 20
2.6704497196
 30
0.0
 10
9.6019103941
 20
2.6837933848
 30
0.0
 10
9.5481259342
 20
2.7022918473
 30
0.0
 10
9.4964901499
 20
2.7257867448
 30
0.0
 10
9.4474821115
 20
2.7540174099
 30
0.0
 10
9.4015952208
 20
2.7867516631
 30
0.0
 10
9.3592536822
 20
2.8236469262
 30
0.0
 10
9.3208725612
 20
2.8643625675
 30
0.0
 10
9.2868351055
 20
2.9085108836
 30
0.0
 10
9.2574386064
 20
2.9556433933
 30
0.0
 10
9.2330028345
 20
3.0053288584
 30
0.0
 10
9.2137326044
 20
3.0570996241
 30
0.0
 10
9.1952498027
 20
3.1280786092
 30
0.0
 10
9.1895842427
 20
3.1831773721
 30
0.0
 10
9.1895842427
 20
3.2197212436
 30
0.0
  0
SPLINE
  5
257
100
AcDbEntity
  8
0
100
AcDbSpline
 62
7
  6
CONTINUOUS
 70
0
 71
3
 72
19
 73
15
 74
0
 42
0.0000001
 43
0.0000001
 44
0.0000000001
 40
0.0
 40
0.0
 40
0.0
 40
0.0
 40
0.1224968738
 40
0.1840091438
 40
0.2456145884
 40
0.3073700204
 40
0.3693286874
 40
0.4937961506
 40
0.6192104012
 40
0.6823129488
 40
0.7456084392
 40
0.8090909347
 40
0.8727470398
 40
1.0
 40
1.0
 40
1.0
 40
1.0
 10
9.2008592335
 20
3.2230989343
 30
0.0
 10
9.2008592335
 20
3.1872687343
 30
0.0
 10
9.2064244576
 20
3.1332414019
 30
0.0
 10
9.2245351968
 20
3.0636336687
 30
0.0
 10
9.2434376572
 20
3.012863313
 30
0.0
 10
9.2674002735
 20
2.9641380838
 30
0.0
 10
9.3058652552
 20
2.9024528733
 30
0.0
 10
9.365504047
 20
2.8325973464
 30
0.0
 10
9.4379086132
 20
2.775574803
 30
0.0
 10
9.5017996102
 20
2.7387388415
 30
0.0
 10
9.5524376856
 20
2.7157144091
 30
0.0
 10
9.6051919098
 20
2.6975542588
 30
0.0
 10
9.6776116495
 20
2.6801359525
 30
0.0
 10
9.7336378834
 20
2.6748130032
 30
0.0
 10
9.7708592335
 20
2.6748130032
 30
0.0
  0
SPLINE
  5
258
100
AcDbEntity
  8
0
100
AcDbSpline
 62
9
  6
CONTINUOUS
 70
0
 71
3
 72
20
 73
16
 74
0
 42
0.0000001
 43
0.0000001
 44
0.0000000001
 40
0.0
 40
0.0
 40
0.0
 40
0.0
 40
0.0613133451
 40
0.1226752324
 40
0.1841279716
 40
0.2457167547
 40
0.3074756173
 40
0.3694328813
 40
0.493876684
 40
0.6192705273
 40
0.682363533
 40
0.7456490148
 40
0.8091213242
 40
0.8727672668
 40
1.0
 40
1.0
 40
1.0
 40
1.0
 10
10.3408592335
 20
3.3023980531
 30
0.0
 10
10.3408592335
 20
3.2844611153
 30
0.0
 10
10.3390153693
 20
3.2485465644
 30
0.0
 10
10.3307939966
 20
3.1952227864
 30
0.0
 10
10.3171761494
 20
3.1429252539
 30
0.0
 10
10.2982772878
 20
3.0921768492
 30
0.0
 10
10.2743193595
 20
3.0434421121
 30
0.0
 10
10.2358577471
 20
2.9817490602
 30
0.0
 10
10.1762123044
 20
2.9118966161
 30
0.0
 10
10.1038094826
 20
2.8548748288
 30
0.0
 10
10.0399190479
 20
2.8180376583
 30
0.0
 10
9.989280836
 20
2.7950131706
 30
0.0
 10
9.9365265298
 20
2.7768533188
 30
0.0
 10
9.864106789
 20
2.7594352291
 30
0.0
 10
9.8080805858
 20
2.754112122
 30
0.0
 10
9.7708592335
 20
2.754112122
 30
0.0
  0
SPLINE
  5
259
100
AcDbEntity
  8
0
100
AcDbSpline
 62
9
  6
CONTINUOUS
 70
0
 71
3
 72
20
 73
16
 74
0
 42
0.0000001
 43
0.0000001
 44
0.0000000001
 40
0.0
 40
0.0
 40
0.0
 40
0.0
 40
0.1269934337
 40
0.1905426351
 40
0.2539445819
 40
0.3801228566
 40
0.5055763077
 40
0.5680518466
 40
0.6303096032
 40
0.6923556459
 40
0.7541988535
 40
0.815859573
 40
0.8773612796
 40
0.9387294483
 40
1.0
 40
1.0
 40
1.0
 40
1.0
 10
9.7708592335
 20
2.754112122
 30
0.0
 10
9.7370353825
 20
2.754112122
 30
0.0
 10
9.6861484608
 20
2.7585094978
 30
0.0
 10
9.6200004251
 20
2.7729045379
 30
0.0
 10
9.5555387462
 20
2.7929147654
 30
0.0
 10
9.4788778
 20
2.8281110689
 30
0.0
 10
9.409724585
 20
2.8760134567
 30
0.0
 10
9.3603908404
 20
2.9209173627
 30
0.0
 10
9.326701351
 20
2.9576154839
 30
0.0
 10
9.2965333244
 20
2.9970427212
 30
0.0
 10
9.2701330578
 20
3.0389014814
 30
0.0
 10
9.2477302854
 20
3.0828658907
 30
0.0
 10
9.2294698975
 20
3.1285710586
 30
0.0
 10
9.215516919
 20
3.1756585202
 30
0.0
 10
9.2091658539
 20
3.2077553413
 30
0.0
 10
9.2067393241
 20
3.2238929296
 30
0.0
  0
SPLINE
  5
25A
100
AcDbEntity
  8
0
100
AcDbSpline
 62
9
  6
CONTINUOUS
 70
0
 71
3
 72
39
 73
35
 74
0
 42
0.0000001
 43
0.0000001
 44
0.0000000001
 40
0.0
 40
0.0
 40
0.0
 40
0.0
 40
0.0306124225
 40
0.0612990344
 40
0.0920296201
 40
0.1228096802
 40
0.1536692525
 40
0.1846334784
 40
0.2157112191
 40
0.2469051954
 40
0.278217847
 40
0.3096458196
 40
0.3411835317
 40
0.3728191504
 40
0.4045372812
 40
0.436321092
 40
0.4681489333
 40
0.5
 40
0.5318510667
 40
0.563678908
 40
0.5954627188
 40
0.6271808496
 40
0.6588164683
 40
0.6903541804
 40
0.721782153
 40
0.7530948046
 40
0.784288781
 40
0.8153665216
 40
0.8463307475
 40
0.8771903198
 40
0.9079703799
 40
0.9387009656
 40
0.9693875775
 40
1.0
 40
1.0
 40
1.0
 40
1.0
 10
9.0958592335
 20
2.6313941483
 30
0.0
 10
9.0958592335
 20
2.6101742972
 30
0.0
 10
9.098047855
 20
2.5676523638
 30
0.0
 10
9.1077746095
 20
2.5045000058
 30
0.0
 10
9.1239021775
 20
2.4425431464
 30
0.0
 10
9.1462784168
 20
2.3824352572
 30
0.0
 10
9.1746545262
 20
2.324735687
 30
0.0
 10
9.2087908466
 20
2.270004267
 30
0.0
 10
9.2483165372
 20
2.2187372558
 30
0.0
 10
9.2928862394
 20
2.1714566632
 30
0.0
 10
9.3420549459
 20
2.1286123786
 30
0.0
 10
9.3953406567
 20
2.0906000455
 30
0.0
 10
9.4522507707
 20
2.0578174557
 30
0.0
 10
9.5122123292
 20
2.0305342319
 30
0.0
 10
9.5746690167
 20
2.00905307
 30
0.0
 10
9.6390083894
 20
1.993557867
 30
0.0
 10
9.7046149143
 20
1.984191063
 30
0.0
 10
9.7708592337
 20
1.9810751997
 30
0.0
 10
9.837103553
 20
1.9841910631
 30
0.0
 10
9.9027100779
 20
1.9935578671
 30
0.0
 10
9.9670494506
 20
2.0090530701
 30
0.0
 10
10.0295061381
 20
2.0305342321
 30
0.0
 10
10.0894676966
 20
2.0578174558
 30
0.0
 10
10.1463778106
 20
2.0906000457
 30
0.0
 10
10.1996635213
 20
2.1286123788
 30
0.0
 10
10.2488322278
 20
2.1714566634
 30
0.0
 10
10.29340193
 20
2.2187372561
 30
0.0
 10
10.3329276206
 20
2.2700042673
 30
0.0
 10
10.3670639409
 20
2.3247356873
 30
0.0
 10
10.3954400503
 20
2.3824352576
 30
0.0
 10
10.4178162896
 20
2.4425431468
 30
0.0
 10
10.4339438575
 20
2.5045000061
 30
0.0
 10
10.443670612
 20
2.5676523641
 30
0.0
 10
10.4458592335
 20
2.6101742976
 30
0.0
 10
10.4458592335
 20
2.6313941487
 30
0.0
  0
SPLINE
  5
25B
100
AcDbEntity
  8
0
100
AcDbSpline
 62
9
  6
CONTINUOUS
 70
0
 71
3
 72
22
 73
18
 74
0
 42
0.0000001
 43
0.0000001
 44
0.0000000001
 40
0.0
 40
0.0
 40
0.0
 40
0.0
 40
0.0011467041
 40
0.0045639077
 40
0.0102181662
 40
0.0180761016
 40
0.0281044046
 40
0.0402698361
 40
0.0708794523
 40
0.1096405611
 40
0.1562900186
 40
0.210566036
 40
0.2722082661
 40
0.4165566155
 40
0.5872855905
 40
0.7823817053
 40
1.0
 40
1.0
 40
1.0
 40
1.0
 10
12.6244105363
 20
12.1594939986
 30
0.0
 10
12.624402129
 20
12.1594789612
 30
0.0
 10
12.6243469828
 20
12.1594349848
 30
0.0
 10
12.6242501787
 20
12.1593169277
 30
0.0
 10
12.6240727503
 20
12.1591337137
 30
0.0
 10
12.6238350136
 20
12.1588722199
 30
0.0
 10
12.6235293138
 20
12.1585398207
 30
0.0
 10
12.6229957332
 20
12.1579528182
 30
0.0
 10
12.6221757878
 20
12.1570426514
 30
0.0
 10
12.6210181687
 20
12.1557394742
 30
0.0
 10
12.6196351879
 20
12.1541609366
 30
0.0
 10
12.6180389443
 20
12.1523122884
 30
0.0
 10
12.6155054418
 20
12.1493337644
 30
0.0
 10
12.6118904843
 20
12.1449784598
 30
0.0
 10
12.6070917195
 20
12.1390012451
 30
0.0
 10
12.601723344
 20
12.1320712343
 30
0.0
 10
12.5980209638
 20
12.1270966528
 30
0.0
 10
12.5960960538
 20
12.1244538681
 30
0.0
  0
SPLINE
  5
25C
100
AcDbEntity
  8
0
100
AcDbSpline
 62
9
  6
CONTINUOUS
 70
0
 71
3
 72
14
 73
10
 74
0
 42
0.0000001
 43
0.0000001
 44
0.0000000001
 40
0.0
 40
0.0
 40
0.0
 40
0.0
 40
0.1943560144
 40
0.3088638235
 40
0.432685285
 40
0.564747571
 40
0.7042452057
 40
0.8500346455
 40
1.0
 40
1.0
 40
1.0
 40
1.0
 10
12.5960960538
 20
12.1244538681
 30
0.0
 10
12.5867633012
 20
12.1116405647
 30
0.0
 10
12.5729245334
 20
12.0905224692
 30
0.0
 10
12.5561223802
 20
12.059467815
 30
0.0
 10
12.5435179766
 20
12.0319865422
 30
0.0
 10
12.5321473298
 20
12.0017798424
 30
0.0
 10
12.5226158079
 20
11.9690643533
 30
0.0
 10
12.5154316792
 20
11.9342633462
 30
0.0
 10
12.512420513
 20
11.9102989781
 30
0.0
 10
12.5113950419
 20
11.8981107367
 30
0.0
  0
SPLINE
  5
25D
100
AcDbEntity
  8
0
100
AcDbSpline
 62
9
  6
CONTINUOUS
 70
0
 71
3
 72
14
 73
10
 74
0
 42
0.0000001
 43
0.0000001
 44
0.0000000001
 40
0.0
 40
0.0
 40
0.0
 40
0.0
 40
0.1499781528
 40
0.2957811511
 40
0.435285678
 40
0.5673483465
 40
0.6911648322
 40
0.8056633194
 40
1.0
 40
1.0
 40
1.0
 40
1.0
 10
12.5114035131
 20
11.8257820208
 30
0.0
 10
12.5124314109
 20
11.8135978426
 30
0.0
 10
12.5154464609
 20
11.7896415624
 30
0.0
 10
12.5226338104
 20
11.754852973
 30
0.0
 10
12.53216675
 20
11.7221503268
 30
0.0
 10
12.5435366285
 20
11.6919569407
 30
0.0
 10
12.5561382476
 20
11.6644889565
 30
0.0
 10
12.5729343846
 20
11.6334502398
 30
0.0
 10
12.5867666402
 20
11.6123428074
 30
0.0
 10
12.5960947181
 20
11.5995358872
 30
0.0
  0
SPLINE
  5
25E
100
AcDbEntity
  8
0
100
AcDbSpline
 62
9
  6
CONTINUOUS
 70
0
 71
3
 72
13
 73
9
 74
0
 42
0.0000001
 43
0.0000001
 44
0.0000000001
 40
0.0
 40
0.0
 40
0.0
 40
0.0
 40
0.4126960285
 40
0.7277736362
 40
0.8436980196
 40
0.9291144599
 40
0.98192218
 40
1.0
 40
1.0
 40
1.0
 40
1.0
 10
12.5960947181
 20
11.5995358872
 30
0.0
 10
12.5997452157
 20
11.5945239616
 30
0.0
 10
12.6063548389
 20
11.5858094779
 30
0.0
 10
12.6143587854
 20
11.5759774262
 30
0.0
 10
12.6194020755
 20
11.5700808116
 30
0.0
 10
12.6219297822
 20
11.567218849
 30
0.0
 10
12.6234976419
 20
11.5654703447
 30
0.0
 10
12.6242277797
 20
11.5646949258
 30
0.0
 10
12.6244105305
 20
11.5644939986
 30
0.0
  0
SPLINE
  5
25F
100
AcDbEntity
  8
0
100
AcDbSpline
 62
9
  6
CONTINUOUS
 70
0
 71
3
 72
39
 73
35
 74
0
 42
0.0000001
 43
0.0000001
 44
0.0000000001
 40
0.0
 40
0.0
 40
0.0
 40
0.0
 40
0.0306124225
 40
0.0612990344
 40
0.0920296201
 40
0.1228096802
 40
0.1536692525
 40
0.1846334784
 40
0.215711219
 40
0.2469051954
 40
0.278217847
 40
0.3096458196
 40
0.3411835317
 40
0.3728191504
 40
0.4045372812
 40
0.436321092
 40
0.4681489333
 40
0.5
 40
0.5318510667
 40
0.563678908
 40
0.5954627188
 40
0.6271808496
 40
0.6588164683
 40
0.6903541804
 40
0.721782153
 40
0.7530948046
 40
0.784288781
 40
0.8153665216
 40
0.8463307475
 40
0.8771903198
 40
0.9079703799
 40
0.9387009656
 40
0.9693875775
 40
1.0
 40
1.0
 40
1.0
 40
1.0
 10
10.4458592335
 20
3.1666973028
 30
0.0
 10
10.4458592335
 20
3.1454774517
 30
0.0
 10
10.443670612
 20
3.1029555183
 30
0.0
 10
10.4339438575
 20
3.0398031603
 30
0.0
 10
10.4178162895
 20
2.9778463009
 30
0.0
 10
10.3954400503
 20
2.9177384116
 30
0.0
 10
10.3670639409
 20
2.8600388414
 30
0.0
 10
10.3329276205
 20
2.8053074214
 30
0.0
 10
10.29340193
 20
2.7540404101
 30
0.0
 10
10.2488322278
 20
2.7067598175
 30
0.0
 10
10.1996635212
 20
2.6639155329
 30
0.0
 10
10.1463778105
 20
2.6259031998
 30
0.0
 10
10.0894676965
 20
2.5931206099
 30
0.0
 10
10.029506138
 20
2.5658373862
 30
0.0
 10
9.9670494505
 20
2.5443562242
 30
0.0
 10
9.9027100777
 20
2.5288610212
 30
0.0
 10
9.8371035529
 20
2.5194942172
 30
0.0
 10
9.7708592335
 20
2.5163783539
 30
0.0
 10
9.7046149141
 20
2.5194942172
 30
0.0
 10
9.6390083892
 20
2.5288610212
 30
0.0
 10
9.5746690165
 20
2.5443562242
 30
0.0
 10
9.512212329
 20
2.5658373862
 30
0.0
 10
9.4522507704
 20
2.5931206099
 30
0.0
 10
9.3953406564
 20
2.6259031998
 30
0.0
 10
9.3420549457
 20
2.6639155329
 30
0.0
 10
9.2928862392
 20
2.7067598175
 30
0.0
 10
9.248316537
 20
2.7540404101
 30
0.0
 10
9.2087908464
 20
2.8053074214
 30
0.0
 10
9.1746545261
 20
2.8600388414
 30
0.0
 10
9.1462784166
 20
2.9177384116
 30
0.0
 10
9.1239021774
 20
2.9778463009
 30
0.0
 10
9.1077746094
 20
3.0398031603
 30
0.0
 10
9.098047855
 20
3.1029555183
 30
0.0
 10
9.0958592335
 20
3.1454774517
 30
0.0
 10
9.0958592335
 20
3.1666973028
 30
0.0
  0
SPLINE
  5
260
100
AcDbEntity
  8
0
100
AcDbSpline
 62
9
  6
CONTINUOUS
 70
0
 71
3
 72
37
 73
33
 74
0
 42
0.0000001
 43
0.0000001
 44
0.0000000001
 40
0.0
 40
0.0
 40
0.0
 40
0.0
 40
0.0612295216
 40
0.0919649767
 40
0.1227499139
 40
0.1536143759
 40
0.1845835081
 40
0.2156661731
 40
0.2468650922
 40
0.2781827053
 40
0.3096156577
 40
0.341158367
 40
0.3727989984
 40
0.404522155
 40
0.436311002
 40
0.4681438864
 40
0.5
 40
0.5318561136
 40
0.563688998
 40
0.595477845
 40
0.6272010016
 40
0.658841633
 40
0.6903843423
 40
0.7218172947
 40
0.7531349078
 40
0.7843338269
 40
0.8154164919
 40
0.8463856241
 40
0.8772500861
 40
0.9080350233
 40
0.9387704784
 40
1.0
 40
1.0
 40
1.0
 40
1.0
 10
9.1116682358
 20
3.1828269249
 30
0.0
 10
9.1116682358
 20
3.141384593
 30
0.0
 10
9.1180932261
 20
3.0789002111
 30
0.0
 10
9.1390535232
 20
2.99840697
 30
0.0
 10
9.1609067981
 20
2.939696681
 30
0.0
 10
9.1886180211
 20
2.8833512131
 30
0.0
 10
9.2219549233
 20
2.8299009072
 30
0.0
 10
9.2605548713
 20
2.7798348059
 30
0.0
 10
9.3040807237
 20
2.7336615064
 30
0.0
 10
9.3520978609
 20
2.6918206813
 30
0.0
 10
9.4041355811
 20
2.6546986214
 30
0.0
 10
9.4597128177
 20
2.6226838252
 30
0.0
 10
9.518270032
 20
2.5960395946
 30
0.0
 10
9.5792639373
 20
2.5750615375
 30
0.0
 10
9.6420964341
 20
2.5599292437
 30
0.0
 10
9.7061664053
 20
2.5507818172
 30
0.0
 10
9.7708592335
 20
2.5477389297
 30
0.0
 10
9.8355520616
 20
2.5507818172
 30
0.0
 10
9.8996220328
 20
2.5599292437
 30
0.0
 10
9.9624545296
 20
2.5750615375
 30
0.0
 10
10.023448435
 20
2.5960395946
 30
0.0
 10
10.0820056492
 20
2.6226838252
 30
0.0
 10
10.1375828859
 20
2.6546986214
 30
0.0
 10
10.189620606
 20
2.6918206813
 30
0.0
 10
10.2376377433
 20
2.7336615064
 30
0.0
 10
10.2811635957
 20
2.7798348059
 30
0.0
 10
10.3197635436
 20
2.8299009072
 30
0.0
 10
10.3531004459
 20
2.8833512131
 30
0.0
 10
10.3808116688
 20
2.939696681
 30
0.0
 10
10.4026649438
 20
2.99840697
 30
0.0
 10
10.4236252409
 20
3.0789002111
 30
0.0
 10
10.4300502311
 20
3.141384593
 30
0.0
 10
10.4300502311
 20
3.1828269249
 30
0.0
  0
SPLINE
  5
261
100
AcDbEntity
  8
0
100
AcDbSpline
 62
9
  6
CONTINUOUS
 70
0
 71
3
 72
12
 73
8
 74
0
 42
0.0000001
 43
0.0000001
 44
0.0000000001
 40
0.0
 40
0.0
 40
0.0
 40
0.0
 40
0.2489978841
 40
0.4986815761
 40
0.6237557827
 40
0.7489883216
 40
1.0
 40
1.0
 40
1.0
 40
1.0
 10
10.4300502311
 20
3.1828269249
 30
0.0
 10
10.4300502311
 20
3.2102572174
 30
0.0
 10
10.4263073607
 20
3.2652584887
 30
0.0
 10
10.4124691877
 20
3.3327838858
 30
0.0
 10
10.3959994811
 20
3.385384981
 30
0.0
 10
10.3760030397
 20
3.4368956156
 30
0.0
 10
10.3571397872
 20
3.4739838516
 30
0.0
 10
10.3429985692
 20
3.4977465674
 30
0.0
  0
SPLINE
  5
262
100
AcDbEntity
  8
0
100
AcDbSpline
 62
9
  6
CONTINUOUS
 70
0
 71
3
 72
12
 73
8
 74
0
 42
0.0000001
 43
0.0000001
 44
0.0000000001
 40
0.0
 40
0.0
 40
0.0
 40
0.0
 40
0.2510116784
 40
0.3762442173
 40
0.5013184239
 40
0.7510021159
 40
1.0
 40
1.0
 40
1.0
 40
1.0
 10
9.1987198978
 20
3.4977465674
 30
0.0
 10
9.1845786797
 20
3.4739838516
 30
0.0
 10
9.1657154273
 20
3.4368956156
 30
0.0
 10
9.1457189858
 20
3.385384981
 30
0.0
 10
9.1292492793
 20
3.3327838858
 30
0.0
 10
9.1154111062
 20
3.2652584887
 30
0.0
 10
9.1116682358
 20
3.2102572174
 30
0.0
 10
9.1116682358
 20
3.1828269249
 30
0.0
  0
SPLINE
  5
263
100
AcDbEntity
  8
0
100
AcDbSpline
 62
7
  6
CONTINUOUS
 70
0
 71
3
 72
19
 73
15
 74
0
 42
0.0000001
 43
0.0000001
 44
0.0000000001
 40
0.0
 40
0.0
 40
0.0
 40
0.0
 40
0.1272529602
 40
0.1909090653
 40
0.2543915608
 40
0.3176870512
 40
0.3807895988
 40
0.5062038494
 40
0.6306713126
 40
0.6926299796
 40
0.7543854116
 40
0.8159908562
 40
0.8775031262
 40
1.0
 40
1.0
 40
1.0
 40
1.0
 10
9.7708592335
 20
2.6748130032
 30
0.0
 10
9.8080805835
 20
2.6748130032
 30
0.0
 10
9.8641068175
 20
2.6801359525
 30
0.0
 10
9.9365265572
 20
2.6975542588
 30
0.0
 10
9.9892807813
 20
2.7157144091
 30
0.0
 10
10.0399188568
 20
2.7387388415
 30
0.0
 10
10.1038098537
 20
2.775574803
 30
0.0
 10
10.17621442
 20
2.8325973464
 30
0.0
 10
10.2358532118
 20
2.9024528733
 30
0.0
 10
10.2743181935
 20
2.9641380838
 30
0.0
 10
10.2982808098
 20
3.012863313
 30
0.0
 10
10.3171832701
 20
3.0636336687
 30
0.0
 10
10.3352940093
 20
3.1332414019
 30
0.0
 10
10.3408592335
 20
3.1872687343
 30
0.0
 10
10.3408592335
 20
3.2230989343
 30
0.0
  0
ENDSEC
  0
SECTION
  2
OBJECTS
  0
DICTIONARY
  5
C
100
AcDbDictionary
280
0
281
1
  3
ACAD_GROUP
350
D
  3
ACAD_MLINESTYLE
350
17
  3
ACAD_LAYOUT
350
1A
  3
ACAD_PLOTSETTINGS
350
19
  3
ACAD_PLOTSTYLENAME
350
E
  0
DICTIONARY
  5
D
102
{ACAD_REACTORS
330
C
102
}
100
AcDbDictionary
280
0
281
1
  0
ACDBDICTIONARYWDFLT
  5
E
102
{ACAD_REACTORS
330
C
102
}
100
AcDbDictionary
281
1
  3
Normal
350
F
100
AcDbDictionaryWithDefault
340
F
  0
DICTIONARY
  5
17
102
{ACAD_REACTORS
330
C
102
}
100
AcDbDictionary
280
0
281
1
  3
Standard
350
18
  0
DICTIONARY
  5
19
102
{ACAD_REACTORS
330
C
102
}
100
AcDbDictionary
281
1
  0
DICTIONARY
  5
1A
102
{ACAD_REACTORS
330
C
102
}
100
AcDbDictionary
281
1
  3
Model
350
264
  3
Layout1
350
265
  0
ACDBPLACEHOLDER
  5
F
102
{ACAD_REACTORS
330
E
102
}
  0
MLINESTYLE
  5
18
102
{ACAD_REACTORS
330
17
102
}
100
AcDbMlineStyle
  2
STANDARD
 70
0
  3

 62
256
 51
90.0
 52
90.0
 71
2
 49
0.5
 62
256
  6
BYLAYER
 49
-0.5
 62
256
  6
BYLAYER
  0
LAYOUT
  5
264
102
{ACAD_REACTORS
330
1A
102
}
100
AcDbPlotSettings
  1

  2
none_device
  4
ANSI_C_(22.00_x_17.00_Inches)
  6

 40
0.0
 41
0.0
 42
0.0
 43
0.0
 44
558.8
 45
431.8
 46
0.0
 47
0.0
 48
0.0
 49
0.0
140
0.0
141
0.0
142
1.0
143
1.0
 70
1024
 72
0
 73
0
 74
0
  7

 75
0
147
1.0
148
0.0
149
0.0
100
AcDbLayout
  1
Model
 70
0
 71
0
 10
0.0
 20
0.0
 11
22.0
 21
17.0
 12
0.0
 22
0.0
 32
0.0
 14
0.0
 24
0.0
 34
0.0
 15
0.0
 25
0.0
 35
0.0
146
0.0
 13
0.0
 23
0.0
 33
0.0
 16
1.0
 26
0.0
 36
0.0
 17
0.0
 27
1.0
 37
0.0
 76
0
330
202
345
0
346
0
  0
LAYOUT
  5
265
102
{ACAD_REACTORS
330
1A
102
}
100
AcDbPlotSettings
  1

  2
none_device
  4
ANSI_C_(22.00_x_17.00_Inches)
  6

 40
0.0
 41
0.0
 42
0.0
 43
0.0
 44
558.8
 45
431.8
 46
0.0
 47
0.0
 48
0.0
 49
0.0
140
0.0
141
0.0
142
1.0
143
1.0
 70
0
 72
0
 73
0
 74
0
  7

 75
0
147
1.0
148
0.0
149
0.0
100
AcDbLayout
  1
Layout1
 70
0
 71
1
 10
0.0
 20
0.0
 11
22.0
 21
17.0
 12
0.0
 22
0.0
 32
0.0
 14
0.0
 24
0.0
 34
0.0
 15
0.0
 25
0.0
 35
0.0
146
0.0
 13
0.0
 23
0.0
 33
0.0
 16
1.0
 26
0.0
 36
0.0
 17
0.0
 27
1.0
 37
0.0
 76
0
330
203
345
0
346
0
  0
ENDSEC
  0
EOF
