999
DXF file: 3180-5173_TOP.dxf
999
Pro/ENGINEER 2023134 by Parametric Technology Corporation
  0
SECTION
  2
HEADER
  9
$ACADVER
  1
AC1032
  9
$DWGCODEPAGE
  3
ANSI_1252
  9
$EXTMAX
 10
11.0
 20
8.5
 30
0.0
  9
$EXTMIN
 10
0.0
 20
0.0
 30
0.0
  9
$LIMMIN
 10
0.0
 20
0.0
  9
$LIMMAX
 10
11.0
 20
8.5
  9
$VIEWCTR
 10
5.5
 20
4.25
  9
$VIEWSIZE
 40
8.5
  9
$CLAYER
  8
0
  9
$LTSCALE
 40
0.605
  9
$CELTYPE
  6
BYLAYER
  9
$DIMSCALE
 40
1.0
  9
$DIMASZ
 40
0.1
  9
$DIMEXO
 40
0.0625
  9
$DIMDLI
 40
0.418
  9
$DIMEXE
 40
0.125
  9
$DIMCEN
 40
0.099
  9
$DIMLFAC
 40
1.0
  9
$DIMBLK
  1
_FILLED
  9
$DIMALT
 70
1
  9
$DIMALTD
 70
2
  9
$DIMALTTD
 70
2
  9
$DIMALTF
 40
25.4
  9
$DIMTXT
 40
0.08
  9
$DIMTOL
 70
1
  9
$DIMLIM
 70
0
  9
$DIMTFAC
 40
1.0
  9
$DIMTP
 40
0.001
  9
$DIMTM
 40
0.001
  9
$DIMGAP
 40
0.09
  9
$DIMDSEP
 70
46
  9
$AUNITS
 70
0
  9
$PDMODE
 70
3
  9
$PDSIZE
 40
0.3125
  9
$HANDSEED
  5
299
  9
$TILEMODE
 70
1
  9
$MEASUREMENT
 70
0
  9
$INSUNITS
 70
1
  0
ENDSEC
  0
SECTION
  2
CLASSES
  0
CLASS
  1
ACDBDICTIONARYWDFLT
  2
AcDbDictionaryWithDefault
  3
AutoCAD 2000
 90
0
 91
1
280
0
281
0
  0
CLASS
  1
ACDBPLACEHOLDER
  2
AcDbPlaceHolder
  3
AutoCAD 2000
 90
0
 91
1
280
0
281
0
  0
CLASS
  1
LAYOUT
  2
AcDbLayout
  3
AutoCAD 2000
 90
0
 91
0
280
0
281
0
  0
ENDSEC
  0
SECTION
  2
TABLES
  0
TABLE
  2
VPORT
  5
8
100
AcDbSymbolTable
 70
2
  0
VPORT
  5
1F4
100
AcDbSymbolTableRecord
100
AcDbViewportTableRecord
  2
*ACTIVE
 70
0
 10
0.0
 20
0.0
 11
1.0
 21
1.0
 12
5.5
 22
4.25
 13
0.0
 23
0.0
 14
1.0
 24
1.0
 15
0.0
 25
0.0
 16
0.0
 26
0.0
 36
1.0
 17
0.0
 27
0.0
 37
0.0
 40
8.5
 41
1.2941176471
 42
50.0
 43
0.0
 44
0.0
 50
0.0
 51
0.0
 71
0
 72
100
 73
1
 74
1
 75
0
 76
0
 77
0
 78
0
  0
ENDTAB
  0
TABLE
  2
LTYPE
  5
5
100
AcDbSymbolTable
 70
6
  0
LTYPE
  5
14
100
AcDbSymbolTableRecord
100
AcDbLinetypeTableRecord
  2
BYBLOCK
 70
0
  3

 72
65
 73
0
 40
0.0
  0
LTYPE
  5
15
100
AcDbSymbolTableRecord
100
AcDbLinetypeTableRecord
  2
BYLAYER
 70
0
  3

 72
65
 73
0
 40
0.0
  0
LTYPE
  5
16
100
AcDbSymbolTableRecord
100
AcDbLinetypeTableRecord
  2
CONTINUOUS
 70
64
  3
Solid line
 72
65
 73
0
 40
0.0
  0
LTYPE
  5
1F5
100
AcDbSymbolTableRecord
100
AcDbLinetypeTableRecord
  2
CENTER
 70
64
  3
____ _ ____ _ ____ _ ____ _ ____ _ ____ _ ____
 72
65
 73
4
 40
0.6
 49
0.375
 74
0
 49
-0.075
 74
0
 49
0.075
 74
0
 49
-0.075
 74
0
  0
LTYPE
  5
1F6
100
AcDbSymbolTableRecord
100
AcDbLinetypeTableRecord
  2
HIDDEN
 70
64
  3
- - - - - - - - - - - - - - - - - - - -
 72
65
 73
2
 40
0.2
 49
0.1
 74
0
 49
-0.1
 74
0
  0
LTYPE
  5
1F7
100
AcDbSymbolTableRecord
100
AcDbLinetypeTableRecord
  2
PHANTOM
 70
64
  3
_____ _ _ _____ _ _ _____ _ _ _____
 72
65
 73
6
 40
0.8
 49
0.45
 74
0
 49
-0.05
 74
0
 49
0.1
 74
0
 49
-0.05
 74
0
 49
0.1
 74
0
 49
-0.05
 74
0
  0
LTYPE
  5
1F8
100
AcDbSymbolTableRecord
100
AcDbLinetypeTableRecord
  2
DOT
 70
64
  3
. . . . . . . . . . . . . . . . . . . .
 72
65
 73
2
 40
0.2
 49
0.1
 74
0
 49
-0.1
 74
0
  0
LTYPE
  5
1F9
100
AcDbSymbolTableRecord
100
AcDbLinetypeTableRecord
  2
DASHED
 70
64
  3
- - - - - - - - - - - - - - - - - - - -
 72
65
 73
2
 40
0.2
 49
0.1
 74
0
 49
-0.1
 74
0
  0
ENDTAB
  0
TABLE
  2
LAYER
  5
2
100
AcDbSymbolTable
 70
36
  0
LAYER
  5
10
100
AcDbSymbolTableRecord
100
AcDbLayerTableRecord
  2
0
 70
0
 62
7
  6
CONTINUOUS
370
-3
390
F
  0
LAYER
  5
1FA
100
AcDbSymbolTableRecord
100
AcDbLayerTableRecord
  2
DEFAULT_1
 70
0
 62
7
  6
CENTER
370
-3
390
F
  0
LAYER
  5
1FB
100
AcDbSymbolTableRecord
100
AcDbLayerTableRecord
  2
DEFAULT_2
 70
0
 62
8
  6
HIDDEN
370
-3
390
F
  0
LAYER
  5
1FC
100
AcDbSymbolTableRecord
100
AcDbLayerTableRecord
  2
DEFAULT_3
 70
0
 62
7
  6
PHANTOM
370
-3
390
F
  0
ENDTAB
  0
TABLE
  2
STYLE
  5
3
100
AcDbSymbolTable
 70
1
  0
STYLE
  5
11
100
AcDbSymbolTableRecord
100
AcDbTextStyleTableRecord
  2
STANDARD
 70
0
 40
0.0
 41
0.8
 50
0.0
 71
0
 42
0.2
  3
txt
  4

  0
STYLE
  5
1FD
100
AcDbSymbolTableRecord
100
AcDbTextStyleTableRecord
  2
TEXTSTYLE_1
 70
0
 40
0.0
 41
0.8
 50
0.0
 71
0
 42
0.2
  3
gdt
  4

  0
ENDTAB
  0
TABLE
  2
VIEW
  5
6
100
AcDbSymbolTable
 70
0
  0
ENDTAB
  0
TABLE
  2
UCS
  5
7
100
AcDbSymbolTable
 70
0
  0
ENDTAB
  0
TABLE
  2
APPID
  5
9
100
AcDbSymbolTable
 70
1
  0
APPID
  5
1FE
100
AcDbSymbolTableRecord
100
AcDbRegAppTableRecord
  2
ACAD
 70
0
  0
ENDTAB
  0
TABLE
  2
BLOCK_RECORD
  5
1
100
AcDbSymbolTable
 70
0
  0
BLOCK_RECORD
  5
1FF
100
AcDbSymbolTableRecord
100
AcDbBlockTableRecord
  2
*Model_Space
  0
BLOCK_RECORD
  5
200
100
AcDbSymbolTableRecord
100
AcDbBlockTableRecord
  2
*Paper_Space
  0
BLOCK_RECORD
  5
201
100
AcDbSymbolTableRecord
100
AcDbBlockTableRecord
  2
_FILLED
  0
ENDTAB
  0
TABLE
  2
DIMSTYLE
  5
A
100
AcDbSymbolTable
 70
1
100
AcDbDimStyleTable
 71
0
  0
DIMSTYLE
105
202
100
AcDbSymbolTableRecord
100
AcDbDimStyleTableRecord
  2
STANDARD
 70
0
  3

  4

 40
1.0
 41
0.1
 42
0.0625
 43
0.38
 44
0.125
 45
0.0
 46
0.0
 47
0.001
 48
0.001
140
0.08
141
0.09
142
0.0
143
25.4
144
1.0
145
0.0
146
1.0
147
0.09
 71
1
 72
0
 73
1
 74
1
 75
0
 76
0
 77
0
 78
4
 79
1
170
1
171
2
172
0
173
0
174
0
175
0
176
0
177
0
178
0
270
2
179
3
271
3
272
3
273
2
274
2
275
0
280
0
281
0
282
0
283
1
284
4
285
0
286
0
287
3
288
0
340
11
278
46
341
201
342
201
343
201
344
201
  0
ENDTAB
  0
ENDSEC
  0
SECTION
  2
BLOCKS
  0
BLOCK
  5
20
100
AcDbEntity
  8
0
100
AcDbBlockBegin
  2
*Model_Space
 70
0
 10
0.0
 20
0.0
 30
0.0
  3
*Model_Space
  1

  0
ENDBLK
  5
21
100
AcDbEntity
  8
0
100
AcDbBlockEnd
  0
BLOCK
  5
1C
100
AcDbEntity
  8
0
100
AcDbBlockBegin
  2
*Paper_Space
 70
0
 10
0.0
 20
0.0
 30
0.0
  3
*Paper_Space
  1

  0
ENDBLK
  5
1D
100
AcDbEntity
  8
0
100
AcDbBlockEnd
  0
BLOCK
  5
203
100
AcDbEntity
  8
0
100
AcDbBlockBegin
  2
_FILLED
 70
64
 10
0.0
 20
0.0
  3
_FILLED
  1

  0
SOLID
  5
204
100
AcDbEntity
  8
0
  6
BYBLOCK
 62
0
100
AcDbTrace
 10
0.0
 20
0.0
 11
-1.0
 21
0.2
 12
-1.0
 22
-0.2
 13
-1.0
 23
-0.2
  0
ENDBLK
  5
205
100
AcDbEntity
  8
0
  6
BYBLOCK
 62
0
100
AcDbBlockEnd
  0
ENDSEC
  0
SECTION
  2
ENTITIES
  0
LINE
  5
206
100
AcDbEntity
  8
0
100
AcDbLine
 62
7
  6
CONTINUOUS
 10
0.0
 20
0.0
 11
0.0
 21
8.5
  0
LINE
  5
207
100
AcDbEntity
  8
0
100
AcDbLine
 62
7
  6
CONTINUOUS
 10
0.0
 20
0.0
 11
11.0
 21
0.0
  0
LINE
  5
208
100
AcDbEntity
  8
0
100
AcDbLine
 62
7
  6
CONTINUOUS
 10
0.0
 20
8.5
 11
11.0
 21
8.5
  0
LINE
  5
209
100
AcDbEntity
  8
0
100
AcDbLine
 62
7
  6
CONTINUOUS
 10
11.0
 20
0.0
 11
11.0
 21
8.5
  0
LINE
  5
20A
100
AcDbEntity
  8
0
100
AcDbLine
 62
7
  6
CONTINUOUS
 10
5.3282516672
 20
2.9550277897
 11
5.3282516672
 21
2.9548493011
  0
LINE
  5
20B
100
AcDbEntity
  8
0
100
AcDbLine
 62
7
  6
CONTINUOUS
 10
5.4352016672
 20
2.9796227991
 11
5.4352016672
 21
3.0354380418
  0
LINE
  5
20C
100
AcDbEntity
  8
0
100
AcDbLine
 62
7
  6
CONTINUOUS
 10
5.4355016672
 20
2.9728240338
 11
5.4355016672
 21
2.9577504845
  0
LINE
  5
20D
100
AcDbEntity
  8
0
100
AcDbLine
 62
7
  6
CONTINUOUS
 10
5.4355016672
 20
3.0377069541
 11
5.4355016672
 21
3.1200684707
  0
LINE
  5
20E
100
AcDbEntity
  8
0
100
AcDbLine
 62
7
  6
CONTINUOUS
 10
5.4355016042
 20
5.5707118437
 11
5.4355317769
 21
3.1209760356
  0
LINE
  5
20F
100
AcDbEntity
  8
0
100
AcDbLine
 62
7
  6
CONTINUOUS
 10
5.7775016672
 20
2.9728238972
 11
5.7775016672
 21
2.9577504845
  0
LINE
  5
210
100
AcDbEntity
  8
0
100
AcDbLine
 62
7
  6
CONTINUOUS
 10
5.7775016672
 20
3.0377069541
 11
5.7775016672
 21
3.1200684707
  0
LINE
  5
211
100
AcDbEntity
  8
0
100
AcDbLine
 62
7
  6
CONTINUOUS
 10
5.7775017302
 20
5.5707118437
 11
5.7774715574
 21
3.1209760356
  0
LINE
  5
212
100
AcDbEntity
  8
0
100
AcDbLine
 62
7
  6
CONTINUOUS
 10
5.7778016672
 20
2.9796227991
 11
5.7778016672
 21
3.0354380418
  0
LINE
  5
213
100
AcDbEntity
  8
0
100
AcDbLine
 62
7
  6
CONTINUOUS
 10
5.8847516672
 20
2.9550277897
 11
5.8847516672
 21
2.9548493011
  0
LINE
  5
214
100
AcDbEntity
  8
0
100
AcDbLine
 62
7
  6
CONTINUOUS
 10
6.040980206
 20
5.3349579358
 11
6.040980206
 21
5.8064746623
  0
LINE
  5
215
100
AcDbEntity
  8
0
100
AcDbLine
 62
7
  6
CONTINUOUS
 10
6.0499016672
 20
5.797475005
 11
6.0499016672
 21
5.3439575931
  0
LINE
  5
216
100
AcDbEntity
  8
0
100
AcDbLine
 62
7
  6
CONTINUOUS
 10
6.0638553351
 20
5.8046994762
 11
6.0638578217
 21
5.3368892506
  0
LINE
  5
217
100
AcDbEntity
  8
0
100
AcDbLine
 62
7
  6
CONTINUOUS
 10
6.0578553695
 20
5.7986994418
 11
6.0578579836
 21
5.3426994418
  0
LINE
  5
218
100
AcDbEntity
  8
0
100
AcDbLine
 62
7
  6
CONTINUOUS
 10
6.0578581727
 20
5.3428843502
 11
6.0578579836
 21
5.3426994418
  0
LINE
  5
219
100
AcDbEntity
  8
0
100
AcDbLine
 62
7
  6
CONTINUOUS
 10
6.2888580179
 20
5.336700766
 11
6.2888553351
 21
5.804700766
  0
LINE
  5
21A
100
AcDbEntity
  8
0
100
AcDbLine
 62
7
  6
CONTINUOUS
 10
6.2948579828
 20
5.3427008035
 11
6.2948553686
 21
5.7987007968
  0
LINE
  5
21B
100
AcDbEntity
  8
0
100
AcDbLine
 62
7
  6
CONTINUOUS
 10
6.3098578804
 20
5.3607008864
 11
6.3098554727
 21
5.7807008864
  0
LINE
  5
21C
100
AcDbEntity
  8
0
100
AcDbLine
 62
7
  6
CONTINUOUS
 10
6.3158551555
 20
5.7739619295
 11
6.3158555078
 21
5.7747009172
  0
LINE
  5
21D
100
AcDbEntity
  8
0
100
AcDbLine
 62
7
  6
CONTINUOUS
 10
6.3158578468
 20
5.3667009244
 11
6.3158551555
 21
5.7739619295
  0
LINE
  5
21E
100
AcDbEntity
  8
0
100
AcDbLine
 62
7
  6
CONTINUOUS
 10
6.040980206
 20
5.3349579358
 11
5.7775017302
 21
5.332658594
  0
LINE
  5
21F
100
AcDbEntity
  8
0
100
AcDbLine
 62
7
  6
CONTINUOUS
 10
6.2888580179
 20
5.336700766
 11
6.063858018
 21
5.3366994762
  0
LINE
  5
220
100
AcDbEntity
  8
0
100
AcDbLine
 62
7
  6
CONTINUOUS
 10
6.0499016672
 20
5.3439575931
 11
6.0578579755
 21
5.3439575931
  0
LINE
  5
221
100
AcDbEntity
  8
0
100
AcDbLine
 62
7
  6
CONTINUOUS
 10
6.3098578804
 20
5.3607008864
 11
6.2948578804
 21
5.3607008004
  0
LINE
  5
222
100
AcDbEntity
  8
0
100
AcDbLine
 62
7
  6
CONTINUOUS
 10
6.3587168711
 20
5.4814515782
 11
6.3158557393
 21
5.4814515782
  0
LINE
  5
223
100
AcDbEntity
  8
0
100
AcDbLine
 62
7
  6
CONTINUOUS
 10
6.3243514696
 20
5.5707015787
 11
6.3273514691
 21
5.5707015787
  0
LINE
  5
224
100
AcDbEntity
  8
0
100
AcDbLine
 62
7
  6
CONTINUOUS
 10
5.8762398688
 20
5.5707162586
 11
5.8750016657
 21
5.5707162601
  0
LINE
  5
225
100
AcDbEntity
  8
0
100
AcDbLine
 62
7
  6
CONTINUOUS
 10
6.3158547184
 20
5.6599515782
 11
6.3587168711
 21
5.6599515782
  0
LINE
  5
226
100
AcDbEntity
  8
0
100
AcDbLine
 62
7
  6
CONTINUOUS
 10
6.3098554727
 20
5.7807008864
 11
6.2948554727
 21
5.7807008004
  0
LINE
  5
227
100
AcDbEntity
  8
0
100
AcDbLine
 62
7
  6
CONTINUOUS
 10
6.0499016672
 20
5.797475005
 11
6.0578553756
 21
5.797475005
  0
LINE
  5
228
100
AcDbEntity
  8
0
100
AcDbLine
 62
7
  6
CONTINUOUS
 10
6.2888553351
 20
5.804700766
 11
6.0638553351
 21
5.8046994762
  0
LINE
  5
229
100
AcDbEntity
  8
0
100
AcDbLine
 62
7
  6
CONTINUOUS
 10
6.040980206
 20
5.8064746623
 11
5.7294959422
 21
5.8091929442
  0
ARC
  5
22A
100
AcDbEntity
  8
0
100
AcDbCircle
 62
7
  6
CONTINUOUS
 10
5.6126612338
 20
2.9563891396
 40
0.2630904334
100
AcDbArc
 50
359.6259535423
 51
359.9999994562
  0
ARC
  5
22B
100
AcDbEntity
  8
0
100
AcDbCircle
 62
7
  6
CONTINUOUS
 10
5.6003421003
 20
2.9563891346
 40
0.2630904332
100
AcDbArc
 50
179.6259535458
 51
179.9999994563
  0
ARC
  5
22C
100
AcDbEntity
  8
0
100
AcDbCircle
 62
7
  6
CONTINUOUS
 10
5.6094670774
 20
2.9562222807
 40
0.1770417189
100
AcDbArc
 50
7.9191027038
 51
10.6224121476
  0
ARC
  5
22D
100
AcDbEntity
  8
0
100
AcDbCircle
 62
7
  6
CONTINUOUS
 10
5.6035152018
 20
2.9562335856
 40
0.1770192478
100
AcDbArc
 50
169.8258783486
 51
172.1010916248
  0
ARC
  5
22E
100
AcDbEntity
  8
0
100
AcDbCircle
 62
7
  6
CONTINUOUS
 10
5.6027414433
 20
2.9563285059
 40
0.1762397865
100
AcDbArc
 50
172.0970881398
 51
179.9802887053
  0
ARC
  5
22F
100
AcDbEntity
  8
0
100
AcDbCircle
 62
7
  6
CONTINUOUS
 10
5.6026694582
 20
2.9563876338
 40
0.1761595919
100
AcDbArc
 50
162.1048784257
 51
169.8266048315
  0
ARC
  5
230
100
AcDbEntity
  8
0
100
AcDbCircle
 62
7
  6
CONTINUOUS
 10
5.610333141
 20
2.9563899669
 40
0.1761595863
100
AcDbArc
 50
10.6207318839
 51
17.89631019
  0
ARC
  5
231
100
AcDbEntity
  8
0
100
AcDbCircle
 62
7
  6
CONTINUOUS
 10
5.6106192386
 20
2.9563891342
 40
0.1758824285
100
AcDbArc
 50
0.0000009412
 51
0.4491196187
  0
ARC
  5
232
100
AcDbEntity
  8
0
100
AcDbCircle
 62
7
  6
CONTINUOUS
 10
5.6108547748
 20
2.9563689094
 40
0.1756470595
100
AcDbArc
 50
0.4563189585
 51
7.9340945531
  0
ARC
  5
233
100
AcDbEntity
  8
0
100
AcDbCircle
 62
7
  6
CONTINUOUS
 10
5.6064613626
 20
3.0392825157
 40
0.173173873
100
AcDbArc
 50
270.7883289693
 51
274.959042803
  0
ARC
  5
234
100
AcDbEntity
  8
0
100
AcDbCircle
 62
7
  6
CONTINUOUS
 10
5.6065432581
 20
3.1239095177
 40
0.1728733583
100
AcDbArc
 50
265.7823039351
 51
269.9779519142
  0
ARC
  5
235
100
AcDbEntity
  8
0
100
AcDbCircle
 62
7
  6
CONTINUOUS
 10
5.6064611498
 20
3.124814768
 40
0.1728715689
100
AcDbArc
 50
270.7405896848
 51
275.0355827612
  0
ARC
  5
236
100
AcDbEntity
  8
0
100
AcDbCircle
 62
7
  6
CONTINUOUS
 10
5.6065436485
 20
3.0414011061
 40
0.1727954863
100
AcDbArc
 50
265.7375960726
 51
270.0122269482
  0
ARC
  5
237
100
AcDbEntity
  8
0
100
AcDbCircle
 62
7
  6
CONTINUOUS
 10
5.6065010356
 20
3.0377126531
 40
0.1716036141
100
AcDbArc
 50
270.0002108576
 51
270.7822955827
  0
ARC
  5
238
100
AcDbEntity
  8
0
100
AcDbCircle
 62
7
  6
CONTINUOUS
 10
5.6065241983
 20
3.1223305613
 40
0.1712943956
100
AcDbArc
 50
269.9841239322
 51
270.7410725742
  0
ARC
  5
239
100
AcDbEntity
  8
0
100
AcDbCircle
 62
7
  6
CONTINUOUS
 10
5.6065011094
 20
3.12321627
 40
0.171272689
100
AcDbArc
 50
270.0001865756
 51
270.7341349064
  0
ARC
  5
23A
100
AcDbEntity
  8
0
100
AcDbCircle
 62
7
  6
CONTINUOUS
 10
5.6065246018
 20
3.0397951304
 40
0.1711895158
100
AcDbArc
 50
270.0187164487
 51
270.7410891882
  0
ARC
  5
23B
100
AcDbEntity
  8
0
100
AcDbCircle
 62
7
  6
CONTINUOUS
 10
5.6038966937
 20
2.9800501311
 40
0.1687674385
100
AcDbArc
 50
201.8775361316
 51
206.3142101387
  0
ARC
  5
23C
100
AcDbEntity
  8
0
100
AcDbCircle
 62
7
  6
CONTINUOUS
 10
5.6036774396
 20
2.9799626711
 40
0.1685314392
100
AcDbArc
 50
200.4112061284
 51
201.876978698
  0
ARC
  5
23D
100
AcDbEntity
  8
0
100
AcDbCircle
 62
7
  6
CONTINUOUS
 10
5.6036237118
 20
2.9799121241
 40
0.1684615663
100
AcDbArc
 50
206.3132934652
 51
210.5130348705
  0
ARC
  5
23E
100
AcDbEntity
  8
0
100
AcDbCircle
 62
7
  6
CONTINUOUS
 10
5.6037010732
 20
3.0379592667
 40
0.1682166849
100
AcDbArc
 50
183.0505149667
 51
226.6347004926
  0
ARC
  5
23F
100
AcDbEntity
  8
0
100
AcDbCircle
 62
7
  6
CONTINUOUS
 10
5.603205462
 20
2.9797896842
 40
0.1680287653
100
AcDbArc
 50
197.2876546451
 51
200.41205145
  0
ARC
  5
240
100
AcDbEntity
  8
0
100
AcDbCircle
 62
7
  6
CONTINUOUS
 10
5.602978958
 20
2.9796637369
 40
0.1677769789
100
AcDbArc
 50
185.2405674832
 51
192.5431542861
  0
ARC
  5
241
100
AcDbEntity
  8
0
100
AcDbCircle
 62
7
  6
CONTINUOUS
 10
5.6100650624
 20
3.0354765518
 40
0.1677366092
100
AcDbArc
 50
344.8405756705
 51
359.9868456287
  0
ARC
  5
242
100
AcDbEntity
  8
0
100
AcDbCircle
 62
7
  6
CONTINUOUS
 10
5.610453334
 20
2.9796520096
 40
0.1673483357
100
AcDbArc
 50
354.929597294
 51
359.9899989632
  0
ARC
  5
243
100
AcDbEntity
  8
0
100
AcDbCircle
 62
7
  6
CONTINUOUS
 10
5.6024315534
 20
2.9796339213
 40
0.1672298818
100
AcDbArc
 50
180.0038106396
 51
185.2423700497
  0
ARC
  5
244
100
AcDbEntity
  8
0
100
AcDbCircle
 62
7
  6
CONTINUOUS
 10
5.6023913154
 20
2.9795332918
 40
0.167175206
100
AcDbArc
 50
192.5428295258
 51
197.2866708053
  0
ARC
  5
245
100
AcDbEntity
  8
0
100
AcDbCircle
 62
7
  6
CONTINUOUS
 10
5.6026604401
 20
3.1200973052
 40
0.1671596703
100
AcDbArc
 50
183.6484921178
 51
184.6836423697
  0
ARC
  5
246
100
AcDbEntity
  8
0
100
AcDbCircle
 62
7
  6
CONTINUOUS
 10
5.6025899744
 20
2.9577504872
 40
0.1670883072
100
AcDbArc
 50
180.0000009413
 51
180.4491196185
  0
ARC
  5
247
100
AcDbEntity
  8
0
100
AcDbCircle
 62
7
  6
CONTINUOUS
 10
5.602532848
 20
3.1209934222
 40
0.1670302472
100
AcDbArc
 50
180.3164747175
 51
184.7930645796
  0
ARC
  5
248
100
AcDbEntity
  8
0
100
AcDbCircle
 62
7
  6
CONTINUOUS
 10
5.6105087977
 20
3.037735366
 40
0.1669928719
100
AcDbArc
 50
354.9703760603
 51
359.9902517296
  0
ARC
  5
249
100
AcDbEntity
  8
0
100
AcDbCircle
 62
7
  6
CONTINUOUS
 10
5.602132489
 20
2.9796334891
 40
0.1669308222
100
AcDbArc
 50
180.0036692356
 51
185.076837672
  0
ARC
  5
24A
100
AcDbEntity
  8
0
100
AcDbCircle
 62
7
  6
CONTINUOUS
 10
5.6111250314
 20
3.0354260135
 40
0.1666767247
100
AcDbArc
 50
0.7875329327
 51
2.3442208298
  0
ARC
  5
24B
100
AcDbEntity
  8
0
100
AcDbCircle
 62
7
  6
CONTINUOUS
 10
5.6018780926
 20
3.0354260134
 40
0.1666765144
100
AcDbArc
 50
177.6559242482
 51
179.2124659208
  0
ARC
  5
24C
100
AcDbEntity
  8
0
100
AcDbCircle
 62
7
  6
CONTINUOUS
 10
5.6021421934
 20
3.1200670101
 40
0.1666405462
100
AcDbArc
 50
180.7601606962
 51
183.6494359649
  0
ARC
  5
24D
100
AcDbEntity
  8
0
100
AcDbCircle
 62
7
  6
CONTINUOUS
 10
5.6019828699
 20
3.0376997574
 40
0.1664811269
100
AcDbArc
 50
179.9975232215
 51
185.1209435679
  0
ARC
  5
24E
100
AcDbEntity
  8
0
100
AcDbCircle
 62
7
  6
CONTINUOUS
 10
5.6017897162
 20
3.1209797184
 40
0.1662870513
100
AcDbArc
 50
180.003757078
 51
180.3131673339
  0
ARC
  5
24F
100
AcDbEntity
  8
0
100
AcDbCircle
 62
7
  6
CONTINUOUS
 10
5.6017730282
 20
3.1200573491
 40
0.1662712853
100
AcDbArc
 50
179.9961675947
 51
180.7585195822
  0
ARC
  5
250
100
AcDbEntity
  8
0
100
AcDbCircle
 62
7
  6
CONTINUOUS
 10
5.6113168303
 20
3.1209723759
 40
0.1661838392
100
AcDbArc
 50
359.6893289011
 51
0.0037514677
  0
ARC
  5
251
100
AcDbEntity
  8
0
100
AcDbCircle
 62
7
  6
CONTINUOUS
 10
5.6118449364
 20
3.035437436
 40
0.1659567308
100
AcDbArc
 50
0.0002091334
 51
0.7870058696
  0
ARC
  5
252
100
AcDbEntity
  8
0
100
AcDbCircle
 62
7
  6
CONTINUOUS
 10
5.6011581677
 20
3.035437436
 40
0.1659565006
100
AcDbArc
 50
179.2129928969
 51
179.9997908493
  0
ARC
  5
253
100
AcDbEntity
  8
0
100
AcDbCircle
 62
7
  6
CONTINUOUS
 10
5.6009709101
 20
3.1200683754
 40
0.1654692429
100
AcDbArc
 50
179.6882799012
 51
179.9999670079
  0
ARC
  5
254
100
AcDbEntity
  8
0
100
AcDbCircle
 62
7
  6
CONTINUOUS
 10
5.6120915825
 20
3.1200683707
 40
0.1654100846
100
AcDbArc
 50
0.0000346354
 51
0.3168157769
  0
ARC
  5
255
100
AcDbEntity
  8
0
100
AcDbCircle
 62
7
  6
CONTINUOUS
 10
5.6065016672
 20
5.570716299
 40
0.291
100
AcDbArc
 50
54.9369853856
 51
233.9828252414
  0
ARC
  5
256
100
AcDbEntity
  8
0
100
AcDbCircle
 62
7
  6
CONTINUOUS
 10
5.6065016672
 20
5.570716299
 40
0.282
100
AcDbArc
 50
57.7167164629
 51
232.6474411587
  0
ARC
  5
257
100
AcDbEntity
  8
0
100
AcDbCircle
 62
7
  6
CONTINUOUS
 10
5.6065016672
 20
5.570716299
 40
0.276
100
AcDbArc
 50
59.7310400849
 51
231.6999992888
  0
ARC
  5
258
100
AcDbEntity
  8
0
100
AcDbCircle
 62
7
  6
CONTINUOUS
 10
5.6065016672
 20
5.570716299
 40
0.2685
100
AcDbArc
 50
309.583217663
 51
230.416782337
  0
ARC
  5
259
100
AcDbEntity
  8
0
100
AcDbCircle
 62
7
  6
CONTINUOUS
 10
5.6065016672
 20
5.570716299
 40
0.2625
100
AcDbArc
 50
310.6792633697
 51
229.321794373
  0
ARC
  5
25A
100
AcDbEntity
  8
0
100
AcDbCircle
 62
7
  6
CONTINUOUS
 10
5.6065016672
 20
5.570716299
 40
0.2505
100
AcDbArc
 50
313.0608789351
 51
226.92347755
  0
ARC
  5
25B
100
AcDbEntity
  8
0
100
AcDbCircle
 62
7
  6
CONTINUOUS
 10
5.6065016672
 20
5.570716299
 40
0.2445
100
AcDbArc
 50
314.3975745601
 51
225.6025129086
  0
ARC
  5
25C
100
AcDbEntity
  8
0
100
AcDbCircle
 62
7
  6
CONTINUOUS
 10
5.6065016672
 20
5.570716299
 40
0.237
100
AcDbArc
 50
316.2118725799
 51
223.7776084395
  0
ARC
  5
25D
100
AcDbEntity
  8
0
100
AcDbCircle
 62
7
  6
CONTINUOUS
 10
5.6619476513
 20
5.570827113
 40
0.214294382
100
AcDbArc
 50
345.7418700933
 51
358.1277526951
  0
ARC
  5
25E
100
AcDbEntity
  8
0
100
AcDbCircle
 62
7
  6
CONTINUOUS
 10
5.661950448
 20
5.5706058112
 40
0.2142915753
100
AcDbArc
 50
1.8763998863
 51
14.2581598497
  0
ARC
  5
25F
100
AcDbEntity
  8
0
100
AcDbCircle
 62
7
  6
CONTINUOUS
 10
5.6635177778
 20
5.5707351824
 40
0.2127220941
100
AcDbArc
 50
358.138683785
 51
1.8655244876
  0
ARC
  5
260
100
AcDbEntity
  8
0
100
AcDbCircle
 62
7
  6
CONTINUOUS
 10
5.6065016672
 20
5.570716299
 40
0.192
100
AcDbArc
 50
332.99622548
 51
206.9890647124
  0
ARC
  5
261
100
AcDbEntity
  8
0
100
AcDbCircle
 62
7
  6
CONTINUOUS
 10
5.6065016672
 20
5.570716299
 40
0.183
100
AcDbArc
 50
339.2292826044
 51
200.7746758474
  0
ARC
  5
262
100
AcDbEntity
  8
0
100
AcDbCircle
 62
7
  6
CONTINUOUS
 10
5.6065000467
 20
5.5707118437
 40
0.1709984425
100
AcDbArc
 50
0.0
 51
180.0000006237
  0
ARC
  5
263
100
AcDbEntity
  8
0
100
AcDbCircle
 62
7
  6
CONTINUOUS
 10
6.0409016672
 20
5.3439575931
 40
0.009
100
AcDbArc
 50
270.5000000001
 51
360.0
  0
ARC
  5
264
100
AcDbEntity
  8
0
100
AcDbCircle
 62
7
  6
CONTINUOUS
 10
6.0638579836
 20
5.3426994762
 40
0.006
100
AcDbArc
 50
180.0003284555
 51
270.0003284555
  0
ARC
  5
265
100
AcDbEntity
  8
0
100
AcDbCircle
 62
7
  6
CONTINUOUS
 10
6.0409016672
 20
5.797475005
 40
0.009
100
AcDbArc
 50
0.0
 51
89.4999999999
  0
ARC
  5
266
100
AcDbEntity
  8
0
100
AcDbCircle
 62
7
  6
CONTINUOUS
 10
6.0638553695
 20
5.7986994762
 40
0.006
100
AcDbArc
 50
90.0003284555
 51
180.0003284555
  0
ARC
  5
267
100
AcDbEntity
  8
0
100
AcDbCircle
 62
7
  6
CONTINUOUS
 10
6.4596186437
 20
5.570180375
 40
0.1352839798
100
AcDbArc
 50
173.0792480726
 51
174.7752557181
  0
ARC
  5
268
100
AcDbEntity
  8
0
100
AcDbCircle
 62
7
  6
CONTINUOUS
 10
6.4560388387
 20
5.5704947143
 40
0.1316904244
100
AcDbArc
 50
174.7696200156
 51
178.6069016731
  0
ARC
  5
269
100
AcDbEntity
  8
0
100
AcDbCircle
 62
7
  6
CONTINUOUS
 10
6.4500700331
 20
5.5706929615
 40
0.1257185744
100
AcDbArc
 50
178.6310910843
 51
179.9960730024
  0
ARC
  5
26A
100
AcDbEntity
  8
0
100
AcDbCircle
 62
7
  6
CONTINUOUS
 10
6.309857846
 20
5.3667008864
 40
0.006
100
AcDbArc
 50
270.0003284555
 51
0.0003284554
  0
ARC
  5
26B
100
AcDbEntity
  8
0
100
AcDbCircle
 62
7
  6
CONTINUOUS
 10
6.2888579836
 20
5.342700766
 40
0.006
100
AcDbArc
 50
270.0003284555
 51
0.0003284554
  0
ARC
  5
26C
100
AcDbEntity
  8
0
100
AcDbCircle
 62
7
  6
CONTINUOUS
 10
6.3098555071
 20
5.7747008864
 40
0.006
100
AcDbArc
 50
0.0003284556
 51
90.0003284555
  0
ARC
  5
26D
100
AcDbEntity
  8
0
100
AcDbCircle
 62
7
  6
CONTINUOUS
 10
6.2888553695
 20
5.798700766
 40
0.006
100
AcDbArc
 50
0.0003284556
 51
80.0003284576
  0
CIRCLE
  5
26E
100
AcDbEntity
  8
0
100
AcDbCircle
 62
7
  6
CONTINUOUS
 10
6.4653514691
 20
5.5707015782
 40
0.138
  0
CIRCLE
  5
26F
100
AcDbEntity
  8
0
100
AcDbCircle
 62
7
  6
CONTINUOUS
 10
6.4653514691
 20
5.5707015782
 40
0.135
  0
ARC
  5
270
100
AcDbEntity
  8
0
100
AcDbCircle
 62
7
  6
CONTINUOUS
 10
6.455335966
 20
5.5708722556
 40
0.1309870511
100
AcDbArc
 50
181.7856473278
 51
185.2563684322
  0
ARC
  5
271
100
AcDbEntity
  8
0
100
AcDbCircle
 62
7
  6
CONTINUOUS
 10
6.4505156236
 20
5.5707156297
 40
0.1261641692
100
AcDbArc
 50
180.0063813401
 51
181.782765345
  0
CIRCLE
  5
272
100
AcDbEntity
  8
0
100
AcDbCircle
 62
7
  6
CONTINUOUS
 10
6.4653514691
 20
5.5707015782
 40
0.117
  0
CIRCLE
  5
273
100
AcDbEntity
  8
0
100
AcDbCircle
 62
7
  6
CONTINUOUS
 10
6.4653514691
 20
5.5707015782
 40
0.114
  0
CIRCLE
  5
274
100
AcDbEntity
  8
0
100
AcDbCircle
 62
7
  6
CONTINUOUS
 10
6.4653514691
 20
5.5707015782
 40
0.111
  0
CIRCLE
  5
275
100
AcDbEntity
  8
0
100
AcDbCircle
 62
7
  6
CONTINUOUS
 10
6.4653514691
 20
5.5707015782
 40
0.093
  0
CIRCLE
  5
276
100
AcDbEntity
  8
0
100
AcDbCircle
 62
7
  6
CONTINUOUS
 10
6.4653514691
 20
5.5707015782
 40
0.09
  0
CIRCLE
  5
277
100
AcDbEntity
  8
0
100
AcDbCircle
 62
7
  6
CONTINUOUS
 10
6.4653514691
 20
5.5707015782
 40
0.087
  0
SPLINE
  5
278
100
AcDbEntity
  8
0
100
AcDbSpline
 62
7
  6
CONTINUOUS
 70
0
 71
3
 72
9
 73
5
 74
0
 42
0.0000001
 43
0.0000001
 44
0.0000000001
 40
0.0
 40
0.0
 40
0.0
 40
0.0
 40
0.2366998397
 40
1.0
 40
1.0
 40
1.0
 40
1.0
 10
6.3587168711
 20
5.4814515782
 30
0.0
 10
6.3589167895
 20
5.4814515782
 30
0.0
 10
6.359757719
 20
5.4813530295
 30
0.0
 10
6.3605639013
 20
5.4809019053
 30
0.0
 10
6.3609856923
 20
5.4804143441
 30
0.0
  0
SPLINE
  5
279
100
AcDbEntity
  8
0
100
AcDbSpline
 62
7
  6
CONTINUOUS
 70
0
 71
3
 72
9
 73
5
 74
0
 42
0.0000001
 43
0.0000001
 44
0.0000000001
 40
0.0
 40
0.0
 40
0.0
 40
0.0
 40
0.2366998405
 40
1.0
 40
1.0
 40
1.0
 40
1.0
 10
6.3587168712
 20
5.6599515782
 30
0.0
 10
6.3589167895
 20
5.6599515782
 30
0.0
 10
6.359757719
 20
5.6600501269
 30
0.0
 10
6.3605639013
 20
5.6605012511
 30
0.0
 10
6.3609856923
 20
5.6609888122
 30
0.0
  0
SPLINE
  5
27A
100
AcDbEntity
  8
0
100
AcDbSpline
 62
7
  6
CONTINUOUS
 70
0
 71
3
 72
15
 73
11
 74
0
 42
0.0000001
 43
0.0000001
 44
0.0000000001
 40
0.0
 40
0.0
 40
0.0
 40
0.0
 40
0.1246325781
 40
0.249447417
 40
0.3742572995
 40
0.4991342059
 40
0.6241479276
 40
0.7492945831
 40
0.8745786214
 40
1.0
 40
1.0
 40
1.0
 40
1.0
 10
5.9095016672
 20
2.949355509
 30
0.0
 10
5.9095016672
 20
2.9614790841
 30
0.0
 10
5.9080024382
 20
2.9857694451
 30
0.0
 10
5.9013367585
 20
3.0216479889
 30
0.0
 10
5.8903114596
 20
3.0564663328
 30
0.0
 10
5.875114555
 20
3.0896954266
 30
0.0
 10
5.8559655852
 20
3.1208534393
 30
0.0
 10
5.8331494998
 20
3.1494872847
 30
0.0
 10
5.8070057016
 20
3.1751672978
 30
0.0
 10
5.787613103
 20
3.1900705801
 30
0.0
 10
5.7775079832
 20
3.1969068074
 30
0.0
  0
SPLINE
  5
27B
100
AcDbEntity
  8
0
100
AcDbSpline
 62
7
  6
CONTINUOUS
 70
0
 71
3
 72
15
 73
11
 74
0
 42
0.0000001
 43
0.0000001
 44
0.0000000001
 40
0.0
 40
0.0
 40
0.0
 40
0.0
 40
0.1254213295
 40
0.2507052971
 40
0.3758518878
 40
0.500865579
 40
0.6257424797
 40
0.7505523614
 40
0.8753672744
 40
1.0
 40
1.0
 40
1.0
 40
1.0
 10
5.4354973065
 20
3.1969081254
 30
0.0
 10
5.4253920597
 20
3.1900719187
 30
0.0
 10
5.4059991833
 20
3.1751686909
 30
0.0
 10
5.3798550463
 20
3.1494886237
 30
0.0
 10
5.3570386027
 20
3.1208547058
 30
0.0
 10
5.337889361
 20
3.0896965225
 30
0.0
 10
5.3226922004
 20
3.0564672251
 30
0.0
 10
5.3116667217
 20
3.0216486197
 30
0.0
 10
5.3050009217
 20
2.9857697756
 30
0.0
 10
5.3035016672
 20
2.9614791963
 30
0.0
 10
5.3035016672
 20
2.949355509
 30
0.0
  0
SPLINE
  5
27C
100
AcDbEntity
  8
0
100
AcDbSpline
 62
7
  6
CONTINUOUS
 70
0
 71
3
 72
33
 73
29
 74
0
 42
0.0000001
 43
0.0000001
 44
0.0000000001
 40
0.0
 40
0.0
 40
0.0
 40
0.0
 40
0.0621632865
 40
0.0933110884
 40
0.124460406
 40
0.1556280791
 40
0.1868241339
 40
0.2180471956
 40
0.2492973438
 40
0.2805754163
 40
0.3118812863
 40
0.3432138967
 40
0.3745696123
 40
0.4372632661
 40
0.5000003014
 40
0.5627373119
 40
0.6254308977
 40
0.6567865689
 40
0.6881191261
 40
0.7194249431
 40
0.7507029554
 40
0.7819530451
 40
0.8131760494
 40
0.8443720559
 40
0.8755396871
 40
0.906688962
 40
0.9378367299
 40
1.0
 40
1.0
 40
1.0
 40
1.0
 10
5.3035016672
 20
2.949355509
 30
0.0
 10
5.3035016672
 20
2.9297493255
 30
0.0
 10
5.3064479816
 20
2.900210686
 30
0.0
 10
5.3160972717
 20
2.8621159464
 30
0.0
 10
5.3261431403
 20
2.8343461417
 30
0.0
 10
5.3388891431
 20
2.8076964607
 30
0.0
 10
5.3542139778
 20
2.782413184
 30
0.0
 10
5.3719619542
 20
2.7587354621
 30
0.0
 10
5.3919750457
 20
2.7369038627
 30
0.0
 10
5.4140442834
 20
2.717114051
 30
0.0
 10
5.4379690635
 20
2.6995700506
 30
0.0
 10
5.4635115971
 20
2.6844254232
 30
0.0
 10
5.499377788
 20
2.6676464462
 30
0.0
 10
5.5470670017
 20
2.6533342866
 30
0.0
 10
5.606501946
 20
2.6475512893
 30
0.0
 10
5.66593686
 20
2.6533344008
 30
0.0
 10
5.7136259971
 20
2.6676466452
 30
0.0
 10
5.7494921369
 20
2.6844256103
 30
0.0
 10
5.7750345922
 20
2.6995702774
 30
0.0
 10
5.7989593173
 20
2.7171142615
 30
0.0
 10
5.8210284943
 20
2.7369040614
 30
0.0
 10
5.8410415199
 20
2.7587356442
 30
0.0
 10
5.8587894658
 20
2.7824133243
 30
0.0
 10
5.8741142456
 20
2.8076965798
 30
0.0
 10
5.8868602302
 20
2.8343462221
 30
0.0
 10
5.8969060765
 20
2.8621159954
 30
0.0
 10
5.9065553572
 20
2.9002107068
 30
0.0
 10
5.9095016672
 20
2.9297493306
 30
0.0
 10
5.9095016672
 20
2.949355509
 30
0.0
  0
SPLINE
  5
27D
100
AcDbEntity
  8
0
100
AcDbSpline
 62
7
  6
CONTINUOUS
 70
0
 71
3
 72
11
 73
7
 74
0
 42
0.0000001
 43
0.0000001
 44
0.0000000001
 40
0.0
 40
0.0
 40
0.0
 40
0.0
 40
0.249408095
 40
0.4990815138
 40
0.7492419773
 40
1.0
 40
1.0
 40
1.0
 40
1.0
 10
5.3282516672
 20
2.9550277897
 30
0.0
 10
5.3282516672
 20
2.9758237327
 30
0.0
 10
5.3330646972
 20
3.0175941446
 30
0.0
 10
5.3543559338
 20
3.0768906202
 30
0.0
 10
5.3885792027
 20
3.1299184318
 30
0.0
 10
5.4188802614
 20
3.1592776156
 30
0.0
 10
5.4354409277
 20
3.1720412266
 30
0.0
  0
SPLINE
  5
27E
100
AcDbEntity
  8
0
100
AcDbSpline
 62
7
  6
CONTINUOUS
 70
0
 71
3
 72
11
 73
7
 74
0
 42
0.0000001
 43
0.0000001
 44
0.0000000001
 40
0.0
 40
0.0
 40
0.0
 40
0.0
 40
0.2507579782
 40
0.5009184166
 40
0.7505918356
 40
1.0
 40
1.0
 40
1.0
 40
1.0
 10
5.7775627454
 20
3.1720409643
 30
0.0
 10
5.7941233636
 20
3.1592773553
 30
0.0
 10
5.8244243233
 20
3.1299181819
 30
0.0
 10
5.8586474811
 20
3.0768904368
 30
0.0
 10
5.8799386521
 20
3.0175940493
 30
0.0
 10
5.8847516672
 20
2.975823703
 30
0.0
 10
5.8847516672
 20
2.9550277897
 30
0.0
  0
SPLINE
  5
27F
100
AcDbEntity
  8
0
100
AcDbSpline
 62
7
  6
CONTINUOUS
 70
0
 71
3
 72
19
 73
15
 74
0
 42
0.0000001
 43
0.0000001
 44
0.0000000001
 40
0.0
 40
0.0
 40
0.0
 40
0.0
 40
0.1257324287
 40
0.1885895585
 40
0.2513758818
 40
0.3766530704
 40
0.5016942744
 40
0.564178365
 40
0.6265971032
 40
0.688955288
 40
0.751262724
 40
0.8135241012
 40
0.8757482859
 40
1.0
 40
1.0
 40
1.0
 40
1.0
 10
5.6216348479
 20
2.9526104178
 30
0.0
 10
5.6321047248
 20
2.9535326444
 30
0.0
 10
5.6477329757
 20
2.9563502346
 30
0.0
 10
5.6677243109
 20
2.96289255
 30
0.0
 10
5.6870074822
 20
2.9712140308
 30
0.0
 10
5.7095217317
 20
2.9848641297
 30
0.0
 10
5.7291472717
 20
3.0023825891
 30
0.0
 10
5.7426718519
 20
3.0183412069
 30
0.0
 10
5.75166494
 20
3.0311823137
 30
0.0
 10
5.7594177685
 20
3.0447903825
 30
0.0
 10
5.7658684395
 20
3.0590466885
 30
0.0
 10
5.7709685303
 20
3.0738309906
 30
0.0
 10
5.7758889497
 20
3.0940541507
 30
0.0
 10
5.7774419058
 20
3.1096848084
 30
0.0
 10
5.7774982265
 20
3.1200712927
 30
0.0
  0
SPLINE
  5
280
100
AcDbEntity
  8
0
100
AcDbSpline
 62
7
  6
CONTINUOUS
 70
0
 71
3
 72
19
 73
15
 74
0
 42
0.0000001
 43
0.0000001
 44
0.0000000001
 40
0.0
 40
0.0
 40
0.0
 40
0.0
 40
0.1243646217
 40
0.1866297467
 40
0.2489094736
 40
0.3734858835
 40
0.498311999
 40
0.5608805915
 40
0.6235058565
 40
0.6861837753
 40
0.7489118681
 40
0.8116795905
 40
0.8744781279
 40
1.0
 40
1.0
 40
1.0
 40
1.0
 10
5.4358565497
 20
2.9648615084
 30
0.0
 10
5.4367815513
 20
2.9544309599
 30
0.0
 10
5.4396405812
 20
2.9388559662
 30
0.0
 10
5.4462956318
 20
2.9189592754
 30
0.0
 10
5.4547810998
 20
2.8997456262
 30
0.0
 10
5.4687222703
 20
2.8773213082
 30
0.0
 10
5.4865822213
 20
2.8578398976
 30
0.0
 10
5.5028437086
 20
2.844431293
 30
0.0
 10
5.5159400025
 20
2.8355172418
 30
0.0
 10
5.5298154343
 20
2.827846253
 30
0.0
 10
5.5443477671
 20
2.8214791816
 30
0.0
 10
5.5594136214
 20
2.8164641011
 30
0.0
 10
5.5800218913
 20
2.8116564239
 30
0.0
 10
5.5959283231
 20
2.8101905192
 30
0.0
 10
5.6064972471
 20
2.8101902413
 30
0.0
  0
SPLINE
  5
281
100
AcDbEntity
  8
0
100
AcDbSpline
 62
7
  6
CONTINUOUS
 70
0
 71
3
 72
19
 73
15
 74
0
 42
0.0000001
 43
0.0000001
 44
0.0000000001
 40
0.0
 40
0.0
 40
0.0
 40
0.0
 40
0.1243678193
 40
0.186631168
 40
0.2489045035
 40
0.3112144728
 40
0.3735846576
 40
0.4983932104
 40
0.6234373567
 40
0.6860938535
 40
0.7487922946
 40
0.8115443651
 40
0.8743623741
 40
1.0
 40
1.0
 40
1.0
 40
1.0
 10
5.4361664975
 20
3.022850846
 30
0.0
 10
5.4370501438
 20
3.0129726223
 30
0.0
 10
5.439697044
 20
2.9982218981
 30
0.0
 10
5.4457861192
 20
2.9793113435
 30
0.0
 10
5.4515983035
 20
2.9655690195
 30
0.0
 10
5.4586062575
 20
2.9523875754
 30
0.0
 10
5.469478229
 20
2.9356995533
 30
0.0
 10
5.4857831681
 20
2.9167008015
 30
0.0
 10
5.5051927897
 20
2.9008531341
 30
0.0
 10
5.5221915705
 20
2.8903360255
 30
0.0
 10
5.5356081765
 20
2.8835832012
 30
0.0
 10
5.5495745979
 20
2.8780197311
 30
0.0
 10
5.5687758303
 20
2.8722480171
 30
0.0
 10
5.5837094909
 20
2.8698278949
 30
0.0
 10
5.5937007307
 20
2.8690835517
 30
0.0
  0
SPLINE
  5
282
100
AcDbEntity
  8
0
100
AcDbSpline
 62
7
  6
CONTINUOUS
 70
0
 71
3
 72
16
 73
12
 74
0
 42
0.0000001
 43
0.0000001
 44
0.0000000001
 40
0.0
 40
0.0
 40
0.0
 40
0.0
 40
0.1242574583
 40
0.2486549826
 40
0.3732612207
 40
0.4981308688
 40
0.6232732459
 40
0.748630955
 40
0.8114755254
 40
0.874395581
 40
1.0
 40
1.0
 40
1.0
 40
1.0
 10
5.4360867088
 20
3.1070368389
 30
0.0
 10
5.4369612341
 20
3.096603724
 30
0.0
 10
5.4406830329
 20
3.0758371781
 30
0.0
 10
5.451994739
 20
3.046301981
 30
0.0
 10
5.4686362597
 20
3.0193358657
 30
0.0
 10
5.4900342669
 20
2.9958824281
 30
0.0
 10
5.515442527
 20
2.9767497544
 30
0.0
 10
5.5392428223
 20
2.9649511433
 30
0.0
 10
5.5593394822
 20
2.9582443215
 30
0.0
 10
5.5799846359
 20
2.9534199543
 30
0.0
 10
5.5959184718
 20
2.951943581
 30
0.0
 10
5.6065016672
 20
2.951943581
 30
0.0
  0
SPLINE
  5
283
100
AcDbEntity
  8
0
100
AcDbSpline
 62
7
  6
CONTINUOUS
 70
0
 71
3
 72
15
 73
11
 74
0
 42
0.0000001
 43
0.0000001
 44
0.0000000001
 40
0.0
 40
0.0
 40
0.0
 40
0.0
 40
0.1256705278
 40
0.2513270788
 40
0.3767062507
 40
0.5018535443
 40
0.6267149272
 40
0.7513121138
 40
0.8757095399
 40
1.0
 40
1.0
 40
1.0
 40
1.0
 10
5.6065016672
 20
2.8102937963
 30
0.0
 10
5.6176905413
 20
2.8102937963
 30
0.0
 10
5.6401267342
 20
2.81248006
 30
0.0
 10
5.6724495882
 20
2.8221617303
 30
0.0
 10
5.7022541388
 20
2.837908084
 30
0.0
 10
5.7283830042
 20
2.85908926
 30
0.0
 10
5.7498301537
 20
2.88491284
 30
0.0
 10
5.7657699335
 20
2.9143837016
 30
0.0
 10
5.775589261
 20
2.9463526485
 30
0.0
 10
5.7778018859
 20
2.9685567968
 30
0.0
 10
5.7778016624
 20
2.9796227988
 30
0.0
  0
SPLINE
  5
284
100
AcDbEntity
  8
0
100
AcDbSpline
 62
7
  6
CONTINUOUS
 70
0
 71
3
 72
23
 73
19
 74
0
 42
0.0000001
 43
0.0000001
 44
0.0000000001
 40
0.0
 40
0.0
 40
0.0
 40
0.0
 40
0.0621775747
 40
0.1243857248
 40
0.186687306
 40
0.249127631
 40
0.3116993324
 40
0.3743899332
 40
0.4371702596
 40
0.4999999994
 40
0.5628297392
 40
0.6256100657
 40
0.6883006667
 40
0.7508723684
 40
0.8133126935
 40
0.875614275
 40
0.9378224251
 40
1.0
 40
1.0
 40
1.0
 40
1.0
 10
5.7769048463
 20
2.9628298559
 30
0.0
 10
5.7760202806
 20
2.9523961467
 30
0.0
 10
5.772287337
 20
2.9316358401
 30
0.0
 10
5.7609577198
 20
2.9021185963
 30
0.0
 10
5.7443039595
 20
2.8751819724
 30
0.0
 10
5.7229115246
 20
2.8517520646
 30
0.0
 10
5.6975048608
 20
2.8326402525
 30
0.0
 10
5.6689663788
 20
2.8185036487
 30
0.0
 10
5.6382807879
 20
2.8098206415
 30
0.0
 10
5.6065016939
 20
2.8068907721
 30
0.0
 10
5.5747225989
 20
2.8098206317
 30
0.0
 10
5.5440370053
 20
2.8185036295
 30
0.0
 10
5.5154985189
 20
2.8326402246
 30
0.0
 10
5.4900918491
 20
2.8517520289
 30
0.0
 10
5.4686994068
 20
2.8751819301
 30
0.0
 10
5.452045638
 20
2.9021185488
 30
0.0
 10
5.4407160115
 20
2.9316357891
 30
0.0
 10
5.4369830615
 20
2.9523960946
 30
0.0
 10
5.4360984924
 20
2.9628298036
 30
0.0
  0
SPLINE
  5
285
100
AcDbEntity
  8
0
100
AcDbSpline
 62
7
  6
CONTINUOUS
 70
0
 71
3
 72
17
 73
13
 74
0
 42
0.0000001
 43
0.0000001
 44
0.0000000001
 40
0.0
 40
0.0
 40
0.0
 40
0.0
 40
0.1256415727
 40
0.2512354869
 40
0.376580457
 40
0.5016872424
 40
0.6265101183
 40
0.7510738694
 40
0.8133510039
 40
0.8755902851
 40
0.9378016998
 40
1.0
 40
1.0
 40
1.0
 40
1.0
 10
5.6065016672
 20
2.9689901865
 30
0.0
 10
5.6176698506
 20
2.9689901865
 30
0.0
 10
5.6400619227
 20
2.9711697502
 30
0.0
 10
5.672320827
 20
2.9808355702
 30
0.0
 10
5.7020668196
 20
2.9965489282
 30
0.0
 10
5.7281453078
 20
3.0176912944
 30
0.0
 10
5.7495521926
 20
3.0434588083
 30
0.0
 10
5.7628241738
 20
3.0680006549
 30
0.0
 10
5.770369574
 20
3.088847509
 30
0.0
 10
5.7744529514
 20
3.1049651092
 30
0.0
 10
5.77692279
 20
3.1213972944
 30
0.0
 10
5.777470213
 20
3.1324641184
 30
0.0
 10
5.7774699492
 20
3.1379928778
 30
0.0
  0
SPLINE
  5
286
100
AcDbEntity
  8
0
100
AcDbSpline
 62
7
  6
CONTINUOUS
 70
0
 71
3
 72
15
 73
11
 74
0
 42
0.0000001
 43
0.0000001
 44
0.0000000001
 40
0.0
 40
0.0
 40
0.0
 40
0.0
 40
0.1243270293
 40
0.2488141505
 40
0.373503912
 40
0.4984139051
 40
0.6235367506
 40
0.7488280603
 40
0.8743391275
 40
1.0
 40
1.0
 40
1.0
 40
1.0
 10
5.7719647612
 20
2.991612471
 30
0.0
 10
5.7697090928
 20
2.9832911801
 30
0.0
 10
5.7638949233
 20
2.9669602154
 30
0.0
 10
5.7515293275
 20
2.9440911794
 30
0.0
 10
5.7357827867
 20
2.9233456866
 30
0.0
 10
5.7170281265
 20
2.9052141739
 30
0.0
 10
5.6957087025
 20
2.890110084
 30
0.0
 10
5.6723097373
 20
2.878389784
 30
0.0
 10
5.6473814057
 20
2.8703205576
 30
0.0
 10
5.6301126318
 20
2.8675099039
 30
0.0
 10
5.6214311361
 20
2.8667568765
 30
0.0
  0
SPLINE
  5
287
100
AcDbEntity
  8
0
100
AcDbSpline
 62
7
  6
CONTINUOUS
 70
0
 71
3
 72
33
 73
29
 74
0
 42
0.0000001
 43
0.0000001
 44
0.0000000001
 40
0.0
 40
0.0
 40
0.0
 40
0.0
 40
0.0620792898
 40
0.0932090677
 40
0.1243380713
 40
0.155482276
 40
0.1866580061
 40
0.2490469593
 40
0.2803309379
 40
0.3116493451
 40
0.342999228
 40
0.3743792053
 40
0.405783878
 40
0.4372071337
 40
0.5000143497
 40
0.5628204815
 40
0.5942424256
 40
0.625645331
 40
0.6570231535
 40
0.6883705744
 40
0.719686306
 40
0.7509674975
 40
0.8133509474
 40
0.8445241918
 40
0.8756662122
 40
0.9067934158
 40
0.9379218494
 40
1.0
 40
1.0
 40
1.0
 40
1.0
 10
5.4355068004
 20
2.9564407596
 30
0.0
 10
5.4355931515
 20
2.9454248969
 30
0.0
 10
5.4373811187
 20
2.9288383779
 30
0.0
 10
5.44295525
 20
2.9074646697
 30
0.0
 10
5.4487180742
 20
2.8918931235
 30
0.0
 10
5.4559875492
 20
2.8769574162
 30
0.0
 10
5.4676011751
 20
2.8580876486
 30
0.0
 10
5.481964907
 20
2.8409966267
 30
0.0
 10
5.4985938874
 20
2.8262785603
 30
0.0
 10
5.5121152225
 20
2.8164770552
 30
0.0
 10
5.5265397749
 20
2.8080308547
 30
0.0
 10
5.5417323707
 20
2.8010239462
 30
0.0
 10
5.5575438071
 20
2.7955113
 30
0.0
 10
5.5792372428
 20
2.7902442574
 30
0.0
 10
5.6071681257
 20
2.7876316185
 30
0.0
 10
5.6350779669
 20
2.7904580417
 30
0.0
 10
5.6567296616
 20
2.7958911131
 30
0.0
 10
5.672497433
 20
2.8015246926
 30
0.0
 10
5.6876346717
 20
2.8086477549
 30
0.0
 10
5.7019926101
 20
2.8172041891
 30
0.0
 10
5.7154367343
 20
2.827108976
 30
0.0
 10
5.7319498796
 20
2.8419539894
 30
0.0
 10
5.746179266
 20
2.8591546004
 30
0.0
 10
5.7576446056
 20
2.8781127306
 30
0.0
 10
5.7647967902
 20
2.8931036926
 30
0.0
 10
5.7704373788
 20
2.9087189319
 30
0.0
 10
5.7758438363
 20
2.9301348897
 30
0.0
 10
5.7775016672
 20
2.9467344856
 30
0.0
 10
5.7775016672
 20
2.9577504845
 30
0.0
  0
SPLINE
  5
288
100
AcDbEntity
  8
0
100
AcDbSpline
 62
7
  6
CONTINUOUS
 70
0
 71
3
 72
20
 73
16
 74
0
 42
0.0000001
 43
0.0000001
 44
0.0000000001
 40
0.0
 40
0.0
 40
0.0
 40
0.0
 40
0.0045646579
 40
0.0102197991
 40
0.0180789021
 40
0.0402756409
 40
0.0708889615
 40
0.1096541371
 40
0.1563077185
 40
0.2105876147
 40
0.2722331801
 40
0.416585393
 40
0.5873125835
 40
0.7823993136
 40
1.0
 40
1.0
 40
1.0
 40
1.0
 10
6.3587168609
 20
5.6599515782
 30
0.0
 10
6.3587068021
 20
5.6599335876
 30
0.0
 10
6.3586689349
 20
5.6599045233
 30
0.0
 10
6.3586166934
 20
5.6598422721
 30
0.0
 10
6.3585055721
 20
5.6597250442
 30
0.0
 10
6.3583223052
 20
5.6595216516
 30
0.0
 10
6.3580449659
 20
5.6592148275
 30
0.0
 10
6.3576972335
 20
5.6588229434
 30
0.0
 10
6.3572814808
 20
5.6583485082
 30
0.0
 10
6.3568017442
 20
5.6577928108
 30
0.0
 10
6.356040301
 20
5.6568975328
 30
0.0
 10
6.3549539007
 20
5.6555884307
 30
0.0
 10
6.353511806
 20
5.6537918524
 30
0.0
 10
6.3518986533
 20
5.6517089271
 30
0.0
 10
6.3507861974
 20
5.6502137262
 30
0.0
 10
6.3502078453
 20
5.6494193931
 30
0.0
  0
SPLINE
  5
289
100
AcDbEntity
  8
0
100
AcDbSpline
 62
7
  6
CONTINUOUS
 70
0
 71
3
 72
11
 73
7
 74
0
 42
0.0000001
 43
0.0000001
 44
0.0000000001
 40
0.0
 40
0.0
 40
0.0
 40
0.0
 40
0.1955369351
 40
0.4336603315
 40
0.7042707059
 40
1.0
 40
1.0
 40
1.0
 40
1.0
 10
6.3502078453
 20
5.6494193931
 30
0.0
 10
6.3475844895
 20
5.6458163662
 30
0.0
 10
6.3421318808
 20
5.6375512752
 30
0.0
 10
6.3348019881
 20
5.6232256148
 30
0.0
 10
6.3286250072
 20
5.6058990515
 30
0.0
 10
6.3261323679
 20
5.5931730918
 30
0.0
 10
6.3253203749
 20
5.5864816071
 30
0.0
  0
SPLINE
  5
28A
100
AcDbEntity
  8
0
100
AcDbSpline
 62
7
  6
CONTINUOUS
 70
0
 71
3
 72
12
 73
8
 74
0
 42
0.0000001
 43
0.0000001
 44
0.0000000001
 40
0.0
 40
0.0
 40
0.0
 40
0.0
 40
0.2493018062
 40
0.4988858358
 40
0.7489516613
 40
0.8743979093
 40
1.0
 40
1.0
 40
1.0
 40
1.0
 10
5.3372572735
 20
2.9581066668
 30
0.0
 10
5.3373838507
 20
2.9774952369
 30
0.0
 10
5.341965956
 20
3.0164043427
 30
0.0
 10
5.3614668932
 20
3.0717612505
 30
0.0
 10
5.3874969633
 20
3.1133359346
 30
0.0
 10
5.4133529107
 20
3.1425768398
 30
0.0
 10
5.4278392596
 20
3.1557394311
 30
0.0
 10
5.4354170373
 20
3.1619038663
 30
0.0
  0
SPLINE
  5
28B
100
AcDbEntity
  8
0
100
AcDbSpline
 62
7
  6
CONTINUOUS
 70
0
 71
3
 72
12
 73
8
 74
0
 42
0.0000001
 43
0.0000001
 44
0.0000000001
 40
0.0
 40
0.0
 40
0.0
 40
0.0
 40
0.1256052762
 40
0.2510544102
 40
0.5011191602
 40
0.750700098
 40
1.0
 40
1.0
 40
1.0
 40
1.0
 10
5.7775840363
 20
3.1619055574
 30
0.0
 10
5.7852176708
 20
3.1556958269
 30
0.0
 10
5.7998059141
 20
3.1424300739
 30
0.0
 10
5.8258171909
 20
3.1129425827
 30
0.0
 10
5.8519401435
 20
3.0709940468
 30
0.0
 10
5.8713594814
 20
3.0151457552
 30
0.0
 10
5.8757516672
 20
2.9759202148
 30
0.0
 10
5.8757516672
 20
2.9563891371
 30
0.0
  0
SPLINE
  5
28C
100
AcDbEntity
  8
0
100
AcDbSpline
 62
7
  6
CONTINUOUS
 70
0
 71
3
 72
33
 73
29
 74
0
 42
0.0000001
 43
0.0000001
 44
0.0000000001
 40
0.0
 40
0.0
 40
0.0
 40
0.0
 40
0.0620931917
 40
0.093210105
 40
0.1243323481
 40
0.1554781666
 40
0.1866584739
 40
0.2178719827
 40
0.2491188862
 40
0.2804005966
 40
0.3117175276
 40
0.3430679249
 40
0.3744472831
 40
0.4372016313
 40
0.5000086563
 40
0.5628145542
 40
0.6255657789
 40
0.6569431424
 40
0.6882915194
 40
0.7196064347
 40
0.7508864531
 40
0.7821318744
 40
0.8133441556
 40
0.8445233147
 40
0.8756682185
 40
0.9067900877
 40
0.9379069889
 40
1.0
 40
1.0
 40
1.0
 40
1.0
 10
5.8757460608
 20
2.9546716074
 30
0.0
 10
5.8756327507
 20
2.9373152306
 30
0.0
 10
5.8728569562
 20
2.9111823081
 30
0.0
 10
5.8641061558
 20
2.8775083164
 30
0.0
 10
5.8550625102
 20
2.8529719969
 30
0.0
 10
5.8436360101
 20
2.8294361955
 30
0.0
 10
5.8299340249
 20
2.8071173217
 30
0.0
 10
5.8140946929
 20
2.7862255614
 30
0.0
 10
5.7962578592
 20
2.7669726615
 30
0.0
 10
5.7766076455
 20
2.7495309726
 30
0.0
 10
5.755321689
 20
2.734079851
 30
0.0
 10
5.7326103452
 20
2.7207542663
 30
0.0
 10
5.7007329929
 20
2.7060104213
 30
0.0
 10
5.6583773617
 20
2.6934823068
 30
0.0
 10
5.6056305922
 20
2.6885334182
 30
0.0
 10
5.5529172618
 20
2.6938174104
 30
0.0
 10
5.5106437161
 20
2.7066141182
 30
0.0
 10
5.4788632517
 20
2.7215609539
 30
0.0
 10
5.4562387255
 20
2.7350301217
 30
0.0
 10
5.4350537018
 20
2.7506166917
 30
0.0
 10
5.4155169455
 20
2.7681831866
 30
0.0
 10
5.39780516
 20
2.7875495648
 30
0.0
 10
5.382102007
 20
2.808542529
 30
0.0
 10
5.3685448535
 20
2.8309486109
 30
0.0
 10
5.3572718703
 20
2.8545575968
 30
0.0
 10
5.3483879654
 20
2.8791518208
 30
0.0
 10
5.3398569181
 20
2.9128820099
 30
0.0
 10
5.3372516672
 20
2.9390324409
 30
0.0
 10
5.3372516672
 20
2.9563891371
 30
0.0
  0
SPLINE
  5
28D
100
AcDbEntity
  8
0
100
AcDbSpline
 62
7
  6
CONTINUOUS
 70
0
 71
3
 72
33
 73
29
 74
0
 42
0.0000001
 43
0.0000001
 44
0.0000000001
 40
0.0
 40
0.0
 40
0.0
 40
0.0
 40
0.0620793492
 40
0.0932091916
 40
0.1243376571
 40
0.1554807599
 40
0.1866549287
 40
0.2490393281
 40
0.2803204248
 40
0.3116358684
 40
0.3429833544
 40
0.3743617252
 40
0.405765214
 40
0.43718749
 40
0.4999926706
 40
0.5627977172
 40
0.5942198009
 40
0.6256233178
 40
0.6570018095
 40
0.6883500327
 40
0.7196667677
 40
0.7509494277
 40
0.8133374912
 40
0.8445133217
 40
0.8756583747
 40
0.9067887436
 40
0.9379199839
 40
1.0
 40
1.0
 40
1.0
 40
1.0
 10
5.4265016672
 20
2.9563891371
 30
0.0
 10
5.4265016672
 20
2.9447647081
 30
0.0
 10
5.4282556796
 20
2.9272478575
 30
0.0
 10
5.4339746069
 20
2.9046521542
 30
0.0
 10
5.4399411882
 20
2.8881791336
 30
0.0
 10
5.447506117
 20
2.872368203
 30
0.0
 10
5.4596317996
 20
2.8523791038
 30
0.0
 10
5.4746786651
 20
2.8342536827
 30
0.0
 10
5.4921357746
 20
2.8186246607
 30
0.0
 10
5.5063461537
 20
2.8082055016
 30
0.0
 10
5.5215198549
 20
2.7992150663
 30
0.0
 10
5.5375137728
 20
2.7917425659
 30
0.0
 10
5.5541701469
 20
2.7858474481
 30
0.0
 10
5.5770357961
 20
2.7801881752
 30
0.0
 10
5.6064973951
 20
2.7773108655
 30
0.0
 10
5.6359592621
 20
2.7801863257
 30
0.0
 10
5.6588248888
 20
2.785845428
 30
0.0
 10
5.6754816225
 20
2.7917393987
 30
0.0
 10
5.6914762317
 20
2.7992109165
 30
0.0
 10
5.706650217
 20
2.8082016328
 30
0.0
 10
5.7208619969
 20
2.8186200046
 30
0.0
 10
5.7383202906
 20
2.8342495682
 30
0.0
 10
5.7533689066
 20
2.8523752092
 30
0.0
 10
5.7654955746
 20
2.8723653338
 30
0.0
 10
5.7730611774
 20
2.88817708
 30
0.0
 10
5.7790283757
 20
2.9046509332
 30
0.0
 10
5.7847474899
 20
2.9272473601
 30
0.0
 10
5.7865016672
 20
2.9447645832
 30
0.0
 10
5.7865016672
 20
2.9563891371
 30
0.0
  0
SPLINE
  5
28E
100
AcDbEntity
  8
0
100
AcDbSpline
 62
7
  6
CONTINUOUS
 70
0
 71
3
 72
33
 73
29
 74
0
 42
0.0000001
 43
0.0000001
 44
0.0000000001
 40
0.0
 40
0.0
 40
0.0
 40
0.0
 40
0.0620923222
 40
0.0932084488
 40
0.1243298109
 40
0.155474561
 40
0.1866537263
 40
0.2178664964
 40
0.2491133465
 40
0.2803951315
 40
0.3117116491
 40
0.3430613486
 40
0.3744399471
 40
0.4371930325
 40
0.5
 40
0.5628069675
 40
0.6255600529
 40
0.6569386514
 40
0.6882883509
 40
0.7196048685
 40
0.7508866535
 40
0.7821335036
 40
0.8133462737
 40
0.844525439
 40
0.8756701891
 40
0.9067915512
 40
0.9379076778
 40
1.0
 40
1.0
 40
1.0
 40
1.0
 10
5.8847516672
 20
2.9550277897
 30
0.0
 10
5.8847516672
 20
2.9370544508
 30
0.0
 10
5.882048564
 20
2.9099746388
 30
0.0
 10
5.8731965703
 20
2.8750506322
 30
0.0
 10
5.8639793792
 20
2.8495889346
 30
0.0
 10
5.8522835532
 20
2.8251515524
 30
0.0
 10
5.8382194923
 20
2.8019640581
 30
0.0
 10
5.8219292985
 20
2.7802457701
 30
0.0
 10
5.8035571782
 20
2.7602177518
 30
0.0
 10
5.7832943265
 20
2.7420599941
 30
0.0
 10
5.7613244935
 20
2.7259603628
 30
0.0
 10
5.7378657391
 20
2.7120605921
 30
0.0
 10
5.7049189578
 20
2.6966576899
 30
0.0
 10
5.6611066873
 20
2.6835184101
 30
0.0
 10
5.6065016672
 20
2.6782090842
 30
0.0
 10
5.5518966471
 20
2.6835184101
 30
0.0
 10
5.5080843765
 20
2.6966576899
 30
0.0
 10
5.4751375953
 20
2.7120605921
 30
0.0
 10
5.4516788408
 20
2.7259603628
 30
0.0
 10
5.4297090078
 20
2.7420599941
 30
0.0
 10
5.4094461561
 20
2.7602177518
 30
0.0
 10
5.3910740358
 20
2.7802457701
 30
0.0
 10
5.374783842
 20
2.8019640581
 30
0.0
 10
5.3607197811
 20
2.8251515524
 30
0.0
 10
5.3490239551
 20
2.8495889346
 30
0.0
 10
5.339806764
 20
2.8750506322
 30
0.0
 10
5.3309547703
 20
2.9099746388
 30
0.0
 10
5.3282516672
 20
2.9370544508
 30
0.0
 10
5.3282516672
 20
2.9550277897
 30
0.0
  0
SPLINE
  5
28F
100
AcDbEntity
  8
0
100
AcDbSpline
 62
7
  6
CONTINUOUS
 70
0
 71
3
 72
18
 73
14
 74
0
 42
0.0000001
 43
0.0000001
 44
0.0000000001
 40
0.0
 40
0.0
 40
0.0
 40
0.0
 40
0.1257129036
 40
0.1885650862
 40
0.2513492648
 40
0.3766390949
 40
0.5017171803
 40
0.5642195799
 40
0.6266588624
 40
0.6890360211
 40
0.7513586274
 40
0.8757419016
 40
1.0
 40
1.0
 40
1.0
 40
1.0
 10
5.5938290762
 20
2.9515043334
 30
0.0
 10
5.5837776936
 20
2.9522452847
 30
0.0
 10
5.5687537246
 20
2.9546753559
 30
0.0
 10
5.5494404388
 20
2.960490941
 30
0.0
 10
5.5307356172
 20
2.9679597547
 30
0.0
 10
5.5087266477
 20
2.9803212812
 30
0.0
 10
5.489236793
 20
2.9963321995
 30
0.0
 10
5.4755599439
 20
3.0110161204
 30
0.0
 10
5.4663214832
 20
3.0228815903
 30
0.0
 10
5.458178784
 20
3.0355074315
 30
0.0
 10
5.4488858816
 20
3.0532082196
 30
0.0
 10
5.4402805517
 20
3.0767536219
 30
0.0
 10
5.436872379
 20
3.0965192974
 30
0.0
 10
5.4360589595
 20
3.1064480543
 30
0.0
  0
SPLINE
  5
290
100
AcDbEntity
  8
0
100
AcDbSpline
 62
7
  6
CONTINUOUS
 70
0
 71
3
 72
8
 73
4
 74
0
 42
0.0000001
 43
0.0000001
 44
0.0000000001
 40
0.0
 40
0.0
 40
0.0
 40
0.0
 40
1.0
 40
1.0
 40
1.0
 40
1.0
 10
5.5937058355
 20
2.8691521328
 30
0.0
 10
5.598711164
 20
2.8687795655
 30
0.0
 10
5.6037306951
 20
2.8686241689
 30
0.0
 10
5.608739685
 20
2.8686889769
 30
0.0
  0
SPLINE
  5
291
100
AcDbEntity
  8
0
100
AcDbSpline
 62
7
  6
CONTINUOUS
 70
0
 71
3
 72
12
 73
8
 74
0
 42
0.0000001
 43
0.0000001
 44
0.0000000001
 40
0.0
 40
0.0
 40
0.0
 40
0.0
 40
0.1501143345
 40
0.2959223703
 40
0.5672035615
 40
0.8054156975
 40
1.0
 40
1.0
 40
1.0
 40
1.0
 10
6.324899748
 20
5.5588722303
 30
0.0
 10
6.325230325
 20
5.5552654132
 30
0.0
 10
6.3261696831
 20
5.5481782204
 30
0.0
 10
6.3290142181
 20
5.5347803667
 30
0.0
 10
6.3340904625
 20
5.5197366348
 30
0.0
 10
6.3417164452
 20
5.5045065928
 30
0.0
 10
6.3474577736
 20
5.4957594488
 30
0.0
 10
6.3502218732
 20
5.4919644745
 30
0.0
  0
SPLINE
  5
292
100
AcDbEntity
  8
0
100
AcDbSpline
 62
7
  6
CONTINUOUS
 70
0
 71
3
 72
12
 73
8
 74
0
 42
0.0000001
 43
0.0000001
 44
0.0000000001
 40
0.0
 40
0.0
 40
0.0
 40
0.0
 40
0.4126941392
 40
0.6590254166
 40
0.8436995533
 40
0.9597267632
 40
1.0
 40
1.0
 40
1.0
 40
1.0
 10
6.3502218732
 20
5.4919644745
 30
0.0
 10
6.3513170501
 20
5.49046085
 30
0.0
 10
6.3531131142
 20
5.4880936931
 30
0.0
 10
6.3555034858
 20
5.485135429
 30
0.0
 10
6.3571007341
 20
5.4832568749
 30
0.0
 10
6.3581146263
 20
5.4821015216
 30
0.0
 10
6.3585947178
 20
5.4815858711
 30
0.0
 10
6.3587168572
 20
5.4814515782
 30
0.0
  0
SPLINE
  5
293
100
AcDbEntity
  8
0
100
AcDbSpline
 62
7
  6
CONTINUOUS
 70
0
 71
3
 72
16
 73
12
 74
0
 42
0.0000001
 43
0.0000001
 44
0.0000000001
 40
0.0
 40
0.0
 40
0.0
 40
0.0
 40
0.1242781454
 40
0.2486612133
 40
0.3109974358
 40
0.3733905872
 40
0.4982311867
 40
0.623355152
 40
0.7487101912
 40
0.8743482929
 40
1.0
 40
1.0
 40
1.0
 40
1.0
 10
5.7775015911
 20
3.1200684705
 30
0.0
 10
5.7775008771
 20
3.1091135738
 30
0.0
 10
5.7753336636
 20
3.0871366262
 30
0.0
 10
5.7672897843
 20
3.0607378931
 30
0.0
 10
5.757874017
 20
3.0408654305
 30
0.0
 10
5.7465355609
 20
3.021978014
 30
0.0
 10
5.72894944
 20
3.0005449528
 30
0.0
 10
5.7032444437
 20
2.9793955674
 30
0.0
 10
5.6738843999
 20
2.9635457697
 30
0.0
 10
5.6419939637
 20
2.9536273223
 30
0.0
 10
5.6198147319
 20
2.9511937863
 30
0.0
 10
5.608739685
 20
2.9510504936
 30
0.0
  0
SPLINE
  5
294
100
AcDbEntity
  8
0
100
AcDbSpline
 62
7
  6
CONTINUOUS
 70
0
 71
3
 72
15
 73
11
 74
0
 42
0.0000001
 43
0.0000001
 44
0.0000000001
 40
0.0
 40
0.0
 40
0.0
 40
0.0
 40
0.125669565
 40
0.2513273121
 40
0.3767061706
 40
0.5018534402
 40
0.626714835
 40
0.7513118585
 40
0.8757092675
 40
1.0
 40
1.0
 40
1.0
 40
1.0
 10
5.6065016672
 20
2.866109039
 30
0.0
 10
5.5953128792
 20
2.866109039
 30
0.0
 10
5.5728766879
 20
2.8682954418
 30
0.0
 10
5.5405537918
 20
2.8779769111
 30
0.0
 10
5.5107491557
 20
2.8937232957
 30
0.0
 10
5.4846203531
 20
2.9149044964
 30
0.0
 10
5.4631732635
 20
2.9407281235
 30
0.0
 10
5.4472335891
 20
2.970198964
 30
0.0
 10
5.4374136663
 20
3.0021677996
 30
0.0
 10
5.4352016672
 20
3.024372016
 30
0.0
 10
5.4352016672
 20
3.0354380418
 30
0.0
  0
SPLINE
  5
295
100
AcDbEntity
  8
0
100
AcDbSpline
 62
7
  6
CONTINUOUS
 70
0
 71
3
 72
16
 73
12
 74
0
 42
0.0000001
 43
0.0000001
 44
0.0000000001
 40
0.0
 40
0.0
 40
0.0
 40
0.0
 40
0.1256517071
 40
0.2512898088
 40
0.376644848
 40
0.5017688133
 40
0.6266094128
 40
0.6890025642
 40
0.7513387867
 40
0.8757218546
 40
1.0
 40
1.0
 40
1.0
 40
1.0
 10
5.608739685
 20
2.8686889769
 30
0.0
 10
5.6198147319
 20
2.8688322697
 30
0.0
 10
5.6419939637
 20
2.8712658057
 30
0.0
 10
5.6738843999
 20
2.8811842531
 30
0.0
 10
5.7032444437
 20
2.8970340508
 30
0.0
 10
5.72894944
 20
2.9181834362
 30
0.0
 10
5.7465355609
 20
2.9396164974
 30
0.0
 10
5.757874017
 20
2.9585039139
 30
0.0
 10
5.7672897843
 20
2.9783763764
 30
0.0
 10
5.7753336636
 20
3.0047751096
 30
0.0
 10
5.7775008771
 20
3.0267520571
 30
0.0
 10
5.7775015911
 20
3.0377069539
 30
0.0
  0
SPLINE
  5
296
100
AcDbEntity
  8
0
100
AcDbSpline
 62
7
  6
CONTINUOUS
 70
0
 71
3
 72
17
 73
13
 74
0
 42
0.0000001
 43
0.0000001
 44
0.0000000001
 40
0.0
 40
0.0
 40
0.0
 40
0.0
 40
0.0621982888
 40
0.124409694
 40
0.1866489662
 40
0.2489260929
 40
0.3734898316
 40
0.498312702
 40
0.6234194889
 40
0.748764463
 40
0.8743584088
 40
1.0
 40
1.0
 40
1.0
 40
1.0
 10
5.4355333848
 20
3.1379928778
 30
0.0
 10
5.4355331208
 20
3.1324641194
 30
0.0
 10
5.436080544
 20
3.1213972972
 30
0.0
 10
5.4385503824
 20
3.1049651149
 30
0.0
 10
5.442633757
 20
3.0888475163
 30
0.0
 10
5.4501791577
 20
3.0680006651
 30
0.0
 10
5.4634511341
 20
3.0434588189
 30
0.0
 10
5.4848580158
 20
3.017691304
 30
0.0
 10
5.5109365028
 20
2.9965489364
 30
0.0
 10
5.5406824967
 20
2.9808355736
 30
0.0
 10
5.5729414058
 20
2.9711697526
 30
0.0
 10
5.5953334821
 20
2.9689901865
 30
0.0
 10
5.6065016672
 20
2.9689901865
 30
0.0
  0
ENDSEC
  0
SECTION
  2
OBJECTS
  0
DICTIONARY
  5
C
100
AcDbDictionary
280
0
281
1
  3
ACAD_GROUP
350
D
  3
ACAD_MLINESTYLE
350
17
  3
ACAD_LAYOUT
350
1A
  3
ACAD_PLOTSETTINGS
350
19
  3
ACAD_PLOTSTYLENAME
350
E
  0
DICTIONARY
  5
D
102
{ACAD_REACTORS
330
C
102
}
100
AcDbDictionary
280
0
281
1
  0
ACDBDICTIONARYWDFLT
  5
E
102
{ACAD_REACTORS
330
C
102
}
100
AcDbDictionary
281
1
  3
Normal
350
F
100
AcDbDictionaryWithDefault
340
F
  0
DICTIONARY
  5
17
102
{ACAD_REACTORS
330
C
102
}
100
AcDbDictionary
280
0
281
1
  3
Standard
350
18
  0
DICTIONARY
  5
19
102
{ACAD_REACTORS
330
C
102
}
100
AcDbDictionary
281
1
  0
DICTIONARY
  5
1A
102
{ACAD_REACTORS
330
C
102
}
100
AcDbDictionary
281
1
  3
Model
350
297
  3
Layout1
350
298
  0
ACDBPLACEHOLDER
  5
F
102
{ACAD_REACTORS
330
E
102
}
  0
MLINESTYLE
  5
18
102
{ACAD_REACTORS
330
17
102
}
100
AcDbMlineStyle
  2
STANDARD
 70
0
  3

 62
256
 51
90.0
 52
90.0
 71
2
 49
0.5
 62
256
  6
BYLAYER
 49
-0.5
 62
256
  6
BYLAYER
  0
LAYOUT
  5
297
102
{ACAD_REACTORS
330
1A
102
}
100
AcDbPlotSettings
  1

  2
none_device
  4
ANSI_A_(11.00_x_8.50_Inches)
  6

 40
0.0
 41
0.0
 42
0.0
 43
0.0
 44
279.4
 45
215.9
 46
0.0
 47
0.0
 48
0.0
 49
0.0
140
0.0
141
0.0
142
1.0
143
1.0
 70
1024
 72
0
 73
0
 74
0
  7

 75
0
147
1.0
148
0.0
149
0.0
100
AcDbLayout
  1
Model
 70
0
 71
0
 10
0.0
 20
0.0
 11
11.0
 21
8.5
 12
0.0
 22
0.0
 32
0.0
 14
0.0
 24
0.0
 34
0.0
 15
0.0
 25
0.0
 35
0.0
146
0.0
 13
0.0
 23
0.0
 33
0.0
 16
1.0
 26
0.0
 36
0.0
 17
0.0
 27
1.0
 37
0.0
 76
0
330
1FF
345
0
346
0
  0
LAYOUT
  5
298
102
{ACAD_REACTORS
330
1A
102
}
100
AcDbPlotSettings
  1

  2
none_device
  4
ANSI_A_(11.00_x_8.50_Inches)
  6

 40
0.0
 41
0.0
 42
0.0
 43
0.0
 44
279.4
 45
215.9
 46
0.0
 47
0.0
 48
0.0
 49
0.0
140
0.0
141
0.0
142
1.0
143
1.0
 70
0
 72
0
 73
0
 74
0
  7

 75
0
147
1.0
148
0.0
149
0.0
100
AcDbLayout
  1
Layout1
 70
0
 71
1
 10
0.0
 20
0.0
 11
11.0
 21
8.5
 12
0.0
 22
0.0
 32
0.0
 14
0.0
 24
0.0
 34
0.0
 15
0.0
 25
0.0
 35
0.0
146
0.0
 13
0.0
 23
0.0
 33
0.0
 16
1.0
 26
0.0
 36
0.0
 17
0.0
 27
1.0
 37
0.0
 76
0
330
200
345
0
346
0
  0
ENDSEC
  0
EOF
